  0
SECTION
  2
HEADER
  9
$ACADVER
  1
AC1009
  9
$INSBASE
 10
0.0
 20
0.0
 30
0.0
  9
$EXTMIN
 10
-199.1329198050698
 20
-234.0307634863675
 30
-0.0000000000112498
  9
$EXTMAX
 10
259.70376202265868
 20
142.66755406869561
 30
0.0000000000002956
  9
$LIMMIN
 10
-4267.1522210604817
 20
-2696.0832101984129
  9
$LIMMAX
 10
7190.7174225864646
 20
5141.155363923066
  9
$ORTHOMODE
 70
     1
  9
$REGENMODE
 70
     1
  9
$FILLMODE
 70
     1
  9
$QTEXTMODE
 70
     0
  9
$MIRRTEXT
 70
     0
  9
$DRAGMODE
 70
     2
  9
$LTSCALE
 40
20.0
  9
$OSMODE
 70
   431
  9
$ATTMODE
 70
     1
  9
$TEXTSIZE
 40
64.0
  9
$TRACEWID
 40
0.05
  9
$TEXTSTYLE
  7
STANDARD_MODELNAME
  9
$CLAYER
  8
SYMBOLLINE
  9
$CELTYPE
  6
CONTINUOUS
  9
$CECOLOR
 62
     7
  9
$DIMSCALE
 40
1.0
  9
$DIMASZ
 40
30.0
  9
$DIMEXO
 40
20.0
  9
$DIMDLI
 40
80.0
  9
$DIMRND
 40
0.0
  9
$DIMDLE
 40
0.0
  9
$DIMEXE
 40
20.0
  9
$DIMTP
 40
0.0
  9
$DIMTM
 40
0.0
  9
$DIMTXT
 40
60.0
  9
$DIMCEN
 40
0.09
  9
$DIMTSZ
 40
0.0
  9
$DIMTOL
 70
     0
  9
$DIMLIM
 70
     0
  9
$DIMTIH
 70
     0
  9
$DIMTOH
 70
     0
  9
$DIMSE1
 70
     0
  9
$DIMSE2
 70
     0
  9
$DIMTAD
 70
     1
  9
$DIMZIN
 70
     8
  9
$DIMBLK
  1
SMALL
  9
$DIMASO
 70
     1
  9
$DIMSHO
 70
     0
  9
$DIMPOST
  1

  9
$DIMAPOST
  1

  9
$DIMALT
 70
     0
  9
$DIMALTD
 70
     2
  9
$DIMALTF
 40
25.399999999999999
  9
$DIMLFAC
 40
1.0
  9
$DIMTOFL
 70
     1
  9
$DIMTVP
 40
0.0
  9
$DIMTIX
 70
     0
  9
$DIMSOXD
 70
     0
  9
$DIMSAH
 70
     0
  9
$DIMBLK1
  1

  9
$DIMBLK2
  1

  9
$DIMSTYLE
  2
STANDARD
  9
$DIMCLRD
 70
     0
  9
$DIMCLRE
 70
     0
  9
$DIMCLRT
 70
     0
  9
$DIMTFAC
 40
1.0
  9
$DIMGAP
 40
0.09
  9
$LUNITS
 70
     2
  9
$LUPREC
 70
     4
  9
$SKETCHINC
 40
0.1
  9
$FILLETRAD
 40
0.0
  9
$AUNITS
 70
     1
  9
$AUPREC
 70
     3
  9
$MENU
  1
ACAD
  9
$ELEVATION
 40
0.0
  9
$PELEVATION
 40
0.0
  9
$THICKNESS
 40
0.0
  9
$LIMCHECK
 70
     0
  9
$BLIPMODE
 70
     0
  9
$CHAMFERA
 40
0.0
  9
$CHAMFERB
 40
0.0
  9
$SKPOLY
 70
     0
  9
$TDCREATE
 40
2450330.4399309959
  9
$TDUPDATE
 40
2456777.5048069558
  9
$TDINDWG
 40
3.6122503009
  9
$TDUSRTIMER
 40
3.6122501157000002
  9
$USRTIMER
 70
     1
  9
$ANGBASE
 50
0.0
  9
$ANGDIR
 70
     0
  9
$PDMODE
 70
     3
  9
$PDSIZE
 40
-2.0
  9
$PLINEWID
 40
0.0
  9
$COORDS
 70
     1
  9
$SPLFRAME
 70
     0
  9
$SPLINETYPE
 70
     6
  9
$SPLINESEGS
 70
     8
  9
$ATTDIA
 70
     0
  9
$ATTREQ
 70
     1
  9
$HANDLING
 70
     1
  9
$HANDSEED
  5
9A2
  9
$SURFTAB1
 70
     6
  9
$SURFTAB2
 70
     6
  9
$SURFTYPE
 70
     6
  9
$SURFU
 70
     6
  9
$SURFV
 70
     6
  9
$UCSNAME
  2

  9
$UCSORG
 10
0.0
 20
0.0
 30
0.0
  9
$UCSXDIR
 10
1.0
 20
0.0
 30
0.0
  9
$UCSYDIR
 10
0.0
 20
1.0
 30
0.0
  9
$PUCSNAME
  2

  9
$PUCSORG
 10
0.0
 20
0.0
 30
0.0
  9
$PUCSXDIR
 10
1.0
 20
0.0
 30
0.0
  9
$PUCSYDIR
 10
0.0
 20
1.0
 30
0.0
  9
$USERI1
 70
     0
  9
$USERI2
 70
     0
  9
$USERI3
 70
     0
  9
$USERI4
 70
     0
  9
$USERI5
 70
     0
  9
$USERR1
 40
20.0
  9
$USERR2
 40
0.0
  9
$USERR3
 40
0.0
  9
$USERR4
 40
0.0
  9
$USERR5
 40
0.0
  9
$WORLDVIEW
 70
     1
  9
$SHADEDGE
 70
     3
  9
$SHADEDIF
 70
    70
  9
$TILEMODE
 70
     1
  9
$MAXACTVP
 70
    64
  9
$PLIMCHECK
 70
     0
  9
$PEXTMIN
 10
1.0000000000000000E+020
 20
1.0000000000000000E+020
 30
1.0000000000000000E+020
  9
$PEXTMAX
 10
-1.0000000000000000E+020
 20
-1.0000000000000000E+020
 30
-1.0000000000000000E+020
  9
$PLIMMIN
 10
0.0
 20
0.0
  9
$PLIMMAX
 10
12.0
 20
9.0
  9
$UNITMODE
 70
     0
  9
$VISRETAIN
 70
     1
  9
$PLINEGEN
 70
     0
  9
$PSLTSCALE
 70
     1
  0
ENDSEC
  0
SECTION
  2
TABLES
  0
TABLE
  2
VPORT
 70
     1
  0
VPORT
  2
*ACTIVE
 70
     0
 10
0.0
 20
0.0
 11
1.0
 21
1.0
 12
14.60068033198332
 22
-45.681604708835948
 13
0.0
 23
0.0
 14
50.0
 24
50.0
 15
100.0
 25
100.0
 16
0.0
 26
0.0
 36
1.0
 17
0.0
 27
0.0
 37
0.0
 40
379.56657885624378
 41
1.554002541296061
 42
50.0
 43
0.0
 44
0.0
 50
0.0
 51
0.0
 71
     0
 72
  1000
 73
     1
 74
     0
 75
     0
 76
     0
 77
     0
 78
     0
  0
ENDTAB
  0
TABLE
  2
LTYPE
 70
     2
  0
LTYPE
  2
CONTINUOUS
 70
     0
  3
実線
 72
    65
 73
     0
 40
0.0
  0
LTYPE
  2
DASHDOT
 70
     0
  3
____ _ ____ _ ____ _ ____ _ ____ _ ____ _ ____
 72
    65
 73
     4
 40
5.5
 49
4.0
 49
-0.6
 49
0.3
 49
-0.6
  0
ENDTAB
  0
TABLE
  2
LAYER
 70
    12
  0
LAYER
  2
0
 70
     0
 62
     7
  6
CONTINUOUS
  0
LAYER
  2
SYMBOLLINE
 70
     0
 62
    15
  6
CONTINUOUS
  0
LAYER
  2
SIZE
 70
     0
 62
    30
  6
CONTINUOUS
  0
LAYER
  2
OUTLINE
 70
     0
 62
     3
  6
CONTINUOUS
  0
LAYER
  2
DETAIL
 70
     0
 62
     5
  6
CONTINUOUS
  0
LAYER
  2
BASIS
 70
     0
 62
     6
  6
DASHDOT
  0
LAYER
  2
NOTE
 70
     0
 62
     4
  6
CONTINUOUS
  0
LAYER
  2
ARRANGE
 70
     0
 62
     1
  6
CONTINUOUS
  0
LAYER
  2
FIX
 70
     0
 62
    11
  6
CONTINUOUS
  0
LAYER
  2
SERVICESPACE
 70
     0
 62
     2
  6
DASHDOT
  0
LAYER
  2
ETC
 70
     0
 62
    61
  6
CONTINUOUS
  0
LAYER
  2
DEFPOINTS
 70
     0
 62
     7
  6
CONTINUOUS
  0
ENDTAB
  0
TABLE
  2
STYLE
 70
     4
  0
STYLE
  2
STANDARD
 70
     0
 40
0.0
 41
0.9
 50
0.0
 71
     0
 42
64.0
  3
SIMPLEX
  4
BIGFONT
  0
STYLE
  2
ANNOTATIVE
 70
     0
 40
0.0
 41
1.0
 50
0.0
 71
     0
 42
0.2
  3
txt
  4

  0
STYLE
  2
STANDARD_MODELNAME
 70
     0
 40
80.0
 41
0.8
 50
0.0
 71
     0
 42
64.0
  3
MONOTXT.shx
  4
BIGFONT.shx
  0
STYLE
  2
STANDARD1
 70
     0
 40
60.0
 41
0.7
 50
0.0
 71
     0
 42
64.0
  3
MONOTXT.shx
  4
BIGFONT.shx
  0
ENDTAB
  0
TABLE
  2
VIEW
 70
     1
  0
VIEW
  2
ALL
 70
     0
 40
9000.0
 10
241.50664699999999
 20
0.0
 41
12483.01
 11
0.0
 21
0.0
 31
1.0
 12
0.0
 22
0.0
 32
0.0
 42
50.0
 43
0.0
 44
0.0
 50
0.0
 71
     0
  0
ENDTAB
  0
TABLE
  2
UCS
 70
     0
  0
ENDTAB
  0
TABLE
  2
APPID
 70
     4
  0
APPID
  2
ACAD
 70
     0
  0
APPID
  2
ACADANNOTATIVE
 70
     0
  0
APPID
  2
ACAD_MLEADERVER
 70
     0
  0
APPID
  2
ACAD_EXEMPT_FROM_CAD_STANDARDS
 70
     0
  0
ENDTAB
  0
TABLE
  2
DIMSTYLE
 70
     2
  0
DIMSTYLE
  2
STANDARD
 70
     0
  3

  4

  5

  6

  7

 40
1.0
 41
0.18
 42
0.0625
 43
0.38
 44
0.18
 45
0.0
 46
0.0
 47
0.0
 48
0.0
140
0.18
141
0.09
142
0.0
143
25.399999999999999
144
1.0
145
0.0
146
1.0
147
0.09
 71
     0
 72
     0
 73
     1
 74
     1
 75
     0
 76
     0
 77
     0
 78
     0
170
     0
171
     2
172
     0
173
     0
174
     0
175
     0
176
     0
177
     0
178
     0
  0
DIMSTYLE
  2
ANNOTATIVE
 70
     0
  3

  4

  5

  6

  7

 40
1.0
 41
0.18
 42
0.0625
 43
0.38
 44
0.18
 45
0.0
 46
0.0
 47
0.0
 48
0.0
140
0.18
141
0.09
142
0.0
143
25.399999999999999
144
1.0
145
0.0
146
1.0
147
0.09
 71
     0
 72
     0
 73
     1
 74
     1
 75
     0
 76
     0
 77
     0
 78
     0
170
     0
171
     2
172
     0
173
     0
174
     0
175
     0
176
     0
177
     0
178
     0
  0
ENDTAB
  0
ENDSEC
  0
SECTION
  2
BLOCKS
  0
BLOCK
  8
0
  2
$MODEL_SPACE
 70
     0
 10
0.0
 20
0.0
 30
0.0
  3
$MODEL_SPACE
  1

  0
ENDBLK
  5
287
  8
0
  0
BLOCK
 67
     1
  8
0
  2
$PAPER_SPACE
 70
     0
 10
0.0
 20
0.0
 30
0.0
  3
$PAPER_SPACE
  1

  0
ENDBLK
  5
283
 67
     1
  8
0
  0
BLOCK
  8
0
  2
_SMALL
 70
     0
 10
0.0
 20
0.0
 30
0.0
  3
_SMALL
  1

  0
CIRCLE
  5
8D
  8
0
  6
CONTINUOUS
 62
     7
 10
0.0
 20
0.0
 30
0.0
 40
0.25
  0
ENDBLK
  5
8E
  8
0
  0
BLOCK
  8
0
  2
_DOTBLANK
 70
     0
 10
0.0
 20
0.0
 30
0.0
  3
_DOTBLANK
  1

  0
CIRCLE
  5
2A6
  8
0
  6
CONTINUOUS
 62
     7
 10
0.0
 20
0.0
 30
0.0
 40
0.5
  0
LINE
  5
2A7
  8
0
  6
CONTINUOUS
 62
     7
 10
-0.5
 20
0.0
 30
0.0
 11
-1.0
 21
0.0
 31
0.0
  0
ENDBLK
  5
2A8
  8
0
  0
ENDSEC
  0
SECTION
  2
ENTITIES
  0
LINE
  5
8F
  8
DETAIL
  6
CONTINUOUS
 62
     5
 10
28.999999999999549
 20
-60.0
 30
0.0
 11
-29.000000000000909
 21
-60.0
 31
0.0
  0
ARC
  5
90
  8
DETAIL
  6
CONTINUOUS
 62
     5
 10
28.999999999999549
 20
-54.0
 30
0.0
 40
6.0
 50
270.0
 51
0.0
  0
LINE
  5
91
  8
DETAIL
  6
CONTINUOUS
 62
     5
 10
-35.000000000000909
 20
-54.0
 30
0.0
 11
-35.000000000000462
 21
54.0
 31
0.0
  0
ARC
  5
92
  8
DETAIL
  6
CONTINUOUS
 62
     5
 10
-29.000000000000909
 20
-54.0
 30
0.0
 40
6.0
 50
180.0
 51
270.0
  0
ARC
  5
93
  8
DETAIL
  6
CONTINUOUS
 62
     5
 10
-29.000000000000458
 20
54.0
 30
0.0
 40
6.0
 50
90.0
 51
180.0
  0
LINE
  5
94
  8
DETAIL
  6
CONTINUOUS
 62
     5
 10
-29.000000000000458
 20
60.0
 30
0.0
 11
28.999999999999549
 21
60.0
 31
0.0
  0
LINE
  5
95
  8
DETAIL
  6
CONTINUOUS
 62
     5
 10
34.999999999999559
 20
54.0
 30
0.0
 11
34.999999999999559
 21
-54.0
 31
0.0
  0
ARC
  5
96
  8
DETAIL
  6
CONTINUOUS
 62
     5
 10
28.999999999999549
 20
54.0
 30
0.0
 40
6.0
 50
0.0
 51
90.0
  0
LINE
  5
97
  8
BASIS
  6
DASHDOT
 62
     6
 10
45.499999999999538
 20
0.0
 30
0.0
 11
-45.500000000000462
 21
0.0
 31
0.0
  0
LINE
  5
98
  8
BASIS
  6
DASHDOT
 62
     6
 10
-0.0000000000004547
 20
70.199999999999932
 30
0.0
 11
-0.0000000000004547
 21
-70.200000000000045
 31
0.0
  0
LINE
  5
9F
  8
DETAIL
  6
CONTINUOUS
 62
     5
 10
14.99999999999954
 20
-50.000000000000099
 30
0.0
 11
-15.000000000001361
 21
-49.999999999999893
 31
0.0
  0
LINE
  5
A0
  8
DETAIL
  6
CONTINUOUS
 62
     5
 10
24.999999999999559
 20
40.0
 30
0.0
 11
24.999999999999559
 21
-40.000000000000092
 31
0.0
  0
LINE
  5
A1
  8
DETAIL
  6
CONTINUOUS
 62
     5
 10
-15.0
 20
50.000000000000099
 30
0.0
 11
14.99999999999954
 21
50.0
 31
0.0
  0
LINE
  5
A2
  8
DETAIL
  6
CONTINUOUS
 62
     5
 10
-25.000000000001378
 20
-39.999999999999893
 30
0.0
 11
-25.0
 21
40.000000000000227
 31
0.0
  0
ARC
  5
A3
  8
DETAIL
  6
CONTINUOUS
 62
     5
 10
14.99999999999954
 20
40.0
 30
0.0
 40
10.0
 50
0.0
 51
90.0
  0
ARC
  5
A4
  8
DETAIL
  6
CONTINUOUS
 62
     5
 10
14.99999999999954
 20
-40.000000000000092
 30
0.0
 40
10.0
 50
270.0
 51
0.0
  0
ARC
  5
A5
  8
DETAIL
  6
CONTINUOUS
 62
     5
 10
-15.000000000001361
 20
-39.999999999999893
 30
0.0
 40
10.0
 50
180.0
 51
270.0
  0
ARC
  5
A6
  8
DETAIL
  6
CONTINUOUS
 62
     5
 10
-15.0
 20
40.000000000000092
 30
0.0
 40
10.0
 50
90.0
 51
180.0
  0
ARC
  5
AA
  8
OUTLINE
  6
CONTINUOUS
 62
     3
 10
28.999999999999549
 20
54.0
 30
0.0
 40
6.0
 50
0.0
 51
90.0
  0
LINE
  5
AB
  8
OUTLINE
  6
CONTINUOUS
 62
     3
 10
34.999999999999559
 20
54.0
 30
0.0
 11
34.999999999999559
 21
-54.0
 31
0.0
  0
LINE
  5
AC
  8
OUTLINE
  6
CONTINUOUS
 62
     3
 10
-29.000000000000458
 20
60.0
 30
0.0
 11
28.999999999999549
 21
60.0
 31
0.0
  0
ARC
  5
AD
  8
OUTLINE
  6
CONTINUOUS
 62
     3
 10
-29.000000000000458
 20
54.0
 30
0.0
 40
6.0
 50
90.0
 51
180.0
  0
LINE
  5
AE
  8
OUTLINE
  6
CONTINUOUS
 62
     3
 10
-35.000000000000909
 20
-54.0
 30
0.0
 11
-35.000000000000462
 21
54.0
 31
0.0
  0
ARC
  5
AF
  8
OUTLINE
  6
CONTINUOUS
 62
     3
 10
28.999999999999549
 20
-54.0
 30
0.0
 40
6.0
 50
270.0
 51
0.0
  0
LINE
  5
B0
  8
OUTLINE
  6
CONTINUOUS
 62
     3
 10
28.999999999999549
 20
-60.0
 30
0.0
 11
-29.000000000000909
 21
-60.0
 31
0.0
  0
ARC
  5
B1
  8
OUTLINE
  6
CONTINUOUS
 62
     3
 10
-29.000000000000909
 20
-54.0
 30
0.0
 40
6.0
 50
180.0
 51
270.0
  0
LINE
  5
B2
  8
SIZE
  6
CONTINUOUS
 62
    30
 10
-35.000000000000909
 20
-74.0
 30
0.0
 11
-35.000000000000917
 21
-233.8550576070775
 31
0.0
  0
LINE
  5
B3
  8
SIZE
  6
CONTINUOUS
 62
    30
 10
34.999999999999559
 20
-74.0
 30
0.0
 11
34.999999999999531
 21
-233.8550576070775
 31
0.0
  0
LINE
  5
B4
  8
SIZE
  6
CONTINUOUS
 62
    30
 10
-35.000000000000917
 20
-213.8550576070775
 30
0.0
 11
34.999999999999538
 21
-213.8550576070775
 31
0.0
  0
CIRCLE
  5
B6
  8
SIZE
  6
CONTINUOUS
 62
    30
 10
-35.000000000000917
 20
-213.8550576070775
 30
0.0
 40
5.0
  0
CIRCLE
  5
B7
  8
SIZE
  6
CONTINUOUS
 62
    30
 10
34.999999999999538
 20
-213.8550576070775
 30
0.0
 40
5.0
  0
TEXT
  5
B8
  8
SIZE
  6
CONTINUOUS
 62
    30
 10
-14.57142857142926
 20
-206.6350673779352
 30
0.0
 40
20.0
  1
70
 41
0.9
 72
     1
 11
-0.0000000000006892
 21
-206.6350673779352
 31
0.0
  0
POINT
  5
B9
  8
DEFPOINTS
  6
CONTINUOUS
 62
     7
 10
-35.000000000000909
 20
-54.0
 30
0.0
  0
POINT
  5
BA
  8
DEFPOINTS
  6
CONTINUOUS
 62
     7
 10
34.999999999999559
 20
-54.0
 30
0.0
  0
POINT
  5
BB
  8
DEFPOINTS
  6
CONTINUOUS
 62
     7
 10
34.999999999999538
 20
-213.8550576070775
 30
0.0
  0
LINE
  5
BC
  8
SIZE
  6
CONTINUOUS
 62
    30
 10
-49.000000000000902
 20
-60.0
 30
0.0
 11
-192.23691637665681
 21
-59.999999999999957
 31
0.0
  0
LINE
  5
BD
  8
SIZE
  6
CONTINUOUS
 62
    30
 10
-49.000000000000448
 20
60.0
 30
0.0
 11
-192.23691637665681
 21
60.000000000000021
 31
0.0
  0
LINE
  5
BE
  8
SIZE
  6
CONTINUOUS
 62
    30
 10
-172.23691637665681
 20
60.000000000000021
 30
0.0
 11
-172.23691637665681
 21
-59.999999999999957
 31
0.0
  0
CIRCLE
  5
C0
  8
SIZE
  6
CONTINUOUS
 62
    30
 10
-172.23691637665681
 20
60.000000000000021
 30
0.0
 40
5.0
  0
CIRCLE
  5
C1
  8
SIZE
  6
CONTINUOUS
 62
    30
 10
-172.23691637665681
 20
-59.999999999999957
 30
0.0
 40
5.0
  0
TEXT
  5
C2
  8
SIZE
  6
CONTINUOUS
 62
    30
 10
-178.47565833592299
 20
-21.428571428571399
 30
0.0
 40
20.0
  1
120
 50
90.0
 41
0.9
 72
     1
 11
-178.47565833592299
 21
0.0000000000000284
 31
0.0
  0
POINT
  5
C3
  8
DEFPOINTS
  6
CONTINUOUS
 62
     7
 10
-29.000000000000909
 20
-60.0
 30
0.0
  0
POINT
  5
C4
  8
DEFPOINTS
  6
CONTINUOUS
 62
     7
 10
-29.000000000000458
 20
60.0
 30
0.0
  0
POINT
  5
C5
  8
DEFPOINTS
  6
CONTINUOUS
 62
     7
 10
-172.23691637665681
 20
60.000000000000021
 30
0.0
  0
TEXT
  5
D1
  8
ETC
  6
CONTINUOUS
 62
    61
 10
41.037095355992278
 20
122.1815823380248
 30
0.0
 40
20.0
  1
PAC-SE40TS-W_2
 50
0.0000029998804485
 41
0.8
  7
STANDARD_MODELNAME
  0
CIRCLE
  5
E6
  8
ARRANGE
  6
CONTINUOUS
 62
     1
 10
-0.0000000000009237
 20
-0.000000000000739
 30
0.0
 40
10.0
  0
LINE
  5
E7
  8
ARRANGE
  6
CONTINUOUS
 62
     1
 10
10.007470006265279
 20
-9.9044706300655321
 30
0.0
 11
-10.0074700062662
 21
9.9044706300654202
 31
0.0
  0
LINE
  5
E8
  8
ARRANGE
  6
CONTINUOUS
 62
     1
 10
9.9927526620997416
 20
9.9193189595967421
 30
0.0
 11
-9.9927526621006564
 21
-9.9193189595968576
 31
0.0
  0
LINE
  5
365
  8
DETAIL
  6
CONTINUOUS
 62
     5
 10
-12.081764333682811
 20
-27.202321716307551
 30
0.0
 11
-15.3161255468832
 21
-27.202321716307551
 31
0.0
  0
LINE
  5
366
  8
DETAIL
  6
CONTINUOUS
 62
     5
 10
-15.3161255468832
 20
-27.202321716307551
 30
0.0
 11
-13.69938995420909
 21
-24.403184122605811
 31
0.0
  0
LINE
  5
367
  8
DETAIL
  6
CONTINUOUS
 62
     5
 10
-13.69938995420909
 20
-24.403184122605811
 30
0.0
 11
-10.463026178342369
 21
-24.403184122605811
 31
0.0
  0
LINE
  5
368
  8
DETAIL
  6
CONTINUOUS
 62
     5
 10
-10.463026178342369
 20
-24.403184122605811
 30
0.0
 11
-12.081764333682811
 21
-27.202321716307551
 31
0.0
  0
LINE
  5
369
  8
DETAIL
  6
CONTINUOUS
 62
     5
 10
-8.8458455717424158
 20
-27.202321716307551
 30
0.0
 11
-5.609259288913222
 21
-27.202321716307551
 31
0.0
  0
LINE
  5
36A
  8
DETAIL
  6
CONTINUOUS
 62
     5
 10
-5.609259288913222
 20
-27.202321716307551
 30
0.0
 11
-7.2277749372907456
 21
-24.403184122605811
 31
0.0
  0
LINE
  5
36B
  8
DETAIL
  6
CONTINUOUS
 62
     5
 10
-7.2277749372907456
 20
-24.403184122605811
 30
0.0
 11
-10.462803671379451
 21
-24.403184122605811
 31
0.0
  0
LINE
  5
36C
  8
DETAIL
  6
CONTINUOUS
 62
     5
 10
-10.462803671379451
 20
-24.403184122605811
 30
0.0
 11
-8.8458455717424158
 21
-27.202321716307551
 31
0.0
  0
LINE
  5
36D
  8
DETAIL
  6
CONTINUOUS
 62
     5
 10
-8.8458455717424158
 20
-21.59959638964461
 30
0.0
 11
-10.462803671379451
 21
-18.796453670610159
 31
0.0
  0
LINE
  5
36E
  8
DETAIL
  6
CONTINUOUS
 62
     5
 10
-10.462803671379451
 20
-18.796453670610159
 30
0.0
 11
-12.081764333682811
 21
-21.59959638964461
 31
0.0
  0
LINE
  5
36F
  8
DETAIL
  6
CONTINUOUS
 62
     5
 10
-12.081764333682811
 20
-21.59959638964461
 30
0.0
 11
-10.462803671379451
 21
-24.403184122605811
 31
0.0
  0
LINE
  5
370
  8
DETAIL
  6
CONTINUOUS
 62
     5
 10
-10.462803671379451
 20
-24.403184122605811
 30
0.0
 11
-8.8458455717424158
 21
-21.59959638964461
 31
0.0
  0
LINE
  5
371
  8
DETAIL
  6
CONTINUOUS
 62
     5
 10
-4.1569563418466942
 20
-26.011019436762361
 30
0.0
 11
-2.8619658175740592
 21
-26.011019436762361
 31
0.0
  0
LINE
  5
372
  8
DETAIL
  6
CONTINUOUS
 62
     5
 10
-2.8619658175740592
 20
-26.011019436762361
 30
0.0
 11
-2.8619658175740592
 21
-25.54108473104748
 31
0.0
  0
LINE
  5
373
  8
DETAIL
  6
CONTINUOUS
 62
     5
 10
-2.8619658175740592
 20
-25.54108473104748
 30
0.0
 11
-4.1569563418466942
 21
-25.54108473104748
 31
0.0
  0
LINE
  5
374
  8
DETAIL
  6
CONTINUOUS
 62
     5
 10
-4.1569563418466942
 20
-25.54108473104748
 30
0.0
 11
-4.1569563418466942
 21
-24.96212161349446
 31
0.0
  0
LINE
  5
375
  8
DETAIL
  6
CONTINUOUS
 62
     5
 10
-4.1569563418466942
 20
-24.96212161349446
 30
0.0
 11
-2.697978185892338
 21
-24.96212161349446
 31
0.0
  0
LINE
  5
376
  8
DETAIL
  6
CONTINUOUS
 62
     5
 10
-2.697978185892338
 20
-24.96212161349446
 30
0.0
 11
-2.697978185892338
 21
-24.49218690777867
 31
0.0
  0
LINE
  5
377
  8
DETAIL
  6
CONTINUOUS
 62
     5
 10
-2.697978185892338
 20
-24.49218690777867
 30
0.0
 11
-4.1569563418466942
 21
-24.49218690777867
 31
0.0
  0
LINE
  5
378
  8
DETAIL
  6
CONTINUOUS
 62
     5
 10
-4.1569563418466942
 20
-24.49218690777867
 30
0.0
 11
-4.7056585124406629
 21
-24.49218690777867
 31
0.0
  0
LINE
  5
379
  8
DETAIL
  6
CONTINUOUS
 62
     5
 10
-4.7056585124406629
 20
-24.49218690777867
 30
0.0
 11
-4.7056585124406629
 21
-24.96212161349446
 31
0.0
  0
LINE
  5
37A
  8
DETAIL
  6
CONTINUOUS
 62
     5
 10
-4.7056585124406629
 20
-24.96212161349446
 30
0.0
 11
-4.7056585124406629
 21
-26.731496982740978
 31
0.0
  0
LINE
  5
37B
  8
DETAIL
  6
CONTINUOUS
 62
     5
 10
-4.7056585124406629
 20
-26.731496982740978
 30
0.0
 11
-4.7056585124406629
 21
-27.202321716307551
 31
0.0
  0
LINE
  5
37C
  8
DETAIL
  6
CONTINUOUS
 62
     5
 10
-4.7056585124406629
 20
-27.202321716307551
 30
0.0
 11
-4.1569563418466942
 21
-27.202321716307551
 31
0.0
  0
LINE
  5
37D
  8
DETAIL
  6
CONTINUOUS
 62
     5
 10
-4.1569563418466942
 20
-27.202321716307551
 30
0.0
 11
-2.6601520021937399
 21
-27.202321716307551
 31
0.0
  0
LINE
  5
37E
  8
DETAIL
  6
CONTINUOUS
 62
     5
 10
-2.6601520021937399
 20
-27.202321716307551
 30
0.0
 11
-2.6601520021937399
 21
-26.731496982740978
 31
0.0
  0
LINE
  5
37F
  8
DETAIL
  6
CONTINUOUS
 62
     5
 10
-2.6601520021937399
 20
-26.731496982740978
 30
0.0
 11
-4.1569563418466942
 21
-26.731496982740978
 31
0.0
  0
LINE
  5
380
  8
DETAIL
  6
CONTINUOUS
 62
     5
 10
-4.1569563418466942
 20
-26.731496982740978
 30
0.0
 11
-4.1569563418466942
 21
-26.011019436762361
 31
0.0
  0
LINE
  5
381
  8
DETAIL
  6
CONTINUOUS
 62
     5
 10
-4.194115004656509
 20
-22.024584688848108
 30
0.0
 11
-3.6178219706590649
 21
-24.04094278695062
 31
0.0
  0
LINE
  5
382
  8
DETAIL
  6
CONTINUOUS
 62
     5
 10
-3.6178219706590649
 20
-24.04094278695062
 30
0.0
 11
-3.5953487674029239
 21
-24.04094278695062
 31
0.0
  0
LINE
  5
383
  8
DETAIL
  6
CONTINUOUS
 62
     5
 10
-3.5953487674029239
 20
-24.04094278695062
 30
0.0
 11
-3.1142887135407591
 21
-24.04094278695062
 31
0.0
  0
LINE
  5
384
  8
DETAIL
  6
CONTINUOUS
 62
     5
 10
-3.1142887135407591
 20
-24.04094278695062
 30
0.0
 11
-3.0909254824329082
 21
-24.04094278695062
 31
0.0
  0
LINE
  5
385
  8
DETAIL
  6
CONTINUOUS
 62
     5
 10
-3.0909254824329082
 20
-24.04094278695062
 30
0.0
 11
-2.5150774623613179
 21
-22.024584688848108
 31
0.0
  0
LINE
  5
386
  8
DETAIL
  6
CONTINUOUS
 62
     5
 10
-2.5150774623613179
 20
-22.024584688848108
 30
0.0
 11
-2.5150774623613179
 21
-24.04094278695062
 31
0.0
  0
LINE
  5
387
  8
DETAIL
  6
CONTINUOUS
 62
     5
 10
-2.5150774623613179
 20
-24.04094278695062
 30
0.0
 11
-2.0050915033176571
 21
-24.04094278695062
 31
0.0
  0
LINE
  5
388
  8
DETAIL
  6
CONTINUOUS
 62
     5
 10
-2.0050915033176571
 20
-24.04094278695062
 30
0.0
 11
-2.0050915033176571
 21
-21.330362964495858
 31
0.0
  0
LINE
  5
389
  8
DETAIL
  6
CONTINUOUS
 62
     5
 10
-2.0050915033176571
 20
-21.330362964495858
 30
0.0
 11
-2.2834477139473388
 21
-21.330362964495858
 31
0.0
  0
LINE
  5
38A
  8
DETAIL
  6
CONTINUOUS
 62
     5
 10
-2.2834477139473388
 20
-21.330362964495858
 30
0.0
 11
-2.523532726952566
 21
-21.330362964495858
 31
0.0
  0
LINE
  5
38B
  8
DETAIL
  6
CONTINUOUS
 62
     5
 10
-2.523532726952566
 20
-21.330362964495858
 30
0.0
 11
-2.7878709989178101
 21
-21.330362964495858
 31
0.0
  0
LINE
  5
38C
  8
DETAIL
  6
CONTINUOUS
 62
     5
 10
-2.7878709989178101
 20
-21.330362964495858
 30
0.0
 11
-3.354818740471841
 21
-23.231907469724099
 31
0.0
  0
LINE
  5
38D
  8
DETAIL
  6
CONTINUOUS
 62
     5
 10
-3.354818740471841
 20
-23.231907469724099
 30
0.0
 11
-3.9222114959521832
 21
-21.330362964495858
 31
0.0
  0
LINE
  5
38E
  8
DETAIL
  6
CONTINUOUS
 62
     5
 10
-3.9222114959521832
 20
-21.330362964495858
 30
0.0
 11
-4.1856597400652609
 21
-21.330362964495858
 31
0.0
  0
LINE
  5
38F
  8
DETAIL
  6
CONTINUOUS
 62
     5
 10
-4.1856597400652609
 20
-21.330362964495858
 30
0.0
 11
-4.426189766995889
 21
-21.330362964495858
 31
0.0
  0
LINE
  5
390
  8
DETAIL
  6
CONTINUOUS
 62
     5
 10
-4.426189766995889
 20
-21.330362964495858
 30
0.0
 11
-4.7054360054777362
 21
-21.330362964495858
 31
0.0
  0
LINE
  5
391
  8
DETAIL
  6
CONTINUOUS
 62
     5
 10
-4.7054360054777362
 20
-21.330362964495858
 30
0.0
 11
-4.7054360054777362
 21
-24.04094278695062
 31
0.0
  0
LINE
  5
392
  8
DETAIL
  6
CONTINUOUS
 62
     5
 10
-4.7054360054777362
 20
-24.04094278695062
 30
0.0
 11
-4.194115004656509
 21
-24.04094278695062
 31
0.0
  0
LINE
  5
393
  8
DETAIL
  6
CONTINUOUS
 62
     5
 10
-4.194115004656509
 20
-24.04094278695062
 30
0.0
 11
-4.194115004656509
 21
-22.024584688848108
 31
0.0
  0
LINE
  5
394
  8
DETAIL
  6
CONTINUOUS
 62
     5
 10
8.2854105184263744
 20
-21.32991795057
 30
0.0
 11
7.7389334174621354
 21
-21.32991795057
 31
0.0
  0
LINE
  5
395
  8
DETAIL
  6
CONTINUOUS
 62
     5
 10
7.7389334174621354
 20
-21.32991795057
 30
0.0
 11
7.7389334174621354
 21
-24.04094278695062
 31
0.0
  0
LINE
  5
396
  8
DETAIL
  6
CONTINUOUS
 62
     5
 10
7.7389334174621354
 20
-24.04094278695062
 30
0.0
 11
8.2854105184263744
 21
-24.04094278695062
 31
0.0
  0
LINE
  5
397
  8
DETAIL
  6
CONTINUOUS
 62
     5
 10
8.2854105184263744
 20
-24.04094278695062
 30
0.0
 11
8.2854105184263744
 21
-21.32991795057
 31
0.0
  0
LINE
  5
398
  8
DETAIL
  6
CONTINUOUS
 62
     5
 10
8.7295344164416502
 20
-24.49218690777867
 30
0.0
 11
8.1835023294028133
 21
-24.49218690777867
 31
0.0
  0
LINE
  5
399
  8
DETAIL
  6
CONTINUOUS
 62
     5
 10
8.1835023294028133
 20
-24.49218690777867
 30
0.0
 11
8.1835023294028133
 21
-27.202321716307551
 31
0.0
  0
LINE
  5
39A
  8
DETAIL
  6
CONTINUOUS
 62
     5
 10
8.1835023294028133
 20
-27.202321716307551
 30
0.0
 11
8.7295344164416502
 21
-27.202321716307551
 31
0.0
  0
LINE
  5
39B
  8
DETAIL
  6
CONTINUOUS
 62
     5
 10
8.7295344164416502
 20
-27.202321716307551
 30
0.0
 11
8.7295344164416502
 21
-24.49218690777867
 31
0.0
  0
LINE
  5
39C
  8
DETAIL
  6
CONTINUOUS
 62
     5
 10
13.6838744531168
 20
-21.32991795057
 30
0.0
 11
13.13784236607796
 21
-21.32991795057
 31
0.0
  0
LINE
  5
39D
  8
DETAIL
  6
CONTINUOUS
 62
     5
 10
13.13784236607796
 20
-21.32991795057
 30
0.0
 11
13.13784236607796
 21
-24.04094278695062
 31
0.0
  0
LINE
  5
39E
  8
DETAIL
  6
CONTINUOUS
 62
     5
 10
13.13784236607796
 20
-24.04094278695062
 30
0.0
 11
13.6838744531168
 21
-24.04094278695062
 31
0.0
  0
LINE
  5
39F
  8
DETAIL
  6
CONTINUOUS
 62
     5
 10
13.6838744531168
 20
-24.04094278695062
 30
0.0
 11
13.6838744531168
 21
-21.32991795057
 31
0.0
  0
LINE
  5
3A0
  8
DETAIL
  6
CONTINUOUS
 62
     5
 10
-1.2405575786784759
 20
-21.32991795057
 30
0.0
 11
-1.78703467964317
 21
-21.32991795057
 31
0.0
  0
LINE
  5
3A1
  8
DETAIL
  6
CONTINUOUS
 62
     5
 10
-1.78703467964317
 20
-21.32991795057
 30
0.0
 11
-1.78703467964317
 21
-24.04094278695062
 31
0.0
  0
LINE
  5
3A2
  8
DETAIL
  6
CONTINUOUS
 62
     5
 10
-1.78703467964317
 20
-24.04094278695062
 30
0.0
 11
-1.2405575786784759
 21
-24.04094278695062
 31
0.0
  0
LINE
  5
3A3
  8
DETAIL
  6
CONTINUOUS
 62
     5
 10
-1.2405575786784759
 20
-24.04094278695062
 30
0.0
 11
-1.2405575786784759
 21
-21.32991795057
 31
0.0
  0
LINE
  5
3A4
  8
DETAIL
  6
CONTINUOUS
 62
     5
 10
12.376868552846069
 20
-22.3859359966516
 30
0.0
 11
11.29281462943424
 21
-22.3859359966516
 31
0.0
  0
LINE
  5
3A5
  8
DETAIL
  6
CONTINUOUS
 62
     5
 10
11.29281462943424
 20
-22.3859359966516
 30
0.0
 11
11.29281462943424
 21
-21.32991795057
 31
0.0
  0
LINE
  5
3A6
  8
DETAIL
  6
CONTINUOUS
 62
     5
 10
11.29281462943424
 20
-21.32991795057
 30
0.0
 11
10.756127834839271
 21
-21.32991795057
 31
0.0
  0
LINE
  5
3A7
  8
DETAIL
  6
CONTINUOUS
 62
     5
 10
10.756127834839271
 20
-21.32991795057
 30
0.0
 11
10.756127834839271
 21
-24.04094278695062
 31
0.0
  0
LINE
  5
3A8
  8
DETAIL
  6
CONTINUOUS
 62
     5
 10
10.756127834839271
 20
-24.04094278695062
 30
0.0
 11
11.29281462943424
 21
-24.04094278695062
 31
0.0
  0
LINE
  5
3A9
  8
DETAIL
  6
CONTINUOUS
 62
     5
 10
11.29281462943424
 20
-24.04094278695062
 30
0.0
 11
11.29281462943424
 21
-22.857650758070811
 31
0.0
  0
LINE
  5
3AA
  8
DETAIL
  6
CONTINUOUS
 62
     5
 10
11.29281462943424
 20
-22.857650758070811
 30
0.0
 11
12.376868552846069
 21
-22.857650758070811
 31
0.0
  0
LINE
  5
3AB
  8
DETAIL
  6
CONTINUOUS
 62
     5
 10
12.376868552846069
 20
-22.857650758070811
 30
0.0
 11
12.376868552846069
 21
-24.04094278695062
 31
0.0
  0
LINE
  5
3AC
  8
DETAIL
  6
CONTINUOUS
 62
     5
 10
12.376868552846069
 20
-24.04094278695062
 30
0.0
 11
12.91266531958979
 21
-24.04094278695062
 31
0.0
  0
LINE
  5
3AD
  8
DETAIL
  6
CONTINUOUS
 62
     5
 10
12.91266531958979
 20
-24.04094278695062
 30
0.0
 11
12.91266531958979
 21
-21.32991795057
 31
0.0
  0
LINE
  5
3AE
  8
DETAIL
  6
CONTINUOUS
 62
     5
 10
12.91266531958979
 20
-21.32991795057
 30
0.0
 11
12.376868552846069
 21
-21.32991795057
 31
0.0
  0
LINE
  5
3AF
  8
DETAIL
  6
CONTINUOUS
 62
     5
 10
12.376868552846069
 20
-21.32991795057
 30
0.0
 11
12.376868552846069
 21
-22.3859359966516
 31
0.0
  0
LINE
  5
3B0
  8
DETAIL
  6
CONTINUOUS
 62
     5
 10
-0.4319672753787245
 20
-24.04094278695062
 30
0.0
 11
0.125190159806948
 21
-24.04094278695062
 31
0.0
  0
LINE
  5
3B1
  8
DETAIL
  6
CONTINUOUS
 62
     5
 10
0.125190159806948
 20
-24.04094278695062
 30
0.0
 11
0.125190159806948
 21
-21.798962628433181
 31
0.0
  0
LINE
  5
3B2
  8
DETAIL
  6
CONTINUOUS
 62
     5
 10
0.125190159806948
 20
-21.798962628433181
 30
0.0
 11
0.7882609093484234
 21
-21.798962628433181
 31
0.0
  0
LINE
  5
3B3
  8
DETAIL
  6
CONTINUOUS
 62
     5
 10
0.7882609093484234
 20
-21.798962628433181
 30
0.0
 11
0.7882609093484234
 21
-21.32991795057
 31
0.0
  0
LINE
  5
3B4
  8
DETAIL
  6
CONTINUOUS
 62
     5
 10
0.7882609093484234
 20
-21.32991795057
 30
0.0
 11
0.125190159806948
 21
-21.32991795057
 31
0.0
  0
LINE
  5
3B5
  8
DETAIL
  6
CONTINUOUS
 62
     5
 10
0.125190159806948
 20
-21.32991795057
 30
0.0
 11
-0.4319672753787245
 21
-21.32991795057
 31
0.0
  0
LINE
  5
3B6
  8
DETAIL
  6
CONTINUOUS
 62
     5
 10
-0.4319672753787245
 20
-21.32991795057
 30
0.0
 11
-1.0961505597348371
 21
-21.32991795057
 31
0.0
  0
LINE
  5
3B7
  8
DETAIL
  6
CONTINUOUS
 62
     5
 10
-1.0961505597348371
 20
-21.32991795057
 30
0.0
 11
-1.0961505597348371
 21
-21.798962628433181
 31
0.0
  0
LINE
  5
3B8
  8
DETAIL
  6
CONTINUOUS
 62
     5
 10
-1.0961505597348371
 20
-21.798962628433181
 30
0.0
 11
-0.4319672753787245
 21
-21.798962628433181
 31
0.0
  0
LINE
  5
3B9
  8
DETAIL
  6
CONTINUOUS
 62
     5
 10
-0.4319672753787245
 20
-21.798962628433181
 30
0.0
 11
-0.4319672753787245
 21
-24.04094278695062
 31
0.0
  0
LINE
  5
3BA
  8
DETAIL
  6
CONTINUOUS
 62
     5
 10
4.5472935411452218
 20
-27.202321716307551
 30
0.0
 11
5.1044509763304404
 21
-27.202321716307551
 31
0.0
  0
LINE
  5
3BB
  8
DETAIL
  6
CONTINUOUS
 62
     5
 10
5.1044509763304404
 20
-27.202321716307551
 30
0.0
 11
5.1044509763304404
 21
-24.96212161349446
 31
0.0
  0
LINE
  5
3BC
  8
DETAIL
  6
CONTINUOUS
 62
     5
 10
5.1044509763304404
 20
-24.96212161349446
 30
0.0
 11
5.7657416701684951
 21
-24.96212161349446
 31
0.0
  0
LINE
  5
3BD
  8
DETAIL
  6
CONTINUOUS
 62
     5
 10
5.7657416701684951
 20
-24.96212161349446
 30
0.0
 11
5.7657416701684951
 21
-24.49218690777867
 31
0.0
  0
LINE
  5
3BE
  8
DETAIL
  6
CONTINUOUS
 62
     5
 10
5.7657416701684951
 20
-24.49218690777867
 30
0.0
 11
5.1044509763304404
 21
-24.49218690777867
 31
0.0
  0
LINE
  5
3BF
  8
DETAIL
  6
CONTINUOUS
 62
     5
 10
5.1044509763304404
 20
-24.49218690777867
 30
0.0
 11
4.5472935411452218
 21
-24.49218690777867
 31
0.0
  0
LINE
  5
3C0
  8
DETAIL
  6
CONTINUOUS
 62
     5
 10
4.5472935411452218
 20
-24.49218690777867
 30
0.0
 11
3.8860028473071671
 21
-24.49218690777867
 31
0.0
  0
LINE
  5
3C1
  8
DETAIL
  6
CONTINUOUS
 62
     5
 10
3.8860028473071671
 20
-24.49218690777867
 30
0.0
 11
3.8860028473071671
 21
-24.96212161349446
 31
0.0
  0
LINE
  5
3C2
  8
DETAIL
  6
CONTINUOUS
 62
     5
 10
3.8860028473071671
 20
-24.96212161349446
 30
0.0
 11
4.5472935411452218
 21
-24.96212161349446
 31
0.0
  0
LINE
  5
3C3
  8
DETAIL
  6
CONTINUOUS
 62
     5
 10
4.5472935411452218
 20
-24.96212161349446
 30
0.0
 11
4.5472935411452218
 21
-27.202321716307551
 31
0.0
  0
POLYLINE
  5
3C4
  8
DETAIL
  6
CONTINUOUS
 62
     5
 66
     1
 10
0.0
 20
0.0
 30
0.0
  0
VERTEX
  5
6F6
  8
DETAIL
  6
CONTINUOUS
 62
     5
 10
4.175706913046155
 20
-24.11748518219952
 30
0.0
  0
VERTEX
  5
6F7
  8
DETAIL
  6
CONTINUOUS
 62
     5
 10
4.4540741517179177
 20
-24.09804988013105
 30
0.0
  0
VERTEX
  5
6F8
  8
DETAIL
  6
CONTINUOUS
 62
     5
 10
4.693246432079305
 20
-24.040143578267251
 30
0.0
  0
VERTEX
  5
6F9
  8
DETAIL
  6
CONTINUOUS
 62
     5
 10
4.8919003891029709
 20
-23.944365683120481
 30
0.0
  0
VERTEX
  5
6FA
  8
DETAIL
  6
CONTINUOUS
 62
     5
 10
5.0487126577615982
 20
-23.811315601203159
 30
0.0
  0
VERTEX
  5
6FB
  8
DETAIL
  6
CONTINUOUS
 62
     5
 10
5.1623598730277962
 20
-23.641592739027612
 30
0.0
  0
VERTEX
  5
6FC
  8
DETAIL
  6
CONTINUOUS
 62
     5
 10
5.2315186698742471
 20
-23.4357965031062
 30
0.0
  0
VERTEX
  5
6FD
  8
DETAIL
  6
CONTINUOUS
 62
     5
 10
5.2548656832735778
 20
-23.19452629995136
 30
0.0
  0
SEQEND
  5
6FE
  8
DETAIL
  6
CONTINUOUS
 62
     5
  0
POLYLINE
  5
3C5
  8
DETAIL
  6
CONTINUOUS
 62
     5
 66
     1
 10
0.0
 20
0.0
 30
0.0
  0
VERTEX
  5
6FF
  8
DETAIL
  6
CONTINUOUS
 62
     5
 10
5.2548656832735778
 20
-23.19452629995136
 30
0.0
  0
VERTEX
  5
700
  8
DETAIL
  6
CONTINUOUS
 62
     5
 10
5.2548656832735778
 20
-23.091238956982728
 30
0.0
  0
VERTEX
  5
701
  8
DETAIL
  6
CONTINUOUS
 62
     5
 10
5.2548656832735778
 20
-22.824866335642501
 30
0.0
  0
VERTEX
  5
702
  8
DETAIL
  6
CONTINUOUS
 62
     5
 10
5.2548656832735778
 20
-22.460642547279381
 30
0.0
  0
VERTEX
  5
703
  8
DETAIL
  6
CONTINUOUS
 62
     5
 10
5.2548656832735778
 20
-22.063801703241982
 30
0.0
  0
VERTEX
  5
704
  8
DETAIL
  6
CONTINUOUS
 62
     5
 10
5.2548656832735778
 20
-21.699577914878841
 30
0.0
  0
VERTEX
  5
705
  8
DETAIL
  6
CONTINUOUS
 62
     5
 10
5.2548656832735778
 20
-21.433205293538659
 30
0.0
  0
VERTEX
  5
706
  8
DETAIL
  6
CONTINUOUS
 62
     5
 10
5.2548656832735778
 20
-21.32991795057
 30
0.0
  0
SEQEND
  5
707
  8
DETAIL
  6
CONTINUOUS
 62
     5
  0
POLYLINE
  5
3C6
  8
DETAIL
  6
CONTINUOUS
 62
     5
 66
     1
 10
0.0
 20
0.0
 30
0.0
  0
VERTEX
  5
708
  8
DETAIL
  6
CONTINUOUS
 62
     5
 10
5.2548656832735778
 20
-21.32991795057
 30
0.0
  0
VERTEX
  5
709
  8
DETAIL
  6
CONTINUOUS
 62
     5
 10
5.2246683097326061
 20
-21.32991795057
 30
0.0
  0
VERTEX
  5
70A
  8
DETAIL
  6
CONTINUOUS
 62
     5
 10
5.1467908727058642
 20
-21.32991795057
 30
0.0
  0
VERTEX
  5
70B
  8
DETAIL
  6
CONTINUOUS
 62
     5
 10
5.040305397587673
 20
-21.32991795057
 30
0.0
  0
VERTEX
  5
70C
  8
DETAIL
  6
CONTINUOUS
 62
     5
 10
4.924283909772341
 20
-21.32991795057
 30
0.0
  0
VERTEX
  5
70D
  8
DETAIL
  6
CONTINUOUS
 62
     5
 10
4.817798434654164
 20
-21.32991795057
 30
0.0
  0
VERTEX
  5
70E
  8
DETAIL
  6
CONTINUOUS
 62
     5
 10
4.7399209976274221
 20
-21.32991795057
 30
0.0
  0
VERTEX
  5
70F
  8
DETAIL
  6
CONTINUOUS
 62
     5
 10
4.7097236240864504
 20
-21.32991795057
 30
0.0
  0
SEQEND
  5
710
  8
DETAIL
  6
CONTINUOUS
 62
     5
  0
POLYLINE
  5
3C7
  8
DETAIL
  6
CONTINUOUS
 62
     5
 66
     1
 10
0.0
 20
0.0
 30
0.0
  0
VERTEX
  5
711
  8
DETAIL
  6
CONTINUOUS
 62
     5
 10
4.7097236240864504
 20
-21.32991795057
 30
0.0
  0
VERTEX
  5
712
  8
DETAIL
  6
CONTINUOUS
 62
     5
 10
4.7097236240864504
 20
-21.435892243510871
 30
0.0
  0
VERTEX
  5
713
  8
DETAIL
  6
CONTINUOUS
 62
     5
 10
4.7097236240864504
 20
-21.709194367410898
 30
0.0
  0
VERTEX
  5
714
  8
DETAIL
  6
CONTINUOUS
 62
     5
 10
4.7097236240864504
 20
-22.082893189886509
 30
0.0
  0
VERTEX
  5
715
  8
DETAIL
  6
CONTINUOUS
 62
     5
 10
4.7097236240864504
 20
-22.49005757855398
 30
0.0
  0
VERTEX
  5
716
  8
DETAIL
  6
CONTINUOUS
 62
     5
 10
4.7097236240864504
 20
-22.86375640102958
 30
0.0
  0
VERTEX
  5
717
  8
DETAIL
  6
CONTINUOUS
 62
     5
 10
4.7097236240864504
 20
-23.137058524929628
 30
0.0
  0
VERTEX
  5
718
  8
DETAIL
  6
CONTINUOUS
 62
     5
 10
4.7097236240864504
 20
-23.243032817870489
 30
0.0
  0
SEQEND
  5
719
  8
DETAIL
  6
CONTINUOUS
 62
     5
  0
POLYLINE
  5
3C8
  8
DETAIL
  6
CONTINUOUS
 62
     5
 66
     1
 10
0.0
 20
0.0
 30
0.0
  0
VERTEX
  5
71A
  8
DETAIL
  6
CONTINUOUS
 62
     5
 10
4.7097236240864504
 20
-23.243032817870489
 30
0.0
  0
VERTEX
  5
71B
  8
DETAIL
  6
CONTINUOUS
 62
     5
 10
4.6866113808326437
 20
-23.377145774681619
 30
0.0
  0
VERTEX
  5
71C
  8
DETAIL
  6
CONTINUOUS
 62
     5
 10
4.6190262258834158
 20
-23.494618770776441
 30
0.0
  0
VERTEX
  5
71D
  8
DETAIL
  6
CONTINUOUS
 62
     5
 10
4.5095955214570722
 20
-23.58789012952673
 30
0.0
  0
VERTEX
  5
71E
  8
DETAIL
  6
CONTINUOUS
 62
     5
 10
4.3609466297718882
 20
-23.64939817430427
 30
0.0
  0
VERTEX
  5
71F
  8
DETAIL
  6
CONTINUOUS
 62
     5
 10
4.175706913046155
 20
-23.671581228480829
 30
0.0
  0
VERTEX
  5
720
  8
DETAIL
  6
CONTINUOUS
 62
     5
 10
3.9630009368161292
 20
-23.6460659100273
 30
0.0
  0
VERTEX
  5
721
  8
DETAIL
  6
CONTINUOUS
 62
     5
 10
3.8110233409654759
 20
-23.577893336695791
 30
0.0
  0
VERTEX
  5
722
  8
DETAIL
  6
CONTINUOUS
 62
     5
 10
3.712041563518397
 20
-23.479623581530049
 30
0.0
  0
VERTEX
  5
723
  8
DETAIL
  6
CONTINUOUS
 62
     5
 10
3.6583230424990911
 20
-23.363816717573702
 30
0.0
  0
VERTEX
  5
724
  8
DETAIL
  6
CONTINUOUS
 62
     5
 10
3.6421352159317162
 20
-23.243032817870489
 30
0.0
  0
SEQEND
  5
725
  8
DETAIL
  6
CONTINUOUS
 62
     5
  0
POLYLINE
  5
3C9
  8
DETAIL
  6
CONTINUOUS
 62
     5
 66
     1
 10
0.0
 20
0.0
 30
0.0
  0
VERTEX
  5
726
  8
DETAIL
  6
CONTINUOUS
 62
     5
 10
3.6421352159317162
 20
-23.243032817870489
 30
0.0
  0
VERTEX
  5
727
  8
DETAIL
  6
CONTINUOUS
 62
     5
 10
3.6421352159317162
 20
-23.137058524929628
 30
0.0
  0
VERTEX
  5
728
  8
DETAIL
  6
CONTINUOUS
 62
     5
 10
3.6421352159317162
 20
-22.86375640102958
 30
0.0
  0
VERTEX
  5
729
  8
DETAIL
  6
CONTINUOUS
 62
     5
 10
3.6421352159317162
 20
-22.490057578553952
 30
0.0
  0
VERTEX
  5
72A
  8
DETAIL
  6
CONTINUOUS
 62
     5
 10
3.6421352159317162
 20
-22.082893189886519
 30
0.0
  0
VERTEX
  5
72B
  8
DETAIL
  6
CONTINUOUS
 62
     5
 10
3.6421352159317162
 20
-21.709194367410898
 30
0.0
  0
VERTEX
  5
72C
  8
DETAIL
  6
CONTINUOUS
 62
     5
 10
3.6421352159317162
 20
-21.435892243510828
 30
0.0
  0
VERTEX
  5
72D
  8
DETAIL
  6
CONTINUOUS
 62
     5
 10
3.6421352159317162
 20
-21.32991795057
 30
0.0
  0
SEQEND
  5
72E
  8
DETAIL
  6
CONTINUOUS
 62
     5
  0
POLYLINE
  5
3CA
  8
DETAIL
  6
CONTINUOUS
 62
     5
 66
     1
 10
0.0
 20
0.0
 30
0.0
  0
VERTEX
  5
72F
  8
DETAIL
  6
CONTINUOUS
 62
     5
 10
3.6421352159317162
 20
-21.32991795057
 30
0.0
  0
VERTEX
  5
730
  8
DETAIL
  6
CONTINUOUS
 62
     5
 10
3.6123815588999539
 20
-21.32991795057
 30
0.0
  0
VERTEX
  5
731
  8
DETAIL
  6
CONTINUOUS
 62
     5
 10
3.5356484433969788
 20
-21.32991795057
 30
0.0
  0
VERTEX
  5
732
  8
DETAIL
  6
CONTINUOUS
 62
     5
 10
3.43072765281127
 20
-21.32991795057
 30
0.0
  0
VERTEX
  5
733
  8
DETAIL
  6
CONTINUOUS
 62
     5
 10
3.316410970531336
 20
-21.32991795057
 30
0.0
  0
VERTEX
  5
734
  8
DETAIL
  6
CONTINUOUS
 62
     5
 10
3.2114901799456268
 20
-21.32991795057
 30
0.0
  0
VERTEX
  5
735
  8
DETAIL
  6
CONTINUOUS
 62
     5
 10
3.1347570644426521
 20
-21.32991795057
 30
0.0
  0
VERTEX
  5
736
  8
DETAIL
  6
CONTINUOUS
 62
     5
 10
3.1050034074108899
 20
-21.32991795057
 30
0.0
  0
SEQEND
  5
737
  8
DETAIL
  6
CONTINUOUS
 62
     5
  0
POLYLINE
  5
3CB
  8
DETAIL
  6
CONTINUOUS
 62
     5
 66
     1
 10
0.0
 20
0.0
 30
0.0
  0
VERTEX
  5
738
  8
DETAIL
  6
CONTINUOUS
 62
     5
 10
3.1050034074108899
 20
-21.32991795057
 30
0.0
  0
VERTEX
  5
739
  8
DETAIL
  6
CONTINUOUS
 62
     5
 10
3.1050034074108899
 20
-21.433205293538659
 30
0.0
  0
VERTEX
  5
73A
  8
DETAIL
  6
CONTINUOUS
 62
     5
 10
3.1050034074108899
 20
-21.699577914878841
 30
0.0
  0
VERTEX
  5
73B
  8
DETAIL
  6
CONTINUOUS
 62
     5
 10
3.1050034074108899
 20
-22.06380170324195
 30
0.0
  0
VERTEX
  5
73C
  8
DETAIL
  6
CONTINUOUS
 62
     5
 10
3.1050034074108899
 20
-22.460642547279381
 30
0.0
  0
VERTEX
  5
73D
  8
DETAIL
  6
CONTINUOUS
 62
     5
 10
3.1050034074108899
 20
-22.824866335642511
 30
0.0
  0
VERTEX
  5
73E
  8
DETAIL
  6
CONTINUOUS
 62
     5
 10
3.1050034074108899
 20
-23.091238956982728
 30
0.0
  0
VERTEX
  5
73F
  8
DETAIL
  6
CONTINUOUS
 62
     5
 10
3.1050034074108899
 20
-23.19452629995136
 30
0.0
  0
SEQEND
  5
740
  8
DETAIL
  6
CONTINUOUS
 62
     5
  0
POLYLINE
  5
3CC
  8
DETAIL
  6
CONTINUOUS
 62
     5
 66
     1
 10
0.0
 20
0.0
 30
0.0
  0
VERTEX
  5
741
  8
DETAIL
  6
CONTINUOUS
 62
     5
 10
3.1050034074108899
 20
-23.19452629995136
 30
0.0
  0
VERTEX
  5
742
  8
DETAIL
  6
CONTINUOUS
 62
     5
 10
3.1294233844157162
 20
-23.450509208410271
 30
0.0
  0
VERTEX
  5
743
  8
DETAIL
  6
CONTINUOUS
 62
     5
 10
3.2009707253947961
 20
-23.66202705194992
 30
0.0
  0
VERTEX
  5
744
  8
DETAIL
  6
CONTINUOUS
 62
     5
 10
3.3170765452950368
 20
-23.830932541608568
 30
0.0
  0
VERTEX
  5
745
  8
DETAIL
  6
CONTINUOUS
 62
     5
 10
3.4751719590633741
 20
-23.959078388424562
 30
0.0
  0
VERTEX
  5
746
  8
DETAIL
  6
CONTINUOUS
 62
     5
 10
3.6726880816467249
 20
-24.048317303436189
 30
0.0
  0
VERTEX
  5
747
  8
DETAIL
  6
CONTINUOUS
 62
     5
 10
3.907056027992013
 20
-24.100501997681739
 30
0.0
  0
VERTEX
  5
748
  8
DETAIL
  6
CONTINUOUS
 62
     5
 10
4.175706913046155
 20
-24.11748518219952
 30
0.0
  0
SEQEND
  5
749
  8
DETAIL
  6
CONTINUOUS
 62
     5
  0
LINE
  5
3CD
  8
DETAIL
  6
CONTINUOUS
 62
     5
 10
0.0482027506317309
 20
-26.011019436762361
 30
0.0
 11
1.3458633584594959
 21
-26.011019436762361
 31
0.0
  0
LINE
  5
3CE
  8
DETAIL
  6
CONTINUOUS
 62
     5
 10
1.3458633584594959
 20
-26.011019436762361
 30
0.0
 11
1.3458633584594959
 21
-25.54108473104748
 31
0.0
  0
LINE
  5
3CF
  8
DETAIL
  6
CONTINUOUS
 62
     5
 10
1.3458633584594959
 20
-25.54108473104748
 30
0.0
 11
0.0482027506317309
 21
-25.54108473104748
 31
0.0
  0
LINE
  5
3D0
  8
DETAIL
  6
CONTINUOUS
 62
     5
 10
0.0482027506317309
 20
-25.54108473104748
 30
0.0
 11
0.0482027506317309
 21
-24.96212161349446
 31
0.0
  0
LINE
  5
3D1
  8
DETAIL
  6
CONTINUOUS
 62
     5
 10
0.0482027506317309
 20
-24.96212161349446
 30
0.0
 11
1.506513385697303
 21
-24.96212161349446
 31
0.0
  0
LINE
  5
3D2
  8
DETAIL
  6
CONTINUOUS
 62
     5
 10
1.506513385697303
 20
-24.96212161349446
 30
0.0
 11
1.506513385697303
 21
-24.49218690777867
 31
0.0
  0
LINE
  5
3D3
  8
DETAIL
  6
CONTINUOUS
 62
     5
 10
1.506513385697303
 20
-24.49218690777867
 30
0.0
 11
0.0482027506317309
 21
-24.49218690777867
 31
0.0
  0
LINE
  5
3D4
  8
DETAIL
  6
CONTINUOUS
 62
     5
 10
0.0482027506317309
 20
-24.49218690777867
 30
0.0
 11
-0.5004994199622388
 21
-24.49218690777867
 31
0.0
  0
LINE
  5
3D5
  8
DETAIL
  6
CONTINUOUS
 62
     5
 10
-0.5004994199622388
 20
-24.49218690777867
 30
0.0
 11
-0.5004994199622388
 21
-24.96212161349446
 31
0.0
  0
LINE
  5
3D6
  8
DETAIL
  6
CONTINUOUS
 62
     5
 10
-0.5004994199622388
 20
-24.96212161349446
 30
0.0
 11
-0.5004994199622388
 21
-26.731496982740978
 31
0.0
  0
LINE
  5
3D7
  8
DETAIL
  6
CONTINUOUS
 62
     5
 10
-0.5004994199622388
 20
-26.731496982740978
 30
0.0
 11
-0.5004994199622388
 21
-27.202321716307551
 31
0.0
  0
LINE
  5
3D8
  8
DETAIL
  6
CONTINUOUS
 62
     5
 10
-0.5004994199622388
 20
-27.202321716307551
 30
0.0
 11
0.0482027506317309
 21
-27.202321716307551
 31
0.0
  0
LINE
  5
3D9
  8
DETAIL
  6
CONTINUOUS
 62
     5
 10
0.0482027506317309
 20
-27.202321716307551
 30
0.0
 11
1.545229597247612
 21
-27.202321716307551
 31
0.0
  0
LINE
  5
3DA
  8
DETAIL
  6
CONTINUOUS
 62
     5
 10
1.545229597247612
 20
-27.202321716307551
 30
0.0
 11
1.545229597247612
 21
-26.731496982740978
 31
0.0
  0
LINE
  5
3DB
  8
DETAIL
  6
CONTINUOUS
 62
     5
 10
1.545229597247612
 20
-26.731496982740978
 30
0.0
 11
0.0482027506317309
 21
-26.731496982740978
 31
0.0
  0
LINE
  5
3DC
  8
DETAIL
  6
CONTINUOUS
 62
     5
 10
0.0482027506317309
 20
-26.731496982740978
 30
0.0
 11
0.0482027506317309
 21
-26.011019436762361
 31
0.0
  0
POLYLINE
  5
3DD
  8
DETAIL
  6
CONTINUOUS
 62
     5
 66
     1
 10
0.0
 20
0.0
 30
0.0
  0
VERTEX
  5
74A
  8
DETAIL
  6
CONTINUOUS
 62
     5
 10
6.0113893572469124
 20
-24.040942786949699
 30
0.0
  0
VERTEX
  5
74B
  8
DETAIL
  6
CONTINUOUS
 62
     5
 10
6.0549721788145936
 20
-24.040942786949699
 30
0.0
  0
VERTEX
  5
74C
  8
DETAIL
  6
CONTINUOUS
 62
     5
 10
6.1673699818049377
 20
-24.040942786949699
 30
0.0
  0
VERTEX
  5
74D
  8
DETAIL
  6
CONTINUOUS
 62
     5
 10
6.3210567736488761
 20
-24.040942786949699
 30
0.0
  0
VERTEX
  5
74E
  8
DETAIL
  6
CONTINUOUS
 62
     5
 10
6.4885065617773421
 20
-24.040942786949699
 30
0.0
  0
VERTEX
  5
74F
  8
DETAIL
  6
CONTINUOUS
 62
     5
 10
6.6421933536212796
 20
-24.040942786949699
 30
0.0
  0
VERTEX
  5
750
  8
DETAIL
  6
CONTINUOUS
 62
     5
 10
6.7545911566116237
 20
-24.040942786949699
 30
0.0
  0
VERTEX
  5
751
  8
DETAIL
  6
CONTINUOUS
 62
     5
 10
6.7981739781793058
 20
-24.040942786949699
 30
0.0
  0
SEQEND
  5
752
  8
DETAIL
  6
CONTINUOUS
 62
     5
  0
POLYLINE
  5
3DE
  8
DETAIL
  6
CONTINUOUS
 62
     5
 66
     1
 10
0.0
 20
0.0
 30
0.0
  0
VERTEX
  5
753
  8
DETAIL
  6
CONTINUOUS
 62
     5
 10
6.7981739781793058
 20
-24.040942786949699
 30
0.0
  0
VERTEX
  5
754
  8
DETAIL
  6
CONTINUOUS
 62
     5
 10
7.0786110739261261
 20
-24.00565496268425
 30
0.0
  0
VERTEX
  5
755
  8
DETAIL
  6
CONTINUOUS
 62
     5
 10
7.304834793168367
 20
-23.905815198388311
 30
0.0
  0
VERTEX
  5
756
  8
DETAIL
  6
CONTINUOUS
 62
     5
 10
7.4721885101856449
 20
-23.75045905681262
 30
0.0
  0
VERTEX
  5
757
  8
DETAIL
  6
CONTINUOUS
 62
     5
 10
7.5760155992576301
 20
-23.548622100707838
 30
0.0
  0
VERTEX
  5
758
  8
DETAIL
  6
CONTINUOUS
 62
     5
 10
7.6116594346639204
 20
-23.30933989282472
 30
0.0
  0
VERTEX
  5
759
  8
DETAIL
  6
CONTINUOUS
 62
     5
 10
7.5834633523210613
 20
-23.109482358662149
 30
0.0
  0
VERTEX
  5
75A
  8
DETAIL
  6
CONTINUOUS
 62
     5
 10
7.5061377325625642
 20
-22.929639770829329
 30
0.0
  0
VERTEX
  5
75B
  8
DETAIL
  6
CONTINUOUS
 62
     5
 10
7.390576516293577
 20
-22.77861272472423
 30
0.0
  0
VERTEX
  5
75C
  8
DETAIL
  6
CONTINUOUS
 62
     5
 10
7.2476736444192076
 20
-22.665201815744808
 30
0.0
  0
VERTEX
  5
75D
  8
DETAIL
  6
CONTINUOUS
 62
     5
 10
7.0883230578446037
 20
-22.598207639289061
 30
0.0
  0
SEQEND
  5
75E
  8
DETAIL
  6
CONTINUOUS
 62
     5
  0
POLYLINE
  5
3DF
  8
DETAIL
  6
CONTINUOUS
 62
     5
 66
     1
 10
0.0
 20
0.0
 30
0.0
  0
VERTEX
  5
75F
  8
DETAIL
  6
CONTINUOUS
 62
     5
 10
7.0883230578446037
 20
-22.598207639289061
 30
0.0
  0
VERTEX
  5
760
  8
DETAIL
  6
CONTINUOUS
 62
     5
 10
7.2251844206612068
 20
-22.541060730986061
 30
0.0
  0
VERTEX
  5
761
  8
DETAIL
  6
CONTINUOUS
 62
     5
 10
7.3434192805968053
 20
-22.44627632488832
 30
0.0
  0
VERTEX
  5
762
  8
DETAIL
  6
CONTINUOUS
 62
     5
 10
7.4362563057553919
 20
-22.31989949016501
 30
0.0
  0
VERTEX
  5
763
  8
DETAIL
  6
CONTINUOUS
 62
     5
 10
7.4969241642409372
 20
-22.16797529598529
 30
0.0
  0
VERTEX
  5
764
  8
DETAIL
  6
CONTINUOUS
 62
     5
 10
7.5186515241574616
 20
-21.996548811518331
 30
0.0
  0
VERTEX
  5
765
  8
DETAIL
  6
CONTINUOUS
 62
     5
 10
7.483520344793873
 20
-21.773764159895372
 30
0.0
  0
VERTEX
  5
766
  8
DETAIL
  6
CONTINUOUS
 62
     5
 10
7.379223321016382
 20
-21.589257826119649
 30
0.0
  0
VERTEX
  5
767
  8
DETAIL
  6
CONTINUOUS
 62
     5
 10
7.2074052242949023
 20
-21.44948073206054
 30
0.0
  0
VERTEX
  5
768
  8
DETAIL
  6
CONTINUOUS
 62
     5
 10
6.9697108260993437
 20
-21.360883799587558
 30
0.0
  0
VERTEX
  5
769
  8
DETAIL
  6
CONTINUOUS
 62
     5
 10
6.6677848978996499
 20
-21.32991795057
 30
0.0
  0
SEQEND
  5
76A
  8
DETAIL
  6
CONTINUOUS
 62
     5
  0
POLYLINE
  5
3E0
  8
DETAIL
  6
CONTINUOUS
 62
     5
 66
     1
 10
0.0
 20
0.0
 30
0.0
  0
VERTEX
  5
76B
  8
DETAIL
  6
CONTINUOUS
 62
     5
 10
6.6677848978996499
 20
-21.32991795057
 30
0.0
  0
VERTEX
  5
76C
  8
DETAIL
  6
CONTINUOUS
 62
     5
 10
6.6314247950646603
 20
-21.32991795057
 30
0.0
  0
VERTEX
  5
76D
  8
DETAIL
  6
CONTINUOUS
 62
     5
 10
6.5376540035428397
 20
-21.32991795057
 30
0.0
  0
VERTEX
  5
76E
  8
DETAIL
  6
CONTINUOUS
 62
     5
 10
6.409436798808926
 20
-21.32991795057
 30
0.0
  0
VERTEX
  5
76F
  8
DETAIL
  6
CONTINUOUS
 62
     5
 10
6.2697374563376371
 20
-21.32991795057
 30
0.0
  0
VERTEX
  5
770
  8
DETAIL
  6
CONTINUOUS
 62
     5
 10
6.1415202516037217
 20
-21.32991795057
 30
0.0
  0
VERTEX
  5
771
  8
DETAIL
  6
CONTINUOUS
 62
     5
 10
6.047749460081902
 20
-21.32991795057
 30
0.0
  0
VERTEX
  5
772
  8
DETAIL
  6
CONTINUOUS
 62
     5
 10
6.0113893572469124
 20
-21.32991795057
 30
0.0
  0
SEQEND
  5
773
  8
DETAIL
  6
CONTINUOUS
 62
     5
  0
POLYLINE
  5
3E1
  8
DETAIL
  6
CONTINUOUS
 62
     5
 66
     1
 10
0.0
 20
0.0
 30
0.0
  0
VERTEX
  5
774
  8
DETAIL
  6
CONTINUOUS
 62
     5
 10
6.0113893572469124
 20
-21.32991795057
 30
0.0
  0
VERTEX
  5
775
  8
DETAIL
  6
CONTINUOUS
 62
     5
 10
5.9803292016047598
 20
-21.32991795057
 30
0.0
  0
VERTEX
  5
776
  8
DETAIL
  6
CONTINUOUS
 62
     5
 10
5.9002266949486852
 20
-21.32991795057
 30
0.0
  0
VERTEX
  5
777
  8
DETAIL
  6
CONTINUOUS
 62
     5
 10
5.7906987776842689
 20
-21.32991795057
 30
0.0
  0
VERTEX
  5
778
  8
DETAIL
  6
CONTINUOUS
 62
     5
 10
5.6713623902170553
 20
-21.32991795057
 30
0.0
  0
VERTEX
  5
779
  8
DETAIL
  6
CONTINUOUS
 62
     5
 10
5.5618344729526248
 20
-21.32991795057
 30
0.0
  0
VERTEX
  5
77A
  8
DETAIL
  6
CONTINUOUS
 62
     5
 10
5.4817319662965502
 20
-21.32991795057
 30
0.0
  0
VERTEX
  5
77B
  8
DETAIL
  6
CONTINUOUS
 62
     5
 10
5.4506718106543977
 20
-21.32991795057
 30
0.0
  0
SEQEND
  5
77C
  8
DETAIL
  6
CONTINUOUS
 62
     5
  0
POLYLINE
  5
3E2
  8
DETAIL
  6
CONTINUOUS
 62
     5
 66
     1
 10
0.0
 20
0.0
 30
0.0
  0
VERTEX
  5
77D
  8
DETAIL
  6
CONTINUOUS
 62
     5
 10
5.4506718106543977
 20
-21.32991795057
 30
0.0
  0
VERTEX
  5
77E
  8
DETAIL
  6
CONTINUOUS
 62
     5
 10
5.4504746033169624
 20
-21.32991795057
 30
0.0
  0
VERTEX
  5
77F
  8
DETAIL
  6
CONTINUOUS
 62
     5
 10
5.4499660159730752
 20
-21.32991795057
 30
0.0
  0
VERTEX
  5
780
  8
DETAIL
  6
CONTINUOUS
 62
     5
 10
5.4492706006252831
 20
-21.32991795057
 30
0.0
  0
VERTEX
  5
781
  8
DETAIL
  6
CONTINUOUS
 62
     5
 10
5.448512909276217
 20
-21.32991795057
 30
0.0
  0
VERTEX
  5
782
  8
DETAIL
  6
CONTINUOUS
 62
     5
 10
5.447817493928425
 20
-21.32991795057
 30
0.0
  0
VERTEX
  5
783
  8
DETAIL
  6
CONTINUOUS
 62
     5
 10
5.4473089065845377
 20
-21.32991795057
 30
0.0
  0
VERTEX
  5
784
  8
DETAIL
  6
CONTINUOUS
 62
     5
 10
5.4471116992471016
 20
-21.32991795057
 30
0.0
  0
SEQEND
  5
785
  8
DETAIL
  6
CONTINUOUS
 62
     5
  0
POLYLINE
  5
3E3
  8
DETAIL
  6
CONTINUOUS
 62
     5
 66
     1
 10
0.0
 20
0.0
 30
0.0
  0
VERTEX
  5
786
  8
DETAIL
  6
CONTINUOUS
 62
     5
 10
5.4471116992471016
 20
-21.32991795057
 30
0.0
  0
VERTEX
  5
787
  8
DETAIL
  6
CONTINUOUS
 62
     5
 10
5.4471116992471016
 20
-21.480091338007941
 30
0.0
  0
VERTEX
  5
788
  8
DETAIL
  6
CONTINUOUS
 62
     5
 10
5.4471116992471016
 20
-21.8673806003479
 30
0.0
  0
VERTEX
  5
789
  8
DETAIL
  6
CONTINUOUS
 62
     5
 10
5.4471116992471016
 20
-22.396939387629061
 30
0.0
  0
VERTEX
  5
78A
  8
DETAIL
  6
CONTINUOUS
 62
     5
 10
5.4471116992471016
 20
-22.973921349890631
 30
0.0
  0
VERTEX
  5
78B
  8
DETAIL
  6
CONTINUOUS
 62
     5
 10
5.4471116992471016
 20
-23.503480137171788
 30
0.0
  0
VERTEX
  5
78C
  8
DETAIL
  6
CONTINUOUS
 62
     5
 10
5.4471116992471016
 20
-23.890769399511768
 30
0.0
  0
VERTEX
  5
78D
  8
DETAIL
  6
CONTINUOUS
 62
     5
 10
5.4471116992471016
 20
-24.040942786949699
 30
0.0
  0
SEQEND
  5
78E
  8
DETAIL
  6
CONTINUOUS
 62
     5
  0
POLYLINE
  5
3E4
  8
DETAIL
  6
CONTINUOUS
 62
     5
 66
     1
 10
0.0
 20
0.0
 30
0.0
  0
VERTEX
  5
78F
  8
DETAIL
  6
CONTINUOUS
 62
     5
 10
5.4471116992471016
 20
-24.040942786949699
 30
0.0
  0
VERTEX
  5
790
  8
DETAIL
  6
CONTINUOUS
 62
     5
 10
5.4473089065845377
 20
-24.040942786949699
 30
0.0
  0
VERTEX
  5
791
  8
DETAIL
  6
CONTINUOUS
 62
     5
 10
5.447817493928425
 20
-24.040942786949699
 30
0.0
  0
VERTEX
  5
792
  8
DETAIL
  6
CONTINUOUS
 62
     5
 10
5.448512909276217
 20
-24.040942786949699
 30
0.0
  0
VERTEX
  5
793
  8
DETAIL
  6
CONTINUOUS
 62
     5
 10
5.4492706006252831
 20
-24.040942786949699
 30
0.0
  0
VERTEX
  5
794
  8
DETAIL
  6
CONTINUOUS
 62
     5
 10
5.4499660159730752
 20
-24.040942786949699
 30
0.0
  0
VERTEX
  5
795
  8
DETAIL
  6
CONTINUOUS
 62
     5
 10
5.4504746033169624
 20
-24.040942786949699
 30
0.0
  0
VERTEX
  5
796
  8
DETAIL
  6
CONTINUOUS
 62
     5
 10
5.4506718106543977
 20
-24.040942786949699
 30
0.0
  0
SEQEND
  5
797
  8
DETAIL
  6
CONTINUOUS
 62
     5
  0
POLYLINE
  5
3E5
  8
DETAIL
  6
CONTINUOUS
 62
     5
 66
     1
 10
0.0
 20
0.0
 30
0.0
  0
VERTEX
  5
798
  8
DETAIL
  6
CONTINUOUS
 62
     5
 10
5.4506718106543977
 20
-24.040942786949699
 30
0.0
  0
VERTEX
  5
799
  8
DETAIL
  6
CONTINUOUS
 62
     5
 10
5.4817319662965502
 20
-24.040942786949699
 30
0.0
  0
VERTEX
  5
79A
  8
DETAIL
  6
CONTINUOUS
 62
     5
 10
5.5618344729526248
 20
-24.040942786949699
 30
0.0
  0
VERTEX
  5
79B
  8
DETAIL
  6
CONTINUOUS
 62
     5
 10
5.6713623902170553
 20
-24.040942786949699
 30
0.0
  0
VERTEX
  5
79C
  8
DETAIL
  6
CONTINUOUS
 62
     5
 10
5.7906987776842547
 20
-24.040942786949699
 30
0.0
  0
VERTEX
  5
79D
  8
DETAIL
  6
CONTINUOUS
 62
     5
 10
5.9002266949486852
 20
-24.040942786949699
 30
0.0
  0
VERTEX
  5
79E
  8
DETAIL
  6
CONTINUOUS
 62
     5
 10
5.9803292016047598
 20
-24.040942786949699
 30
0.0
  0
VERTEX
  5
79F
  8
DETAIL
  6
CONTINUOUS
 62
     5
 10
6.0113893572469124
 20
-24.040942786949699
 30
0.0
  0
SEQEND
  5
7A0
  8
DETAIL
  6
CONTINUOUS
 62
     5
  0
POLYLINE
  5
3E6
  8
DETAIL
  6
CONTINUOUS
 62
     5
 66
     1
 10
0.0
 20
0.0
 30
0.0
  0
VERTEX
  5
7A1
  8
DETAIL
  6
CONTINUOUS
 62
     5
 10
6.6286236724230321
 20
-23.630194933376291
 30
0.0
  0
VERTEX
  5
7A2
  8
DETAIL
  6
CONTINUOUS
 62
     5
 10
6.5932742571922631
 20
-23.630194933376291
 30
0.0
  0
VERTEX
  5
7A3
  8
DETAIL
  6
CONTINUOUS
 62
     5
 10
6.502109975807655
 20
-23.630194933376291
 30
0.0
  0
VERTEX
  5
7A4
  8
DETAIL
  6
CONTINUOUS
 62
     5
 10
6.37745677473076
 20
-23.630194933376291
 30
0.0
  0
VERTEX
  5
7A5
  8
DETAIL
  6
CONTINUOUS
 62
     5
 10
6.2416406004230822
 20
-23.630194933376291
 30
0.0
  0
VERTEX
  5
7A6
  8
DETAIL
  6
CONTINUOUS
 62
     5
 10
6.1169873993461863
 20
-23.630194933376291
 30
0.0
  0
VERTEX
  5
7A7
  8
DETAIL
  6
CONTINUOUS
 62
     5
 10
6.0258231179615791
 20
-23.630194933376291
 30
0.0
  0
VERTEX
  5
7A8
  8
DETAIL
  6
CONTINUOUS
 62
     5
 10
5.9904737027308101
 20
-23.630194933376291
 30
0.0
  0
SEQEND
  5
7A9
  8
DETAIL
  6
CONTINUOUS
 62
     5
  0
POLYLINE
  5
3E7
  8
DETAIL
  6
CONTINUOUS
 62
     5
 66
     1
 10
0.0
 20
0.0
 30
0.0
  0
VERTEX
  5
7AA
  8
DETAIL
  6
CONTINUOUS
 62
     5
 10
5.9904737027308101
 20
-23.630194933376291
 30
0.0
  0
VERTEX
  5
7AB
  8
DETAIL
  6
CONTINUOUS
 62
     5
 10
5.9904737027308101
 20
-23.586587460891469
 30
0.0
  0
VERTEX
  5
7AC
  8
DETAIL
  6
CONTINUOUS
 62
     5
 10
5.9904737027308101
 20
-23.474126084483199
 30
0.0
  0
VERTEX
  5
7AD
  8
DETAIL
  6
CONTINUOUS
 62
     5
 10
5.9904737027308101
 20
-23.320352365720879
 30
0.0
  0
VERTEX
  5
7AE
  8
DETAIL
  6
CONTINUOUS
 62
     5
 10
5.9904737027308101
 20
-23.152807866173909
 30
0.0
  0
VERTEX
  5
7AF
  8
DETAIL
  6
CONTINUOUS
 62
     5
 10
5.9904737027308101
 20
-22.999034147411582
 30
0.0
  0
VERTEX
  5
7B0
  8
DETAIL
  6
CONTINUOUS
 62
     5
 10
5.9904737027308101
 20
-22.88657277100333
 30
0.0
  0
VERTEX
  5
7B1
  8
DETAIL
  6
CONTINUOUS
 62
     5
 10
5.9904737027308101
 20
-22.842965298518479
 30
0.0
  0
SEQEND
  5
7B2
  8
DETAIL
  6
CONTINUOUS
 62
     5
  0
POLYLINE
  5
3E8
  8
DETAIL
  6
CONTINUOUS
 62
     5
 66
     1
 10
0.0
 20
0.0
 30
0.0
  0
VERTEX
  5
7B3
  8
DETAIL
  6
CONTINUOUS
 62
     5
 10
5.9904737027308101
 20
-22.842965298518479
 30
0.0
  0
VERTEX
  5
7B4
  8
DETAIL
  6
CONTINUOUS
 62
     5
 10
6.0254287032867921
 20
-22.842965298518521
 30
0.0
  0
VERTEX
  5
7B5
  8
DETAIL
  6
CONTINUOUS
 62
     5
 10
6.1155758099837954
 20
-22.842965298518479
 30
0.0
  0
VERTEX
  5
7B6
  8
DETAIL
  6
CONTINUOUS
 62
     5
 10
6.2388381803654047
 20
-22.842965298518479
 30
0.0
  0
VERTEX
  5
7B7
  8
DETAIL
  6
CONTINUOUS
 62
     5
 10
6.3731389719752078
 20
-22.842965298518479
 30
0.0
  0
VERTEX
  5
7B8
  8
DETAIL
  6
CONTINUOUS
 62
     5
 10
6.4964013423568181
 20
-22.842965298518521
 30
0.0
  0
VERTEX
  5
7B9
  8
DETAIL
  6
CONTINUOUS
 62
     5
 10
6.5865484490538222
 20
-22.842965298518479
 30
0.0
  0
VERTEX
  5
7BA
  8
DETAIL
  6
CONTINUOUS
 62
     5
 10
6.6215034496098042
 20
-22.842965298518479
 30
0.0
  0
SEQEND
  5
7BB
  8
DETAIL
  6
CONTINUOUS
 62
     5
  0
POLYLINE
  5
3E9
  8
DETAIL
  6
CONTINUOUS
 62
     5
 66
     1
 10
0.0
 20
0.0
 30
0.0
  0
VERTEX
  5
7BC
  8
DETAIL
  6
CONTINUOUS
 62
     5
 10
6.6215034496098042
 20
-22.842965298518479
 30
0.0
  0
VERTEX
  5
7BD
  8
DETAIL
  6
CONTINUOUS
 62
     5
 10
6.7565171146063534
 20
-22.858864756061621
 30
0.0
  0
VERTEX
  5
7BE
  8
DETAIL
  6
CONTINUOUS
 62
     5
 10
6.8742072774969349
 20
-22.906506166908741
 30
0.0
  0
VERTEX
  5
7BF
  8
DETAIL
  6
CONTINUOUS
 62
     5
 10
6.9672899503428454
 20
-22.985804088386551
 30
0.0
  0
VERTEX
  5
7C0
  8
DETAIL
  6
CONTINUOUS
 62
     5
 10
7.0284811452054319
 20
-23.096673077821581
 30
0.0
  0
VERTEX
  5
7C1
  8
DETAIL
  6
CONTINUOUS
 62
     5
 10
7.0504968741460017
 20
-23.23902769254051
 30
0.0
  0
VERTEX
  5
7C2
  8
DETAIL
  6
CONTINUOUS
 62
     5
 10
7.0302896818001548
 20
-23.364809988657619
 30
0.0
  0
VERTEX
  5
7C3
  8
DETAIL
  6
CONTINUOUS
 62
     5
 10
6.973000369039525
 20
-23.472457077268661
 30
0.0
  0
VERTEX
  5
7C4
  8
DETAIL
  6
CONTINUOUS
 62
     5
 10
6.8836273322795298
 20
-23.55632974190473
 30
0.0
  0
VERTEX
  5
7C5
  8
DETAIL
  6
CONTINUOUS
 62
     5
 10
6.76716896793556
 20
-23.61078876609692
 30
0.0
  0
VERTEX
  5
7C6
  8
DETAIL
  6
CONTINUOUS
 62
     5
 10
6.6286236724230321
 20
-23.630194933376291
 30
0.0
  0
SEQEND
  5
7C7
  8
DETAIL
  6
CONTINUOUS
 62
     5
  0
POLYLINE
  5
3EA
  8
DETAIL
  6
CONTINUOUS
 62
     5
 66
     1
 10
0.0
 20
0.0
 30
0.0
  0
VERTEX
  5
7C8
  8
DETAIL
  6
CONTINUOUS
 62
     5
 10
6.668674925751815
 20
-21.759801402958828
 30
0.0
  0
VERTEX
  5
7C9
  8
DETAIL
  6
CONTINUOUS
 62
     5
 10
6.7623343366454662
 20
-21.776039071085759
 30
0.0
  0
VERTEX
  5
7CA
  8
DETAIL
  6
CONTINUOUS
 62
     5
 10
6.8497564323541944
 20
-21.82134860896161
 30
0.0
  0
VERTEX
  5
7CB
  8
DETAIL
  6
CONTINUOUS
 62
     5
 10
6.92256783084889
 20
-21.890624816828971
 30
0.0
  0
VERTEX
  5
7CC
  8
DETAIL
  6
CONTINUOUS
 62
     5
 10
6.9723951501003958
 20
-21.978762494930429
 30
0.0
  0
VERTEX
  5
7CD
  8
DETAIL
  6
CONTINUOUS
 62
     5
 10
6.9908650080795951
 20
-22.08065644350858
 30
0.0
  0
VERTEX
  5
7CE
  8
DETAIL
  6
CONTINUOUS
 62
     5
 10
6.9769414123670108
 20
-22.178652070095008
 30
0.0
  0
VERTEX
  5
7CF
  8
DETAIL
  6
CONTINUOUS
 62
     5
 10
6.9350139803274402
 20
-22.271008480213009
 30
0.0
  0
VERTEX
  5
7D0
  8
DETAIL
  6
CONTINUOUS
 62
     5
 10
6.864847744608098
 20
-22.348455143758908
 30
0.0
  0
VERTEX
  5
7D1
  8
DETAIL
  6
CONTINUOUS
 62
     5
 10
6.7662077378562344
 20
-22.401721530629128
 30
0.0
  0
VERTEX
  5
7D2
  8
DETAIL
  6
CONTINUOUS
 62
     5
 10
6.6388589927190607
 20
-22.421537110720021
 30
0.0
  0
SEQEND
  5
7D3
  8
DETAIL
  6
CONTINUOUS
 62
     5
  0
POLYLINE
  5
3EB
  8
DETAIL
  6
CONTINUOUS
 62
     5
 66
     1
 10
0.0
 20
0.0
 30
0.0
  0
VERTEX
  5
7D4
  8
DETAIL
  6
CONTINUOUS
 62
     5
 10
6.6388589927190607
 20
-22.421537110720021
 30
0.0
  0
VERTEX
  5
7D5
  8
DETAIL
  6
CONTINUOUS
 62
     5
 10
6.6029426063931851
 20
-22.421537110720021
 30
0.0
  0
VERTEX
  5
7D6
  8
DETAIL
  6
CONTINUOUS
 62
     5
 10
6.5103161363948621
 20
-22.421537110720021
 30
0.0
  0
VERTEX
  5
7D7
  8
DETAIL
  6
CONTINUOUS
 62
     5
 10
6.3836636161930747
 20
-22.421537110720021
 30
0.0
  0
VERTEX
  5
7D8
  8
DETAIL
  6
CONTINUOUS
 62
     5
 10
6.2456690792567988
 20
-22.421537110720021
 30
0.0
  0
VERTEX
  5
7D9
  8
DETAIL
  6
CONTINUOUS
 62
     5
 10
6.1190165590550123
 20
-22.421537110720021
 30
0.0
  0
VERTEX
  5
7DA
  8
DETAIL
  6
CONTINUOUS
 62
     5
 10
6.0263900890566902
 20
-22.421537110720021
 30
0.0
  0
VERTEX
  5
7DB
  8
DETAIL
  6
CONTINUOUS
 62
     5
 10
5.9904737027308101
 20
-22.421537110720021
 30
0.0
  0
SEQEND
  5
7DC
  8
DETAIL
  6
CONTINUOUS
 62
     5
  0
POLYLINE
  5
3EC
  8
DETAIL
  6
CONTINUOUS
 62
     5
 66
     1
 10
0.0
 20
0.0
 30
0.0
  0
VERTEX
  5
7DD
  8
DETAIL
  6
CONTINUOUS
 62
     5
 10
5.9904737027308101
 20
-22.421537110720021
 30
0.0
  0
VERTEX
  5
7DE
  8
DETAIL
  6
CONTINUOUS
 62
     5
 10
5.9904737027308101
 20
-22.384881196879022
 30
0.0
  0
VERTEX
  5
7DF
  8
DETAIL
  6
CONTINUOUS
 62
     5
 10
5.9904737027308101
 20
-22.290347524341701
 30
0.0
  0
VERTEX
  5
7E0
  8
DETAIL
  6
CONTINUOUS
 62
     5
 10
5.9904737027308101
 20
-22.16108719658661
 30
0.0
  0
VERTEX
  5
7E1
  8
DETAIL
  6
CONTINUOUS
 62
     5
 10
5.9904737027308101
 20
-22.020251317092239
 30
0.0
  0
VERTEX
  5
7E2
  8
DETAIL
  6
CONTINUOUS
 62
     5
 10
5.9904737027308101
 20
-21.890990989337151
 30
0.0
  0
VERTEX
  5
7E3
  8
DETAIL
  6
CONTINUOUS
 62
     5
 10
5.9904737027308101
 20
-21.796457316799831
 30
0.0
  0
VERTEX
  5
7E4
  8
DETAIL
  6
CONTINUOUS
 62
     5
 10
5.9904737027308101
 20
-21.759801402958828
 30
0.0
  0
SEQEND
  5
7E5
  8
DETAIL
  6
CONTINUOUS
 62
     5
  0
POLYLINE
  5
3ED
  8
DETAIL
  6
CONTINUOUS
 62
     5
 66
     1
 10
0.0
 20
0.0
 30
0.0
  0
VERTEX
  5
7E6
  8
DETAIL
  6
CONTINUOUS
 62
     5
 10
5.9904737027308101
 20
-21.759801402958828
 30
0.0
  0
VERTEX
  5
7E7
  8
DETAIL
  6
CONTINUOUS
 62
     5
 10
6.0280417005074858
 20
-21.759801402958821
 30
0.0
  0
VERTEX
  5
7E8
  8
DETAIL
  6
CONTINUOUS
 62
     5
 10
6.1249275895104907
 20
-21.759801402958828
 30
0.0
  0
VERTEX
  5
7E9
  8
DETAIL
  6
CONTINUOUS
 62
     5
 10
6.2574042132492869
 20
-21.759801402958828
 30
0.0
  0
VERTEX
  5
7EA
  8
DETAIL
  6
CONTINUOUS
 62
     5
 10
6.4017444152333383
 20
-21.759801402958828
 30
0.0
  0
VERTEX
  5
7EB
  8
DETAIL
  6
CONTINUOUS
 62
     5
 10
6.5342210389721336
 20
-21.759801402958828
 30
0.0
  0
VERTEX
  5
7EC
  8
DETAIL
  6
CONTINUOUS
 62
     5
 10
6.6311069279751393
 20
-21.759801402958828
 30
0.0
  0
VERTEX
  5
7ED
  8
DETAIL
  6
CONTINUOUS
 62
     5
 10
6.668674925751815
 20
-21.759801402958828
 30
0.0
  0
SEQEND
  5
7EE
  8
DETAIL
  6
CONTINUOUS
 62
     5
  0
POLYLINE
  5
3EE
  8
DETAIL
  6
CONTINUOUS
 62
     5
 66
     1
 10
0.0
 20
0.0
 30
0.0
  0
VERTEX
  5
7EF
  8
DETAIL
  6
CONTINUOUS
 62
     5
 10
7.5413472343774401
 20
-25.90288105277682
 30
0.0
  0
VERTEX
  5
7F0
  8
DETAIL
  6
CONTINUOUS
 62
     5
 10
7.679974412451628
 20
-25.84320290526248
 30
0.0
  0
VERTEX
  5
7F1
  8
DETAIL
  6
CONTINUOUS
 62
     5
 10
7.8101427658232581
 20
-25.749176802893999
 30
0.0
  0
VERTEX
  5
7F2
  8
DETAIL
  6
CONTINUOUS
 62
     5
 10
7.9190145327587791
 20
-25.619350220217171
 30
0.0
  0
VERTEX
  5
7F3
  8
DETAIL
  6
CONTINUOUS
 62
     5
 10
7.9937519515246862
 20
-25.452270631777719
 30
0.0
  0
VERTEX
  5
7F4
  8
DETAIL
  6
CONTINUOUS
 62
     5
 10
8.0215172603874407
 20
-25.24648551212136
 30
0.0
  0
VERTEX
  5
7F5
  8
DETAIL
  6
CONTINUOUS
 62
     5
 10
7.9831214588636783
 20
-24.981994155367602
 30
0.0
  0
VERTEX
  5
7F6
  8
DETAIL
  6
CONTINUOUS
 62
     5
 10
7.8711381545586221
 20
-24.77062678102731
 30
0.0
  0
VERTEX
  5
7F7
  8
DETAIL
  6
CONTINUOUS
 62
     5
 10
7.6903734978715468
 20
-24.615630210703859
 30
0.0
  0
VERTEX
  5
7F8
  8
DETAIL
  6
CONTINUOUS
 62
     5
 10
7.4456336392017732
 20
-24.520251266000621
 30
0.0
  0
VERTEX
  5
7F9
  8
DETAIL
  6
CONTINUOUS
 62
     5
 10
7.1417247289485877
 20
-24.487736768521021
 30
0.0
  0
SEQEND
  5
7FA
  8
DETAIL
  6
CONTINUOUS
 62
     5
  0
POLYLINE
  5
3EF
  8
DETAIL
  6
CONTINUOUS
 62
     5
 66
     1
 10
0.0
 20
0.0
 30
0.0
  0
VERTEX
  5
7FB
  8
DETAIL
  6
CONTINUOUS
 62
     5
 10
7.1417247289485877
 20
-24.487736768521021
 30
0.0
  0
VERTEX
  5
7FC
  8
DETAIL
  6
CONTINUOUS
 62
     5
 10
7.1031953454020416
 20
-24.487736768521039
 30
0.0
  0
VERTEX
  5
7FD
  8
DETAIL
  6
CONTINUOUS
 62
     5
 10
7.0038300930977746
 20
-24.487736768521021
 30
0.0
  0
VERTEX
  5
7FE
  8
DETAIL
  6
CONTINUOUS
 62
     5
 10
6.8679633195388874
 20
-24.487736768521021
 30
0.0
  0
VERTEX
  5
7FF
  8
DETAIL
  6
CONTINUOUS
 62
     5
 10
6.719929372228477
 20
-24.487736768521021
 30
0.0
  0
VERTEX
  5
800
  8
DETAIL
  6
CONTINUOUS
 62
     5
 10
6.5840625986695889
 20
-24.487736768521039
 30
0.0
  0
VERTEX
  5
801
  8
DETAIL
  6
CONTINUOUS
 62
     5
 10
6.4846973463653219
 20
-24.487736768521021
 30
0.0
  0
VERTEX
  5
802
  8
DETAIL
  6
CONTINUOUS
 62
     5
 10
6.4461679628187758
 20
-24.487736768521021
 30
0.0
  0
SEQEND
  5
803
  8
DETAIL
  6
CONTINUOUS
 62
     5
  0
POLYLINE
  5
3F0
  8
DETAIL
  6
CONTINUOUS
 62
     5
 66
     1
 10
0.0
 20
0.0
 30
0.0
  0
VERTEX
  5
804
  8
DETAIL
  6
CONTINUOUS
 62
     5
 10
6.4461679628187758
 20
-24.487736768521021
 30
0.0
  0
VERTEX
  5
805
  8
DETAIL
  6
CONTINUOUS
 62
     5
 10
6.4161924475323806
 20
-24.487736768521039
 30
0.0
  0
VERTEX
  5
806
  8
DETAIL
  6
CONTINUOUS
 62
     5
 10
6.3388871712674577
 20
-24.487736768521021
 30
0.0
  0
VERTEX
  5
807
  8
DETAIL
  6
CONTINUOUS
 62
     5
 10
6.2331840384154296
 20
-24.487736768521021
 30
0.0
  0
VERTEX
  5
808
  8
DETAIL
  6
CONTINUOUS
 62
     5
 10
6.1180149533676911
 20
-24.487736768521021
 30
0.0
  0
VERTEX
  5
809
  8
DETAIL
  6
CONTINUOUS
 62
     5
 10
6.012311820515662
 20
-24.487736768521039
 30
0.0
  0
VERTEX
  5
80A
  8
DETAIL
  6
CONTINUOUS
 62
     5
 10
5.93500654425074
 20
-24.487736768521021
 30
0.0
  0
VERTEX
  5
80B
  8
DETAIL
  6
CONTINUOUS
 62
     5
 10
5.905031028964344
 20
-24.487736768521021
 30
0.0
  0
SEQEND
  5
80C
  8
DETAIL
  6
CONTINUOUS
 62
     5
  0
POLYLINE
  5
3F1
  8
DETAIL
  6
CONTINUOUS
 62
     5
 66
     1
 10
0.0
 20
0.0
 30
0.0
  0
VERTEX
  5
80D
  8
DETAIL
  6
CONTINUOUS
 62
     5
 10
5.905031028964344
 20
-24.487736768521021
 30
0.0
  0
VERTEX
  5
80E
  8
DETAIL
  6
CONTINUOUS
 62
     5
 10
5.9047598688754164
 20
-24.487736768521021
 30
0.0
  0
VERTEX
  5
80F
  8
DETAIL
  6
CONTINUOUS
 62
     5
 10
5.904060561277646
 20
-24.487736768521021
 30
0.0
  0
VERTEX
  5
810
  8
DETAIL
  6
CONTINUOUS
 62
     5
 10
5.9031043651745563
 20
-24.487736768521021
 30
0.0
  0
VERTEX
  5
811
  8
DETAIL
  6
CONTINUOUS
 62
     5
 10
5.9020625395697124
 20
-24.487736768521021
 30
0.0
  0
VERTEX
  5
812
  8
DETAIL
  6
CONTINUOUS
 62
     5
 10
5.901106343466636
 20
-24.487736768521039
 30
0.0
  0
VERTEX
  5
813
  8
DETAIL
  6
CONTINUOUS
 62
     5
 10
5.9004070358688656
 20
-24.487736768521021
 30
0.0
  0
VERTEX
  5
814
  8
DETAIL
  6
CONTINUOUS
 62
     5
 10
5.900135875779938
 20
-24.487736768521021
 30
0.0
  0
SEQEND
  5
815
  8
DETAIL
  6
CONTINUOUS
 62
     5
  0
POLYLINE
  5
3F2
  8
DETAIL
  6
CONTINUOUS
 62
     5
 66
     1
 10
0.0
 20
0.0
 30
0.0
  0
VERTEX
  5
816
  8
DETAIL
  6
CONTINUOUS
 62
     5
 10
5.900135875779938
 20
-24.487736768521021
 30
0.0
  0
VERTEX
  5
817
  8
DETAIL
  6
CONTINUOUS
 62
     5
 10
5.900135875779938
 20
-24.63788550504194
 30
0.0
  0
VERTEX
  5
818
  8
DETAIL
  6
CONTINUOUS
 62
     5
 10
5.900135875779938
 20
-25.025111193964321
 30
0.0
  0
VERTEX
  5
819
  8
DETAIL
  6
CONTINUOUS
 62
     5
 10
5.900135875779938
 20
-25.554583054327541
 30
0.0
  0
VERTEX
  5
81A
  8
DETAIL
  6
CONTINUOUS
 62
     5
 10
5.900135875779938
 20
-26.131470305171071
 30
0.0
  0
VERTEX
  5
81B
  8
DETAIL
  6
CONTINUOUS
 62
     5
 10
5.900135875779938
 20
-26.660942165534319
 30
0.0
  0
VERTEX
  5
81C
  8
DETAIL
  6
CONTINUOUS
 62
     5
 10
5.900135875779938
 20
-27.048167854456679
 30
0.0
  0
VERTEX
  5
81D
  8
DETAIL
  6
CONTINUOUS
 62
     5
 10
5.900135875779938
 20
-27.198316590977601
 30
0.0
  0
SEQEND
  5
81E
  8
DETAIL
  6
CONTINUOUS
 62
     5
  0
POLYLINE
  5
3F3
  8
DETAIL
  6
CONTINUOUS
 62
     5
 66
     1
 10
0.0
 20
0.0
 30
0.0
  0
VERTEX
  5
81F
  8
DETAIL
  6
CONTINUOUS
 62
     5
 10
5.900135875779938
 20
-27.198316590977601
 30
0.0
  0
VERTEX
  5
820
  8
DETAIL
  6
CONTINUOUS
 62
     5
 10
5.930382551155275
 20
-27.198316590977591
 30
0.0
  0
VERTEX
  5
821
  8
DETAIL
  6
CONTINUOUS
 62
     5
 10
6.0083871350179541
 20
-27.198316590977591
 30
0.0
  0
VERTEX
  5
822
  8
DETAIL
  6
CONTINUOUS
 62
     5
 10
6.1150464639730719
 20
-27.198316590977591
 30
0.0
  0
VERTEX
  5
823
  8
DETAIL
  6
CONTINUOUS
 62
     5
 10
6.231257374625641
 20
-27.198316590977591
 30
0.0
  0
VERTEX
  5
824
  8
DETAIL
  6
CONTINUOUS
 62
     5
 10
6.3379167035807589
 20
-27.198316590977601
 30
0.0
  0
VERTEX
  5
825
  8
DETAIL
  6
CONTINUOUS
 62
     5
 10
6.4159212874434379
 20
-27.198316590977608
 30
0.0
  0
VERTEX
  5
826
  8
DETAIL
  6
CONTINUOUS
 62
     5
 10
6.4461679628187758
 20
-27.198316590977601
 30
0.0
  0
SEQEND
  5
827
  8
DETAIL
  6
CONTINUOUS
 62
     5
  0
POLYLINE
  5
3F4
  8
DETAIL
  6
CONTINUOUS
 62
     5
 66
     1
 10
0.0
 20
0.0
 30
0.0
  0
VERTEX
  5
828
  8
DETAIL
  6
CONTINUOUS
 62
     5
 10
6.4461679628187758
 20
-27.198316590977601
 30
0.0
  0
VERTEX
  5
829
  8
DETAIL
  6
CONTINUOUS
 62
     5
 10
6.4461679628187758
 20
-27.139252993423121
 30
0.0
  0
VERTEX
  5
82A
  8
DETAIL
  6
CONTINUOUS
 62
     5
 10
6.4461679628187758
 20
-26.986931083940519
 30
0.0
  0
VERTEX
  5
82B
  8
DETAIL
  6
CONTINUOUS
 62
     5
 10
6.4461679628187758
 20
-26.778654187301068
 30
0.0
  0
VERTEX
  5
82C
  8
DETAIL
  6
CONTINUOUS
 62
     5
 10
6.4461679628187758
 20
-26.551725628276021
 30
0.0
  0
VERTEX
  5
82D
  8
DETAIL
  6
CONTINUOUS
 62
     5
 10
6.4461679628187758
 20
-26.34344873163657
 30
0.0
  0
VERTEX
  5
82E
  8
DETAIL
  6
CONTINUOUS
 62
     5
 10
6.4461679628187758
 20
-26.191126822153969
 30
0.0
  0
VERTEX
  5
82F
  8
DETAIL
  6
CONTINUOUS
 62
     5
 10
6.4461679628187758
 20
-26.132063224599509
 30
0.0
  0
SEQEND
  5
830
  8
DETAIL
  6
CONTINUOUS
 62
     5
  0
POLYLINE
  5
3F5
  8
DETAIL
  6
CONTINUOUS
 62
     5
 66
     1
 10
0.0
 20
0.0
 30
0.0
  0
VERTEX
  5
831
  8
DETAIL
  6
CONTINUOUS
 62
     5
 10
6.4461679628187758
 20
-26.132063224599509
 30
0.0
  0
VERTEX
  5
832
  8
DETAIL
  6
CONTINUOUS
 62
     5
 10
6.4723718877771432
 20
-26.132063224599509
 30
0.0
  0
VERTEX
  5
833
  8
DETAIL
  6
CONTINUOUS
 62
     5
 10
6.5399504310908441
 20
-26.132063224599509
 30
0.0
  0
VERTEX
  5
834
  8
DETAIL
  6
CONTINUOUS
 62
     5
 10
6.6323537454177313
 20
-26.132063224599481
 30
0.0
  0
VERTEX
  5
835
  8
DETAIL
  6
CONTINUOUS
 62
     5
 10
6.7330319834156853
 20
-26.132063224599509
 30
0.0
  0
VERTEX
  5
836
  8
DETAIL
  6
CONTINUOUS
 62
     5
 10
6.8254352977425716
 20
-26.132063224599509
 30
0.0
  0
VERTEX
  5
837
  8
DETAIL
  6
CONTINUOUS
 62
     5
 10
6.8930138410562733
 20
-26.132063224599509
 30
0.0
  0
VERTEX
  5
838
  8
DETAIL
  6
CONTINUOUS
 62
     5
 10
6.919217766014639
 20
-26.132063224599509
 30
0.0
  0
SEQEND
  5
839
  8
DETAIL
  6
CONTINUOUS
 62
     5
  0
POLYLINE
  5
3F6
  8
DETAIL
  6
CONTINUOUS
 62
     5
 66
     1
 10
0.0
 20
0.0
 30
0.0
  0
VERTEX
  5
83A
  8
DETAIL
  6
CONTINUOUS
 62
     5
 10
6.919217766014639
 20
-26.132063224599509
 30
0.0
  0
VERTEX
  5
83B
  8
DETAIL
  6
CONTINUOUS
 62
     5
 10
7.031995712096176
 20
-26.140637851526719
 30
0.0
  0
VERTEX
  5
83C
  8
DETAIL
  6
CONTINUOUS
 62
     5
 10
7.1295082533621317
 20
-26.165240764285208
 30
0.0
  0
VERTEX
  5
83D
  8
DETAIL
  6
CONTINUOUS
 62
     5
 10
7.2121290458202898
 20
-26.20419051084026
 30
0.0
  0
VERTEX
  5
83E
  8
DETAIL
  6
CONTINUOUS
 62
     5
 10
7.2802317454783463
 20
-26.25580563915716
 30
0.0
  0
VERTEX
  5
83F
  8
DETAIL
  6
CONTINUOUS
 62
     5
 10
7.3341900083440663
 20
-26.318404697201199
 30
0.0
  0
VERTEX
  5
840
  8
DETAIL
  6
CONTINUOUS
 62
     5
 10
7.3743774904251751
 20
-26.39030623293764
 30
0.0
  0
VERTEX
  5
841
  8
DETAIL
  6
CONTINUOUS
 62
     5
 10
7.4011678477294254
 20
-26.469828794331761
 30
0.0
  0
SEQEND
  5
842
  8
DETAIL
  6
CONTINUOUS
 62
     5
  0
POLYLINE
  5
3F7
  8
DETAIL
  6
CONTINUOUS
 62
     5
 66
     1
 10
0.0
 20
0.0
 30
0.0
  0
VERTEX
  5
843
  8
DETAIL
  6
CONTINUOUS
 62
     5
 10
7.4011678477294254
 20
-26.469828794331761
 30
0.0
  0
VERTEX
  5
844
  8
DETAIL
  6
CONTINUOUS
 62
     5
 10
7.4192058320186609
 20
-26.567094826425858
 30
0.0
  0
VERTEX
  5
845
  8
DETAIL
  6
CONTINUOUS
 62
     5
 10
7.4317479591943254
 20
-26.67318069720227
 30
0.0
  0
VERTEX
  5
846
  8
DETAIL
  6
CONTINUOUS
 62
     5
 10
7.441090656803893
 20
-26.784155234079801
 30
0.0
  0
VERTEX
  5
847
  8
DETAIL
  6
CONTINUOUS
 62
     5
 10
7.4495303523948726
 20
-26.896087264477298
 30
0.0
  0
VERTEX
  5
848
  8
DETAIL
  6
CONTINUOUS
 62
     5
 10
7.4593634735147409
 20
-27.005045615813561
 30
0.0
  0
VERTEX
  5
849
  8
DETAIL
  6
CONTINUOUS
 62
     5
 10
7.4728864477109758
 20
-27.107099115507381
 30
0.0
  0
VERTEX
  5
84A
  8
DETAIL
  6
CONTINUOUS
 62
     5
 10
7.4923957025310983
 20
-27.198316590977601
 30
0.0
  0
SEQEND
  5
84B
  8
DETAIL
  6
CONTINUOUS
 62
     5
  0
POLYLINE
  5
3F8
  8
DETAIL
  6
CONTINUOUS
 62
     5
 66
     1
 10
0.0
 20
0.0
 30
0.0
  0
VERTEX
  5
84C
  8
DETAIL
  6
CONTINUOUS
 62
     5
 10
7.4923957025310983
 20
-27.198316590977601
 30
0.0
  0
VERTEX
  5
84D
  8
DETAIL
  6
CONTINUOUS
 62
     5
 10
7.5228888870781239
 20
-27.198316590977608
 30
0.0
  0
VERTEX
  5
84E
  8
DETAIL
  6
CONTINUOUS
 62
     5
 10
7.6015292051204852
 20
-27.198316590977601
 30
0.0
  0
VERTEX
  5
84F
  8
DETAIL
  6
CONTINUOUS
 62
     5
 10
7.7090578032600368
 20
-27.198316590977591
 30
0.0
  0
VERTEX
  5
850
  8
DETAIL
  6
CONTINUOUS
 62
     5
 10
7.8262158280986389
 20
-27.198316590977591
 30
0.0
  0
VERTEX
  5
851
  8
DETAIL
  6
CONTINUOUS
 62
     5
 10
7.9337444262381922
 20
-27.198316590977608
 30
0.0
  0
VERTEX
  5
852
  8
DETAIL
  6
CONTINUOUS
 62
     5
 10
8.0123847442805385
 20
-27.198316590977608
 30
0.0
  0
VERTEX
  5
853
  8
DETAIL
  6
CONTINUOUS
 62
     5
 10
8.0428779288275791
 20
-27.198316590977601
 30
0.0
  0
SEQEND
  5
854
  8
DETAIL
  6
CONTINUOUS
 62
     5
  0
POLYLINE
  5
3F9
  8
DETAIL
  6
CONTINUOUS
 62
     5
 66
     1
 10
0.0
 20
0.0
 30
0.0
  0
VERTEX
  5
855
  8
DETAIL
  6
CONTINUOUS
 62
     5
 10
8.0428779288275791
 20
-27.198316590977601
 30
0.0
  0
VERTEX
  5
856
  8
DETAIL
  6
CONTINUOUS
 62
     5
 10
8.0214835275525616
 20
-27.10569920289521
 30
0.0
  0
VERTEX
  5
857
  8
DETAIL
  6
CONTINUOUS
 62
     5
 10
8.0026657958305663
 20
-27.006052411167861
 30
0.0
  0
VERTEX
  5
858
  8
DETAIL
  6
CONTINUOUS
 62
     5
 10
7.9863858111608286
 20
-26.901773841845081
 30
0.0
  0
VERTEX
  5
859
  8
DETAIL
  6
CONTINUOUS
 62
     5
 10
7.9726046510426718
 20
-26.795261120976349
 30
0.0
  0
VERTEX
  5
85A
  8
DETAIL
  6
CONTINUOUS
 62
     5
 10
7.9612833929753322
 20
-26.688911874611151
 30
0.0
  0
VERTEX
  5
85B
  8
DETAIL
  6
CONTINUOUS
 62
     5
 10
7.9523831144580859
 20
-26.585123728798969
 30
0.0
  0
VERTEX
  5
85C
  8
DETAIL
  6
CONTINUOUS
 62
     5
 10
7.9458648929902429
 20
-26.486294309589312
 30
0.0
  0
SEQEND
  5
85D
  8
DETAIL
  6
CONTINUOUS
 62
     5
  0
POLYLINE
  5
3FA
  8
DETAIL
  6
CONTINUOUS
 62
     5
 66
     1
 10
0.0
 20
0.0
 30
0.0
  0
VERTEX
  5
85E
  8
DETAIL
  6
CONTINUOUS
 62
     5
 10
7.9458648929902429
 20
-26.486294309589312
 30
0.0
  0
VERTEX
  5
85F
  8
DETAIL
  6
CONTINUOUS
 62
     5
 10
7.9271937693540764
 20
-26.342697527370689
 30
0.0
  0
VERTEX
  5
860
  8
DETAIL
  6
CONTINUOUS
 62
     5
 10
7.8903847603429531
 20
-26.223388385654019
 30
0.0
  0
VERTEX
  5
861
  8
DETAIL
  6
CONTINUOUS
 62
     5
 10
7.8384971745201417
 20
-26.12584470638717
 30
0.0
  0
VERTEX
  5
862
  8
DETAIL
  6
CONTINUOUS
 62
     5
 10
7.7745903204489082
 20
-26.04754431151812
 30
0.0
  0
VERTEX
  5
863
  8
DETAIL
  6
CONTINUOUS
 62
     5
 10
7.70172350669253
 20
-25.985965022994751
 30
0.0
  0
VERTEX
  5
864
  8
DETAIL
  6
CONTINUOUS
 62
     5
 10
7.6229560418142901
 20
-25.93858466276502
 30
0.0
  0
VERTEX
  5
865
  8
DETAIL
  6
CONTINUOUS
 62
     5
 10
7.5413472343774401
 20
-25.90288105277682
 30
0.0
  0
SEQEND
  5
866
  8
DETAIL
  6
CONTINUOUS
 62
     5
  0
POLYLINE
  5
3FB
  8
DETAIL
  6
CONTINUOUS
 62
     5
 66
     1
 10
0.0
 20
0.0
 30
0.0
  0
VERTEX
  5
867
  8
DETAIL
  6
CONTINUOUS
 62
     5
 10
6.4461679628187758
 20
-25.69461453547115
 30
0.0
  0
VERTEX
  5
868
  8
DETAIL
  6
CONTINUOUS
 62
     5
 10
6.4461679628187758
 20
-25.653817267544511
 30
0.0
  0
VERTEX
  5
869
  8
DETAIL
  6
CONTINUOUS
 62
     5
 10
6.4461679628187758
 20
-25.548603260786258
 30
0.0
  0
VERTEX
  5
86A
  8
DETAIL
  6
CONTINUOUS
 62
     5
 10
6.4461679628187758
 20
-25.40473921072909
 30
0.0
  0
VERTEX
  5
86B
  8
DETAIL
  6
CONTINUOUS
 62
     5
 10
6.4461679628187758
 20
-25.247991812905621
 30
0.0
  0
VERTEX
  5
86C
  8
DETAIL
  6
CONTINUOUS
 62
     5
 10
6.4461679628187758
 20
-25.104127762848439
 30
0.0
  0
VERTEX
  5
86D
  8
DETAIL
  6
CONTINUOUS
 62
     5
 10
6.4461679628187758
 20
-24.998913756090221
 30
0.0
  0
VERTEX
  5
86E
  8
DETAIL
  6
CONTINUOUS
 62
     5
 10
6.4461679628187758
 20
-24.958116488163579
 30
0.0
  0
SEQEND
  5
86F
  8
DETAIL
  6
CONTINUOUS
 62
     5
  0
POLYLINE
  5
3FC
  8
DETAIL
  6
CONTINUOUS
 62
     5
 66
     1
 10
0.0
 20
0.0
 30
0.0
  0
VERTEX
  5
870
  8
DETAIL
  6
CONTINUOUS
 62
     5
 10
6.4461679628187758
 20
-24.958116488163579
 30
0.0
  0
VERTEX
  5
871
  8
DETAIL
  6
CONTINUOUS
 62
     5
 10
6.4831689895003839
 20
-24.95811648816359
 30
0.0
  0
VERTEX
  5
872
  8
DETAIL
  6
CONTINUOUS
 62
     5
 10
6.5785926898898017
 20
-24.958116488163551
 30
0.0
  0
VERTEX
  5
873
  8
DETAIL
  6
CONTINUOUS
 62
     5
 10
6.7090699945038921
 20
-24.958116488163579
 30
0.0
  0
VERTEX
  5
874
  8
DETAIL
  6
CONTINUOUS
 62
     5
 10
6.8512318338595426
 20
-24.958116488163579
 30
0.0
  0
VERTEX
  5
875
  8
DETAIL
  6
CONTINUOUS
 62
     5
 10
6.9817091384736321
 20
-24.958116488163579
 30
0.0
  0
VERTEX
  5
876
  8
DETAIL
  6
CONTINUOUS
 62
     5
 10
7.0771328388630499
 20
-24.958116488163579
 30
0.0
  0
VERTEX
  5
877
  8
DETAIL
  6
CONTINUOUS
 62
     5
 10
7.114133865544658
 20
-24.958116488163579
 30
0.0
  0
SEQEND
  5
878
  8
DETAIL
  6
CONTINUOUS
 62
     5
  0
POLYLINE
  5
3FD
  8
DETAIL
  6
CONTINUOUS
 62
     5
 66
     1
 10
0.0
 20
0.0
 30
0.0
  0
VERTEX
  5
879
  8
DETAIL
  6
CONTINUOUS
 62
     5
 10
7.114133865544658
 20
-24.958116488163579
 30
0.0
  0
VERTEX
  5
87A
  8
DETAIL
  6
CONTINUOUS
 62
     5
 10
7.2383924339809047
 20
-24.976205414221869
 30
0.0
  0
VERTEX
  5
87B
  8
DETAIL
  6
CONTINUOUS
 62
     5
 10
7.341247612638611
 20
-25.027211130348292
 30
0.0
  0
VERTEX
  5
87C
  8
DETAIL
  6
CONTINUOUS
 62
     5
 10
7.4191321698880577
 20
-25.10624204346999
 30
0.0
  0
VERTEX
  5
87D
  8
DETAIL
  6
CONTINUOUS
 62
     5
 10
7.4684788740995174
 20
-25.208406560514192
 30
0.0
  0
VERTEX
  5
87E
  8
DETAIL
  6
CONTINUOUS
 62
     5
 10
7.48572049364327
 20
-25.3288130884082
 30
0.0
  0
VERTEX
  5
87F
  8
DETAIL
  6
CONTINUOUS
 62
     5
 10
7.4702411292459061
 20
-25.424103030327188
 30
0.0
  0
VERTEX
  5
880
  8
DETAIL
  6
CONTINUOUS
 62
     5
 10
7.4251131570516122
 20
-25.521977613126861
 30
0.0
  0
VERTEX
  5
881
  8
DETAIL
  6
CONTINUOUS
 62
     5
 10
7.3523017585570472
 20
-25.60878736967334
 30
0.0
  0
VERTEX
  5
882
  8
DETAIL
  6
CONTINUOUS
 62
     5
 10
7.2537721152589247
 20
-25.670882832832721
 30
0.0
  0
VERTEX
  5
883
  8
DETAIL
  6
CONTINUOUS
 62
     5
 10
7.1314894086539189
 20
-25.69461453547115
 30
0.0
  0
SEQEND
  5
884
  8
DETAIL
  6
CONTINUOUS
 62
     5
  0
POLYLINE
  5
3FE
  8
DETAIL
  6
CONTINUOUS
 62
     5
 66
     1
 10
0.0
 20
0.0
 30
0.0
  0
VERTEX
  5
885
  8
DETAIL
  6
CONTINUOUS
 62
     5
 10
7.1314894086539189
 20
-25.69461453547115
 30
0.0
  0
VERTEX
  5
886
  8
DETAIL
  6
CONTINUOUS
 62
     5
 10
7.0935269962024128
 20
-25.69461453547115
 30
0.0
  0
VERTEX
  5
887
  8
DETAIL
  6
CONTINUOUS
 62
     5
 10
6.995623932511676
 20
-25.69461453547115
 30
0.0
  0
VERTEX
  5
888
  8
DETAIL
  6
CONTINUOUS
 62
     5
 10
6.8617564780774103
 20
-25.69461453547115
 30
0.0
  0
VERTEX
  5
889
  8
DETAIL
  6
CONTINUOUS
 62
     5
 10
6.7159008933952862
 20
-25.69461453547115
 30
0.0
  0
VERTEX
  5
88A
  8
DETAIL
  6
CONTINUOUS
 62
     5
 10
6.5820334389610187
 20
-25.69461453547116
 30
0.0
  0
VERTEX
  5
88B
  8
DETAIL
  6
CONTINUOUS
 62
     5
 10
6.4841303752702819
 20
-25.69461453547115
 30
0.0
  0
VERTEX
  5
88C
  8
DETAIL
  6
CONTINUOUS
 62
     5
 10
6.4461679628187758
 20
-25.69461453547115
 30
0.0
  0
SEQEND
  5
88D
  8
DETAIL
  6
CONTINUOUS
 62
     5
  0
LINE
  5
3FF
  8
DETAIL
  6
CONTINUOUS
 62
     5
 10
-1.9352243169565779
 20
-24.49218690777867
 30
0.0
 11
-2.483258966661765
 21
-24.49218690777867
 31
0.0
  0
LINE
  5
400
  8
DETAIL
  6
CONTINUOUS
 62
     5
 10
-2.483258966661765
 20
-24.49218690777867
 30
0.0
 11
-2.483258966661765
 21
-26.731496982740978
 31
0.0
  0
LINE
  5
401
  8
DETAIL
  6
CONTINUOUS
 62
     5
 10
-2.483258966661765
 20
-26.731496982740978
 30
0.0
 11
-2.483258966661765
 21
-27.202321716307551
 31
0.0
  0
LINE
  5
402
  8
DETAIL
  6
CONTINUOUS
 62
     5
 10
-2.483258966661765
 20
-27.202321716307551
 30
0.0
 11
-1.9352243169565779
 21
-27.202321716307551
 31
0.0
  0
LINE
  5
403
  8
DETAIL
  6
CONTINUOUS
 62
     5
 10
-1.9352243169565779
 20
-27.202321716307551
 30
0.0
 11
-0.6566993079414943
 21
-27.202321716307551
 31
0.0
  0
LINE
  5
404
  8
DETAIL
  6
CONTINUOUS
 62
     5
 10
-0.6566993079414943
 20
-27.202321716307551
 30
0.0
 11
-0.6566993079414943
 21
-26.731496982740978
 31
0.0
  0
LINE
  5
405
  8
DETAIL
  6
CONTINUOUS
 62
     5
 10
-0.6566993079414943
 20
-26.731496982740978
 30
0.0
 11
-1.9352243169565779
 21
-26.731496982740978
 31
0.0
  0
LINE
  5
406
  8
DETAIL
  6
CONTINUOUS
 62
     5
 10
-1.9352243169565779
 20
-26.731496982740978
 30
0.0
 11
-1.9352243169565779
 21
-24.49218690777867
 31
0.0
  0
POLYLINE
  5
407
  8
DETAIL
  6
CONTINUOUS
 62
     5
 66
     1
 10
0.0
 20
0.0
 30
0.0
  0
VERTEX
  5
88E
  8
DETAIL
  6
CONTINUOUS
 62
     5
 10
1.703654554856598
 20
-22.895921955695261
 30
0.0
  0
VERTEX
  5
88F
  8
DETAIL
  6
CONTINUOUS
 62
     5
 10
1.9775580942860811
 20
-22.95154707598596
 30
0.0
  0
VERTEX
  5
890
  8
DETAIL
  6
CONTINUOUS
 62
     5
 10
2.1862821839442002
 20
-23.021697839723359
 30
0.0
  0
VERTEX
  5
891
  8
DETAIL
  6
CONTINUOUS
 62
     5
 10
2.3253641261453022
 20
-23.11933575856699
 30
0.0
  0
VERTEX
  5
892
  8
DETAIL
  6
CONTINUOUS
 62
     5
 10
2.3903412232037899
 20
-23.257422344176192
 30
0.0
  0
VERTEX
  5
893
  8
DETAIL
  6
CONTINUOUS
 62
     5
 10
2.3821460395776621
 20
-23.395564429929561
 30
0.0
  0
VERTEX
  5
894
  8
DETAIL
  6
CONTINUOUS
 62
     5
 10
2.3155519438073919
 20
-23.506712582657229
 30
0.0
  0
VERTEX
  5
895
  8
DETAIL
  6
CONTINUOUS
 62
     5
 10
2.1910521579727908
 20
-23.595262859360581
 30
0.0
  0
VERTEX
  5
896
  8
DETAIL
  6
CONTINUOUS
 62
     5
 10
2.0078591471881282
 20
-23.649533492568938
 30
0.0
  0
VERTEX
  5
897
  8
DETAIL
  6
CONTINUOUS
 62
     5
 10
1.771885297198821
 20
-23.657318096665009
 30
0.0
  0
VERTEX
  5
898
  8
DETAIL
  6
CONTINUOUS
 62
     5
 10
1.567405145535758
 20
-23.607163791632122
 30
0.0
  0
VERTEX
  5
899
  8
DETAIL
  6
CONTINUOUS
 62
     5
 10
1.420535358354754
 20
-23.507318222911469
 30
0.0
  0
VERTEX
  5
89A
  8
DETAIL
  6
CONTINUOUS
 62
     5
 10
1.3319322147271599
 20
-23.369889739370372
 30
0.0
  0
VERTEX
  5
89B
  8
DETAIL
  6
CONTINUOUS
 62
     5
 10
1.3022519937243251
 20
-23.206986689876199
 30
0.0
  0
SEQEND
  5
89C
  8
DETAIL
  6
CONTINUOUS
 62
     5
  0
POLYLINE
  5
408
  8
DETAIL
  6
CONTINUOUS
 62
     5
 66
     1
 10
0.0
 20
0.0
 30
0.0
  0
VERTEX
  5
89D
  8
DETAIL
  6
CONTINUOUS
 62
     5
 10
1.3022519937243251
 20
-23.206986689876199
 30
0.0
  0
VERTEX
  5
89E
  8
DETAIL
  6
CONTINUOUS
 62
     5
 10
1.2730653077875751
 20
-23.206986689876199
 30
0.0
  0
VERTEX
  5
89F
  8
DETAIL
  6
CONTINUOUS
 62
     5
 10
1.1977943808980589
 20
-23.206986689876199
 30
0.0
  0
VERTEX
  5
8A0
  8
DETAIL
  6
CONTINUOUS
 62
     5
 10
1.094872909436887
 20
-23.206986689876199
 30
0.0
  0
VERTEX
  5
8A1
  8
DETAIL
  6
CONTINUOUS
 62
     5
 10
0.9827345897851529
 20
-23.206986689876199
 30
0.0
  0
VERTEX
  5
8A2
  8
DETAIL
  6
CONTINUOUS
 62
     5
 10
0.8798131183239804
 20
-23.206986689876199
 30
0.0
  0
VERTEX
  5
8A3
  8
DETAIL
  6
CONTINUOUS
 62
     5
 10
0.8045421914344643
 20
-23.206986689876199
 30
0.0
  0
VERTEX
  5
8A4
  8
DETAIL
  6
CONTINUOUS
 62
     5
 10
0.7753555054977142
 20
-23.206986689876199
 30
0.0
  0
SEQEND
  5
8A5
  8
DETAIL
  6
CONTINUOUS
 62
     5
  0
POLYLINE
  5
409
  8
DETAIL
  6
CONTINUOUS
 62
     5
 66
     1
 10
0.0
 20
0.0
 30
0.0
  0
VERTEX
  5
8A6
  8
DETAIL
  6
CONTINUOUS
 62
     5
 10
0.7753555054977142
 20
-23.206986689876199
 30
0.0
  0
VERTEX
  5
8A7
  8
DETAIL
  6
CONTINUOUS
 62
     5
 10
0.8262991684131861
 20
-23.522589472302151
 30
0.0
  0
VERTEX
  5
8A8
  8
DETAIL
  6
CONTINUOUS
 62
     5
 10
0.9883836920658524
 20
-23.7964091538507
 30
0.0
  0
VERTEX
  5
8A9
  8
DETAIL
  6
CONTINUOUS
 62
     5
 10
1.2754893788150661
 20
-23.999602269334961
 30
0.0
  0
VERTEX
  5
8AA
  8
DETAIL
  6
CONTINUOUS
 62
     5
 10
1.701496531020211
 20
-24.103325353568099
 30
0.0
  0
VERTEX
  5
8AB
  8
DETAIL
  6
CONTINUOUS
 62
     5
 10
2.1965681430562252
 20
-24.083453668908579
 30
0.0
  0
VERTEX
  5
8AC
  8
DETAIL
  6
CONTINUOUS
 62
     5
 10
2.5665801064946541
 20
-23.951758512255861
 30
0.0
  0
VERTEX
  5
8AD
  8
DETAIL
  6
CONTINUOUS
 62
     5
 10
2.8116693486968809
 20
-23.734167363144941
 30
0.0
  0
VERTEX
  5
8AE
  8
DETAIL
  6
CONTINUOUS
 62
     5
 10
2.939383078983723
 20
-23.456439175127009
 30
0.0
  0
VERTEX
  5
8AF
  8
DETAIL
  6
CONTINUOUS
 62
     5
 10
2.958080145638732
 20
-23.154512924459759
 30
0.0
  0
VERTEX
  5
8B0
  8
DETAIL
  6
CONTINUOUS
 62
     5
 10
2.8850034710411161
 20
-22.900286819186011
 30
0.0
  0
VERTEX
  5
8B1
  8
DETAIL
  6
CONTINUOUS
 62
     5
 10
2.7282730908123929
 20
-22.69789582256659
 30
0.0
  0
VERTEX
  5
8B2
  8
DETAIL
  6
CONTINUOUS
 62
     5
 10
2.492548586359518
 20
-22.548357167162159
 30
0.0
  0
VERTEX
  5
8B3
  8
DETAIL
  6
CONTINUOUS
 62
     5
 10
2.1824895390894881
 20
-22.45268808553352
 30
0.0
  0
SEQEND
  5
8B4
  8
DETAIL
  6
CONTINUOUS
 62
     5
  0
POLYLINE
  5
40A
  8
DETAIL
  6
CONTINUOUS
 62
     5
 66
     1
 10
0.0
 20
0.0
 30
0.0
  0
VERTEX
  5
8B5
  8
DETAIL
  6
CONTINUOUS
 62
     5
 10
2.1824895390894881
 20
-22.45268808553352
 30
0.0
  0
VERTEX
  5
8B6
  8
DETAIL
  6
CONTINUOUS
 62
     5
 10
1.876056433687523
 20
-22.395433205547899
 30
0.0
  0
VERTEX
  5
8B7
  8
DETAIL
  6
CONTINUOUS
 62
     5
 10
1.631018235413108
 20
-22.335345387571099
 30
0.0
  0
VERTEX
  5
8B8
  8
DETAIL
  6
CONTINUOUS
 62
     5
 10
1.460566153600638
 20
-22.2458453292119
 30
0.0
  0
VERTEX
  5
8B9
  8
DETAIL
  6
CONTINUOUS
 62
     5
 10
1.377891397584448
 20
-22.100353728079089
 30
0.0
  0
VERTEX
  5
8BA
  8
DETAIL
  6
CONTINUOUS
 62
     5
 10
1.385355761800269
 20
-21.944317099646572
 30
0.0
  0
VERTEX
  5
8BB
  8
DETAIL
  6
CONTINUOUS
 62
     5
 10
1.45185506170462
 20
-21.833240043819941
 30
0.0
  0
VERTEX
  5
8BC
  8
DETAIL
  6
CONTINUOUS
 62
     5
 10
1.568581586538073
 20
-21.754255034583171
 30
0.0
  0
VERTEX
  5
8BD
  8
DETAIL
  6
CONTINUOUS
 62
     5
 10
1.72907098744757
 20
-21.71015125798969
 30
0.0
  0
VERTEX
  5
8BE
  8
DETAIL
  6
CONTINUOUS
 62
     5
 10
1.9269160361659059
 20
-21.704230567478501
 30
0.0
  0
VERTEX
  5
8BF
  8
DETAIL
  6
CONTINUOUS
 62
     5
 10
2.1067146257533551
 20
-21.744012017188151
 30
0.0
  0
VERTEX
  5
8C0
  8
DETAIL
  6
CONTINUOUS
 62
     5
 10
2.2396111377068588
 20
-21.828289187936779
 30
0.0
  0
VERTEX
  5
8C1
  8
DETAIL
  6
CONTINUOUS
 62
     5
 10
2.3219960371336579
 20
-21.95332128901752
 30
0.0
  0
VERTEX
  5
8C2
  8
DETAIL
  6
CONTINUOUS
 62
     5
 10
2.3502597891409769
 20
-22.115367529723471
 30
0.0
  0
SEQEND
  5
8C3
  8
DETAIL
  6
CONTINUOUS
 62
     5
  0
POLYLINE
  5
40B
  8
DETAIL
  6
CONTINUOUS
 62
     5
 66
     1
 10
0.0
 20
0.0
 30
0.0
  0
VERTEX
  5
8C4
  8
DETAIL
  6
CONTINUOUS
 62
     5
 10
2.3502597891409769
 20
-22.115367529723471
 30
0.0
  0
VERTEX
  5
8C5
  8
DETAIL
  6
CONTINUOUS
 62
     5
 10
2.379569729663586
 20
-22.115367529723471
 30
0.0
  0
VERTEX
  5
8C6
  8
DETAIL
  6
CONTINUOUS
 62
     5
 10
2.455158523642921
 20
-22.115367529723471
 30
0.0
  0
VERTEX
  5
8C7
  8
DETAIL
  6
CONTINUOUS
 62
     5
 10
2.5585146296963179
 20
-22.115367529723471
 30
0.0
  0
VERTEX
  5
8C8
  8
DETAIL
  6
CONTINUOUS
 62
     5
 10
2.6711265064410692
 20
-22.115367529723471
 30
0.0
  0
VERTEX
  5
8C9
  8
DETAIL
  6
CONTINUOUS
 62
     5
 10
2.7744826124944661
 20
-22.115367529723471
 30
0.0
  0
VERTEX
  5
8CA
  8
DETAIL
  6
CONTINUOUS
 62
     5
 10
2.8500714064738011
 20
-22.115367529723471
 30
0.0
  0
VERTEX
  5
8CB
  8
DETAIL
  6
CONTINUOUS
 62
     5
 10
2.8793813469964098
 20
-22.115367529723471
 30
0.0
  0
SEQEND
  5
8CC
  8
DETAIL
  6
CONTINUOUS
 62
     5
  0
POLYLINE
  5
40C
  8
DETAIL
  6
CONTINUOUS
 62
     5
 66
     1
 10
0.0
 20
0.0
 30
0.0
  0
VERTEX
  5
8CD
  8
DETAIL
  6
CONTINUOUS
 62
     5
 10
2.8793813469964098
 20
-22.115367529723471
 30
0.0
  0
VERTEX
  5
8CE
  8
DETAIL
  6
CONTINUOUS
 62
     5
 10
2.8269008972555691
 20
-21.822502994123742
 30
0.0
  0
VERTEX
  5
8CF
  8
DETAIL
  6
CONTINUOUS
 62
     5
 10
2.6657187573262031
 20
-21.559400714409911
 30
0.0
  0
VERTEX
  5
8D0
  8
DETAIL
  6
CONTINUOUS
 62
     5
 10
2.3902237411479912
 20
-21.359235597640431
 30
0.0
  0
VERTEX
  5
8D1
  8
DETAIL
  6
CONTINUOUS
 62
     5
 10
1.994804662660655
 20
-21.255182550873698
 30
0.0
  0
VERTEX
  5
8D2
  8
DETAIL
  6
CONTINUOUS
 62
     5
 10
1.606813285885323
 20
-21.26777541194393
 30
0.0
  0
VERTEX
  5
8D3
  8
DETAIL
  6
CONTINUOUS
 62
     5
 10
1.2840333626143661
 20
-21.37250114475879
 30
0.0
  0
VERTEX
  5
8D4
  8
DETAIL
  6
CONTINUOUS
 62
     5
 10
1.020657633287271
 20
-21.564172916546109
 30
0.0
  0
VERTEX
  5
8D5
  8
DETAIL
  6
CONTINUOUS
 62
     5
 10
0.8564237956757949
 20
-21.840099983112939
 30
0.0
  0
VERTEX
  5
8D6
  8
DETAIL
  6
CONTINUOUS
 62
     5
 10
0.8274782426333331
 20
-22.170113762703579
 30
0.0
  0
VERTEX
  5
8D7
  8
DETAIL
  6
CONTINUOUS
 62
     5
 10
0.9126085761750601
 20
-22.435241392552449
 30
0.0
  0
VERTEX
  5
8D8
  8
DETAIL
  6
CONTINUOUS
 62
     5
 10
1.092614987468522
 20
-22.644979068776522
 30
0.0
  0
VERTEX
  5
8D9
  8
DETAIL
  6
CONTINUOUS
 62
     5
 10
1.359097104400206
 20
-22.798736140212029
 30
0.0
  0
VERTEX
  5
8DA
  8
DETAIL
  6
CONTINUOUS
 62
     5
 10
1.703654554856598
 20
-22.895921955695261
 30
0.0
  0
SEQEND
  5
8DB
  8
DETAIL
  6
CONTINUOUS
 62
     5
  0
POLYLINE
  5
40D
  8
DETAIL
  6
CONTINUOUS
 62
     5
 66
     1
 10
0.0
 20
0.0
 30
0.0
  0
VERTEX
  5
8DC
  8
DETAIL
  6
CONTINUOUS
 62
     5
 10
9.3445436619889506
 20
-22.895921955695261
 30
0.0
  0
VERTEX
  5
8DD
  8
DETAIL
  6
CONTINUOUS
 62
     5
 10
9.6182065657594862
 20
-22.95154707598596
 30
0.0
  0
VERTEX
  5
8DE
  8
DETAIL
  6
CONTINUOUS
 62
     5
 10
9.8263837561914613
 20
-23.021697839723359
 30
0.0
  0
VERTEX
  5
8DF
  8
DETAIL
  6
CONTINUOUS
 62
     5
 10
9.9648750472280696
 20
-23.11933575856699
 30
0.0
  0
VERTEX
  5
8E0
  8
DETAIL
  6
CONTINUOUS
 62
     5
 10
10.029480252812521
 20
-23.257422344176192
 30
0.0
  0
VERTEX
  5
8E1
  8
DETAIL
  6
CONTINUOUS
 62
     5
 10
10.02137014239929
 20
-23.395564429929561
 30
0.0
  0
VERTEX
  5
8E2
  8
DETAIL
  6
CONTINUOUS
 62
     5
 10
9.955273724924659
 20
-23.506712582657229
 30
0.0
  0
VERTEX
  5
8E3
  8
DETAIL
  6
CONTINUOUS
 62
     5
 10
9.8314575631227399
 20
-23.595262859360581
 30
0.0
  0
VERTEX
  5
8E4
  8
DETAIL
  6
CONTINUOUS
 62
     5
 10
9.6489044244330771
 20
-23.649533492568938
 30
0.0
  0
VERTEX
  5
8E5
  8
DETAIL
  6
CONTINUOUS
 62
     5
 10
9.4130944416570799
 20
-23.657318096665009
 30
0.0
  0
VERTEX
  5
8E6
  8
DETAIL
  6
CONTINUOUS
 62
     5
 10
9.2080400458065128
 20
-23.607163791632122
 30
0.0
  0
VERTEX
  5
8E7
  8
DETAIL
  6
CONTINUOUS
 62
     5
 10
9.0604756966079663
 20
-23.507318222911469
 30
0.0
  0
VERTEX
  5
8E8
  8
DETAIL
  6
CONTINUOUS
 62
     5
 10
8.9712873708080281
 20
-23.369889739370372
 30
0.0
  0
VERTEX
  5
8E9
  8
DETAIL
  6
CONTINUOUS
 62
     5
 10
8.9413610451532577
 20
-23.206986689876199
 30
0.0
  0
SEQEND
  5
8EA
  8
DETAIL
  6
CONTINUOUS
 62
     5
  0
POLYLINE
  5
40E
  8
DETAIL
  6
CONTINUOUS
 62
     5
 66
     1
 10
0.0
 20
0.0
 30
0.0
  0
VERTEX
  5
8EB
  8
DETAIL
  6
CONTINUOUS
 62
     5
 10
8.9413610451532577
 20
-23.206986689876199
 30
0.0
  0
VERTEX
  5
8EC
  8
DETAIL
  6
CONTINUOUS
 62
     5
 10
8.9122729628852255
 20
-23.206986689876199
 30
0.0
  0
VERTEX
  5
8ED
  8
DETAIL
  6
CONTINUOUS
 62
     5
 10
8.8372563296676958
 20
-23.206986689876199
 30
0.0
  0
VERTEX
  5
8EE
  8
DETAIL
  6
CONTINUOUS
 62
     5
 10
8.7346825658804619
 20
-23.206986689876199
 30
0.0
  0
VERTEX
  5
8EF
  8
DETAIL
  6
CONTINUOUS
 62
     5
 10
8.6229230919033171
 20
-23.206986689876199
 30
0.0
  0
VERTEX
  5
8F0
  8
DETAIL
  6
CONTINUOUS
 62
     5
 10
8.5203493281160831
 20
-23.206986689876199
 30
0.0
  0
VERTEX
  5
8F1
  8
DETAIL
  6
CONTINUOUS
 62
     5
 10
8.4453326948985534
 20
-23.206986689876199
 30
0.0
  0
VERTEX
  5
8F2
  8
DETAIL
  6
CONTINUOUS
 62
     5
 10
8.4162446126305213
 20
-23.206986689876199
 30
0.0
  0
SEQEND
  5
8F3
  8
DETAIL
  6
CONTINUOUS
 62
     5
  0
POLYLINE
  5
40F
  8
DETAIL
  6
CONTINUOUS
 62
     5
 66
     1
 10
0.0
 20
0.0
 30
0.0
  0
VERTEX
  5
8F4
  8
DETAIL
  6
CONTINUOUS
 62
     5
 10
8.4162446126305213
 20
-23.206986689876199
 30
0.0
  0
VERTEX
  5
8F5
  8
DETAIL
  6
CONTINUOUS
 62
     5
 10
8.4674562561669102
 20
-23.522589472302151
 30
0.0
  0
VERTEX
  5
8F6
  8
DETAIL
  6
CONTINUOUS
 62
     5
 10
8.6299947061775129
 20
-23.7964091538507
 30
0.0
  0
VERTEX
  5
8F7
  8
DETAIL
  6
CONTINUOUS
 62
     5
 10
8.9172152417644082
 20
-23.999602269334961
 30
0.0
  0
VERTEX
  5
8F8
  8
DETAIL
  6
CONTINUOUS
 62
     5
 10
9.3424731420297178
 20
-24.103325353568099
 30
0.0
  0
VERTEX
  5
8F9
  8
DETAIL
  6
CONTINUOUS
 62
     5
 10
9.8363956580249123
 20
-24.083453668908579
 30
0.0
  0
VERTEX
  5
8FA
  8
DETAIL
  6
CONTINUOUS
 62
     5
 10
10.20609953489906
 20
-23.951758512255861
 30
0.0
  0
VERTEX
  5
8FB
  8
DETAIL
  6
CONTINUOUS
 62
     5
 10
10.45132914790234
 20
-23.734167363144941
 30
0.0
  0
VERTEX
  5
8FC
  8
DETAIL
  6
CONTINUOUS
 62
     5
 10
10.579303566820069
 20
-23.456439175127009
 30
0.0
  0
VERTEX
  5
8FD
  8
DETAIL
  6
CONTINUOUS
 62
     5
 10
10.598094821675099
 20
-23.154512924459759
 30
0.0
  0
VERTEX
  5
8FE
  8
DETAIL
  6
CONTINUOUS
 62
     5
 10
10.525242375760429
 20
-22.900286819186011
 30
0.0
  0
VERTEX
  5
8FF
  8
DETAIL
  6
CONTINUOUS
 62
     5
 10
10.36897685987414
 20
-22.69789582256659
 30
0.0
  0
VERTEX
  5
900
  8
DETAIL
  6
CONTINUOUS
 62
     5
 10
10.133925041469301
 20
-22.548357167162159
 30
0.0
  0
VERTEX
  5
901
  8
DETAIL
  6
CONTINUOUS
 62
     5
 10
9.8247136879989512
 20
-22.45268808553352
 30
0.0
  0
SEQEND
  5
902
  8
DETAIL
  6
CONTINUOUS
 62
     5
  0
POLYLINE
  5
410
  8
DETAIL
  6
CONTINUOUS
 62
     5
 66
     1
 10
0.0
 20
0.0
 30
0.0
  0
VERTEX
  5
903
  8
DETAIL
  6
CONTINUOUS
 62
     5
 10
9.8247136879989512
 20
-22.45268808553352
 30
0.0
  0
VERTEX
  5
904
  8
DETAIL
  6
CONTINUOUS
 62
     5
 10
9.5176133655420312
 20
-22.395433205547899
 30
0.0
  0
VERTEX
  5
905
  8
DETAIL
  6
CONTINUOUS
 62
     5
 10
9.2723126556394888
 20
-22.335345387571099
 30
0.0
  0
VERTEX
  5
906
  8
DETAIL
  6
CONTINUOUS
 62
     5
 10
9.1018386978580423
 20
-22.2458453292119
 30
0.0
  0
VERTEX
  5
907
  8
DETAIL
  6
CONTINUOUS
 62
     5
 10
9.0192186317644314
 20
-22.100353728079089
 30
0.0
  0
VERTEX
  5
908
  8
DETAIL
  6
CONTINUOUS
 62
     5
 10
9.0266898828593867
 20
-21.944317099646572
 30
0.0
  0
VERTEX
  5
909
  8
DETAIL
  6
CONTINUOUS
 62
     5
 10
9.0931891827637372
 20
-21.833240043819941
 30
0.0
  0
VERTEX
  5
90A
  8
DETAIL
  6
CONTINUOUS
 62
     5
 10
9.2099157075971991
 20
-21.754255034583171
 30
0.0
  0
VERTEX
  5
90B
  8
DETAIL
  6
CONTINUOUS
 62
     5
 10
9.3704051085067022
 20
-21.71015125798969
 30
0.0
  0
VERTEX
  5
90C
  8
DETAIL
  6
CONTINUOUS
 62
     5
 10
9.5681476642591008
 20
-21.704230567478501
 30
0.0
  0
VERTEX
  5
90D
  8
DETAIL
  6
CONTINUOUS
 62
     5
 10
9.7476509282643704
 20
-21.744012017188151
 30
0.0
  0
VERTEX
  5
90E
  8
DETAIL
  6
CONTINUOUS
 62
     5
 10
9.8802958665732987
 20
-21.828289187936779
 30
0.0
  0
VERTEX
  5
90F
  8
DETAIL
  6
CONTINUOUS
 62
     5
 10
9.9625057582471328
 20
-21.95332128901752
 30
0.0
  0
VERTEX
  5
910
  8
DETAIL
  6
CONTINUOUS
 62
     5
 10
9.9907038823470202
 20
-22.115367529723471
 30
0.0
  0
SEQEND
  5
911
  8
DETAIL
  6
CONTINUOUS
 62
     5
  0
POLYLINE
  5
411
  8
DETAIL
  6
CONTINUOUS
 62
     5
 66
     1
 10
0.0
 20
0.0
 30
0.0
  0
VERTEX
  5
912
  8
DETAIL
  6
CONTINUOUS
 62
     5
 10
9.9907038823470202
 20
-22.115367529723471
 30
0.0
  0
VERTEX
  5
913
  8
DETAIL
  6
CONTINUOUS
 62
     5
 10
10.02001382286968
 20
-22.115367529723471
 30
0.0
  0
VERTEX
  5
914
  8
DETAIL
  6
CONTINUOUS
 62
     5
 10
10.095602616849151
 20
-22.115367529723471
 30
0.0
  0
VERTEX
  5
915
  8
DETAIL
  6
CONTINUOUS
 62
     5
 10
10.198958722902709
 20
-22.115367529723471
 30
0.0
  0
VERTEX
  5
916
  8
DETAIL
  6
CONTINUOUS
 62
     5
 10
10.311570599647659
 20
-22.115367529723471
 30
0.0
  0
VERTEX
  5
917
  8
DETAIL
  6
CONTINUOUS
 62
     5
 10
10.41492670570122
 20
-22.115367529723471
 30
0.0
  0
VERTEX
  5
918
  8
DETAIL
  6
CONTINUOUS
 62
     5
 10
10.49051549968069
 20
-22.115367529723471
 30
0.0
  0
VERTEX
  5
919
  8
DETAIL
  6
CONTINUOUS
 62
     5
 10
10.519825440203361
 20
-22.115367529723471
 30
0.0
  0
SEQEND
  5
91A
  8
DETAIL
  6
CONTINUOUS
 62
     5
  0
POLYLINE
  5
412
  8
DETAIL
  6
CONTINUOUS
 62
     5
 66
     1
 10
0.0
 20
0.0
 30
0.0
  0
VERTEX
  5
91B
  8
DETAIL
  6
CONTINUOUS
 62
     5
 10
10.519825440203361
 20
-22.115367529723471
 30
0.0
  0
VERTEX
  5
91C
  8
DETAIL
  6
CONTINUOUS
 62
     5
 10
10.46707700984166
 20
-21.822502994123742
 30
0.0
  0
VERTEX
  5
91D
  8
DETAIL
  6
CONTINUOUS
 62
     5
 10
10.30544094355451
 20
-21.559400714409911
 30
0.0
  0
VERTEX
  5
91E
  8
DETAIL
  6
CONTINUOUS
 62
     5
 10
10.029831078538759
 20
-21.359235597640431
 30
0.0
  0
VERTEX
  5
91F
  8
DETAIL
  6
CONTINUOUS
 62
     5
 10
9.6351612519913203
 20
-21.255182550873698
 30
0.0
  0
VERTEX
  5
920
  8
DETAIL
  6
CONTINUOUS
 62
     5
 10
9.2478725394439003
 20
-21.26777541194393
 30
0.0
  0
VERTEX
  5
921
  8
DETAIL
  6
CONTINUOUS
 62
     5
 10
8.9258035851669888
 20
-21.37250114475879
 30
0.0
  0
VERTEX
  5
922
  8
DETAIL
  6
CONTINUOUS
 62
     5
 10
8.6633357085555076
 20
-21.564172916546109
 30
0.0
  0
VERTEX
  5
923
  8
DETAIL
  6
CONTINUOUS
 62
     5
 10
8.4998128399382118
 20
-21.840099983112939
 30
0.0
  0
VERTEX
  5
924
  8
DETAIL
  6
CONTINUOUS
 62
     5
 10
8.4710362179901182
 20
-22.170113762703579
 30
0.0
  0
VERTEX
  5
925
  8
DETAIL
  6
CONTINUOUS
 62
     5
 10
8.5560899856402557
 20
-22.435241392552449
 30
0.0
  0
VERTEX
  5
926
  8
DETAIL
  6
CONTINUOUS
 62
     5
 10
8.7357573194134908
 20
-22.644979068776522
 30
0.0
  0
VERTEX
  5
927
  8
DETAIL
  6
CONTINUOUS
 62
     5
 10
9.0014409634747494
 20
-22.798736140212029
 30
0.0
  0
VERTEX
  5
928
  8
DETAIL
  6
CONTINUOUS
 62
     5
 10
9.3445436619889506
 20
-22.895921955695261
 30
0.0
  0
SEQEND
  5
929
  8
DETAIL
  6
CONTINUOUS
 62
     5
  0
POLYLINE
  5
413
  8
DETAIL
  6
CONTINUOUS
 62
     5
 66
     1
 10
0.0
 20
0.0
 30
0.0
  0
VERTEX
  5
92A
  8
DETAIL
  6
CONTINUOUS
 62
     5
 10
2.7796982276021249
 20
-26.783563612066938
 30
0.0
  0
VERTEX
  5
92B
  8
DETAIL
  6
CONTINUOUS
 62
     5
 10
2.5047118277037148
 20
-26.718892778575469
 30
0.0
  0
VERTEX
  5
92C
  8
DETAIL
  6
CONTINUOUS
 62
     5
 10
2.293526691527489
 20
-26.542052913801889
 30
0.0
  0
VERTEX
  5
92D
  8
DETAIL
  6
CONTINUOUS
 62
     5
 10
2.151786819087234
 20
-26.278802971297409
 30
0.0
  0
VERTEX
  5
92E
  8
DETAIL
  6
CONTINUOUS
 62
     5
 10
2.0851362103968252
 20
-25.95490190461329
 30
0.0
  0
VERTEX
  5
92F
  8
DETAIL
  6
CONTINUOUS
 62
     5
 10
2.098126687459938
 20
-25.60634013904561
 30
0.0
  0
VERTEX
  5
930
  8
DETAIL
  6
CONTINUOUS
 62
     5
 10
2.1885382445289281
 20
-25.298229876017359
 30
0.0
  0
VERTEX
  5
931
  8
DETAIL
  6
CONTINUOUS
 62
     5
 10
2.3525952513907238
 20
-25.059991458121331
 30
0.0
  0
VERTEX
  5
932
  8
DETAIL
  6
CONTINUOUS
 62
     5
 10
2.5866225452456741
 20
-24.91725258309479
 30
0.0
  0
VERTEX
  5
933
  8
DETAIL
  6
CONTINUOUS
 62
     5
 10
2.853919136913845
 20
-24.891457372150189
 30
0.0
  0
VERTEX
  5
934
  8
DETAIL
  6
CONTINUOUS
 62
     5
 10
3.0442856425476492
 20
-24.942627086745709
 30
0.0
  0
VERTEX
  5
935
  8
DETAIL
  6
CONTINUOUS
 62
     5
 10
3.1896532798542401
 20
-25.044592801465541
 30
0.0
  0
VERTEX
  5
936
  8
DETAIL
  6
CONTINUOUS
 62
     5
 10
3.2944519325654928
 20
-25.18511491162856
 30
0.0
  0
VERTEX
  5
937
  8
DETAIL
  6
CONTINUOUS
 62
     5
 10
3.3631114844132521
 20
-25.351953812553582
 30
0.0
  0
SEQEND
  5
938
  8
DETAIL
  6
CONTINUOUS
 62
     5
  0
POLYLINE
  5
414
  8
DETAIL
  6
CONTINUOUS
 62
     5
 66
     1
 10
0.0
 20
0.0
 30
0.0
  0
VERTEX
  5
939
  8
DETAIL
  6
CONTINUOUS
 62
     5
 10
3.3631114844132521
 20
-25.351953812553582
 30
0.0
  0
VERTEX
  5
93A
  8
DETAIL
  6
CONTINUOUS
 62
     5
 10
3.3945167528958962
 20
-25.351953812553621
 30
0.0
  0
VERTEX
  5
93B
  8
DETAIL
  6
CONTINUOUS
 62
     5
 10
3.4755092874037379
 20
-25.351953812553582
 30
0.0
  0
VERTEX
  5
93C
  8
DETAIL
  6
CONTINUOUS
 62
     5
 10
3.5862541815267122
 20
-25.351953812553582
 30
0.0
  0
VERTEX
  5
93D
  8
DETAIL
  6
CONTINUOUS
 62
     5
 10
3.706916528854733
 20
-25.351953812553582
 30
0.0
  0
VERTEX
  5
93E
  8
DETAIL
  6
CONTINUOUS
 62
     5
 10
3.8176614229777068
 20
-25.351953812553589
 30
0.0
  0
VERTEX
  5
93F
  8
DETAIL
  6
CONTINUOUS
 62
     5
 10
3.898653957485549
 20
-25.351953812553582
 30
0.0
  0
VERTEX
  5
940
  8
DETAIL
  6
CONTINUOUS
 62
     5
 10
3.930059225968193
 20
-25.351953812553582
 30
0.0
  0
SEQEND
  5
941
  8
DETAIL
  6
CONTINUOUS
 62
     5
  0
POLYLINE
  5
415
  8
DETAIL
  6
CONTINUOUS
 62
     5
 66
     1
 10
0.0
 20
0.0
 30
0.0
  0
VERTEX
  5
942
  8
DETAIL
  6
CONTINUOUS
 62
     5
 10
3.930059225968193
 20
-25.351953812553582
 30
0.0
  0
VERTEX
  5
943
  8
DETAIL
  6
CONTINUOUS
 62
     5
 10
3.8021942090497869
 20
-24.983134614806492
 30
0.0
  0
VERTEX
  5
944
  8
DETAIL
  6
CONTINUOUS
 62
     5
 10
3.5599745198688311
 20
-24.690663118715861
 30
0.0
  0
VERTEX
  5
945
  8
DETAIL
  6
CONTINUOUS
 62
     5
 10
3.2112018088131151
 20
-24.497985995500809
 30
0.0
  0
VERTEX
  5
946
  8
DETAIL
  6
CONTINUOUS
 62
     5
 10
2.7636777262704291
 20
-24.428549916380462
 30
0.0
  0
VERTEX
  5
947
  8
DETAIL
  6
CONTINUOUS
 62
     5
 10
2.219717735324465
 20
-24.539740817763679
 30
0.0
  0
VERTEX
  5
948
  8
DETAIL
  6
CONTINUOUS
 62
     5
 10
1.830038509802079
 20
-24.843136015065738
 30
0.0
  0
VERTEX
  5
949
  8
DETAIL
  6
CONTINUOUS
 62
     5
 10
1.5955578909256041
 20
-25.293469248015189
 30
0.0
  0
VERTEX
  5
94A
  8
DETAIL
  6
CONTINUOUS
 62
     5
 10
1.517193719917372
 20
-25.84547425634058
 30
0.0
  0
VERTEX
  5
94B
  8
DETAIL
  6
CONTINUOUS
 62
     5
 10
1.5978733540086401
 20
-26.39626242971158
 30
0.0
  0
VERTEX
  5
94C
  8
DETAIL
  6
CONTINUOUS
 62
     5
 10
1.83621307802349
 20
-26.846088068651621
 30
0.0
  0
VERTEX
  5
94D
  8
DETAIL
  6
CONTINUOUS
 62
     5
 10
2.2266641245735448
 20
-27.149392872500119
 30
0.0
  0
VERTEX
  5
94E
  8
DETAIL
  6
CONTINUOUS
 62
     5
 10
2.7636777262704291
 20
-27.260618540596401
 30
0.0
  0
VERTEX
  5
94F
  8
DETAIL
  6
CONTINUOUS
 62
     5
 10
3.2106385880632748
 20
-27.192983377207469
 30
0.0
  0
VERTEX
  5
950
  8
DETAIL
  6
CONTINUOUS
 62
     5
 10
3.5638127649795019
 20
-27.00056352766865
 30
0.0
  0
VERTEX
  5
951
  8
DETAIL
  6
CONTINUOUS
 62
     5
 10
3.8095160787988069
 20
-26.699087452921869
 30
0.0
  0
VERTEX
  5
952
  8
DETAIL
  6
CONTINUOUS
 62
     5
 10
3.9340643513008891
 20
-26.304283613909089
 30
0.0
  0
SEQEND
  5
953
  8
DETAIL
  6
CONTINUOUS
 62
     5
  0
POLYLINE
  5
416
  8
DETAIL
  6
CONTINUOUS
 62
     5
 66
     1
 10
0.0
 20
0.0
 30
0.0
  0
VERTEX
  5
954
  8
DETAIL
  6
CONTINUOUS
 62
     5
 10
3.9340643513008891
 20
-26.304283613909089
 30
0.0
  0
VERTEX
  5
955
  8
DETAIL
  6
CONTINUOUS
 62
     5
 10
3.9024372245636689
 20
-26.304283613909099
 30
0.0
  0
VERTEX
  5
956
  8
DETAIL
  6
CONTINUOUS
 62
     5
 10
3.8208725292940069
 20
-26.304283613909099
 30
0.0
  0
VERTEX
  5
957
  8
DETAIL
  6
CONTINUOUS
 62
     5
 10
3.7093452929048851
 20
-26.304283613909089
 30
0.0
  0
VERTEX
  5
958
  8
DETAIL
  6
CONTINUOUS
 62
     5
 10
3.587830542809257
 20
-26.304283613909089
 30
0.0
  0
VERTEX
  5
959
  8
DETAIL
  6
CONTINUOUS
 62
     5
 10
3.4763033064201352
 20
-26.304283613909089
 30
0.0
  0
VERTEX
  5
95A
  8
DETAIL
  6
CONTINUOUS
 62
     5
 10
3.3947386111504718
 20
-26.304283613909089
 30
0.0
  0
VERTEX
  5
95B
  8
DETAIL
  6
CONTINUOUS
 62
     5
 10
3.3631114844132521
 20
-26.304283613909089
 30
0.0
  0
SEQEND
  5
95C
  8
DETAIL
  6
CONTINUOUS
 62
     5
  0
POLYLINE
  5
417
  8
DETAIL
  6
CONTINUOUS
 62
     5
 66
     1
 10
0.0
 20
0.0
 30
0.0
  0
VERTEX
  5
95D
  8
DETAIL
  6
CONTINUOUS
 62
     5
 10
3.3631114844132521
 20
-26.304283613909089
 30
0.0
  0
VERTEX
  5
95E
  8
DETAIL
  6
CONTINUOUS
 62
     5
 10
3.3243952728627439
 20
-26.416726826483728
 30
0.0
  0
VERTEX
  5
95F
  8
DETAIL
  6
CONTINUOUS
 62
     5
 10
3.2721651690328879
 20
-26.518598687839731
 30
0.0
  0
VERTEX
  5
960
  8
DETAIL
  6
CONTINUOUS
 62
     5
 10
3.2056038004068048
 20
-26.607447080426411
 30
0.0
  0
VERTEX
  5
961
  8
DETAIL
  6
CONTINUOUS
 62
     5
 10
3.1238937944675911
 20
-26.680819886693151
 30
0.0
  0
VERTEX
  5
962
  8
DETAIL
  6
CONTINUOUS
 62
     5
 10
3.0262177786983382
 20
-26.73626498908925
 30
0.0
  0
VERTEX
  5
963
  8
DETAIL
  6
CONTINUOUS
 62
     5
 10
2.9117583805821421
 20
-26.77133027006408
 30
0.0
  0
VERTEX
  5
964
  8
DETAIL
  6
CONTINUOUS
 62
     5
 10
2.7796982276021249
 20
-26.783563612066938
 30
0.0
  0
SEQEND
  5
965
  8
DETAIL
  6
CONTINUOUS
 62
     5
  0
POLYLINE
  5
418
  8
DETAIL
  6
CONTINUOUS
 62
     5
 66
     1
 10
0.0
 20
0.0
 30
0.0
  0
VERTEX
  5
966
  8
DETAIL
  6
CONTINUOUS
 62
     5
 10
10.12242800440378
 20
-26.783563612066938
 30
0.0
  0
VERTEX
  5
967
  8
DETAIL
  6
CONTINUOUS
 62
     5
 10
9.8483494572212997
 20
-26.718892778575469
 30
0.0
  0
VERTEX
  5
968
  8
DETAIL
  6
CONTINUOUS
 62
     5
 10
9.6379737319005798
 20
-26.542052913801889
 30
0.0
  0
VERTEX
  5
969
  8
DETAIL
  6
CONTINUOUS
 62
     5
 10
9.4968463865944308
 20
-26.278802971297409
 30
0.0
  0
VERTEX
  5
96A
  8
DETAIL
  6
CONTINUOUS
 62
     5
 10
9.4305129794556422
 20
-25.95490190461329
 30
0.0
  0
VERTEX
  5
96B
  8
DETAIL
  6
CONTINUOUS
 62
     5
 10
9.4434366132799497
 20
-25.60634013904561
 30
0.0
  0
VERTEX
  5
96C
  8
DETAIL
  6
CONTINUOUS
 62
     5
 10
9.5334215889521197
 20
-25.298229876017359
 30
0.0
  0
VERTEX
  5
96D
  8
DETAIL
  6
CONTINUOUS
 62
     5
 10
9.6967895027882989
 20
-25.059991458121331
 30
0.0
  0
VERTEX
  5
96E
  8
DETAIL
  6
CONTINUOUS
 62
     5
 10
9.92996363384961
 20
-24.91725258309479
 30
0.0
  0
VERTEX
  5
96F
  8
DETAIL
  6
CONTINUOUS
 62
     5
 10
10.19716198621191
 20
-24.891457372150189
 30
0.0
  0
VERTEX
  5
970
  8
DETAIL
  6
CONTINUOUS
 62
     5
 10
10.388190239909701
 20
-24.942627086745709
 30
0.0
  0
VERTEX
  5
971
  8
DETAIL
  6
CONTINUOUS
 62
     5
 10
10.5338477338062
 20
-25.044592801465541
 30
0.0
  0
VERTEX
  5
972
  8
DETAIL
  6
CONTINUOUS
 62
     5
 10
10.6397784679152
 20
-25.18511491162856
 30
0.0
  0
VERTEX
  5
973
  8
DETAIL
  6
CONTINUOUS
 62
     5
 10
10.711626442250569
 20
-25.351953812553582
 30
0.0
  0
SEQEND
  5
974
  8
DETAIL
  6
CONTINUOUS
 62
     5
  0
POLYLINE
  5
419
  8
DETAIL
  6
CONTINUOUS
 62
     5
 66
     1
 10
0.0
 20
0.0
 30
0.0
  0
VERTEX
  5
975
  8
DETAIL
  6
CONTINUOUS
 62
     5
 10
10.711626442250569
 20
-25.351953812553582
 30
0.0
  0
VERTEX
  5
976
  8
DETAIL
  6
CONTINUOUS
 62
     5
 10
10.74305636165043
 20
-25.351953812553621
 30
0.0
  0
VERTEX
  5
977
  8
DETAIL
  6
CONTINUOUS
 62
     5
 10
10.82411246957639
 20
-25.351953812553582
 30
0.0
  0
VERTEX
  5
978
  8
DETAIL
  6
CONTINUOUS
 62
     5
 10
10.934944290618001
 20
-25.351953812553582
 30
0.0
  0
VERTEX
  5
979
  8
DETAIL
  6
CONTINUOUS
 62
     5
 10
11.055701349364851
 20
-25.351953812553582
 30
0.0
  0
VERTEX
  5
97A
  8
DETAIL
  6
CONTINUOUS
 62
     5
 10
11.16653317040646
 20
-25.351953812553589
 30
0.0
  0
VERTEX
  5
97B
  8
DETAIL
  6
CONTINUOUS
 62
     5
 10
11.247589278332409
 20
-25.351953812553582
 30
0.0
  0
VERTEX
  5
97C
  8
DETAIL
  6
CONTINUOUS
 62
     5
 10
11.27901919773228
 20
-25.351953812553582
 30
0.0
  0
SEQEND
  5
97D
  8
DETAIL
  6
CONTINUOUS
 62
     5
  0
POLYLINE
  5
41A
  8
DETAIL
  6
CONTINUOUS
 62
     5
 66
     1
 10
0.0
 20
0.0
 30
0.0
  0
VERTEX
  5
97E
  8
DETAIL
  6
CONTINUOUS
 62
     5
 10
11.27901919773228
 20
-25.351953812553582
 30
0.0
  0
VERTEX
  5
97F
  8
DETAIL
  6
CONTINUOUS
 62
     5
 10
11.150646586804569
 20
-24.983134614806492
 30
0.0
  0
VERTEX
  5
980
  8
DETAIL
  6
CONTINUOUS
 62
     5
 10
10.90787758355907
 20
-24.690663118715861
 30
0.0
  0
VERTEX
  5
981
  8
DETAIL
  6
CONTINUOUS
 62
     5
 10
10.55797147766121
 20
-24.497985995500809
 30
0.0
  0
VERTEX
  5
982
  8
DETAIL
  6
CONTINUOUS
 62
     5
 10
10.10818755877642
 20
-24.428549916380462
 30
0.0
  0
VERTEX
  5
983
  8
DETAIL
  6
CONTINUOUS
 62
     5
 10
9.563970294154533
 20
-24.539740817763679
 30
0.0
  0
VERTEX
  5
984
  8
DETAIL
  6
CONTINUOUS
 62
     5
 10
9.1741589551232323
 20
-24.843136015065738
 30
0.0
  0
VERTEX
  5
985
  8
DETAIL
  6
CONTINUOUS
 62
     5
 10
8.939629662849029
 20
-25.293469248015189
 30
0.0
  0
VERTEX
  5
986
  8
DETAIL
  6
CONTINUOUS
 62
     5
 10
8.8612585384984186
 20
-25.84547425634058
 30
0.0
  0
VERTEX
  5
987
  8
DETAIL
  6
CONTINUOUS
 62
     5
 10
8.9420077060153176
 20
-26.39626242971158
 30
0.0
  0
VERTEX
  5
988
  8
DETAIL
  6
CONTINUOUS
 62
     5
 10
9.1805004035666684
 20
-26.846088068651621
 30
0.0
  0
VERTEX
  5
989
  8
DETAIL
  6
CONTINUOUS
 62
     5
 10
9.5711044236533809
 20
-27.149392872500119
 30
0.0
  0
VERTEX
  5
98A
  8
DETAIL
  6
CONTINUOUS
 62
     5
 10
10.10818755877642
 20
-27.260618540596401
 30
0.0
  0
VERTEX
  5
98B
  8
DETAIL
  6
CONTINUOUS
 62
     5
 10
10.55747083699449
 20
-27.192983377207469
 30
0.0
  0
VERTEX
  5
98C
  8
DETAIL
  6
CONTINUOUS
 62
     5
 10
10.911548948447489
 20
-27.00056352766865
 30
0.0
  0
VERTEX
  5
98D
  8
DETAIL
  6
CONTINUOUS
 62
     5
 10
11.1576555561373
 20
-26.699087452921869
 30
0.0
  0
VERTEX
  5
98E
  8
DETAIL
  6
CONTINUOUS
 62
     5
 10
11.28302432306589
 20
-26.304283613909089
 30
0.0
  0
SEQEND
  5
98F
  8
DETAIL
  6
CONTINUOUS
 62
     5
  0
POLYLINE
  5
41B
  8
DETAIL
  6
CONTINUOUS
 62
     5
 66
     1
 10
0.0
 20
0.0
 30
0.0
  0
VERTEX
  5
990
  8
DETAIL
  6
CONTINUOUS
 62
     5
 10
11.28302432306589
 20
-26.304283613909089
 30
0.0
  0
VERTEX
  5
991
  8
DETAIL
  6
CONTINUOUS
 62
     5
 10
11.2513725454114
 20
-26.304283613909099
 30
0.0
  0
VERTEX
  5
992
  8
DETAIL
  6
CONTINUOUS
 62
     5
 10
11.16974427672349
 20
-26.304283613909099
 30
0.0
  0
VERTEX
  5
993
  8
DETAIL
  6
CONTINUOUS
 62
     5
 10
11.05813011341556
 20
-26.304283613909089
 30
0.0
  0
VERTEX
  5
994
  8
DETAIL
  6
CONTINUOUS
 62
     5
 10
10.936520651900899
 20
-26.304283613909089
 30
0.0
  0
VERTEX
  5
995
  8
DETAIL
  6
CONTINUOUS
 62
     5
 10
10.824906488592971
 20
-26.304283613909089
 30
0.0
  0
VERTEX
  5
996
  8
DETAIL
  6
CONTINUOUS
 62
     5
 10
10.74327821990506
 20
-26.304283613909089
 30
0.0
  0
VERTEX
  5
997
  8
DETAIL
  6
CONTINUOUS
 62
     5
 10
10.711626442250569
 20
-26.304283613909089
 30
0.0
  0
SEQEND
  5
998
  8
DETAIL
  6
CONTINUOUS
 62
     5
  0
POLYLINE
  5
41C
  8
DETAIL
  6
CONTINUOUS
 62
     5
 66
     1
 10
0.0
 20
0.0
 30
0.0
  0
VERTEX
  5
999
  8
DETAIL
  6
CONTINUOUS
 62
     5
 10
10.711626442250569
 20
-26.304283613909089
 30
0.0
  0
VERTEX
  5
99A
  8
DETAIL
  6
CONTINUOUS
 62
     5
 10
10.67053466073483
 20
-26.416726826483728
 30
0.0
  0
VERTEX
  5
99B
  8
DETAIL
  6
CONTINUOUS
 62
     5
 10
10.61676971295698
 20
-26.518598687839731
 30
0.0
  0
VERTEX
  5
99C
  8
DETAIL
  6
CONTINUOUS
 62
     5
 10
10.54931961389606
 20
-26.607447080426411
 30
0.0
  0
VERTEX
  5
99D
  8
DETAIL
  6
CONTINUOUS
 62
     5
 10
10.467172378531201
 20
-26.680819886693151
 30
0.0
  0
VERTEX
  5
99E
  8
DETAIL
  6
CONTINUOUS
 62
     5
 10
10.369316021841479
 20
-26.73626498908925
 30
0.0
  0
VERTEX
  5
99F
  8
DETAIL
  6
CONTINUOUS
 62
     5
 10
10.25473855880597
 20
-26.77133027006408
 30
0.0
  0
VERTEX
  5
9A0
  8
DETAIL
  6
CONTINUOUS
 62
     5
 10
10.12242800440378
 20
-26.783563612066938
 30
0.0
  0
SEQEND
  5
9A1
  8
DETAIL
  6
CONTINUOUS
 62
     5
  0
ENDSEC
  0
EOF
