  0
SECTION
  2
HEADER
  9
$ACADVER
  1
AC1009
  9
$INSBASE
 10
0.0
 20
0.0
 30
0.0
  9
$EXTMIN
 10
-221.86123791127471
 20
-263.92745607992401
 30
-0.0000000349181948
  9
$EXTMAX
 10
240.18674314221269
 20
159.4097019210858
 30
0.0000000814935747
  9
$LIMMIN
 10
-4267.1522210604817
 20
-2696.0832101984129
  9
$LIMMAX
 10
7190.7174225864646
 20
5141.155363923066
  9
$ORTHOMODE
 70
     0
  9
$REGENMODE
 70
     1
  9
$FILLMODE
 70
     1
  9
$QTEXTMODE
 70
     0
  9
$MIRRTEXT
 70
     0
  9
$DRAGMODE
 70
     2
  9
$LTSCALE
 40
20.0
  9
$OSMODE
 70
   431
  9
$ATTMODE
 70
     1
  9
$TEXTSIZE
 40
64.0
  9
$TRACEWID
 40
0.05
  9
$TEXTSTYLE
  7
STANDARD_MODELNAME
  9
$CLAYER
  8
SYMBOLLINE
  9
$CELTYPE
  6
CONTINUOUS
  9
$CECOLOR
 62
     7
  9
$DIMSCALE
 40
1.0
  9
$DIMASZ
 40
30.0
  9
$DIMEXO
 40
20.0
  9
$DIMDLI
 40
80.0
  9
$DIMRND
 40
0.0
  9
$DIMDLE
 40
0.0
  9
$DIMEXE
 40
20.0
  9
$DIMTP
 40
0.0
  9
$DIMTM
 40
0.0
  9
$DIMTXT
 40
60.0
  9
$DIMCEN
 40
0.09
  9
$DIMTSZ
 40
0.0
  9
$DIMTOL
 70
     0
  9
$DIMLIM
 70
     0
  9
$DIMTIH
 70
     0
  9
$DIMTOH
 70
     0
  9
$DIMSE1
 70
     0
  9
$DIMSE2
 70
     0
  9
$DIMTAD
 70
     1
  9
$DIMZIN
 70
     8
  9
$DIMBLK
  1
SMALL
  9
$DIMASO
 70
     1
  9
$DIMSHO
 70
     0
  9
$DIMPOST
  1

  9
$DIMAPOST
  1

  9
$DIMALT
 70
     0
  9
$DIMALTD
 70
     2
  9
$DIMALTF
 40
25.399999999999999
  9
$DIMLFAC
 40
1.0
  9
$DIMTOFL
 70
     1
  9
$DIMTVP
 40
0.0
  9
$DIMTIX
 70
     0
  9
$DIMSOXD
 70
     0
  9
$DIMSAH
 70
     0
  9
$DIMBLK1
  1

  9
$DIMBLK2
  1

  9
$DIMSTYLE
  2
STANDARD
  9
$DIMCLRD
 70
     0
  9
$DIMCLRE
 70
     0
  9
$DIMCLRT
 70
     0
  9
$DIMTFAC
 40
1.0
  9
$DIMGAP
 40
0.09
  9
$LUNITS
 70
     2
  9
$LUPREC
 70
     4
  9
$SKETCHINC
 40
0.1
  9
$FILLETRAD
 40
0.0
  9
$AUNITS
 70
     1
  9
$AUPREC
 70
     3
  9
$MENU
  1
ACAD
  9
$ELEVATION
 40
0.0
  9
$PELEVATION
 40
0.0
  9
$THICKNESS
 40
0.0
  9
$LIMCHECK
 70
     0
  9
$BLIPMODE
 70
     0
  9
$CHAMFERA
 40
0.0
  9
$CHAMFERB
 40
0.0
  9
$SKPOLY
 70
     0
  9
$TDCREATE
 40
2450330.4399309959
  9
$TDUPDATE
 40
2456777.505994942
  9
$TDINDWG
 40
3.6069302778000001
  9
$TDUSRTIMER
 40
3.6069295602000002
  9
$USRTIMER
 70
     1
  9
$ANGBASE
 50
0.0
  9
$ANGDIR
 70
     0
  9
$PDMODE
 70
     3
  9
$PDSIZE
 40
-2.0
  9
$PLINEWID
 40
0.0
  9
$COORDS
 70
     1
  9
$SPLFRAME
 70
     0
  9
$SPLINETYPE
 70
     6
  9
$SPLINESEGS
 70
     8
  9
$ATTDIA
 70
     0
  9
$ATTREQ
 70
     1
  9
$HANDLING
 70
     1
  9
$HANDSEED
  5
2A8
  9
$SURFTAB1
 70
     6
  9
$SURFTAB2
 70
     6
  9
$SURFTYPE
 70
     6
  9
$SURFU
 70
     6
  9
$SURFV
 70
     6
  9
$UCSNAME
  2

  9
$UCSORG
 10
0.0
 20
0.0
 30
0.0
  9
$UCSXDIR
 10
1.0
 20
0.0
 30
0.0
  9
$UCSYDIR
 10
0.0
 20
1.0
 30
0.0
  9
$PUCSNAME
  2

  9
$PUCSORG
 10
0.0
 20
0.0
 30
0.0
  9
$PUCSXDIR
 10
1.0
 20
0.0
 30
0.0
  9
$PUCSYDIR
 10
0.0
 20
1.0
 30
0.0
  9
$USERI1
 70
     0
  9
$USERI2
 70
     0
  9
$USERI3
 70
     0
  9
$USERI4
 70
     0
  9
$USERI5
 70
     0
  9
$USERR1
 40
20.0
  9
$USERR2
 40
0.0
  9
$USERR3
 40
0.0
  9
$USERR4
 40
0.0
  9
$USERR5
 40
0.0
  9
$WORLDVIEW
 70
     1
  9
$SHADEDGE
 70
     3
  9
$SHADEDIF
 70
    70
  9
$TILEMODE
 70
     1
  9
$MAXACTVP
 70
    64
  9
$PLIMCHECK
 70
     0
  9
$PEXTMIN
 10
1.0000000000000000E+020
 20
1.0000000000000000E+020
 30
1.0000000000000000E+020
  9
$PEXTMAX
 10
-1.0000000000000000E+020
 20
-1.0000000000000000E+020
 30
-1.0000000000000000E+020
  9
$PLIMMIN
 10
0.0
 20
0.0
  9
$PLIMMAX
 10
12.0
 20
9.0
  9
$UNITMODE
 70
     0
  9
$VISRETAIN
 70
     1
  9
$PLINEGEN
 70
     0
  9
$PSLTSCALE
 70
     1
  0
ENDSEC
  0
SECTION
  2
TABLES
  0
TABLE
  2
VPORT
 70
     1
  0
VPORT
  2
*ACTIVE
 70
     0
 10
0.0
 20
0.0
 11
1.0
 21
1.0
 12
-6.816388652709036
 22
-52.258877079419108
 13
0.0
 23
0.0
 14
50.0
 24
50.0
 15
100.0
 25
100.0
 16
0.0
 26
0.0
 36
1.0
 17
0.0
 27
0.0
 37
0.0
 40
426.56053737665201
 41
1.554002541296061
 42
50.0
 43
0.0
 44
0.0
 50
0.0
 51
0.0
 71
     0
 72
  1000
 73
     1
 74
     0
 75
     0
 76
     0
 77
     0
 78
     0
  0
ENDTAB
  0
TABLE
  2
LTYPE
 70
     2
  0
LTYPE
  2
CONTINUOUS
 70
     0
  3
実線
 72
    65
 73
     0
 40
0.0
  0
LTYPE
  2
DASHDOT
 70
     0
  3
____ _ ____ _ ____ _ ____ _ ____ _ ____ _ ____
 72
    65
 73
     4
 40
5.5
 49
4.0
 49
-0.6
 49
0.3
 49
-0.6
  0
ENDTAB
  0
TABLE
  2
LAYER
 70
    12
  0
LAYER
  2
0
 70
     0
 62
     7
  6
CONTINUOUS
  0
LAYER
  2
SYMBOLLINE
 70
     0
 62
    15
  6
CONTINUOUS
  0
LAYER
  2
SIZE
 70
     0
 62
    30
  6
CONTINUOUS
  0
LAYER
  2
OUTLINE
 70
     0
 62
     3
  6
CONTINUOUS
  0
LAYER
  2
DETAIL
 70
     0
 62
     5
  6
CONTINUOUS
  0
LAYER
  2
BASIS
 70
     0
 62
     6
  6
DASHDOT
  0
LAYER
  2
NOTE
 70
     0
 62
     4
  6
CONTINUOUS
  0
LAYER
  2
ARRANGE
 70
     0
 62
     1
  6
CONTINUOUS
  0
LAYER
  2
FIX
 70
     0
 62
    11
  6
CONTINUOUS
  0
LAYER
  2
SERVICESPACE
 70
     0
 62
     2
  6
DASHDOT
  0
LAYER
  2
ETC
 70
     0
 62
    61
  6
CONTINUOUS
  0
LAYER
  2
DEFPOINTS
 70
     0
 62
     7
  6
CONTINUOUS
  0
ENDTAB
  0
TABLE
  2
STYLE
 70
     4
  0
STYLE
  2
STANDARD
 70
     0
 40
0.0
 41
0.9
 50
0.0
 71
     0
 42
64.0
  3
SIMPLEX
  4
BIGFONT
  0
STYLE
  2
ANNOTATIVE
 70
     0
 40
0.0
 41
1.0
 50
0.0
 71
     0
 42
0.2
  3
txt
  4

  0
STYLE
  2
STANDARD_MODELNAME
 70
     0
 40
80.0
 41
0.8
 50
0.0
 71
     0
 42
64.0
  3
MONOTXT.shx
  4
BIGFONT.shx
  0
STYLE
  2
STANDARD1
 70
     0
 40
60.0
 41
0.7
 50
0.0
 71
     0
 42
64.0
  3
MONOTXT.shx
  4
BIGFONT.shx
  0
ENDTAB
  0
TABLE
  2
VIEW
 70
     1
  0
VIEW
  2
ALL
 70
     0
 40
9000.0
 10
241.50664699999999
 20
0.0
 41
12483.01
 11
0.0
 21
0.0
 31
1.0
 12
0.0
 22
0.0
 32
0.0
 42
50.0
 43
0.0
 44
0.0
 50
0.0
 71
     0
  0
ENDTAB
  0
TABLE
  2
UCS
 70
     0
  0
ENDTAB
  0
TABLE
  2
APPID
 70
     3
  0
APPID
  2
ACAD
 70
     0
  0
APPID
  2
ACADANNOTATIVE
 70
     0
  0
APPID
  2
ACAD_MLEADERVER
 70
     0
  0
ENDTAB
  0
TABLE
  2
DIMSTYLE
 70
     2
  0
DIMSTYLE
  2
STANDARD
 70
     0
  3

  4

  5

  6

  7

 40
1.0
 41
0.18
 42
0.0625
 43
0.38
 44
0.18
 45
0.0
 46
0.0
 47
0.0
 48
0.0
140
0.18
141
0.09
142
0.0
143
25.399999999999999
144
1.0
145
0.0
146
1.0
147
0.09
 71
     0
 72
     0
 73
     1
 74
     1
 75
     0
 76
     0
 77
     0
 78
     0
170
     0
171
     2
172
     0
173
     0
174
     0
175
     0
176
     0
177
     0
178
     0
  0
DIMSTYLE
  2
ANNOTATIVE
 70
     0
  3

  4

  5

  6

  7

 40
1.0
 41
0.18
 42
0.0625
 43
0.38
 44
0.18
 45
0.0
 46
0.0
 47
0.0
 48
0.0
140
0.18
141
0.09
142
0.0
143
25.399999999999999
144
1.0
145
0.0
146
1.0
147
0.09
 71
     0
 72
     0
 73
     1
 74
     1
 75
     0
 76
     0
 77
     0
 78
     0
170
     0
171
     2
172
     0
173
     0
174
     0
175
     0
176
     0
177
     0
178
     0
  0
ENDTAB
  0
ENDSEC
  0
SECTION
  2
BLOCKS
  0
BLOCK
  8
0
  2
$MODEL_SPACE
 70
     0
 10
0.0
 20
0.0
 30
0.0
  3
$MODEL_SPACE
  1

  0
ENDBLK
  5
25F
  8
0
  0
BLOCK
 67
     1
  8
0
  2
$PAPER_SPACE
 70
     0
 10
0.0
 20
0.0
 30
0.0
  3
$PAPER_SPACE
  1

  0
ENDBLK
  5
25B
 67
     1
  8
0
  0
BLOCK
  8
0
  2
_SMALL
 70
     0
 10
0.0
 20
0.0
 30
0.0
  3
_SMALL
  1

  0
CIRCLE
  5
8D
  8
0
  6
CONTINUOUS
 62
     7
 10
0.0
 20
0.0
 30
0.0
 40
0.25
  0
ENDBLK
  5
8E
  8
0
  0
ENDSEC
  0
SECTION
  2
ENTITIES
  0
LINE
  5
8F
  8
DETAIL
  6
CONTINUOUS
 62
     5
 10
0.0000000000006821
 20
59.000000000000107
 30
0.0
 11
0.0000000000002274
 21
-59.000000000000107
 31
0.0
  0
LINE
  5
90
  8
DETAIL
  6
CONTINUOUS
 62
     5
 10
6.5000000000006812
 20
51.0
 30
0.0
 11
6.5000000000006812
 21
49.0
 31
0.0
  0
ARC
  5
91
  8
DETAIL
  6
CONTINUOUS
 62
     5
 10
1.0000000000006799
 20
59.000000000000107
 30
0.0
 40
1.0
 50
90.0
 51
180.0
  0
LINE
  5
92
  8
DETAIL
  6
CONTINUOUS
 62
     5
 10
15.000000000000229
 20
49.816251876292192
 30
0.0
 11
15.00000000000068
 21
-49.816251876292192
 31
0.0
  0
ARC
  5
93
  8
DETAIL
  6
CONTINUOUS
 62
     5
 10
14.000000000000229
 20
49.816251876292192
 30
0.0
 40
1.0
 50
0.0
 51
20.823698086120469
  0
LINE
  5
94
  8
DETAIL
  6
CONTINUOUS
 62
     5
 10
9.0000000000002274
 20
60.0
 30
0.0
 11
9.0000000000002274
 21
-60.0
 31
0.0
  0
LINE
  5
95
  8
DETAIL
  6
CONTINUOUS
 62
     5
 10
1.0000000000002249
 20
-60.000000000000099
 30
0.0
 11
10.50707406624883
 21
-60.0
 31
0.0
  0
ARC
  5
96
  8
DETAIL
  6
CONTINUOUS
 62
     5
 10
1.0000000000002249
 20
-59.000000000000107
 30
0.0
 40
1.0
 50
180.0
 51
270.0
  0
LINE
  5
97
  8
DETAIL
  6
CONTINUOUS
 62
     5
 10
1.0000000000006799
 20
60.000000000000099
 30
0.0
 11
10.50707406624883
 21
60.0
 31
0.0
  0
LINE
  5
98
  8
DETAIL
  6
CONTINUOUS
 62
     5
 10
14.93467872077985
 20
50.171745461216119
 30
0.0
 11
11.441752787028459
 21
59.355493584923927
 31
0.0
  0
ARC
  5
99
  8
DETAIL
  6
CONTINUOUS
 62
     5
 10
10.50707406624883
 20
59.0
 30
0.0
 40
1.0
 50
20.823698086120469
 51
90.0
  0
ARC
  5
9A
  8
DETAIL
  6
CONTINUOUS
 62
     5
 10
14.000000000000229
 20
-49.816251876292192
 30
0.0
 40
1.0
 50
339.17630191387337
 51
0.0
  0
LINE
  5
9B
  8
DETAIL
  6
CONTINUOUS
 62
     5
 10
14.93467872077985
 20
-50.171745461216119
 30
0.0
 11
11.441752787028459
 21
-59.355493584923927
 31
0.0
  0
ARC
  5
9C
  8
DETAIL
  6
CONTINUOUS
 62
     5
 10
10.50707406624883
 20
-59.0
 30
0.0
 40
1.0
 50
270.0
 51
339.17630191387337
  0
LINE
  5
9D
  8
DETAIL
  6
CONTINUOUS
 62
     5
 10
6.5000000000006812
 20
-51.0
 30
0.0
 11
0.0000000000002274
 21
-51.0
 31
0.0
  0
LINE
  5
9E
  8
DETAIL
  6
CONTINUOUS
 62
     5
 10
6.5000000000006812
 20
-49.0
 30
0.0
 11
0.0000000000002274
 21
-49.0
 31
0.0
  0
LINE
  5
9F
  8
DETAIL
  6
CONTINUOUS
 62
     5
 10
2.000000000000226
 20
-51.0
 30
0.0
 11
2.000000000000226
 21
-49.0
 31
0.0
  0
LINE
  5
A0
  8
DETAIL
  6
CONTINUOUS
 62
     5
 10
6.5000000000006812
 20
-47.0
 30
0.0
 11
0.0000000000002274
 21
-47.0
 31
0.0
  0
LINE
  5
A1
  8
DETAIL
  6
CONTINUOUS
 62
     5
 10
6.5000000000006812
 20
-45.0
 30
0.0
 11
0.0000000000002274
 21
-45.0
 31
0.0
  0
LINE
  5
A2
  8
DETAIL
  6
CONTINUOUS
 62
     5
 10
2.000000000000226
 20
-47.0
 30
0.0
 11
2.000000000000226
 21
-45.0
 31
0.0
  0
LINE
  5
A3
  8
DETAIL
  6
CONTINUOUS
 62
     5
 10
6.5000000000006812
 20
-43.0
 30
0.0
 11
0.0000000000002274
 21
-43.0
 31
0.0
  0
LINE
  5
A4
  8
DETAIL
  6
CONTINUOUS
 62
     5
 10
6.5000000000006812
 20
-41.0
 30
0.0
 11
0.0000000000002274
 21
-41.0
 31
0.0
  0
LINE
  5
A5
  8
DETAIL
  6
CONTINUOUS
 62
     5
 10
2.000000000000226
 20
-43.0
 30
0.0
 11
2.000000000000226
 21
-41.0
 31
0.0
  0
LINE
  5
A6
  8
DETAIL
  6
CONTINUOUS
 62
     5
 10
6.5000000000006812
 20
-39.0
 30
0.0
 11
0.0000000000002274
 21
-39.0
 31
0.0
  0
LINE
  5
A7
  8
DETAIL
  6
CONTINUOUS
 62
     5
 10
6.5000000000006812
 20
-37.0
 30
0.0
 11
0.0000000000002274
 21
-37.0
 31
0.0
  0
LINE
  5
A8
  8
DETAIL
  6
CONTINUOUS
 62
     5
 10
2.000000000000226
 20
-39.0
 30
0.0
 11
2.000000000000226
 21
-37.0
 31
0.0
  0
LINE
  5
A9
  8
DETAIL
  6
CONTINUOUS
 62
     5
 10
6.5000000000006812
 20
-35.0
 30
0.0
 11
0.0000000000002274
 21
-35.0
 31
0.0
  0
LINE
  5
AA
  8
DETAIL
  6
CONTINUOUS
 62
     5
 10
6.5000000000006812
 20
-33.0
 30
0.0
 11
0.0000000000002274
 21
-33.0
 31
0.0
  0
LINE
  5
AB
  8
DETAIL
  6
CONTINUOUS
 62
     5
 10
2.000000000000226
 20
-35.0
 30
0.0
 11
2.000000000000226
 21
-33.0
 31
0.0
  0
LINE
  5
AC
  8
DETAIL
  6
CONTINUOUS
 62
     5
 10
6.5000000000006812
 20
-31.0
 30
0.0
 11
0.0000000000002274
 21
-31.0
 31
0.0
  0
LINE
  5
AD
  8
DETAIL
  6
CONTINUOUS
 62
     5
 10
6.5000000000006812
 20
-29.0
 30
0.0
 11
0.0000000000002274
 21
-29.0
 31
0.0
  0
LINE
  5
AE
  8
DETAIL
  6
CONTINUOUS
 62
     5
 10
2.000000000000226
 20
-31.0
 30
0.0
 11
2.000000000000226
 21
-29.0
 31
0.0
  0
LINE
  5
AF
  8
DETAIL
  6
CONTINUOUS
 62
     5
 10
6.5000000000006812
 20
-27.0
 30
0.0
 11
0.0000000000002274
 21
-27.0
 31
0.0
  0
LINE
  5
B0
  8
DETAIL
  6
CONTINUOUS
 62
     5
 10
6.5000000000006812
 20
-25.0
 30
0.0
 11
0.0000000000002274
 21
-25.0
 31
0.0
  0
LINE
  5
B1
  8
DETAIL
  6
CONTINUOUS
 62
     5
 10
2.000000000000226
 20
-27.0
 30
0.0
 11
2.000000000000226
 21
-25.0
 31
0.0
  0
LINE
  5
B2
  8
DETAIL
  6
CONTINUOUS
 62
     5
 10
6.5000000000006812
 20
-23.0
 30
0.0
 11
0.0000000000002274
 21
-23.0
 31
0.0
  0
LINE
  5
B3
  8
DETAIL
  6
CONTINUOUS
 62
     5
 10
6.5000000000006812
 20
-21.0
 30
0.0
 11
0.0000000000002274
 21
-21.0
 31
0.0
  0
LINE
  5
B4
  8
DETAIL
  6
CONTINUOUS
 62
     5
 10
2.000000000000226
 20
-23.0
 30
0.0
 11
2.000000000000226
 21
-21.0
 31
0.0
  0
LINE
  5
B5
  8
DETAIL
  6
CONTINUOUS
 62
     5
 10
6.5000000000006812
 20
-19.0
 30
0.0
 11
0.0000000000002274
 21
-19.0
 31
0.0
  0
LINE
  5
B6
  8
DETAIL
  6
CONTINUOUS
 62
     5
 10
6.5000000000006812
 20
-17.0
 30
0.0
 11
0.0000000000002274
 21
-17.0
 31
0.0
  0
LINE
  5
B7
  8
DETAIL
  6
CONTINUOUS
 62
     5
 10
2.000000000000226
 20
-19.0
 30
0.0
 11
2.000000000000226
 21
-17.0
 31
0.0
  0
LINE
  5
B8
  8
DETAIL
  6
CONTINUOUS
 62
     5
 10
6.5000000000006812
 20
-15.0
 30
0.0
 11
0.0000000000002274
 21
-15.0
 31
0.0
  0
LINE
  5
B9
  8
DETAIL
  6
CONTINUOUS
 62
     5
 10
6.5000000000006812
 20
-13.0
 30
0.0
 11
0.0000000000002274
 21
-13.0
 31
0.0
  0
LINE
  5
BA
  8
DETAIL
  6
CONTINUOUS
 62
     5
 10
2.000000000000226
 20
-15.0
 30
0.0
 11
2.000000000000226
 21
-13.0
 31
0.0
  0
LINE
  5
BB
  8
DETAIL
  6
CONTINUOUS
 62
     5
 10
6.5000000000006812
 20
-11.0
 30
0.0
 11
0.0000000000002274
 21
-11.0
 31
0.0
  0
LINE
  5
BC
  8
DETAIL
  6
CONTINUOUS
 62
     5
 10
6.5000000000006812
 20
-9.0
 30
0.0
 11
0.0000000000002274
 21
-9.0
 31
0.0
  0
LINE
  5
BD
  8
DETAIL
  6
CONTINUOUS
 62
     5
 10
2.000000000000226
 20
-11.0
 30
0.0
 11
2.000000000000226
 21
-9.0
 31
0.0
  0
LINE
  5
BE
  8
DETAIL
  6
CONTINUOUS
 62
     5
 10
6.5000000000006812
 20
-7.0
 30
0.0
 11
0.0000000000002274
 21
-7.0
 31
0.0
  0
LINE
  5
BF
  8
DETAIL
  6
CONTINUOUS
 62
     5
 10
6.5000000000006812
 20
-5.0
 30
0.0
 11
0.0000000000002274
 21
-5.0
 31
0.0
  0
LINE
  5
C0
  8
DETAIL
  6
CONTINUOUS
 62
     5
 10
2.000000000000226
 20
-7.0
 30
0.0
 11
2.000000000000226
 21
-5.0
 31
0.0
  0
LINE
  5
C1
  8
DETAIL
  6
CONTINUOUS
 62
     5
 10
6.5000000000006812
 20
-3.0
 30
0.0
 11
0.0000000000002274
 21
-3.0
 31
0.0
  0
LINE
  5
C2
  8
DETAIL
  6
CONTINUOUS
 62
     5
 10
6.5000000000006812
 20
-1.0
 30
0.0
 11
0.0000000000002274
 21
-1.0
 31
0.0
  0
LINE
  5
C3
  8
DETAIL
  6
CONTINUOUS
 62
     5
 10
2.000000000000226
 20
-3.0
 30
0.0
 11
2.000000000000226
 21
-1.0
 31
0.0
  0
LINE
  5
C4
  8
DETAIL
  6
CONTINUOUS
 62
     5
 10
6.5000000000006812
 20
1.0
 30
0.0
 11
0.0000000000002274
 21
1.0
 31
0.0
  0
LINE
  5
C5
  8
DETAIL
  6
CONTINUOUS
 62
     5
 10
6.5000000000006812
 20
3.0
 30
0.0
 11
0.0000000000002274
 21
3.0
 31
0.0
  0
LINE
  5
C6
  8
DETAIL
  6
CONTINUOUS
 62
     5
 10
2.000000000000226
 20
1.0
 30
0.0
 11
2.000000000000226
 21
3.0
 31
0.0
  0
LINE
  5
C7
  8
DETAIL
  6
CONTINUOUS
 62
     5
 10
6.5000000000006812
 20
5.0
 30
0.0
 11
0.0000000000002274
 21
5.0
 31
0.0
  0
LINE
  5
C8
  8
DETAIL
  6
CONTINUOUS
 62
     5
 10
6.5000000000006812
 20
7.0
 30
0.0
 11
0.0000000000002274
 21
7.0
 31
0.0
  0
LINE
  5
C9
  8
DETAIL
  6
CONTINUOUS
 62
     5
 10
2.000000000000226
 20
5.0
 30
0.0
 11
2.000000000000226
 21
7.0
 31
0.0
  0
LINE
  5
CA
  8
DETAIL
  6
CONTINUOUS
 62
     5
 10
6.5000000000006812
 20
9.0
 30
0.0
 11
0.0000000000002274
 21
9.0
 31
0.0
  0
LINE
  5
CB
  8
DETAIL
  6
CONTINUOUS
 62
     5
 10
6.5000000000006812
 20
11.0
 30
0.0
 11
0.0000000000002274
 21
11.0
 31
0.0
  0
LINE
  5
CC
  8
DETAIL
  6
CONTINUOUS
 62
     5
 10
2.000000000000226
 20
9.0
 30
0.0
 11
2.000000000000226
 21
11.0
 31
0.0
  0
LINE
  5
CD
  8
DETAIL
  6
CONTINUOUS
 62
     5
 10
6.5000000000006812
 20
13.0
 30
0.0
 11
0.0000000000002274
 21
13.0
 31
0.0
  0
LINE
  5
CE
  8
DETAIL
  6
CONTINUOUS
 62
     5
 10
6.5000000000006812
 20
15.0
 30
0.0
 11
0.0000000000002274
 21
15.0
 31
0.0
  0
LINE
  5
CF
  8
DETAIL
  6
CONTINUOUS
 62
     5
 10
2.000000000000226
 20
13.0
 30
0.0
 11
2.000000000000226
 21
15.0
 31
0.0
  0
LINE
  5
D0
  8
DETAIL
  6
CONTINUOUS
 62
     5
 10
6.5000000000006812
 20
17.0
 30
0.0
 11
0.0000000000002274
 21
17.0
 31
0.0
  0
LINE
  5
D1
  8
DETAIL
  6
CONTINUOUS
 62
     5
 10
6.5000000000006812
 20
19.0
 30
0.0
 11
0.0000000000002274
 21
19.0
 31
0.0
  0
LINE
  5
D2
  8
DETAIL
  6
CONTINUOUS
 62
     5
 10
2.000000000000226
 20
17.0
 30
0.0
 11
2.000000000000226
 21
19.0
 31
0.0
  0
LINE
  5
D3
  8
DETAIL
  6
CONTINUOUS
 62
     5
 10
6.5000000000006812
 20
21.0
 30
0.0
 11
0.0000000000002274
 21
21.0
 31
0.0
  0
LINE
  5
D4
  8
DETAIL
  6
CONTINUOUS
 62
     5
 10
6.5000000000006812
 20
23.0
 30
0.0
 11
0.0000000000002274
 21
23.0
 31
0.0
  0
LINE
  5
D5
  8
DETAIL
  6
CONTINUOUS
 62
     5
 10
2.000000000000226
 20
21.0
 30
0.0
 11
2.000000000000226
 21
23.0
 31
0.0
  0
LINE
  5
D6
  8
DETAIL
  6
CONTINUOUS
 62
     5
 10
6.5000000000006812
 20
25.0
 30
0.0
 11
0.0000000000002274
 21
25.0
 31
0.0
  0
LINE
  5
D7
  8
DETAIL
  6
CONTINUOUS
 62
     5
 10
6.5000000000006812
 20
27.0
 30
0.0
 11
0.0000000000002274
 21
27.0
 31
0.0
  0
LINE
  5
D8
  8
DETAIL
  6
CONTINUOUS
 62
     5
 10
2.000000000000226
 20
25.0
 30
0.0
 11
2.000000000000226
 21
27.0
 31
0.0
  0
LINE
  5
D9
  8
DETAIL
  6
CONTINUOUS
 62
     5
 10
6.5000000000006812
 20
29.0
 30
0.0
 11
0.0000000000002274
 21
29.0
 31
0.0
  0
LINE
  5
DA
  8
DETAIL
  6
CONTINUOUS
 62
     5
 10
6.5000000000006812
 20
31.0
 30
0.0
 11
0.0000000000002274
 21
31.0
 31
0.0
  0
LINE
  5
DB
  8
DETAIL
  6
CONTINUOUS
 62
     5
 10
2.000000000000226
 20
29.0
 30
0.0
 11
2.000000000000226
 21
31.0
 31
0.0
  0
LINE
  5
DC
  8
DETAIL
  6
CONTINUOUS
 62
     5
 10
6.5000000000006812
 20
33.0
 30
0.0
 11
0.0000000000002274
 21
33.0
 31
0.0
  0
LINE
  5
DD
  8
DETAIL
  6
CONTINUOUS
 62
     5
 10
6.5000000000006812
 20
35.0
 30
0.0
 11
0.0000000000002274
 21
35.0
 31
0.0
  0
LINE
  5
DE
  8
DETAIL
  6
CONTINUOUS
 62
     5
 10
2.000000000000226
 20
33.0
 30
0.0
 11
2.000000000000226
 21
35.0
 31
0.0
  0
LINE
  5
DF
  8
DETAIL
  6
CONTINUOUS
 62
     5
 10
6.5000000000006812
 20
37.0
 30
0.0
 11
0.0000000000002274
 21
37.0
 31
0.0
  0
LINE
  5
E0
  8
DETAIL
  6
CONTINUOUS
 62
     5
 10
6.5000000000006812
 20
39.0
 30
0.0
 11
0.0000000000002274
 21
39.0
 31
0.0
  0
LINE
  5
E1
  8
DETAIL
  6
CONTINUOUS
 62
     5
 10
2.000000000000226
 20
37.0
 30
0.0
 11
2.000000000000226
 21
39.0
 31
0.0
  0
LINE
  5
E2
  8
DETAIL
  6
CONTINUOUS
 62
     5
 10
6.5000000000006812
 20
41.0
 30
0.0
 11
0.0000000000002274
 21
41.0
 31
0.0
  0
LINE
  5
E3
  8
DETAIL
  6
CONTINUOUS
 62
     5
 10
6.5000000000006812
 20
43.0
 30
0.0
 11
0.0000000000002274
 21
43.0
 31
0.0
  0
LINE
  5
E4
  8
DETAIL
  6
CONTINUOUS
 62
     5
 10
2.000000000000226
 20
41.0
 30
0.0
 11
2.000000000000226
 21
43.0
 31
0.0
  0
LINE
  5
E5
  8
DETAIL
  6
CONTINUOUS
 62
     5
 10
6.5000000000006812
 20
45.0
 30
0.0
 11
0.0000000000002274
 21
45.0
 31
0.0
  0
LINE
  5
E6
  8
DETAIL
  6
CONTINUOUS
 62
     5
 10
6.5000000000006812
 20
47.0
 30
0.0
 11
0.0000000000002274
 21
47.0
 31
0.0
  0
LINE
  5
E7
  8
DETAIL
  6
CONTINUOUS
 62
     5
 10
2.000000000000226
 20
45.0
 30
0.0
 11
2.000000000000226
 21
47.0
 31
0.0
  0
LINE
  5
E8
  8
DETAIL
  6
CONTINUOUS
 62
     5
 10
6.5000000000006812
 20
49.0
 30
0.0
 11
0.0000000000002274
 21
49.0
 31
0.0
  0
LINE
  5
E9
  8
DETAIL
  6
CONTINUOUS
 62
     5
 10
6.5000000000006812
 20
51.0
 30
0.0
 11
0.0000000000002274
 21
51.0
 31
0.0
  0
LINE
  5
EA
  8
DETAIL
  6
CONTINUOUS
 62
     5
 10
2.000000000000226
 20
49.0
 30
0.0
 11
2.000000000000226
 21
51.0
 31
0.0
  0
LINE
  5
EB
  8
BASIS
  6
DASHDOT
 62
     6
 10
-4.025636054931736
 20
0.0
 30
0.0
 11
19.188548839454821
 21
0.0
 31
0.0
  0
CIRCLE
  5
EE
  8
FIX
  6
CONTINUOUS
 62
    11
 10
0.0000000000006821
 20
41.750000000144141
 30
0.0
 40
3.7264493816174711
  0
CIRCLE
  5
EF
  8
FIX
  6
CONTINUOUS
 62
    11
 10
-0.0000000000306954
 20
-41.750000000144141
 30
0.0
 40
3.7264493816174711
  0
LINE
  5
F0
  8
DETAIL
  6
CONTINUOUS
 62
     5
 10
6.5000000000006812
 20
47.0
 30
0.0
 11
6.5000000000006812
 21
45.0
 31
0.0
  0
LINE
  5
F1
  8
DETAIL
  6
CONTINUOUS
 62
     5
 10
6.5000000000006812
 20
43.0
 30
0.0
 11
6.5000000000006812
 21
41.0
 31
0.0
  0
LINE
  5
F2
  8
DETAIL
  6
CONTINUOUS
 62
     5
 10
6.5000000000006812
 20
39.0
 30
0.0
 11
6.5000000000006812
 21
37.0
 31
0.0
  0
LINE
  5
F3
  8
DETAIL
  6
CONTINUOUS
 62
     5
 10
6.5000000000006812
 20
35.0
 30
0.0
 11
6.5000000000006812
 21
33.0
 31
0.0
  0
LINE
  5
F4
  8
DETAIL
  6
CONTINUOUS
 62
     5
 10
6.5000000000006812
 20
31.0
 30
0.0
 11
6.5000000000006812
 21
29.0
 31
0.0
  0
LINE
  5
F5
  8
DETAIL
  6
CONTINUOUS
 62
     5
 10
6.5000000000006812
 20
27.0
 30
0.0
 11
6.5000000000006812
 21
25.0
 31
0.0
  0
LINE
  5
F6
  8
DETAIL
  6
CONTINUOUS
 62
     5
 10
6.5000000000006812
 20
23.0
 30
0.0
 11
6.5000000000006812
 21
21.0
 31
0.0
  0
LINE
  5
F7
  8
DETAIL
  6
CONTINUOUS
 62
     5
 10
6.5000000000006812
 20
19.0
 30
0.0
 11
6.5000000000006812
 21
17.0
 31
0.0
  0
LINE
  5
F8
  8
DETAIL
  6
CONTINUOUS
 62
     5
 10
6.5000000000006812
 20
15.0
 30
0.0
 11
6.5000000000006812
 21
13.0
 31
0.0
  0
LINE
  5
F9
  8
DETAIL
  6
CONTINUOUS
 62
     5
 10
6.5000000000006812
 20
11.0
 30
0.0
 11
6.5000000000006812
 21
9.0
 31
0.0
  0
LINE
  5
FA
  8
DETAIL
  6
CONTINUOUS
 62
     5
 10
6.5000000000006812
 20
7.0
 30
0.0
 11
6.5000000000006812
 21
5.0
 31
0.0
  0
LINE
  5
FB
  8
DETAIL
  6
CONTINUOUS
 62
     5
 10
6.5000000000006812
 20
3.0
 30
0.0
 11
6.5000000000006812
 21
1.0
 31
0.0
  0
LINE
  5
FC
  8
DETAIL
  6
CONTINUOUS
 62
     5
 10
6.5000000000006812
 20
-1.0
 30
0.0
 11
6.5000000000006812
 21
-3.0
 31
0.0
  0
LINE
  5
FD
  8
DETAIL
  6
CONTINUOUS
 62
     5
 10
6.5000000000006812
 20
-5.0
 30
0.0
 11
6.5000000000006812
 21
-7.0
 31
0.0
  0
LINE
  5
FE
  8
DETAIL
  6
CONTINUOUS
 62
     5
 10
6.5000000000006812
 20
-9.0
 30
0.0
 11
6.5000000000006812
 21
-11.0
 31
0.0
  0
LINE
  5
FF
  8
DETAIL
  6
CONTINUOUS
 62
     5
 10
6.5000000000006812
 20
-13.0
 30
0.0
 11
6.5000000000006812
 21
-15.0
 31
0.0
  0
LINE
  5
100
  8
DETAIL
  6
CONTINUOUS
 62
     5
 10
6.5000000000006812
 20
-17.0
 30
0.0
 11
6.5000000000006812
 21
-19.0
 31
0.0
  0
LINE
  5
101
  8
DETAIL
  6
CONTINUOUS
 62
     5
 10
6.5000000000006812
 20
-21.0
 30
0.0
 11
6.5000000000006812
 21
-23.0
 31
0.0
  0
LINE
  5
102
  8
DETAIL
  6
CONTINUOUS
 62
     5
 10
6.5000000000006812
 20
-25.0
 30
0.0
 11
6.5000000000006812
 21
-27.0
 31
0.0
  0
LINE
  5
103
  8
DETAIL
  6
CONTINUOUS
 62
     5
 10
6.5000000000006812
 20
-29.0
 30
0.0
 11
6.5000000000006812
 21
-31.0
 31
0.0
  0
LINE
  5
104
  8
DETAIL
  6
CONTINUOUS
 62
     5
 10
6.5000000000006812
 20
-33.0
 30
0.0
 11
6.5000000000006812
 21
-35.0
 31
0.0
  0
LINE
  5
105
  8
DETAIL
  6
CONTINUOUS
 62
     5
 10
6.5000000000006812
 20
-37.0
 30
0.0
 11
6.5000000000006812
 21
-39.0
 31
0.0
  0
LINE
  5
106
  8
DETAIL
  6
CONTINUOUS
 62
     5
 10
6.5000000000006812
 20
-41.0
 30
0.0
 11
6.5000000000006812
 21
-43.0
 31
0.0
  0
LINE
  5
107
  8
DETAIL
  6
CONTINUOUS
 62
     5
 10
6.5000000000006812
 20
-45.0
 30
0.0
 11
6.5000000000006812
 21
-47.0
 31
0.0
  0
LINE
  5
108
  8
DETAIL
  6
CONTINUOUS
 62
     5
 10
6.5000000000006812
 20
-49.0
 30
0.0
 11
6.5000000000006812
 21
-51.0
 31
0.0
  0
POINT
  5
111
  8
DEFPOINTS
  6
CONTINUOUS
 62
     7
 10
15.00000000000068
 20
-49.816251876292192
 30
0.0
  0
POINT
  5
112
  8
DEFPOINTS
  6
CONTINUOUS
 62
     7
 10
0.0000000000002274
 20
-59.000000000000107
 30
0.0
  0
POINT
  5
11B
  8
DEFPOINTS
  6
CONTINUOUS
 62
     7
 10
10.50707406624883
 20
60.0
 30
0.0
  0
POINT
  5
11C
  8
DEFPOINTS
  6
CONTINUOUS
 62
     7
 10
10.50707406624883
 20
-60.0
 30
0.0
  0
POINT
  5
125
  8
DEFPOINTS
  6
CONTINUOUS
 62
     7
 10
-6.6772997495170321
 20
41.750000000144141
 30
0.0
  0
POINT
  5
126
  8
DEFPOINTS
  6
CONTINUOUS
 62
     7
 10
-6.6772997495170321
 20
-41.750000000144141
 30
0.0
  0
LINE
  5
12C
  8
OUTLINE
  6
CONTINUOUS
 62
     3
 10
14.93467872077985
 20
50.171745461216119
 30
0.0
 11
11.441752787028459
 21
59.355493584923927
 31
0.0
  0
ARC
  5
12D
  8
OUTLINE
  6
CONTINUOUS
 62
     3
 10
14.000000000000229
 20
49.816251876292192
 30
0.0
 40
1.0
 50
0.0
 51
20.823698086120469
  0
LINE
  5
12E
  8
OUTLINE
  6
CONTINUOUS
 62
     3
 10
15.000000000000229
 20
49.816251876292192
 30
0.0
 11
15.00000000000068
 21
-49.816251876292192
 31
0.0
  0
ARC
  5
12F
  8
OUTLINE
  6
CONTINUOUS
 62
     3
 10
10.50707406624883
 20
59.0
 30
0.0
 40
1.0
 50
20.823698086120469
 51
90.0
  0
LINE
  5
130
  8
OUTLINE
  6
CONTINUOUS
 62
     3
 10
1.0000000000006799
 20
60.000000000000099
 30
0.0
 11
10.50707406624883
 21
60.0
 31
0.0
  0
ARC
  5
131
  8
OUTLINE
  6
CONTINUOUS
 62
     3
 10
1.0000000000006799
 20
59.000000000000107
 30
0.0
 40
1.0
 50
90.0
 51
180.0
  0
LINE
  5
132
  8
OUTLINE
  6
CONTINUOUS
 62
     3
 10
0.0000000000006821
 20
59.000000000000107
 30
0.0
 11
0.0000000000002274
 21
-59.000000000000107
 31
0.0
  0
POINT
  5
13B
  8
DEFPOINTS
  6
CONTINUOUS
 62
     7
 10
15.00000000000068
 20
-49.816251876292192
 30
0.0
  0
POINT
  5
13C
  8
DEFPOINTS
  6
CONTINUOUS
 62
     7
 10
0.0000000000002274
 20
-59.000000000000107
 30
0.0
  0
LINE
  5
13E
  8
OUTLINE
  6
CONTINUOUS
 62
     3
 10
14.93467872077985
 20
-50.171745461216119
 30
0.0
 11
11.441752787028459
 21
-59.355493584923927
 31
0.0
  0
ARC
  5
13F
  8
OUTLINE
  6
CONTINUOUS
 62
     3
 10
14.000000000000229
 20
-49.816251876292192
 30
0.0
 40
1.0
 50
339.17630191387337
 51
0.0
  0
ARC
  5
140
  8
OUTLINE
  6
CONTINUOUS
 62
     3
 10
10.50707406624883
 20
-59.0
 30
0.0
 40
1.0
 50
270.0
 51
339.17630191387337
  0
LINE
  5
141
  8
OUTLINE
  6
CONTINUOUS
 62
     3
 10
1.0000000000002249
 20
-60.000000000000099
 30
0.0
 11
10.50707406624883
 21
-60.0
 31
0.0
  0
ARC
  5
142
  8
OUTLINE
  6
CONTINUOUS
 62
     3
 10
1.0000000000002249
 20
-59.000000000000107
 30
0.0
 40
1.0
 50
180.0
 51
270.0
  0
LINE
  5
171
  8
NOTE
  6
CONTINUOUS
 62
     4
 10
-6.6772997495170321
 20
-41.750000000144141
 30
0.0
 11
6.6772997494560951
 21
-41.750000000144141
 31
0.0
  0
LINE
  5
172
  8
NOTE
  6
CONTINUOUS
 62
     4
 10
-6.6772997495170321
 20
41.750000000144141
 30
0.0
 11
6.6772997494560951
 21
41.750000000144141
 31
0.0
  0
LINE
  5
173
  8
SIZE
  6
CONTINUOUS
 62
    30
 10
30.50707406624884
 20
-60.0
 30
0.0
 11
172.22590292057441
 21
-60.0
 31
0.0
  0
LINE
  5
174
  8
SIZE
  6
CONTINUOUS
 62
    30
 10
30.50707406624884
 20
60.0
 30
0.0
 11
172.22590292057441
 21
60.000000000000071
 31
0.0
  0
LINE
  5
175
  8
SIZE
  6
CONTINUOUS
 62
    30
 10
152.22590292057441
 20
60.000000000000071
 30
0.0
 11
152.22590292057441
 21
-60.0
 31
0.0
  0
CIRCLE
  5
176
  8
SIZE
  6
CONTINUOUS
 62
    30
 10
152.22590292057441
 20
60.000000000000071
 30
0.0
 40
5.0
  0
CIRCLE
  5
177
  8
SIZE
  6
CONTINUOUS
 62
    30
 10
152.22590292057441
 20
-60.0
 30
0.0
 40
5.0
  0
TEXT
  5
178
  8
SIZE
  6
CONTINUOUS
 62
    30
 10
144.55303759588119
 20
-21.428571428571431
 30
0.0
 40
20.0
  1
120
 50
90.0
 41
0.9
 72
     1
 11
144.55303759588119
 21
0.0
 31
0.0
  0
LINE
  5
179
  8
SIZE
  6
CONTINUOUS
 62
    30
 10
15.00000000000068
 20
-69.816251876292185
 30
0.0
 11
15.00000000000068
 21
-232.41417428613931
 31
0.0
  0
LINE
  5
17A
  8
SIZE
  6
CONTINUOUS
 62
    30
 10
0.0000000000002274
 20
-79.000000000000099
 30
0.0
 11
0.0000000000002274
 21
-232.41417428613931
 31
0.0
  0
LINE
  5
17B
  8
SIZE
  6
CONTINUOUS
 62
    30
 10
15.00000000000068
 20
-212.41417428613931
 30
0.0
 11
34.999999999999773
 21
-212.41417428613931
 31
0.0
  0
LINE
  5
17C
  8
SIZE
  6
CONTINUOUS
 62
    30
 10
0.0000000000002274
 20
-212.41417428613931
 30
0.0
 11
-51.573851105611752
 21
-212.41417428613931
 31
0.0
  0
LINE
  5
17D
  8
SIZE
  6
CONTINUOUS
 62
    30
 10
15.00000000000068
 20
-212.41417428613931
 30
0.0
 11
0.0000000000002274
 21
-212.41417428613931
 31
0.0
  0
CIRCLE
  5
17E
  8
SIZE
  6
CONTINUOUS
 62
    30
 10
15.00000000000068
 20
-212.41417428613931
 30
0.0
 40
5.0
  0
CIRCLE
  5
17F
  8
SIZE
  6
CONTINUOUS
 62
    30
 10
0.0000000000002274
 20
-212.41417428613931
 30
0.0
 40
5.0
  0
TEXT
  5
180
  8
SIZE
  6
CONTINUOUS
 62
    30
 10
-41.107172038200552
 20
-205.33263792587061
 30
0.0
 40
20.0
  1
15
 41
0.9
 72
     1
 11
-28.250029181057698
 21
-205.33263792587061
 31
0.0
  0
LINE
  5
181
  8
SIZE
  6
CONTINUOUS
 62
    30
 10
-26.67730000000023
 20
-41.750000000144141
 30
0.0
 11
-193.0925674108546
 21
-41.750000000144269
 31
0.0
  0
LINE
  5
182
  8
SIZE
  6
CONTINUOUS
 62
    30
 10
-26.67730000000023
 20
41.750000000144141
 30
0.0
 11
-193.0925674108546
 21
41.750000000144041
 31
0.0
  0
LINE
  5
183
  8
SIZE
  6
CONTINUOUS
 62
    30
 10
-173.09256741085451
 20
-41.750000000144269
 30
0.0
 11
-173.09256741085451
 21
41.750000000144041
 31
0.0
  0
CIRCLE
  5
184
  8
SIZE
  6
CONTINUOUS
 62
    30
 10
-173.09256741085451
 20
-41.750000000144269
 30
0.0
 40
5.0
  0
CIRCLE
  5
185
  8
SIZE
  6
CONTINUOUS
 62
    30
 10
-173.09256741085451
 20
41.750000000144041
 30
0.0
 40
5.0
  0
TEXT
  5
186
  8
ETC
  6
CONTINUOUS
 62
    61
 10
21.520075428390559
 20
139.08817401231411
 30
0.0
 40
20.0
  1
PAC-SE40TS-W_5
 50
359.99999700011961
 41
0.8
  7
STANDARD_MODELNAME
  0
LINE
  5
187
  8
NOTE
  6
CONTINUOUS
 62
     4
 10
0.0000000000006821
 20
41.750000000144141
 30
0.0
 11
-59.12482971824307
 21
107.6050277898612
 31
0.0
  0
LINE
  5
188
  8
NOTE
  6
CONTINUOUS
 62
     4
 10
-12.78070317028687
 20
50.570878605355347
 30
0.0
 11
0.0000000000006821
 21
41.750000000144141
 31
0.0
  0
LINE
  5
189
  8
NOTE
  6
CONTINUOUS
 62
     4
 10
0.0000000000006821
 20
41.750000000144141
 30
0.0
 11
-6.6579743847362352
 21
55.779456510895393
 31
0.0
  0
TEXT
  5
18A
  8
NOTE
  6
CONTINUOUS
 62
     4
 10
-217.18917206255469
 20
117.0562987690336
 30
0.0
 40
20.0
  1
AH 2-5×10長穴
 50
359.99999749558327
 41
0.7
  7
STANDARD1
  0
LINE
  5
18B
  8
NOTE
  6
CONTINUOUS
 62
     4
 10
-221.3131659460594
 20
107.6050277898612
 30
0.0
 11
-59.12482971824307
 21
107.6050277898612
 31
0.0
  0
LINE
  5
18C
  8
SIZE
  6
CONTINUOUS
 62
    30
 10
-173.0925674108542
 20
-263.46626143876188
 30
0.0
 11
-173.09256741085451
 21
-41.750000000144269
 31
0.0
  0
TEXT
  5
18D
  8
SIZE
  6
CONTINUOUS
 62
    30
 10
-190.2385713262276
 20
-244.7872903017676
 30
0.0
 40
20.0
  1
83.5(取付ピッチ)
 50
90.0
 41
0.9
 72
     1
 11
-190.2385713262276
 21
-151.78729030176751
 31
0.0
  0
CIRCLE
  5
18E
  8
ARRANGE
  6
CONTINUOUS
 62
     1
 10
0.0000000000009095
 20
-0.0000000000006821
 30
0.0
 40
10.0
  0
LINE
  5
18F
  8
ARRANGE
  6
CONTINUOUS
 62
     1
 10
-10.00747000626529
 20
-9.9044706300654752
 30
0.0
 11
10.0074700062662
 21
9.9044706300654752
 31
0.0
  0
LINE
  5
190
  8
ARRANGE
  6
CONTINUOUS
 62
     1
 10
-9.9927526620997469
 20
9.9193189595968096
 30
0.0
 11
9.9927526621006564
 21
-9.9193189595968096
 31
0.0
  0
LINE
  5
191
  8
NOTE
  6
CONTINUOUS
 62
     4
 10
-0.0000000000304681
 20
-35.07270025065759
 30
0.0
 11
-0.0000000000304681
 21
-48.42729974963072
 31
0.0
  0
LINE
  5
192
  8
NOTE
  6
CONTINUOUS
 62
     4
 10
-0.0000000000304681
 20
48.42729974963072
 30
0.0
 11
-0.0000000000304681
 21
35.07270025065759
 31
0.0
  0
ENDSEC
  0
EOF
