  0
SECTION
  2
HEADER
  9
$ACADVER
  1
AC1009
  9
$INSBASE
 10
0.0
 20
0.0
 30
0.0
  9
$EXTMIN
 10
-416.80027397601589
 20
-259.14398526495643
 30
-0.0015258207003583
  9
$EXTMAX
 10
330.61171194695271
 20
377.65555785404649
 30
0.0000000349246037
  9
$LIMMIN
 10
-4267.1522210604817
 20
-2696.0832101984129
  9
$LIMMAX
 10
7190.7174225864646
 20
5141.155363923066
  9
$ORTHOMODE
 70
     0
  9
$REGENMODE
 70
     1
  9
$FILLMODE
 70
     1
  9
$QTEXTMODE
 70
     0
  9
$MIRRTEXT
 70
     0
  9
$DRAGMODE
 70
     2
  9
$LTSCALE
 40
20.0
  9
$OSMODE
 70
   431
  9
$ATTMODE
 70
     1
  9
$TEXTSIZE
 40
64.0
  9
$TRACEWID
 40
0.05
  9
$TEXTSTYLE
  7
STANDARD_MODELNAME
  9
$CLAYER
  8
SYMBOLLINE
  9
$CELTYPE
  6
CONTINUOUS
  9
$CECOLOR
 62
     7
  9
$DIMSCALE
 40
1.0
  9
$DIMASZ
 40
30.0
  9
$DIMEXO
 40
20.0
  9
$DIMDLI
 40
80.0
  9
$DIMRND
 40
0.0
  9
$DIMDLE
 40
0.0
  9
$DIMEXE
 40
20.0
  9
$DIMTP
 40
0.0
  9
$DIMTM
 40
0.0
  9
$DIMTXT
 40
60.0
  9
$DIMCEN
 40
0.09
  9
$DIMTSZ
 40
0.0
  9
$DIMTOL
 70
     0
  9
$DIMLIM
 70
     0
  9
$DIMTIH
 70
     0
  9
$DIMTOH
 70
     0
  9
$DIMSE1
 70
     0
  9
$DIMSE2
 70
     0
  9
$DIMTAD
 70
     1
  9
$DIMZIN
 70
     8
  9
$DIMBLK
  1
SMALL
  9
$DIMASO
 70
     1
  9
$DIMSHO
 70
     0
  9
$DIMPOST
  1

  9
$DIMAPOST
  1

  9
$DIMALT
 70
     0
  9
$DIMALTD
 70
     2
  9
$DIMALTF
 40
25.399999999999999
  9
$DIMLFAC
 40
1.0
  9
$DIMTOFL
 70
     1
  9
$DIMTVP
 40
0.0
  9
$DIMTIX
 70
     0
  9
$DIMSOXD
 70
     0
  9
$DIMSAH
 70
     0
  9
$DIMBLK1
  1

  9
$DIMBLK2
  1

  9
$DIMSTYLE
  2
STANDARD
  9
$DIMCLRD
 70
     0
  9
$DIMCLRE
 70
     0
  9
$DIMCLRT
 70
     0
  9
$DIMTFAC
 40
1.0
  9
$DIMGAP
 40
0.09
  9
$LUNITS
 70
     2
  9
$LUPREC
 70
     4
  9
$SKETCHINC
 40
0.1
  9
$FILLETRAD
 40
0.0
  9
$AUNITS
 70
     1
  9
$AUPREC
 70
     3
  9
$MENU
  1
ACAD
  9
$ELEVATION
 40
0.0
  9
$PELEVATION
 40
0.0
  9
$THICKNESS
 40
0.0
  9
$LIMCHECK
 70
     0
  9
$BLIPMODE
 70
     0
  9
$CHAMFERA
 40
0.0
  9
$CHAMFERB
 40
0.0
  9
$SKPOLY
 70
     0
  9
$TDCREATE
 40
2450330.4399309959
  9
$TDUPDATE
 40
2456791.3898248961
  9
$TDINDWG
 40
4.0832998842999997
  9
$TDUSRTIMER
 40
4.0832993403
  9
$USRTIMER
 70
     1
  9
$ANGBASE
 50
0.0
  9
$ANGDIR
 70
     0
  9
$PDMODE
 70
     3
  9
$PDSIZE
 40
-2.0
  9
$PLINEWID
 40
0.0
  9
$COORDS
 70
     1
  9
$SPLFRAME
 70
     0
  9
$SPLINETYPE
 70
     6
  9
$SPLINESEGS
 70
     8
  9
$ATTDIA
 70
     0
  9
$ATTREQ
 70
     1
  9
$HANDLING
 70
     1
  9
$HANDSEED
  5
10BA
  9
$SURFTAB1
 70
     6
  9
$SURFTAB2
 70
     6
  9
$SURFTYPE
 70
     6
  9
$SURFU
 70
     6
  9
$SURFV
 70
     6
  9
$UCSNAME
  2

  9
$UCSORG
 10
0.0
 20
0.0
 30
0.0
  9
$UCSXDIR
 10
1.0
 20
0.0
 30
0.0
  9
$UCSYDIR
 10
0.0
 20
1.0
 30
0.0
  9
$PUCSNAME
  2

  9
$PUCSORG
 10
0.0
 20
0.0
 30
0.0
  9
$PUCSXDIR
 10
1.0
 20
0.0
 30
0.0
  9
$PUCSYDIR
 10
0.0
 20
1.0
 30
0.0
  9
$USERI1
 70
     0
  9
$USERI2
 70
     0
  9
$USERI3
 70
     0
  9
$USERI4
 70
     0
  9
$USERI5
 70
     0
  9
$USERR1
 40
20.0
  9
$USERR2
 40
0.0
  9
$USERR3
 40
0.0
  9
$USERR4
 40
0.0
  9
$USERR5
 40
0.0
  9
$WORLDVIEW
 70
     1
  9
$SHADEDGE
 70
     3
  9
$SHADEDIF
 70
    70
  9
$TILEMODE
 70
     1
  9
$MAXACTVP
 70
    64
  9
$PLIMCHECK
 70
     0
  9
$PEXTMIN
 10
1.0000000000000000E+020
 20
1.0000000000000000E+020
 30
1.0000000000000000E+020
  9
$PEXTMAX
 10
-1.0000000000000000E+020
 20
-1.0000000000000000E+020
 30
-1.0000000000000000E+020
  9
$PLIMMIN
 10
0.0
 20
0.0
  9
$PLIMMAX
 10
12.0
 20
9.0
  9
$UNITMODE
 70
     0
  9
$VISRETAIN
 70
     1
  9
$PLINEGEN
 70
     0
  9
$PSLTSCALE
 70
     1
  0
ENDSEC
  0
SECTION
  2
TABLES
  0
TABLE
  2
VPORT
 70
     1
  0
VPORT
  2
*ACTIVE
 70
     0
 10
0.0
 20
0.0
 11
1.0
 21
1.0
 12
-1857.3992584618561
 22
-3131.5636940860518
 13
0.0
 23
0.0
 14
50.0
 24
50.0
 15
100.0
 25
100.0
 16
-10.147175584733301
 26
-23.68337525775587
 36
853.52693352516758
 17
1814.456648411372
 27
3192.6849485089092
 37
-1.7180471651868561
 40
641.64977965860044
 41
1.5540025412960601
 42
50.0
 43
0.0
 44
0.0
 50
0.0
 51
336.79777160775751
 71
     0
 72
  1000
 73
     1
 74
     0
 75
     0
 76
     0
 77
     0
 78
     0
  0
ENDTAB
  0
TABLE
  2
LTYPE
 70
     2
  0
LTYPE
  2
CONTINUOUS
 70
     0
  3
実線
 72
    65
 73
     0
 40
0.0
  0
LTYPE
  2
DASHDOT
 70
     0
  3
____ _ ____ _ ____ _ ____ _ ____ _ ____ _ ____
 72
    65
 73
     4
 40
5.5
 49
4.0
 49
-0.6
 49
0.3
 49
-0.6
  0
ENDTAB
  0
TABLE
  2
LAYER
 70
    12
  0
LAYER
  2
0
 70
     0
 62
     7
  6
CONTINUOUS
  0
LAYER
  2
DETAIL
 70
     0
 62
     5
  6
CONTINUOUS
  0
LAYER
  2
OUTLINE
 70
     0
 62
     3
  6
CONTINUOUS
  0
LAYER
  2
BASIS
 70
     0
 62
     6
  6
DASHDOT
  0
LAYER
  2
SIZE
 70
     0
 62
    30
  6
CONTINUOUS
  0
LAYER
  2
NOTE
 70
     0
 62
     4
  6
CONTINUOUS
  0
LAYER
  2
ARRANGE
 70
     0
 62
     1
  6
CONTINUOUS
  0
LAYER
  2
FIX
 70
     0
 62
    11
  6
CONTINUOUS
  0
LAYER
  2
SERVICESPACE
 70
     0
 62
     2
  6
DASHDOT
  0
LAYER
  2
ETC
 70
     0
 62
    61
  6
CONTINUOUS
  0
LAYER
  2
SYMBOLLINE
 70
     0
 62
    15
  6
CONTINUOUS
  0
LAYER
  2
DEFPOINTS
 70
     0
 62
     7
  6
CONTINUOUS
  0
ENDTAB
  0
TABLE
  2
STYLE
 70
     3
  0
STYLE
  2
STANDARD
 70
     0
 40
0.0
 41
0.9
 50
0.0
 71
     0
 42
64.0
  3
SIMPLEX
  4
BIGFONT
  0
STYLE
  2
ANNOTATIVE
 70
     0
 40
0.0
 41
1.0
 50
0.0
 71
     0
 42
0.2
  3
txt
  4

  0
STYLE
  2
STANDARD_MODELNAME
 70
     0
 40
80.0
 41
0.8
 50
0.0
 71
     0
 42
64.0
  3
MONOTXT.shx
  4
BIGFONT.shx
  0
ENDTAB
  0
TABLE
  2
VIEW
 70
     1
  0
VIEW
  2
ALL
 70
     0
 40
9000.0
 10
241.50664699999999
 20
0.0
 41
12483.01
 11
0.0
 21
0.0
 31
1.0
 12
0.0
 22
0.0
 32
0.0
 42
50.0
 43
0.0
 44
0.0
 50
0.0
 71
     0
  0
ENDTAB
  0
TABLE
  2
UCS
 70
     0
  0
ENDTAB
  0
TABLE
  2
APPID
 70
     3
  0
APPID
  2
ACAD
 70
     0
  0
APPID
  2
ACADANNOTATIVE
 70
     0
  0
APPID
  2
ACAD_MLEADERVER
 70
     0
  0
ENDTAB
  0
TABLE
  2
DIMSTYLE
 70
     2
  0
DIMSTYLE
  2
STANDARD
 70
     0
  3

  4

  5

  6

  7

 40
1.0
 41
0.18
 42
0.0625
 43
0.38
 44
0.18
 45
0.0
 46
0.0
 47
0.0
 48
0.0
140
0.18
141
0.09
142
0.0
143
25.399999999999999
144
1.0
145
0.0
146
1.0
147
0.09
 71
     0
 72
     0
 73
     1
 74
     1
 75
     0
 76
     0
 77
     0
 78
     0
170
     0
171
     2
172
     0
173
     0
174
     0
175
     0
176
     0
177
     0
178
     0
  0
DIMSTYLE
  2
ANNOTATIVE
 70
     0
  3

  4

  5

  6

  7

 40
1.0
 41
0.18
 42
0.0625
 43
0.38
 44
0.18
 45
0.0
 46
0.0
 47
0.0
 48
0.0
140
0.18
141
0.09
142
0.0
143
25.399999999999999
144
1.0
145
0.0
146
1.0
147
0.09
 71
     0
 72
     0
 73
     1
 74
     1
 75
     0
 76
     0
 77
     0
 78
     0
170
     0
171
     2
172
     0
173
     0
174
     0
175
     0
176
     0
177
     0
178
     0
  0
ENDTAB
  0
ENDSEC
  0
SECTION
  2
BLOCKS
  0
BLOCK
  8
0
  2
$MODEL_SPACE
 70
     0
 10
0.0
 20
0.0
 30
0.0
  3
$MODEL_SPACE
  1

  0
ENDBLK
  5
76
  8
0
  0
BLOCK
 67
     1
  8
0
  2
$PAPER_SPACE
 70
     0
 10
0.0
 20
0.0
 30
0.0
  3
$PAPER_SPACE
  1

  0
ENDBLK
  5
72
 67
     1
  8
0
  0
BLOCK
  8
0
  2
_SMALL
 70
     0
 10
0.0
 20
0.0
 30
0.0
  3
_SMALL
  1

  0
CIRCLE
  5
8C
  8
0
  6
CONTINUOUS
 62
     7
 10
0.0
 20
0.0
 30
0.0
 40
0.25
  0
ENDBLK
  5
8D
  8
0
  0
ENDSEC
  0
SECTION
  2
ENTITIES
  0
TEXT
  5
8E
  8
ETC
  6
CONTINUOUS
 62
    61
 10
-416.5523519314761
 20
297.27362009995431
 30
0.0
 40
80.0
  1
PAC-SF50AT2_2
 50
0.0000029998804485
 41
0.8
  7
STANDARD_MODELNAME
  0
LINE
  5
8F
  8
DETAIL
  6
CONTINUOUS
 62
     5
 10
60.624029403669738
 20
-57.81312789851836
 30
0.0
 11
57.38966819046982
 21
-57.81312789851836
 31
0.0
  0
LINE
  5
90
  8
DETAIL
  6
CONTINUOUS
 62
     5
 10
57.38966819046982
 20
-57.81312789851836
 30
0.0
 11
59.006403783143462
 21
-55.013990304816602
 31
0.0
  0
LINE
  5
91
  8
DETAIL
  6
CONTINUOUS
 62
     5
 10
59.006403783143462
 20
-55.013990304816602
 30
0.0
 11
62.242767559010638
 21
-55.013990304816602
 31
0.0
  0
LINE
  5
92
  8
DETAIL
  6
CONTINUOUS
 62
     5
 10
62.242767559010638
 20
-55.013990304816602
 30
0.0
 11
60.624029403669738
 21
-57.81312789851836
 31
0.0
  0
LINE
  5
93
  8
DETAIL
  6
CONTINUOUS
 62
     5
 10
63.859948165610149
 20
-57.81312789851836
 30
0.0
 11
67.096534448439343
 21
-57.81312789851836
 31
0.0
  0
LINE
  5
94
  8
DETAIL
  6
CONTINUOUS
 62
     5
 10
67.096534448439343
 20
-57.81312789851836
 30
0.0
 11
65.478018800062273
 21
-55.013990304816602
 31
0.0
  0
LINE
  5
95
  8
DETAIL
  6
CONTINUOUS
 62
     5
 10
65.478018800062273
 20
-55.013990304816602
 30
0.0
 11
62.242990065973558
 21
-55.013990304816602
 31
0.0
  0
LINE
  5
96
  8
DETAIL
  6
CONTINUOUS
 62
     5
 10
62.242990065973558
 20
-55.013990304816602
 30
0.0
 11
63.859948165610149
 21
-57.81312789851836
 31
0.0
  0
LINE
  5
97
  8
DETAIL
  6
CONTINUOUS
 62
     5
 10
63.859948165610149
 20
-52.210402571855397
 30
0.0
 11
62.242990065973558
 21
-49.407259852820971
 31
0.0
  0
LINE
  5
98
  8
DETAIL
  6
CONTINUOUS
 62
     5
 10
62.242990065973558
 20
-49.407259852820971
 30
0.0
 11
60.624029403669738
 21
-52.210402571855397
 31
0.0
  0
LINE
  5
99
  8
DETAIL
  6
CONTINUOUS
 62
     5
 10
60.624029403669738
 20
-52.210402571855397
 30
0.0
 11
62.242990065973558
 21
-55.013990304816602
 31
0.0
  0
LINE
  5
9A
  8
DETAIL
  6
CONTINUOUS
 62
     5
 10
62.242990065973558
 20
-55.013990304816602
 30
0.0
 11
63.859948165610149
 21
-52.210402571855397
 31
0.0
  0
LINE
  5
9B
  8
DETAIL
  6
CONTINUOUS
 62
     5
 10
68.548837395505871
 20
-56.621825618973162
 30
0.0
 11
69.84382791977896
 21
-56.621825618973162
 31
0.0
  0
LINE
  5
9C
  8
DETAIL
  6
CONTINUOUS
 62
     5
 10
69.84382791977896
 20
-56.621825618973162
 30
0.0
 11
69.84382791977896
 21
-56.151890913258278
 31
0.0
  0
LINE
  5
9D
  8
DETAIL
  6
CONTINUOUS
 62
     5
 10
69.84382791977896
 20
-56.151890913258278
 30
0.0
 11
68.548837395505871
 21
-56.151890913258278
 31
0.0
  0
LINE
  5
9E
  8
DETAIL
  6
CONTINUOUS
 62
     5
 10
68.548837395505871
 20
-56.151890913258278
 30
0.0
 11
68.548837395505871
 21
-55.572927795705247
 31
0.0
  0
LINE
  5
9F
  8
DETAIL
  6
CONTINUOUS
 62
     5
 10
68.548837395505871
 20
-55.572927795705247
 30
0.0
 11
70.007815551460226
 21
-55.572927795705247
 31
0.0
  0
LINE
  5
A0
  8
DETAIL
  6
CONTINUOUS
 62
     5
 10
70.007815551460226
 20
-55.572927795705247
 30
0.0
 11
70.007815551460226
 21
-55.102993089989461
 31
0.0
  0
LINE
  5
A1
  8
DETAIL
  6
CONTINUOUS
 62
     5
 10
70.007815551460226
 20
-55.102993089989461
 30
0.0
 11
68.548837395505871
 21
-55.102993089989461
 31
0.0
  0
LINE
  5
A2
  8
DETAIL
  6
CONTINUOUS
 62
     5
 10
68.548837395505871
 20
-55.102993089989461
 30
0.0
 11
68.000135224911901
 21
-55.102993089989461
 31
0.0
  0
LINE
  5
A3
  8
DETAIL
  6
CONTINUOUS
 62
     5
 10
68.000135224911901
 20
-55.102993089989461
 30
0.0
 11
68.000135224911901
 21
-55.572927795705247
 31
0.0
  0
LINE
  5
A4
  8
DETAIL
  6
CONTINUOUS
 62
     5
 10
68.000135224911901
 20
-55.572927795705247
 30
0.0
 11
68.000135224911901
 21
-57.342303164951772
 31
0.0
  0
LINE
  5
A5
  8
DETAIL
  6
CONTINUOUS
 62
     5
 10
68.000135224911901
 20
-57.342303164951772
 30
0.0
 11
68.000135224911901
 21
-57.81312789851836
 31
0.0
  0
LINE
  5
A6
  8
DETAIL
  6
CONTINUOUS
 62
     5
 10
68.000135224911901
 20
-57.81312789851836
 30
0.0
 11
68.548837395505871
 21
-57.81312789851836
 31
0.0
  0
LINE
  5
A7
  8
DETAIL
  6
CONTINUOUS
 62
     5
 10
68.548837395505871
 20
-57.81312789851836
 30
0.0
 11
70.045641735158824
 21
-57.81312789851836
 31
0.0
  0
LINE
  5
A8
  8
DETAIL
  6
CONTINUOUS
 62
     5
 10
70.045641735158824
 20
-57.81312789851836
 30
0.0
 11
70.045641735158824
 21
-57.342303164951772
 31
0.0
  0
LINE
  5
A9
  8
DETAIL
  6
CONTINUOUS
 62
     5
 10
70.045641735158824
 20
-57.342303164951772
 30
0.0
 11
68.548837395505871
 21
-57.342303164951772
 31
0.0
  0
LINE
  5
AA
  8
DETAIL
  6
CONTINUOUS
 62
     5
 10
68.548837395505871
 20
-57.342303164951772
 30
0.0
 11
68.548837395505871
 21
-56.621825618973162
 31
0.0
  0
LINE
  5
AB
  8
DETAIL
  6
CONTINUOUS
 62
     5
 10
68.511678732696069
 20
-52.635390871058917
 30
0.0
 11
69.087971766693954
 21
-54.651748969161417
 31
0.0
  0
LINE
  5
AC
  8
DETAIL
  6
CONTINUOUS
 62
     5
 10
69.087971766693954
 20
-54.651748969161417
 30
0.0
 11
69.11044496994964
 21
-54.651748969161417
 31
0.0
  0
LINE
  5
AD
  8
DETAIL
  6
CONTINUOUS
 62
     5
 10
69.11044496994964
 20
-54.651748969161417
 30
0.0
 11
69.59150502381182
 21
-54.651748969161417
 31
0.0
  0
LINE
  5
AE
  8
DETAIL
  6
CONTINUOUS
 62
     5
 10
69.59150502381182
 20
-54.651748969161417
 30
0.0
 11
69.614868254920111
 21
-54.651748969161417
 31
0.0
  0
LINE
  5
AF
  8
DETAIL
  6
CONTINUOUS
 62
     5
 10
69.614868254920111
 20
-54.651748969161417
 30
0.0
 11
70.190716274991246
 21
-52.635390871058917
 31
0.0
  0
LINE
  5
B0
  8
DETAIL
  6
CONTINUOUS
 62
     5
 10
70.190716274991246
 20
-52.635390871058917
 30
0.0
 11
70.190716274991246
 21
-54.651748969161417
 31
0.0
  0
LINE
  5
B1
  8
DETAIL
  6
CONTINUOUS
 62
     5
 10
70.190716274991246
 20
-54.651748969161417
 30
0.0
 11
70.700702234034907
 21
-54.651748969161417
 31
0.0
  0
LINE
  5
B2
  8
DETAIL
  6
CONTINUOUS
 62
     5
 10
70.700702234034907
 20
-54.651748969161417
 30
0.0
 11
70.700702234034907
 21
-51.941169146706677
 31
0.0
  0
LINE
  5
B3
  8
DETAIL
  6
CONTINUOUS
 62
     5
 10
70.700702234034907
 20
-51.941169146706677
 30
0.0
 11
70.422346023405211
 21
-51.941169146706677
 31
0.0
  0
LINE
  5
B4
  8
DETAIL
  6
CONTINUOUS
 62
     5
 10
70.422346023405211
 20
-51.941169146706677
 30
0.0
 11
70.182261010399984
 21
-51.941169146706677
 31
0.0
  0
LINE
  5
B5
  8
DETAIL
  6
CONTINUOUS
 62
     5
 10
70.182261010399984
 20
-51.941169146706677
 30
0.0
 11
69.917922738434754
 21
-51.941169146706677
 31
0.0
  0
LINE
  5
B6
  8
DETAIL
  6
CONTINUOUS
 62
     5
 10
69.917922738434754
 20
-51.941169146706677
 30
0.0
 11
69.350974996880723
 21
-53.842713651934901
 31
0.0
  0
LINE
  5
B7
  8
DETAIL
  6
CONTINUOUS
 62
     5
 10
69.350974996880723
 20
-53.842713651934901
 30
0.0
 11
68.783582241400836
 21
-51.941169146706677
 31
0.0
  0
LINE
  5
B8
  8
DETAIL
  6
CONTINUOUS
 62
     5
 10
68.783582241400836
 20
-51.941169146706677
 30
0.0
 11
68.520133997287289
 21
-51.941169146706677
 31
0.0
  0
LINE
  5
B9
  8
DETAIL
  6
CONTINUOUS
 62
     5
 10
68.520133997287289
 20
-51.941169146706677
 30
0.0
 11
68.27960397035713
 21
-51.941169146706677
 31
0.0
  0
LINE
  5
BA
  8
DETAIL
  6
CONTINUOUS
 62
     5
 10
68.27960397035713
 20
-51.941169146706677
 30
0.0
 11
68.000357731874814
 21
-51.941169146706677
 31
0.0
  0
LINE
  5
BB
  8
DETAIL
  6
CONTINUOUS
 62
     5
 10
68.000357731874814
 20
-51.941169146706677
 30
0.0
 11
68.000357731874814
 21
-54.651748969161417
 31
0.0
  0
LINE
  5
BC
  8
DETAIL
  6
CONTINUOUS
 62
     5
 10
68.000357731874814
 20
-54.651748969161417
 30
0.0
 11
68.511678732696069
 21
-54.651748969161417
 31
0.0
  0
LINE
  5
BD
  8
DETAIL
  6
CONTINUOUS
 62
     5
 10
68.511678732696069
 20
-54.651748969161417
 30
0.0
 11
68.511678732696069
 21
-52.635390871058917
 31
0.0
  0
LINE
  5
BE
  8
DETAIL
  6
CONTINUOUS
 62
     5
 10
80.991204255778925
 20
-51.940724132780822
 30
0.0
 11
80.444727154815155
 21
-51.940724132780822
 31
0.0
  0
LINE
  5
BF
  8
DETAIL
  6
CONTINUOUS
 62
     5
 10
80.444727154815155
 20
-51.940724132780822
 30
0.0
 11
80.444727154815155
 21
-54.651748969161417
 31
0.0
  0
LINE
  5
C0
  8
DETAIL
  6
CONTINUOUS
 62
     5
 10
80.444727154815155
 20
-54.651748969161417
 30
0.0
 11
80.991204255778925
 21
-54.651748969161417
 31
0.0
  0
LINE
  5
C1
  8
DETAIL
  6
CONTINUOUS
 62
     5
 10
80.991204255778925
 20
-54.651748969161417
 30
0.0
 11
80.991204255778925
 21
-51.940724132780822
 31
0.0
  0
LINE
  5
C2
  8
DETAIL
  6
CONTINUOUS
 62
     5
 10
81.435328153794217
 20
-55.102993089989461
 30
0.0
 11
80.889296066755406
 21
-55.102993089989461
 31
0.0
  0
LINE
  5
C3
  8
DETAIL
  6
CONTINUOUS
 62
     5
 10
80.889296066755406
 20
-55.102993089989461
 30
0.0
 11
80.889296066755406
 21
-57.81312789851836
 31
0.0
  0
LINE
  5
C4
  8
DETAIL
  6
CONTINUOUS
 62
     5
 10
80.889296066755406
 20
-57.81312789851836
 30
0.0
 11
81.435328153794217
 21
-57.81312789851836
 31
0.0
  0
LINE
  5
C5
  8
DETAIL
  6
CONTINUOUS
 62
     5
 10
81.435328153794217
 20
-57.81312789851836
 30
0.0
 11
81.435328153794217
 21
-55.102993089989461
 31
0.0
  0
LINE
  5
C6
  8
DETAIL
  6
CONTINUOUS
 62
     5
 10
86.389668190469834
 20
-51.940724132780822
 30
0.0
 11
85.843636103430981
 21
-51.940724132780822
 31
0.0
  0
LINE
  5
C7
  8
DETAIL
  6
CONTINUOUS
 62
     5
 10
85.843636103430981
 20
-51.940724132780822
 30
0.0
 11
85.843636103430981
 21
-54.651748969161417
 31
0.0
  0
LINE
  5
C8
  8
DETAIL
  6
CONTINUOUS
 62
     5
 10
85.843636103430981
 20
-54.651748969161417
 30
0.0
 11
86.389668190469834
 21
-54.651748969161417
 31
0.0
  0
LINE
  5
C9
  8
DETAIL
  6
CONTINUOUS
 62
     5
 10
86.389668190469834
 20
-54.651748969161417
 30
0.0
 11
86.389668190469834
 21
-51.940724132780822
 31
0.0
  0
LINE
  5
CA
  8
DETAIL
  6
CONTINUOUS
 62
     5
 10
71.465236158674074
 20
-51.940724132780822
 30
0.0
 11
70.918759057709394
 21
-51.940724132780822
 31
0.0
  0
LINE
  5
CB
  8
DETAIL
  6
CONTINUOUS
 62
     5
 10
70.918759057709394
 20
-51.940724132780822
 30
0.0
 11
70.918759057709394
 21
-54.651748969161417
 31
0.0
  0
LINE
  5
CC
  8
DETAIL
  6
CONTINUOUS
 62
     5
 10
70.918759057709394
 20
-54.651748969161417
 30
0.0
 11
71.465236158674074
 21
-54.651748969161417
 31
0.0
  0
LINE
  5
CD
  8
DETAIL
  6
CONTINUOUS
 62
     5
 10
71.465236158674074
 20
-54.651748969161417
 30
0.0
 11
71.465236158674074
 21
-51.940724132780822
 31
0.0
  0
LINE
  5
CE
  8
DETAIL
  6
CONTINUOUS
 62
     5
 10
85.082662290198655
 20
-52.996742178862412
 30
0.0
 11
83.998608366787266
 21
-52.996742178862412
 31
0.0
  0
LINE
  5
CF
  8
DETAIL
  6
CONTINUOUS
 62
     5
 10
83.998608366787266
 20
-52.996742178862412
 30
0.0
 11
83.998608366787266
 21
-51.940724132780822
 31
0.0
  0
LINE
  5
D0
  8
DETAIL
  6
CONTINUOUS
 62
     5
 10
83.998608366787266
 20
-51.940724132780822
 30
0.0
 11
83.461921572192296
 21
-51.940724132780822
 31
0.0
  0
LINE
  5
D1
  8
DETAIL
  6
CONTINUOUS
 62
     5
 10
83.461921572192296
 20
-51.940724132780822
 30
0.0
 11
83.461921572192296
 21
-54.651748969161417
 31
0.0
  0
LINE
  5
D2
  8
DETAIL
  6
CONTINUOUS
 62
     5
 10
83.461921572192296
 20
-54.651748969161417
 30
0.0
 11
83.998608366787266
 21
-54.651748969161417
 31
0.0
  0
LINE
  5
D3
  8
DETAIL
  6
CONTINUOUS
 62
     5
 10
83.998608366787266
 20
-54.651748969161417
 30
0.0
 11
83.998608366787266
 21
-53.468456940281612
 31
0.0
  0
LINE
  5
D4
  8
DETAIL
  6
CONTINUOUS
 62
     5
 10
83.998608366787266
 20
-53.468456940281612
 30
0.0
 11
85.082662290198655
 21
-53.468456940281612
 31
0.0
  0
LINE
  5
D5
  8
DETAIL
  6
CONTINUOUS
 62
     5
 10
85.082662290198655
 20
-53.468456940281612
 30
0.0
 11
85.082662290198655
 21
-54.651748969161417
 31
0.0
  0
LINE
  5
D6
  8
DETAIL
  6
CONTINUOUS
 62
     5
 10
85.082662290198655
 20
-54.651748969161417
 30
0.0
 11
85.618459056942825
 21
-54.651748969161417
 31
0.0
  0
LINE
  5
D7
  8
DETAIL
  6
CONTINUOUS
 62
     5
 10
85.618459056942825
 20
-54.651748969161417
 30
0.0
 11
85.618459056942825
 21
-51.940724132780822
 31
0.0
  0
LINE
  5
D8
  8
DETAIL
  6
CONTINUOUS
 62
     5
 10
85.618459056942825
 20
-51.940724132780822
 30
0.0
 11
85.082662290198655
 21
-51.940724132780822
 31
0.0
  0
LINE
  5
D9
  8
DETAIL
  6
CONTINUOUS
 62
     5
 10
85.082662290198655
 20
-51.940724132780822
 30
0.0
 11
85.082662290198655
 21
-52.996742178862412
 31
0.0
  0
LINE
  5
DA
  8
DETAIL
  6
CONTINUOUS
 62
     5
 10
72.273826461973854
 20
-54.651748969161417
 30
0.0
 11
72.830983897159967
 21
-54.651748969161417
 31
0.0
  0
LINE
  5
DB
  8
DETAIL
  6
CONTINUOUS
 62
     5
 10
72.830983897159967
 20
-54.651748969161417
 30
0.0
 11
72.830983897159967
 21
-52.409768810643982
 31
0.0
  0
LINE
  5
DC
  8
DETAIL
  6
CONTINUOUS
 62
     5
 10
72.830983897159967
 20
-52.409768810643982
 30
0.0
 11
73.494054646701443
 21
-52.409768810643982
 31
0.0
  0
LINE
  5
DD
  8
DETAIL
  6
CONTINUOUS
 62
     5
 10
73.494054646701443
 20
-52.409768810643982
 30
0.0
 11
73.494054646701443
 21
-51.940724132780822
 31
0.0
  0
LINE
  5
DE
  8
DETAIL
  6
CONTINUOUS
 62
     5
 10
73.494054646701443
 20
-51.940724132780822
 30
0.0
 11
72.830983897159967
 21
-51.940724132780822
 31
0.0
  0
LINE
  5
DF
  8
DETAIL
  6
CONTINUOUS
 62
     5
 10
72.830983897159967
 20
-51.940724132780822
 30
0.0
 11
72.273826461973854
 21
-51.940724132780822
 31
0.0
  0
LINE
  5
E0
  8
DETAIL
  6
CONTINUOUS
 62
     5
 10
72.273826461973854
 20
-51.940724132780822
 30
0.0
 11
71.609643177617727
 21
-51.940724132780822
 31
0.0
  0
LINE
  5
E1
  8
DETAIL
  6
CONTINUOUS
 62
     5
 10
71.609643177617727
 20
-51.940724132780822
 30
0.0
 11
71.609643177617727
 21
-52.409768810643982
 31
0.0
  0
LINE
  5
E2
  8
DETAIL
  6
CONTINUOUS
 62
     5
 10
71.609643177617727
 20
-52.409768810643982
 30
0.0
 11
72.273826461973854
 21
-52.409768810643982
 31
0.0
  0
LINE
  5
E3
  8
DETAIL
  6
CONTINUOUS
 62
     5
 10
72.273826461973854
 20
-52.409768810643982
 30
0.0
 11
72.273826461973854
 21
-54.651748969161417
 31
0.0
  0
LINE
  5
E4
  8
DETAIL
  6
CONTINUOUS
 62
     5
 10
77.253087278498228
 20
-57.81312789851836
 30
0.0
 11
77.810244713683446
 21
-57.81312789851836
 31
0.0
  0
LINE
  5
E5
  8
DETAIL
  6
CONTINUOUS
 62
     5
 10
77.810244713683446
 20
-57.81312789851836
 30
0.0
 11
77.810244713683446
 21
-55.572927795705247
 31
0.0
  0
LINE
  5
E6
  8
DETAIL
  6
CONTINUOUS
 62
     5
 10
77.810244713683446
 20
-55.572927795705247
 30
0.0
 11
78.4715354075215
 21
-55.572927795705247
 31
0.0
  0
LINE
  5
E7
  8
DETAIL
  6
CONTINUOUS
 62
     5
 10
78.4715354075215
 20
-55.572927795705247
 30
0.0
 11
78.4715354075215
 21
-55.102993089989461
 31
0.0
  0
LINE
  5
E8
  8
DETAIL
  6
CONTINUOUS
 62
     5
 10
78.4715354075215
 20
-55.102993089989461
 30
0.0
 11
77.810244713683446
 21
-55.102993089989461
 31
0.0
  0
LINE
  5
E9
  8
DETAIL
  6
CONTINUOUS
 62
     5
 10
77.810244713683446
 20
-55.102993089989461
 30
0.0
 11
77.253087278498228
 21
-55.102993089989461
 31
0.0
  0
LINE
  5
EA
  8
DETAIL
  6
CONTINUOUS
 62
     5
 10
77.253087278498228
 20
-55.102993089989461
 30
0.0
 11
76.591796584660187
 21
-55.102993089989461
 31
0.0
  0
LINE
  5
EB
  8
DETAIL
  6
CONTINUOUS
 62
     5
 10
76.591796584660187
 20
-55.102993089989461
 30
0.0
 11
76.591796584660187
 21
-55.572927795705247
 31
0.0
  0
LINE
  5
EC
  8
DETAIL
  6
CONTINUOUS
 62
     5
 10
76.591796584660187
 20
-55.572927795705247
 30
0.0
 11
77.253087278498228
 21
-55.572927795705247
 31
0.0
  0
LINE
  5
ED
  8
DETAIL
  6
CONTINUOUS
 62
     5
 10
77.253087278498228
 20
-55.572927795705247
 30
0.0
 11
77.253087278498228
 21
-57.81312789851836
 31
0.0
  0
POLYLINE
  5
EE
  8
DETAIL
  6
CONTINUOUS
 62
     5
 66
     1
 10
0.0
 20
0.0
 30
0.0
  0
VERTEX
  5
9D2
  8
DETAIL
  6
CONTINUOUS
 62
     5
 10
76.881500650399175
 20
-54.728291364410317
 30
0.0
  0
VERTEX
  5
9D3
  8
DETAIL
  6
CONTINUOUS
 62
     5
 10
77.159867889070782
 20
-54.708856062341852
 30
0.0
  0
VERTEX
  5
9D4
  8
DETAIL
  6
CONTINUOUS
 62
     5
 10
77.399040169432027
 20
-54.650949760478049
 30
0.0
  0
VERTEX
  5
9D5
  8
DETAIL
  6
CONTINUOUS
 62
     5
 10
77.597694126455622
 20
-54.555171865331289
 30
0.0
  0
VERTEX
  5
9D6
  8
DETAIL
  6
CONTINUOUS
 62
     5
 10
77.754506395114177
 20
-54.422121783413957
 30
0.0
  0
VERTEX
  5
9D7
  8
DETAIL
  6
CONTINUOUS
 62
     5
 10
77.868153610380375
 20
-54.252398921238402
 30
0.0
  0
VERTEX
  5
9D8
  8
DETAIL
  6
CONTINUOUS
 62
     5
 10
77.937312407226813
 20
-54.046602685317012
 30
0.0
  0
VERTEX
  5
9D9
  8
DETAIL
  6
CONTINUOUS
 62
     5
 10
77.960659420626143
 20
-53.805332482162171
 30
0.0
  0
SEQEND
  5
9DA
  8
DETAIL
  6
CONTINUOUS
 62
     5
  0
POLYLINE
  5
F8
  8
DETAIL
  6
CONTINUOUS
 62
     5
 66
     1
 10
0.0
 20
0.0
 30
0.0
  0
VERTEX
  5
9DB
  8
DETAIL
  6
CONTINUOUS
 62
     5
 10
77.960659420626143
 20
-53.805332482162171
 30
0.0
  0
VERTEX
  5
9DC
  8
DETAIL
  6
CONTINUOUS
 62
     5
 10
77.960659420626143
 20
-53.702045139193487
 30
0.0
  0
VERTEX
  5
9DD
  8
DETAIL
  6
CONTINUOUS
 62
     5
 10
77.960659420626143
 20
-53.43567251785332
 30
0.0
  0
VERTEX
  5
9DE
  8
DETAIL
  6
CONTINUOUS
 62
     5
 10
77.960659420626143
 20
-53.0714487294902
 30
0.0
  0
VERTEX
  5
9DF
  8
DETAIL
  6
CONTINUOUS
 62
     5
 10
77.960659420626143
 20
-52.674607885452779
 30
0.0
  0
VERTEX
  5
9E0
  8
DETAIL
  6
CONTINUOUS
 62
     5
 10
77.960659420626143
 20
-52.310384097089653
 30
0.0
  0
VERTEX
  5
9E1
  8
DETAIL
  6
CONTINUOUS
 62
     5
 10
77.960659420626143
 20
-52.044011475749457
 30
0.0
  0
VERTEX
  5
9E2
  8
DETAIL
  6
CONTINUOUS
 62
     5
 10
77.960659420626143
 20
-51.940724132780822
 30
0.0
  0
SEQEND
  5
9E3
  8
DETAIL
  6
CONTINUOUS
 62
     5
  0
POLYLINE
  5
102
  8
DETAIL
  6
CONTINUOUS
 62
     5
 66
     1
 10
0.0
 20
0.0
 30
0.0
  0
VERTEX
  5
9E4
  8
DETAIL
  6
CONTINUOUS
 62
     5
 10
77.960659420626143
 20
-51.940724132780822
 30
0.0
  0
VERTEX
  5
9E5
  8
DETAIL
  6
CONTINUOUS
 62
     5
 10
77.930462047085157
 20
-51.940724132780801
 30
0.0
  0
VERTEX
  5
9E6
  8
DETAIL
  6
CONTINUOUS
 62
     5
 10
77.852584610058443
 20
-51.940724132780822
 30
0.0
  0
VERTEX
  5
9E7
  8
DETAIL
  6
CONTINUOUS
 62
     5
 10
77.746099134940266
 20
-51.940724132780822
 30
0.0
  0
VERTEX
  5
9E8
  8
DETAIL
  6
CONTINUOUS
 62
     5
 10
77.630077647124907
 20
-51.940724132780822
 30
0.0
  0
VERTEX
  5
9E9
  8
DETAIL
  6
CONTINUOUS
 62
     5
 10
77.523592172006701
 20
-51.940724132780808
 30
0.0
  0
VERTEX
  5
9EA
  8
DETAIL
  6
CONTINUOUS
 62
     5
 10
77.445714734980001
 20
-51.940724132780822
 30
0.0
  0
VERTEX
  5
9EB
  8
DETAIL
  6
CONTINUOUS
 62
     5
 10
77.415517361439015
 20
-51.940724132780822
 30
0.0
  0
SEQEND
  5
9EC
  8
DETAIL
  6
CONTINUOUS
 62
     5
  0
POLYLINE
  5
10C
  8
DETAIL
  6
CONTINUOUS
 62
     5
 66
     1
 10
0.0
 20
0.0
 30
0.0
  0
VERTEX
  5
9ED
  8
DETAIL
  6
CONTINUOUS
 62
     5
 10
77.415517361439015
 20
-51.940724132780822
 30
0.0
  0
VERTEX
  5
9EE
  8
DETAIL
  6
CONTINUOUS
 62
     5
 10
77.415517361439015
 20
-52.046698425721637
 30
0.0
  0
VERTEX
  5
9EF
  8
DETAIL
  6
CONTINUOUS
 62
     5
 10
77.415517361439015
 20
-52.320000549621717
 30
0.0
  0
VERTEX
  5
9F0
  8
DETAIL
  6
CONTINUOUS
 62
     5
 10
77.415517361439043
 20
-52.693699372097328
 30
0.0
  0
VERTEX
  5
9F1
  8
DETAIL
  6
CONTINUOUS
 62
     5
 10
77.415517361439015
 20
-53.10086376076476
 30
0.0
  0
VERTEX
  5
9F2
  8
DETAIL
  6
CONTINUOUS
 62
     5
 10
77.415517361439015
 20
-53.47456258324037
 30
0.0
  0
VERTEX
  5
9F3
  8
DETAIL
  6
CONTINUOUS
 62
     5
 10
77.415517361439015
 20
-53.747864707140437
 30
0.0
  0
VERTEX
  5
9F4
  8
DETAIL
  6
CONTINUOUS
 62
     5
 10
77.415517361439015
 20
-53.85383900008128
 30
0.0
  0
SEQEND
  5
9F5
  8
DETAIL
  6
CONTINUOUS
 62
     5
  0
POLYLINE
  5
116
  8
DETAIL
  6
CONTINUOUS
 62
     5
 66
     1
 10
0.0
 20
0.0
 30
0.0
  0
VERTEX
  5
9F6
  8
DETAIL
  6
CONTINUOUS
 62
     5
 10
77.415517361439015
 20
-53.85383900008128
 30
0.0
  0
VERTEX
  5
9F7
  8
DETAIL
  6
CONTINUOUS
 62
     5
 10
77.392405118185266
 20
-53.987951956892417
 30
0.0
  0
VERTEX
  5
9F8
  8
DETAIL
  6
CONTINUOUS
 62
     5
 10
77.324819963236123
 20
-54.105424952987249
 30
0.0
  0
VERTEX
  5
9F9
  8
DETAIL
  6
CONTINUOUS
 62
     5
 10
77.215389258809921
 20
-54.198696311737528
 30
0.0
  0
VERTEX
  5
9FA
  8
DETAIL
  6
CONTINUOUS
 62
     5
 10
77.066740367124837
 20
-54.260204356515061
 30
0.0
  0
VERTEX
  5
9FB
  8
DETAIL
  6
CONTINUOUS
 62
     5
 10
76.881500650399175
 20
-54.282387410691612
 30
0.0
  0
VERTEX
  5
9FC
  8
DETAIL
  6
CONTINUOUS
 62
     5
 10
76.668794674168936
 20
-54.256872092238083
 30
0.0
  0
VERTEX
  5
9FD
  8
DETAIL
  6
CONTINUOUS
 62
     5
 10
76.516817078318141
 20
-54.188699518906603
 30
0.0
  0
VERTEX
  5
9FE
  8
DETAIL
  6
CONTINUOUS
 62
     5
 10
76.417835300871019
 20
-54.09042976374085
 30
0.0
  0
VERTEX
  5
9FF
  8
DETAIL
  6
CONTINUOUS
 62
     5
 10
76.364116779851656
 20
-53.974622899784499
 30
0.0
  0
VERTEX
  5
A00
  8
DETAIL
  6
CONTINUOUS
 62
     5
 10
76.347928953284296
 20
-53.85383900008128
 30
0.0
  0
SEQEND
  5
A01
  8
DETAIL
  6
CONTINUOUS
 62
     5
  0
POLYLINE
  5
123
  8
DETAIL
  6
CONTINUOUS
 62
     5
 66
     1
 10
0.0
 20
0.0
 30
0.0
  0
VERTEX
  5
A02
  8
DETAIL
  6
CONTINUOUS
 62
     5
 10
76.347928953284296
 20
-53.85383900008128
 30
0.0
  0
VERTEX
  5
A03
  8
DETAIL
  6
CONTINUOUS
 62
     5
 10
76.347928953284296
 20
-53.747864707140437
 30
0.0
  0
VERTEX
  5
A04
  8
DETAIL
  6
CONTINUOUS
 62
     5
 10
76.347928953284296
 20
-53.474562583240377
 30
0.0
  0
VERTEX
  5
A05
  8
DETAIL
  6
CONTINUOUS
 62
     5
 10
76.347928953284296
 20
-53.10086376076476
 30
0.0
  0
VERTEX
  5
A06
  8
DETAIL
  6
CONTINUOUS
 62
     5
 10
76.347928953284296
 20
-52.693699372097328
 30
0.0
  0
VERTEX
  5
A07
  8
DETAIL
  6
CONTINUOUS
 62
     5
 10
76.347928953284296
 20
-52.32000054962171
 30
0.0
  0
VERTEX
  5
A08
  8
DETAIL
  6
CONTINUOUS
 62
     5
 10
76.347928953284296
 20
-52.046698425721672
 30
0.0
  0
VERTEX
  5
A09
  8
DETAIL
  6
CONTINUOUS
 62
     5
 10
76.347928953284296
 20
-51.940724132780822
 30
0.0
  0
SEQEND
  5
A0A
  8
DETAIL
  6
CONTINUOUS
 62
     5
  0
POLYLINE
  5
12D
  8
DETAIL
  6
CONTINUOUS
 62
     5
 66
     1
 10
0.0
 20
0.0
 30
0.0
  0
VERTEX
  5
A0B
  8
DETAIL
  6
CONTINUOUS
 62
     5
 10
76.347928953284296
 20
-51.940724132780822
 30
0.0
  0
VERTEX
  5
A0C
  8
DETAIL
  6
CONTINUOUS
 62
     5
 10
76.318175296252534
 20
-51.940724132780822
 30
0.0
  0
VERTEX
  5
A0D
  8
DETAIL
  6
CONTINUOUS
 62
     5
 10
76.241442180749544
 20
-51.940724132780822
 30
0.0
  0
VERTEX
  5
A0E
  8
DETAIL
  6
CONTINUOUS
 62
     5
 10
76.136521390163836
 20
-51.940724132780851
 30
0.0
  0
VERTEX
  5
A0F
  8
DETAIL
  6
CONTINUOUS
 62
     5
 10
76.022204707883901
 20
-51.940724132780822
 30
0.0
  0
VERTEX
  5
A10
  8
DETAIL
  6
CONTINUOUS
 62
     5
 10
75.917283917298178
 20
-51.940724132780808
 30
0.0
  0
VERTEX
  5
A11
  8
DETAIL
  6
CONTINUOUS
 62
     5
 10
75.840550801795203
 20
-51.940724132780822
 30
0.0
  0
VERTEX
  5
A12
  8
DETAIL
  6
CONTINUOUS
 62
     5
 10
75.810797144763455
 20
-51.940724132780822
 30
0.0
  0
SEQEND
  5
A13
  8
DETAIL
  6
CONTINUOUS
 62
     5
  0
POLYLINE
  5
137
  8
DETAIL
  6
CONTINUOUS
 62
     5
 66
     1
 10
0.0
 20
0.0
 30
0.0
  0
VERTEX
  5
A14
  8
DETAIL
  6
CONTINUOUS
 62
     5
 10
75.810797144763455
 20
-51.940724132780822
 30
0.0
  0
VERTEX
  5
A15
  8
DETAIL
  6
CONTINUOUS
 62
     5
 10
75.810797144763455
 20
-52.044011475749457
 30
0.0
  0
VERTEX
  5
A16
  8
DETAIL
  6
CONTINUOUS
 62
     5
 10
75.810797144763441
 20
-52.310384097089653
 30
0.0
  0
VERTEX
  5
A17
  8
DETAIL
  6
CONTINUOUS
 62
     5
 10
75.81079714476347
 20
-52.674607885452779
 30
0.0
  0
VERTEX
  5
A18
  8
DETAIL
  6
CONTINUOUS
 62
     5
 10
75.810797144763455
 20
-53.071448729490207
 30
0.0
  0
VERTEX
  5
A19
  8
DETAIL
  6
CONTINUOUS
 62
     5
 10
75.810797144763455
 20
-53.43567251785332
 30
0.0
  0
VERTEX
  5
A1A
  8
DETAIL
  6
CONTINUOUS
 62
     5
 10
75.810797144763455
 20
-53.702045139193501
 30
0.0
  0
VERTEX
  5
A1B
  8
DETAIL
  6
CONTINUOUS
 62
     5
 10
75.810797144763455
 20
-53.805332482162171
 30
0.0
  0
SEQEND
  5
A1C
  8
DETAIL
  6
CONTINUOUS
 62
     5
  0
POLYLINE
  5
141
  8
DETAIL
  6
CONTINUOUS
 62
     5
 66
     1
 10
0.0
 20
0.0
 30
0.0
  0
VERTEX
  5
A1D
  8
DETAIL
  6
CONTINUOUS
 62
     5
 10
75.810797144763455
 20
-53.805332482162171
 30
0.0
  0
VERTEX
  5
A1E
  8
DETAIL
  6
CONTINUOUS
 62
     5
 10
75.835217121768267
 20
-54.061315390621083
 30
0.0
  0
VERTEX
  5
A1F
  8
DETAIL
  6
CONTINUOUS
 62
     5
 10
75.906764462747361
 20
-54.272833234160721
 30
0.0
  0
VERTEX
  5
A20
  8
DETAIL
  6
CONTINUOUS
 62
     5
 10
76.022870282647659
 20
-54.441738723819377
 30
0.0
  0
VERTEX
  5
A21
  8
DETAIL
  6
CONTINUOUS
 62
     5
 10
76.180965696416038
 20
-54.569884570635367
 30
0.0
  0
VERTEX
  5
A22
  8
DETAIL
  6
CONTINUOUS
 62
     5
 10
76.378481818999447
 20
-54.659123485646973
 30
0.0
  0
VERTEX
  5
A23
  8
DETAIL
  6
CONTINUOUS
 62
     5
 10
76.612849765344862
 20
-54.711308179892526
 30
0.0
  0
VERTEX
  5
A24
  8
DETAIL
  6
CONTINUOUS
 62
     5
 10
76.881500650399175
 20
-54.728291364410317
 30
0.0
  0
SEQEND
  5
A25
  8
DETAIL
  6
CONTINUOUS
 62
     5
  0
LINE
  5
14B
  8
DETAIL
  6
CONTINUOUS
 62
     5
 10
72.753996487984296
 20
-56.621825618973162
 30
0.0
 11
74.051657095812516
 21
-56.621825618973162
 31
0.0
  0
LINE
  5
14C
  8
DETAIL
  6
CONTINUOUS
 62
     5
 10
74.051657095812516
 20
-56.621825618973162
 30
0.0
 11
74.051657095812516
 21
-56.151890913258278
 31
0.0
  0
LINE
  5
14D
  8
DETAIL
  6
CONTINUOUS
 62
     5
 10
74.051657095812516
 20
-56.151890913258278
 30
0.0
 11
72.753996487984296
 21
-56.151890913258278
 31
0.0
  0
LINE
  5
14E
  8
DETAIL
  6
CONTINUOUS
 62
     5
 10
72.753996487984296
 20
-56.151890913258278
 30
0.0
 11
72.753996487984296
 21
-55.572927795705247
 31
0.0
  0
LINE
  5
14F
  8
DETAIL
  6
CONTINUOUS
 62
     5
 10
72.753996487984296
 20
-55.572927795705247
 30
0.0
 11
74.212307123049854
 21
-55.572927795705247
 31
0.0
  0
LINE
  5
150
  8
DETAIL
  6
CONTINUOUS
 62
     5
 10
74.212307123049854
 20
-55.572927795705247
 30
0.0
 11
74.212307123049854
 21
-55.102993089989461
 31
0.0
  0
LINE
  5
151
  8
DETAIL
  6
CONTINUOUS
 62
     5
 10
74.212307123049854
 20
-55.102993089989461
 30
0.0
 11
72.753996487984296
 21
-55.102993089989461
 31
0.0
  0
LINE
  5
152
  8
DETAIL
  6
CONTINUOUS
 62
     5
 10
72.753996487984296
 20
-55.102993089989461
 30
0.0
 11
72.205294317390312
 21
-55.102993089989461
 31
0.0
  0
LINE
  5
153
  8
DETAIL
  6
CONTINUOUS
 62
     5
 10
72.205294317390312
 20
-55.102993089989461
 30
0.0
 11
72.205294317390312
 21
-55.572927795705247
 31
0.0
  0
LINE
  5
154
  8
DETAIL
  6
CONTINUOUS
 62
     5
 10
72.205294317390312
 20
-55.572927795705247
 30
0.0
 11
72.205294317390312
 21
-57.342303164951772
 31
0.0
  0
LINE
  5
155
  8
DETAIL
  6
CONTINUOUS
 62
     5
 10
72.205294317390312
 20
-57.342303164951772
 30
0.0
 11
72.205294317390312
 21
-57.81312789851836
 31
0.0
  0
LINE
  5
156
  8
DETAIL
  6
CONTINUOUS
 62
     5
 10
72.205294317390312
 20
-57.81312789851836
 30
0.0
 11
72.753996487984296
 21
-57.81312789851836
 31
0.0
  0
LINE
  5
157
  8
DETAIL
  6
CONTINUOUS
 62
     5
 10
72.753996487984296
 20
-57.81312789851836
 30
0.0
 11
74.251023334600191
 21
-57.81312789851836
 31
0.0
  0
LINE
  5
158
  8
DETAIL
  6
CONTINUOUS
 62
     5
 10
74.251023334600191
 20
-57.81312789851836
 30
0.0
 11
74.251023334600191
 21
-57.342303164951772
 31
0.0
  0
LINE
  5
159
  8
DETAIL
  6
CONTINUOUS
 62
     5
 10
74.251023334600191
 20
-57.342303164951772
 30
0.0
 11
72.753996487984296
 21
-57.342303164951772
 31
0.0
  0
LINE
  5
15A
  8
DETAIL
  6
CONTINUOUS
 62
     5
 10
72.753996487984296
 20
-57.342303164951772
 30
0.0
 11
72.753996487984296
 21
-56.621825618973162
 31
0.0
  0
POLYLINE
  5
15B
  8
DETAIL
  6
CONTINUOUS
 62
     5
 66
     1
 10
0.0
 20
0.0
 30
0.0
  0
VERTEX
  5
A26
  8
DETAIL
  6
CONTINUOUS
 62
     5
 10
78.717183094599932
 20
-54.651748969160501
 30
0.0
  0
VERTEX
  5
A27
  8
DETAIL
  6
CONTINUOUS
 62
     5
 10
78.7607659161676
 20
-54.651748969160501
 30
0.0
  0
VERTEX
  5
A28
  8
DETAIL
  6
CONTINUOUS
 62
     5
 10
78.873163719157873
 20
-54.651748969160501
 30
0.0
  0
VERTEX
  5
A29
  8
DETAIL
  6
CONTINUOUS
 62
     5
 10
79.026850511001697
 20
-54.651748969160501
 30
0.0
  0
VERTEX
  5
A2A
  8
DETAIL
  6
CONTINUOUS
 62
     5
 10
79.194300299130063
 20
-54.651748969160501
 30
0.0
  0
VERTEX
  5
A2B
  8
DETAIL
  6
CONTINUOUS
 62
     5
 10
79.347987090973945
 20
-54.651748969160501
 30
0.0
  0
VERTEX
  5
A2C
  8
DETAIL
  6
CONTINUOUS
 62
     5
 10
79.460384893964203
 20
-54.651748969160501
 30
0.0
  0
VERTEX
  5
A2D
  8
DETAIL
  6
CONTINUOUS
 62
     5
 10
79.503967715531871
 20
-54.651748969160501
 30
0.0
  0
SEQEND
  5
A2E
  8
DETAIL
  6
CONTINUOUS
 62
     5
  0
POLYLINE
  5
165
  8
DETAIL
  6
CONTINUOUS
 62
     5
 66
     1
 10
0.0
 20
0.0
 30
0.0
  0
VERTEX
  5
A2F
  8
DETAIL
  6
CONTINUOUS
 62
     5
 10
79.503967715531871
 20
-54.651748969160501
 30
0.0
  0
VERTEX
  5
A30
  8
DETAIL
  6
CONTINUOUS
 62
     5
 10
79.784404811278733
 20
-54.616461144895041
 30
0.0
  0
VERTEX
  5
A31
  8
DETAIL
  6
CONTINUOUS
 62
     5
 10
80.010628530521089
 20
-54.516621380599119
 30
0.0
  0
VERTEX
  5
A32
  8
DETAIL
  6
CONTINUOUS
 62
     5
 10
80.177982247538509
 20
-54.361265239023417
 30
0.0
  0
VERTEX
  5
A33
  8
DETAIL
  6
CONTINUOUS
 62
     5
 10
80.281809336610607
 20
-54.159428282918647
 30
0.0
  0
VERTEX
  5
A34
  8
DETAIL
  6
CONTINUOUS
 62
     5
 10
80.317453172016954
 20
-53.920146075035511
 30
0.0
  0
VERTEX
  5
A35
  8
DETAIL
  6
CONTINUOUS
 62
     5
 10
80.289257089674038
 20
-53.720288540872971
 30
0.0
  0
VERTEX
  5
A36
  8
DETAIL
  6
CONTINUOUS
 62
     5
 10
80.211931469915484
 20
-53.540445953040141
 30
0.0
  0
VERTEX
  5
A37
  8
DETAIL
  6
CONTINUOUS
 62
     5
 10
80.096370253646427
 20
-53.389418906935042
 30
0.0
  0
VERTEX
  5
A38
  8
DETAIL
  6
CONTINUOUS
 62
     5
 10
79.953467381772057
 20
-53.276007997955638
 30
0.0
  0
VERTEX
  5
A39
  8
DETAIL
  6
CONTINUOUS
 62
     5
 10
79.794116795197624
 20
-53.209013821499873
 30
0.0
  0
SEQEND
  5
A3A
  8
DETAIL
  6
CONTINUOUS
 62
     5
  0
POLYLINE
  5
172
  8
DETAIL
  6
CONTINUOUS
 62
     5
 66
     1
 10
0.0
 20
0.0
 30
0.0
  0
VERTEX
  5
A3B
  8
DETAIL
  6
CONTINUOUS
 62
     5
 10
79.794116795197624
 20
-53.209013821499873
 30
0.0
  0
VERTEX
  5
A3C
  8
DETAIL
  6
CONTINUOUS
 62
     5
 10
79.930978158014057
 20
-53.151866913196884
 30
0.0
  0
VERTEX
  5
A3D
  8
DETAIL
  6
CONTINUOUS
 62
     5
 10
80.049213017949626
 20
-53.057082507099139
 30
0.0
  0
VERTEX
  5
A3E
  8
DETAIL
  6
CONTINUOUS
 62
     5
 10
80.142050043108284
 20
-52.930705672375822
 30
0.0
  0
VERTEX
  5
A3F
  8
DETAIL
  6
CONTINUOUS
 62
     5
 10
80.202717901593928
 20
-52.778781478196109
 30
0.0
  0
VERTEX
  5
A40
  8
DETAIL
  6
CONTINUOUS
 62
     5
 10
80.224445261510482
 20
-52.607354993729132
 30
0.0
  0
VERTEX
  5
A41
  8
DETAIL
  6
CONTINUOUS
 62
     5
 10
80.189314082146879
 20
-52.38457034210618
 30
0.0
  0
VERTEX
  5
A42
  8
DETAIL
  6
CONTINUOUS
 62
     5
 10
80.085017058369388
 20
-52.200064008330457
 30
0.0
  0
VERTEX
  5
A43
  8
DETAIL
  6
CONTINUOUS
 62
     5
 10
79.913198961647922
 20
-52.06028691427138
 30
0.0
  0
VERTEX
  5
A44
  8
DETAIL
  6
CONTINUOUS
 62
     5
 10
79.675504563452336
 20
-51.97168998179837
 30
0.0
  0
VERTEX
  5
A45
  8
DETAIL
  6
CONTINUOUS
 62
     5
 10
79.37357863525267
 20
-51.940724132780822
 30
0.0
  0
SEQEND
  5
A46
  8
DETAIL
  6
CONTINUOUS
 62
     5
  0
POLYLINE
  5
17F
  8
DETAIL
  6
CONTINUOUS
 62
     5
 66
     1
 10
0.0
 20
0.0
 30
0.0
  0
VERTEX
  5
A47
  8
DETAIL
  6
CONTINUOUS
 62
     5
 10
79.37357863525267
 20
-51.940724132780822
 30
0.0
  0
VERTEX
  5
A48
  8
DETAIL
  6
CONTINUOUS
 62
     5
 10
79.337218532417694
 20
-51.940724132780822
 30
0.0
  0
VERTEX
  5
A49
  8
DETAIL
  6
CONTINUOUS
 62
     5
 10
79.243447740895874
 20
-51.940724132780822
 30
0.0
  0
VERTEX
  5
A4A
  8
DETAIL
  6
CONTINUOUS
 62
     5
 10
79.11523053616196
 20
-51.940724132780851
 30
0.0
  0
VERTEX
  5
A4B
  8
DETAIL
  6
CONTINUOUS
 62
     5
 10
78.975531193690671
 20
-51.940724132780822
 30
0.0
  0
VERTEX
  5
A4C
  8
DETAIL
  6
CONTINUOUS
 62
     5
 10
78.847313988956742
 20
-51.940724132780808
 30
0.0
  0
VERTEX
  5
A4D
  8
DETAIL
  6
CONTINUOUS
 62
     5
 10
78.753543197434894
 20
-51.940724132780822
 30
0.0
  0
VERTEX
  5
A4E
  8
DETAIL
  6
CONTINUOUS
 62
     5
 10
78.717183094599932
 20
-51.940724132780822
 30
0.0
  0
SEQEND
  5
A4F
  8
DETAIL
  6
CONTINUOUS
 62
     5
  0
POLYLINE
  5
189
  8
DETAIL
  6
CONTINUOUS
 62
     5
 66
     1
 10
0.0
 20
0.0
 30
0.0
  0
VERTEX
  5
A50
  8
DETAIL
  6
CONTINUOUS
 62
     5
 10
78.717183094599932
 20
-51.940724132780822
 30
0.0
  0
VERTEX
  5
A51
  8
DETAIL
  6
CONTINUOUS
 62
     5
 10
78.686122938957766
 20
-51.940724132780822
 30
0.0
  0
VERTEX
  5
A52
  8
DETAIL
  6
CONTINUOUS
 62
     5
 10
78.606020432301619
 20
-51.940724132780822
 30
0.0
  0
VERTEX
  5
A53
  8
DETAIL
  6
CONTINUOUS
 62
     5
 10
78.496492515037133
 20
-51.940724132780851
 30
0.0
  0
VERTEX
  5
A54
  8
DETAIL
  6
CONTINUOUS
 62
     5
 10
78.377156127569805
 20
-51.940724132780822
 30
0.0
  0
VERTEX
  5
A55
  8
DETAIL
  6
CONTINUOUS
 62
     5
 10
78.267628210305261
 20
-51.940724132780808
 30
0.0
  0
VERTEX
  5
A56
  8
DETAIL
  6
CONTINUOUS
 62
     5
 10
78.187525703649143
 20
-51.940724132780822
 30
0.0
  0
VERTEX
  5
A57
  8
DETAIL
  6
CONTINUOUS
 62
     5
 10
78.156465548006949
 20
-51.940724132780822
 30
0.0
  0
SEQEND
  5
A58
  8
DETAIL
  6
CONTINUOUS
 62
     5
  0
POLYLINE
  5
193
  8
DETAIL
  6
CONTINUOUS
 62
     5
 66
     1
 10
0.0
 20
0.0
 30
0.0
  0
VERTEX
  5
A59
  8
DETAIL
  6
CONTINUOUS
 62
     5
 10
78.156465548006949
 20
-51.940724132780822
 30
0.0
  0
VERTEX
  5
A5A
  8
DETAIL
  6
CONTINUOUS
 62
     5
 10
78.15626834066957
 20
-51.940724132780822
 30
0.0
  0
VERTEX
  5
A5B
  8
DETAIL
  6
CONTINUOUS
 62
     5
 10
78.155759753325739
 20
-51.940724132780822
 30
0.0
  0
VERTEX
  5
A5C
  8
DETAIL
  6
CONTINUOUS
 62
     5
 10
78.155064337978047
 20
-51.940724132780851
 30
0.0
  0
VERTEX
  5
A5D
  8
DETAIL
  6
CONTINUOUS
 62
     5
 10
78.154306646629067
 20
-51.940724132780822
 30
0.0
  0
VERTEX
  5
A5E
  8
DETAIL
  6
CONTINUOUS
 62
     5
 10
78.15361123128136
 20
-51.940724132780808
 30
0.0
  0
VERTEX
  5
A5F
  8
DETAIL
  6
CONTINUOUS
 62
     5
 10
78.15310264393753
 20
-51.940724132780822
 30
0.0
  0
VERTEX
  5
A60
  8
DETAIL
  6
CONTINUOUS
 62
     5
 10
78.152905436600122
 20
-51.940724132780822
 30
0.0
  0
SEQEND
  5
A61
  8
DETAIL
  6
CONTINUOUS
 62
     5
  0
POLYLINE
  5
19D
  8
DETAIL
  6
CONTINUOUS
 62
     5
 66
     1
 10
0.0
 20
0.0
 30
0.0
  0
VERTEX
  5
A62
  8
DETAIL
  6
CONTINUOUS
 62
     5
 10
78.152905436600122
 20
-51.940724132780822
 30
0.0
  0
VERTEX
  5
A63
  8
DETAIL
  6
CONTINUOUS
 62
     5
 10
78.152905436600093
 20
-52.090897520218753
 30
0.0
  0
VERTEX
  5
A64
  8
DETAIL
  6
CONTINUOUS
 62
     5
 10
78.152905436600122
 20
-52.478186782558709
 30
0.0
  0
VERTEX
  5
A65
  8
DETAIL
  6
CONTINUOUS
 62
     5
 10
78.152905436600122
 20
-53.007745569839891
 30
0.0
  0
VERTEX
  5
A66
  8
DETAIL
  6
CONTINUOUS
 62
     5
 10
78.152905436600122
 20
-53.584727532101439
 30
0.0
  0
VERTEX
  5
A67
  8
DETAIL
  6
CONTINUOUS
 62
     5
 10
78.152905436600122
 20
-54.1142863193826
 30
0.0
  0
VERTEX
  5
A68
  8
DETAIL
  6
CONTINUOUS
 62
     5
 10
78.152905436600122
 20
-54.501575581722562
 30
0.0
  0
VERTEX
  5
A69
  8
DETAIL
  6
CONTINUOUS
 62
     5
 10
78.152905436600122
 20
-54.651748969160501
 30
0.0
  0
SEQEND
  5
A6A
  8
DETAIL
  6
CONTINUOUS
 62
     5
  0
POLYLINE
  5
1A7
  8
DETAIL
  6
CONTINUOUS
 62
     5
 66
     1
 10
0.0
 20
0.0
 30
0.0
  0
VERTEX
  5
A6B
  8
DETAIL
  6
CONTINUOUS
 62
     5
 10
78.152905436600122
 20
-54.651748969160501
 30
0.0
  0
VERTEX
  5
A6C
  8
DETAIL
  6
CONTINUOUS
 62
     5
 10
78.15310264393753
 20
-54.651748969160487
 30
0.0
  0
VERTEX
  5
A6D
  8
DETAIL
  6
CONTINUOUS
 62
     5
 10
78.15361123128136
 20
-54.651748969160501
 30
0.0
  0
VERTEX
  5
A6E
  8
DETAIL
  6
CONTINUOUS
 62
     5
 10
78.154306646629067
 20
-54.651748969160501
 30
0.0
  0
VERTEX
  5
A6F
  8
DETAIL
  6
CONTINUOUS
 62
     5
 10
78.155064337978033
 20
-54.651748969160501
 30
0.0
  0
VERTEX
  5
A70
  8
DETAIL
  6
CONTINUOUS
 62
     5
 10
78.155759753325697
 20
-54.651748969160501
 30
0.0
  0
VERTEX
  5
A71
  8
DETAIL
  6
CONTINUOUS
 62
     5
 10
78.156268340669541
 20
-54.651748969160501
 30
0.0
  0
VERTEX
  5
A72
  8
DETAIL
  6
CONTINUOUS
 62
     5
 10
78.156465548006949
 20
-54.651748969160501
 30
0.0
  0
SEQEND
  5
A73
  8
DETAIL
  6
CONTINUOUS
 62
     5
  0
POLYLINE
  5
1B1
  8
DETAIL
  6
CONTINUOUS
 62
     5
 66
     1
 10
0.0
 20
0.0
 30
0.0
  0
VERTEX
  5
A74
  8
DETAIL
  6
CONTINUOUS
 62
     5
 10
78.156465548006949
 20
-54.651748969160501
 30
0.0
  0
VERTEX
  5
A75
  8
DETAIL
  6
CONTINUOUS
 62
     5
 10
78.187525703649143
 20
-54.651748969160487
 30
0.0
  0
VERTEX
  5
A76
  8
DETAIL
  6
CONTINUOUS
 62
     5
 10
78.267628210305261
 20
-54.651748969160501
 30
0.0
  0
VERTEX
  5
A77
  8
DETAIL
  6
CONTINUOUS
 62
     5
 10
78.377156127569805
 20
-54.651748969160501
 30
0.0
  0
VERTEX
  5
A78
  8
DETAIL
  6
CONTINUOUS
 62
     5
 10
78.496492515037133
 20
-54.651748969160501
 30
0.0
  0
VERTEX
  5
A79
  8
DETAIL
  6
CONTINUOUS
 62
     5
 10
78.606020432301619
 20
-54.651748969160501
 30
0.0
  0
VERTEX
  5
A7A
  8
DETAIL
  6
CONTINUOUS
 62
     5
 10
78.686122938957737
 20
-54.651748969160501
 30
0.0
  0
VERTEX
  5
A7B
  8
DETAIL
  6
CONTINUOUS
 62
     5
 10
78.717183094599932
 20
-54.651748969160501
 30
0.0
  0
SEQEND
  5
A7C
  8
DETAIL
  6
CONTINUOUS
 62
     5
  0
POLYLINE
  5
1BB
  8
DETAIL
  6
CONTINUOUS
 62
     5
 66
     1
 10
0.0
 20
0.0
 30
0.0
  0
VERTEX
  5
A7D
  8
DETAIL
  6
CONTINUOUS
 62
     5
 10
79.334417409775583
 20
-54.241001115587089
 30
0.0
  0
VERTEX
  5
A7E
  8
DETAIL
  6
CONTINUOUS
 62
     5
 10
79.299067994544842
 20
-54.241001115587082
 30
0.0
  0
VERTEX
  5
A7F
  8
DETAIL
  6
CONTINUOUS
 62
     5
 10
79.20790371316032
 20
-54.241001115587103
 30
0.0
  0
VERTEX
  5
A80
  8
DETAIL
  6
CONTINUOUS
 62
     5
 10
79.083250512083495
 20
-54.241001115587089
 30
0.0
  0
VERTEX
  5
A81
  8
DETAIL
  6
CONTINUOUS
 62
     5
 10
78.947434337775931
 20
-54.241001115587089
 30
0.0
  0
VERTEX
  5
A82
  8
DETAIL
  6
CONTINUOUS
 62
     5
 10
78.822781136699092
 20
-54.241001115587082
 30
0.0
  0
VERTEX
  5
A83
  8
DETAIL
  6
CONTINUOUS
 62
     5
 10
78.731616855314556
 20
-54.241001115587103
 30
0.0
  0
VERTEX
  5
A84
  8
DETAIL
  6
CONTINUOUS
 62
     5
 10
78.69626744008383
 20
-54.241001115587089
 30
0.0
  0
SEQEND
  5
A85
  8
DETAIL
  6
CONTINUOUS
 62
     5
  0
POLYLINE
  5
1C5
  8
DETAIL
  6
CONTINUOUS
 62
     5
 66
     1
 10
0.0
 20
0.0
 30
0.0
  0
VERTEX
  5
A86
  8
DETAIL
  6
CONTINUOUS
 62
     5
 10
78.69626744008383
 20
-54.241001115587089
 30
0.0
  0
VERTEX
  5
A87
  8
DETAIL
  6
CONTINUOUS
 62
     5
 10
78.696267440083815
 20
-54.197393643102217
 30
0.0
  0
VERTEX
  5
A88
  8
DETAIL
  6
CONTINUOUS
 62
     5
 10
78.696267440083844
 20
-54.084932266694011
 30
0.0
  0
VERTEX
  5
A89
  8
DETAIL
  6
CONTINUOUS
 62
     5
 10
78.69626744008383
 20
-53.931158547931688
 30
0.0
  0
VERTEX
  5
A8A
  8
DETAIL
  6
CONTINUOUS
 62
     5
 10
78.69626744008383
 20
-53.763614048384689
 30
0.0
  0
VERTEX
  5
A8B
  8
DETAIL
  6
CONTINUOUS
 62
     5
 10
78.69626744008383
 20
-53.609840329622394
 30
0.0
  0
VERTEX
  5
A8C
  8
DETAIL
  6
CONTINUOUS
 62
     5
 10
78.69626744008383
 20
-53.497378953214138
 30
0.0
  0
VERTEX
  5
A8D
  8
DETAIL
  6
CONTINUOUS
 62
     5
 10
78.69626744008383
 20
-53.453771480729287
 30
0.0
  0
SEQEND
  5
A8E
  8
DETAIL
  6
CONTINUOUS
 62
     5
  0
POLYLINE
  5
1CF
  8
DETAIL
  6
CONTINUOUS
 62
     5
 66
     1
 10
0.0
 20
0.0
 30
0.0
  0
VERTEX
  5
A8F
  8
DETAIL
  6
CONTINUOUS
 62
     5
 10
78.69626744008383
 20
-53.453771480729287
 30
0.0
  0
VERTEX
  5
A90
  8
DETAIL
  6
CONTINUOUS
 62
     5
 10
78.731222440639797
 20
-53.453771480729287
 30
0.0
  0
VERTEX
  5
A91
  8
DETAIL
  6
CONTINUOUS
 62
     5
 10
78.821369547336829
 20
-53.453771480729287
 30
0.0
  0
VERTEX
  5
A92
  8
DETAIL
  6
CONTINUOUS
 62
     5
 10
78.944631917718425
 20
-53.453771480729287
 30
0.0
  0
VERTEX
  5
A93
  8
DETAIL
  6
CONTINUOUS
 62
     5
 10
79.078932709328228
 20
-53.453771480729287
 30
0.0
  0
VERTEX
  5
A94
  8
DETAIL
  6
CONTINUOUS
 62
     5
 10
79.20219507970981
 20
-53.453771480729287
 30
0.0
  0
VERTEX
  5
A95
  8
DETAIL
  6
CONTINUOUS
 62
     5
 10
79.292342186406842
 20
-53.453771480729287
 30
0.0
  0
VERTEX
  5
A96
  8
DETAIL
  6
CONTINUOUS
 62
     5
 10
79.327297186962809
 20
-53.453771480729287
 30
0.0
  0
SEQEND
  5
A97
  8
DETAIL
  6
CONTINUOUS
 62
     5
  0
POLYLINE
  5
1D9
  8
DETAIL
  6
CONTINUOUS
 62
     5
 66
     1
 10
0.0
 20
0.0
 30
0.0
  0
VERTEX
  5
A98
  8
DETAIL
  6
CONTINUOUS
 62
     5
 10
79.327297186962809
 20
-53.453771480729287
 30
0.0
  0
VERTEX
  5
A99
  8
DETAIL
  6
CONTINUOUS
 62
     5
 10
79.462310851959202
 20
-53.469670938272422
 30
0.0
  0
VERTEX
  5
A9A
  8
DETAIL
  6
CONTINUOUS
 62
     5
 10
79.580001014849742
 20
-53.517312349119571
 30
0.0
  0
VERTEX
  5
A9B
  8
DETAIL
  6
CONTINUOUS
 62
     5
 10
79.673083687695737
 20
-53.596610270597338
 30
0.0
  0
VERTEX
  5
A9C
  8
DETAIL
  6
CONTINUOUS
 62
     5
 10
79.73427488255841
 20
-53.707479260032393
 30
0.0
  0
VERTEX
  5
A9D
  8
DETAIL
  6
CONTINUOUS
 62
     5
 10
79.756290611499011
 20
-53.849833874751312
 30
0.0
  0
VERTEX
  5
A9E
  8
DETAIL
  6
CONTINUOUS
 62
     5
 10
79.736083419153161
 20
-53.975616170868399
 30
0.0
  0
VERTEX
  5
A9F
  8
DETAIL
  6
CONTINUOUS
 62
     5
 10
79.67879410639253
 20
-54.083263259479459
 30
0.0
  0
VERTEX
  5
AA0
  8
DETAIL
  6
CONTINUOUS
 62
     5
 10
79.589421069632451
 20
-54.167135924115541
 30
0.0
  0
VERTEX
  5
AA1
  8
DETAIL
  6
CONTINUOUS
 62
     5
 10
79.472962705288339
 20
-54.221594948307711
 30
0.0
  0
VERTEX
  5
AA2
  8
DETAIL
  6
CONTINUOUS
 62
     5
 10
79.334417409775583
 20
-54.241001115587089
 30
0.0
  0
SEQEND
  5
AA3
  8
DETAIL
  6
CONTINUOUS
 62
     5
  0
POLYLINE
  5
1E6
  8
DETAIL
  6
CONTINUOUS
 62
     5
 66
     1
 10
0.0
 20
0.0
 30
0.0
  0
VERTEX
  5
AA4
  8
DETAIL
  6
CONTINUOUS
 62
     5
 10
79.374468663104366
 20
-52.370607585169637
 30
0.0
  0
VERTEX
  5
AA5
  8
DETAIL
  6
CONTINUOUS
 62
     5
 10
79.468128073998272
 20
-52.386845253296563
 30
0.0
  0
VERTEX
  5
AA6
  8
DETAIL
  6
CONTINUOUS
 62
     5
 10
79.555550169707104
 20
-52.432154791172422
 30
0.0
  0
VERTEX
  5
AA7
  8
DETAIL
  6
CONTINUOUS
 62
     5
 10
79.628361568201896
 20
-52.501430999039783
 30
0.0
  0
VERTEX
  5
AA8
  8
DETAIL
  6
CONTINUOUS
 62
     5
 10
79.678188887453402
 20
-52.589568677141237
 30
0.0
  0
VERTEX
  5
AA9
  8
DETAIL
  6
CONTINUOUS
 62
     5
 10
79.6966587454326
 20
-52.691462625719403
 30
0.0
  0
VERTEX
  5
AAA
  8
DETAIL
  6
CONTINUOUS
 62
     5
 10
79.682735149720031
 20
-52.78945825230582
 30
0.0
  0
VERTEX
  5
AAB
  8
DETAIL
  6
CONTINUOUS
 62
     5
 10
79.640807717680445
 20
-52.8818146624238
 30
0.0
  0
VERTEX
  5
AAC
  8
DETAIL
  6
CONTINUOUS
 62
     5
 10
79.570641481961133
 20
-52.959261325969713
 30
0.0
  0
VERTEX
  5
AAD
  8
DETAIL
  6
CONTINUOUS
 62
     5
 10
79.472001475209225
 20
-53.01252771283994
 30
0.0
  0
VERTEX
  5
AAE
  8
DETAIL
  6
CONTINUOUS
 62
     5
 10
79.344652730072085
 20
-53.032343292930832
 30
0.0
  0
SEQEND
  5
AAF
  8
DETAIL
  6
CONTINUOUS
 62
     5
  0
POLYLINE
  5
1F3
  8
DETAIL
  6
CONTINUOUS
 62
     5
 66
     1
 10
0.0
 20
0.0
 30
0.0
  0
VERTEX
  5
AB0
  8
DETAIL
  6
CONTINUOUS
 62
     5
 10
79.344652730072085
 20
-53.032343292930832
 30
0.0
  0
VERTEX
  5
AB1
  8
DETAIL
  6
CONTINUOUS
 62
     5
 10
79.30873634374619
 20
-53.03234329293079
 30
0.0
  0
VERTEX
  5
AB2
  8
DETAIL
  6
CONTINUOUS
 62
     5
 10
79.216109873747897
 20
-53.032343292930832
 30
0.0
  0
VERTEX
  5
AB3
  8
DETAIL
  6
CONTINUOUS
 62
     5
 10
79.089457353546095
 20
-53.032343292930832
 30
0.0
  0
VERTEX
  5
AB4
  8
DETAIL
  6
CONTINUOUS
 62
     5
 10
78.951462816609805
 20
-53.032343292930832
 30
0.0
  0
VERTEX
  5
AB5
  8
DETAIL
  6
CONTINUOUS
 62
     5
 10
78.824810296408032
 20
-53.032343292930811
 30
0.0
  0
VERTEX
  5
AB6
  8
DETAIL
  6
CONTINUOUS
 62
     5
 10
78.732183826409695
 20
-53.032343292930832
 30
0.0
  0
VERTEX
  5
AB7
  8
DETAIL
  6
CONTINUOUS
 62
     5
 10
78.69626744008383
 20
-53.032343292930832
 30
0.0
  0
SEQEND
  5
AB8
  8
DETAIL
  6
CONTINUOUS
 62
     5
  0
POLYLINE
  5
1FD
  8
DETAIL
  6
CONTINUOUS
 62
     5
 66
     1
 10
0.0
 20
0.0
 30
0.0
  0
VERTEX
  5
AB9
  8
DETAIL
  6
CONTINUOUS
 62
     5
 10
78.69626744008383
 20
-53.032343292930832
 30
0.0
  0
VERTEX
  5
ABA
  8
DETAIL
  6
CONTINUOUS
 62
     5
 10
78.696267440083815
 20
-52.995687379089809
 30
0.0
  0
VERTEX
  5
ABB
  8
DETAIL
  6
CONTINUOUS
 62
     5
 10
78.696267440083844
 20
-52.901153706552499
 30
0.0
  0
VERTEX
  5
ABC
  8
DETAIL
  6
CONTINUOUS
 62
     5
 10
78.69626744008383
 20
-52.771893378797429
 30
0.0
  0
VERTEX
  5
ABD
  8
DETAIL
  6
CONTINUOUS
 62
     5
 10
78.69626744008383
 20
-52.631057499303061
 30
0.0
  0
VERTEX
  5
ABE
  8
DETAIL
  6
CONTINUOUS
 62
     5
 10
78.69626744008383
 20
-52.501797171547928
 30
0.0
  0
VERTEX
  5
ABF
  8
DETAIL
  6
CONTINUOUS
 62
     5
 10
78.69626744008383
 20
-52.407263499010639
 30
0.0
  0
VERTEX
  5
AC0
  8
DETAIL
  6
CONTINUOUS
 62
     5
 10
78.69626744008383
 20
-52.370607585169637
 30
0.0
  0
SEQEND
  5
AC1
  8
DETAIL
  6
CONTINUOUS
 62
     5
  0
POLYLINE
  5
207
  8
DETAIL
  6
CONTINUOUS
 62
     5
 66
     1
 10
0.0
 20
0.0
 30
0.0
  0
VERTEX
  5
AC2
  8
DETAIL
  6
CONTINUOUS
 62
     5
 10
78.69626744008383
 20
-52.370607585169637
 30
0.0
  0
VERTEX
  5
AC3
  8
DETAIL
  6
CONTINUOUS
 62
     5
 10
78.733835437860492
 20
-52.370607585169651
 30
0.0
  0
VERTEX
  5
AC4
  8
DETAIL
  6
CONTINUOUS
 62
     5
 10
78.830721326863426
 20
-52.370607585169651
 30
0.0
  0
VERTEX
  5
AC5
  8
DETAIL
  6
CONTINUOUS
 62
     5
 10
78.963197950602122
 20
-52.370607585169651
 30
0.0
  0
VERTEX
  5
AC6
  8
DETAIL
  6
CONTINUOUS
 62
     5
 10
79.107538152586073
 20
-52.370607585169637
 30
0.0
  0
VERTEX
  5
AC7
  8
DETAIL
  6
CONTINUOUS
 62
     5
 10
79.240014776324784
 20
-52.370607585169623
 30
0.0
  0
VERTEX
  5
AC8
  8
DETAIL
  6
CONTINUOUS
 62
     5
 10
79.336900665327732
 20
-52.370607585169637
 30
0.0
  0
VERTEX
  5
AC9
  8
DETAIL
  6
CONTINUOUS
 62
     5
 10
79.374468663104366
 20
-52.370607585169637
 30
0.0
  0
SEQEND
  5
ACA
  8
DETAIL
  6
CONTINUOUS
 62
     5
  0
POLYLINE
  5
211
  8
DETAIL
  6
CONTINUOUS
 62
     5
 66
     1
 10
0.0
 20
0.0
 30
0.0
  0
VERTEX
  5
ACB
  8
DETAIL
  6
CONTINUOUS
 62
     5
 10
80.247140971730005
 20
-56.513687234987621
 30
0.0
  0
VERTEX
  5
ACC
  8
DETAIL
  6
CONTINUOUS
 62
     5
 10
80.385768149804434
 20
-56.454009087473281
 30
0.0
  0
VERTEX
  5
ACD
  8
DETAIL
  6
CONTINUOUS
 62
     5
 10
80.515936503176178
 20
-56.359982985104821
 30
0.0
  0
VERTEX
  5
ACE
  8
DETAIL
  6
CONTINUOUS
 62
     5
 10
80.624808270111785
 20
-56.230156402427973
 30
0.0
  0
VERTEX
  5
ACF
  8
DETAIL
  6
CONTINUOUS
 62
     5
 10
80.699545688877706
 20
-56.063076813988502
 30
0.0
  0
VERTEX
  5
AD0
  8
DETAIL
  6
CONTINUOUS
 62
     5
 10
80.727310997740446
 20
-55.857291694332162
 30
0.0
  0
VERTEX
  5
AD1
  8
DETAIL
  6
CONTINUOUS
 62
     5
 10
80.688915196216698
 20
-55.592800337578403
 30
0.0
  0
VERTEX
  5
AD2
  8
DETAIL
  6
CONTINUOUS
 62
     5
 10
80.576931891911599
 20
-55.381432963238097
 30
0.0
  0
VERTEX
  5
AD3
  8
DETAIL
  6
CONTINUOUS
 62
     5
 10
80.396167235224468
 20
-55.22643639291465
 30
0.0
  0
VERTEX
  5
AD4
  8
DETAIL
  6
CONTINUOUS
 62
     5
 10
80.151427376554551
 20
-55.131057448211422
 30
0.0
  0
VERTEX
  5
AD5
  8
DETAIL
  6
CONTINUOUS
 62
     5
 10
79.847518466301153
 20
-55.098542950731819
 30
0.0
  0
SEQEND
  5
AD6
  8
DETAIL
  6
CONTINUOUS
 62
     5
  0
POLYLINE
  5
21E
  8
DETAIL
  6
CONTINUOUS
 62
     5
 66
     1
 10
0.0
 20
0.0
 30
0.0
  0
VERTEX
  5
AD7
  8
DETAIL
  6
CONTINUOUS
 62
     5
 10
79.847518466301153
 20
-55.098542950731819
 30
0.0
  0
VERTEX
  5
AD8
  8
DETAIL
  6
CONTINUOUS
 62
     5
 10
79.808989082754593
 20
-55.098542950731812
 30
0.0
  0
VERTEX
  5
AD9
  8
DETAIL
  6
CONTINUOUS
 62
     5
 10
79.70962383045034
 20
-55.098542950731833
 30
0.0
  0
VERTEX
  5
ADA
  8
DETAIL
  6
CONTINUOUS
 62
     5
 10
79.573757056891452
 20
-55.098542950731819
 30
0.0
  0
VERTEX
  5
ADB
  8
DETAIL
  6
CONTINUOUS
 62
     5
 10
79.425723109581014
 20
-55.098542950731819
 30
0.0
  0
VERTEX
  5
ADC
  8
DETAIL
  6
CONTINUOUS
 62
     5
 10
79.28985633602214
 20
-55.098542950731812
 30
0.0
  0
VERTEX
  5
ADD
  8
DETAIL
  6
CONTINUOUS
 62
     5
 10
79.190491083717887
 20
-55.098542950731819
 30
0.0
  0
VERTEX
  5
ADE
  8
DETAIL
  6
CONTINUOUS
 62
     5
 10
79.151961700171341
 20
-55.098542950731819
 30
0.0
  0
SEQEND
  5
ADF
  8
DETAIL
  6
CONTINUOUS
 62
     5
  0
POLYLINE
  5
228
  8
DETAIL
  6
CONTINUOUS
 62
     5
 66
     1
 10
0.0
 20
0.0
 30
0.0
  0
VERTEX
  5
AE0
  8
DETAIL
  6
CONTINUOUS
 62
     5
 10
79.151961700171341
 20
-55.098542950731819
 30
0.0
  0
VERTEX
  5
AE1
  8
DETAIL
  6
CONTINUOUS
 62
     5
 10
79.121986184884946
 20
-55.098542950731812
 30
0.0
  0
VERTEX
  5
AE2
  8
DETAIL
  6
CONTINUOUS
 62
     5
 10
79.044680908620023
 20
-55.098542950731833
 30
0.0
  0
VERTEX
  5
AE3
  8
DETAIL
  6
CONTINUOUS
 62
     5
 10
78.938977775768009
 20
-55.098542950731819
 30
0.0
  0
VERTEX
  5
AE4
  8
DETAIL
  6
CONTINUOUS
 62
     5
 10
78.823808690720256
 20
-55.098542950731819
 30
0.0
  0
VERTEX
  5
AE5
  8
DETAIL
  6
CONTINUOUS
 62
     5
 10
78.718105557868199
 20
-55.098542950731812
 30
0.0
  0
VERTEX
  5
AE6
  8
DETAIL
  6
CONTINUOUS
 62
     5
 10
78.640800281603305
 20
-55.098542950731819
 30
0.0
  0
VERTEX
  5
AE7
  8
DETAIL
  6
CONTINUOUS
 62
     5
 10
78.61082476631691
 20
-55.098542950731819
 30
0.0
  0
SEQEND
  5
AE8
  8
DETAIL
  6
CONTINUOUS
 62
     5
  0
POLYLINE
  5
232
  8
DETAIL
  6
CONTINUOUS
 62
     5
 66
     1
 10
0.0
 20
0.0
 30
0.0
  0
VERTEX
  5
AE9
  8
DETAIL
  6
CONTINUOUS
 62
     5
 10
78.61082476631691
 20
-55.098542950731819
 30
0.0
  0
VERTEX
  5
AEA
  8
DETAIL
  6
CONTINUOUS
 62
     5
 10
78.610553606227981
 20
-55.098542950731819
 30
0.0
  0
VERTEX
  5
AEB
  8
DETAIL
  6
CONTINUOUS
 62
     5
 10
78.609854298630196
 20
-55.098542950731833
 30
0.0
  0
VERTEX
  5
AEC
  8
DETAIL
  6
CONTINUOUS
 62
     5
 10
78.608898102527164
 20
-55.098542950731833
 30
0.0
  0
VERTEX
  5
AED
  8
DETAIL
  6
CONTINUOUS
 62
     5
 10
78.607856276922291
 20
-55.098542950731819
 30
0.0
  0
VERTEX
  5
AEE
  8
DETAIL
  6
CONTINUOUS
 62
     5
 10
78.606900080819202
 20
-55.098542950731812
 30
0.0
  0
VERTEX
  5
AEF
  8
DETAIL
  6
CONTINUOUS
 62
     5
 10
78.606200773221431
 20
-55.098542950731812
 30
0.0
  0
VERTEX
  5
AF0
  8
DETAIL
  6
CONTINUOUS
 62
     5
 10
78.605929613132503
 20
-55.098542950731819
 30
0.0
  0
SEQEND
  5
AF1
  8
DETAIL
  6
CONTINUOUS
 62
     5
  0
POLYLINE
  5
23C
  8
DETAIL
  6
CONTINUOUS
 62
     5
 66
     1
 10
0.0
 20
0.0
 30
0.0
  0
VERTEX
  5
AF2
  8
DETAIL
  6
CONTINUOUS
 62
     5
 10
78.605929613132503
 20
-55.098542950731819
 30
0.0
  0
VERTEX
  5
AF3
  8
DETAIL
  6
CONTINUOUS
 62
     5
 10
78.605929613132517
 20
-55.248691687252737
 30
0.0
  0
VERTEX
  5
AF4
  8
DETAIL
  6
CONTINUOUS
 62
     5
 10
78.605929613132517
 20
-55.635917376175101
 30
0.0
  0
VERTEX
  5
AF5
  8
DETAIL
  6
CONTINUOUS
 62
     5
 10
78.605929613132531
 20
-56.165389236538353
 30
0.0
  0
VERTEX
  5
AF6
  8
DETAIL
  6
CONTINUOUS
 62
     5
 10
78.605929613132503
 20
-56.742276487381858
 30
0.0
  0
VERTEX
  5
AF7
  8
DETAIL
  6
CONTINUOUS
 62
     5
 10
78.605929613132503
 20
-57.271748347745103
 30
0.0
  0
VERTEX
  5
AF8
  8
DETAIL
  6
CONTINUOUS
 62
     5
 10
78.605929613132503
 20
-57.658974036667473
 30
0.0
  0
VERTEX
  5
AF9
  8
DETAIL
  6
CONTINUOUS
 62
     5
 10
78.605929613132503
 20
-57.809122773188392
 30
0.0
  0
SEQEND
  5
AFA
  8
DETAIL
  6
CONTINUOUS
 62
     5
  0
POLYLINE
  5
246
  8
DETAIL
  6
CONTINUOUS
 62
     5
 66
     1
 10
0.0
 20
0.0
 30
0.0
  0
VERTEX
  5
AFB
  8
DETAIL
  6
CONTINUOUS
 62
     5
 10
78.605929613132503
 20
-57.809122773188392
 30
0.0
  0
VERTEX
  5
AFC
  8
DETAIL
  6
CONTINUOUS
 62
     5
 10
78.636176288507869
 20
-57.809122773188399
 30
0.0
  0
VERTEX
  5
AFD
  8
DETAIL
  6
CONTINUOUS
 62
     5
 10
78.714180872370534
 20
-57.809122773188399
 30
0.0
  0
VERTEX
  5
AFE
  8
DETAIL
  6
CONTINUOUS
 62
     5
 10
78.820840201325652
 20
-57.809122773188399
 30
0.0
  0
VERTEX
  5
AFF
  8
DETAIL
  6
CONTINUOUS
 62
     5
 10
78.937051111978221
 20
-57.809122773188392
 30
0.0
  0
VERTEX
  5
B00
  8
DETAIL
  6
CONTINUOUS
 62
     5
 10
79.04371044093331
 20
-57.809122773188392
 30
0.0
  0
VERTEX
  5
B01
  8
DETAIL
  6
CONTINUOUS
 62
     5
 10
79.121715024796003
 20
-57.809122773188392
 30
0.0
  0
VERTEX
  5
B02
  8
DETAIL
  6
CONTINUOUS
 62
     5
 10
79.151961700171341
 20
-57.809122773188392
 30
0.0
  0
SEQEND
  5
B03
  8
DETAIL
  6
CONTINUOUS
 62
     5
  0
POLYLINE
  5
250
  8
DETAIL
  6
CONTINUOUS
 62
     5
 66
     1
 10
0.0
 20
0.0
 30
0.0
  0
VERTEX
  5
B04
  8
DETAIL
  6
CONTINUOUS
 62
     5
 10
79.151961700171341
 20
-57.809122773188392
 30
0.0
  0
VERTEX
  5
B05
  8
DETAIL
  6
CONTINUOUS
 62
     5
 10
79.151961700171341
 20
-57.750059175633929
 30
0.0
  0
VERTEX
  5
B06
  8
DETAIL
  6
CONTINUOUS
 62
     5
 10
79.151961700171341
 20
-57.597737266151348
 30
0.0
  0
VERTEX
  5
B07
  8
DETAIL
  6
CONTINUOUS
 62
     5
 10
79.151961700171341
 20
-57.389460369511902
 30
0.0
  0
VERTEX
  5
B08
  8
DETAIL
  6
CONTINUOUS
 62
     5
 10
79.151961700171341
 20
-57.162531810486819
 30
0.0
  0
VERTEX
  5
B09
  8
DETAIL
  6
CONTINUOUS
 62
     5
 10
79.151961700171341
 20
-56.954254913847372
 30
0.0
  0
VERTEX
  5
B0A
  8
DETAIL
  6
CONTINUOUS
 62
     5
 10
79.151961700171341
 20
-56.801933004364777
 30
0.0
  0
VERTEX
  5
B0B
  8
DETAIL
  6
CONTINUOUS
 62
     5
 10
79.151961700171341
 20
-56.742869406810321
 30
0.0
  0
SEQEND
  5
B0C
  8
DETAIL
  6
CONTINUOUS
 62
     5
  0
POLYLINE
  5
25A
  8
DETAIL
  6
CONTINUOUS
 62
     5
 66
     1
 10
0.0
 20
0.0
 30
0.0
  0
VERTEX
  5
B0D
  8
DETAIL
  6
CONTINUOUS
 62
     5
 10
79.151961700171341
 20
-56.742869406810321
 30
0.0
  0
VERTEX
  5
B0E
  8
DETAIL
  6
CONTINUOUS
 62
     5
 10
79.178165625129694
 20
-56.742869406810321
 30
0.0
  0
VERTEX
  5
B0F
  8
DETAIL
  6
CONTINUOUS
 62
     5
 10
79.245744168443409
 20
-56.742869406810321
 30
0.0
  0
VERTEX
  5
B10
  8
DETAIL
  6
CONTINUOUS
 62
     5
 10
79.33814748277031
 20
-56.742869406810328
 30
0.0
  0
VERTEX
  5
B11
  8
DETAIL
  6
CONTINUOUS
 62
     5
 10
79.438825720768264
 20
-56.742869406810328
 30
0.0
  0
VERTEX
  5
B12
  8
DETAIL
  6
CONTINUOUS
 62
     5
 10
79.531229035095123
 20
-56.742869406810321
 30
0.0
  0
VERTEX
  5
B13
  8
DETAIL
  6
CONTINUOUS
 62
     5
 10
79.598807578408838
 20
-56.742869406810321
 30
0.0
  0
VERTEX
  5
B14
  8
DETAIL
  6
CONTINUOUS
 62
     5
 10
79.625011503367205
 20
-56.742869406810321
 30
0.0
  0
SEQEND
  5
B15
  8
DETAIL
  6
CONTINUOUS
 62
     5
  0
POLYLINE
  5
264
  8
DETAIL
  6
CONTINUOUS
 62
     5
 66
     1
 10
0.0
 20
0.0
 30
0.0
  0
VERTEX
  5
B16
  8
DETAIL
  6
CONTINUOUS
 62
     5
 10
79.625011503367205
 20
-56.742869406810321
 30
0.0
  0
VERTEX
  5
B17
  8
DETAIL
  6
CONTINUOUS
 62
     5
 10
79.737789449448741
 20
-56.751444033737528
 30
0.0
  0
VERTEX
  5
B18
  8
DETAIL
  6
CONTINUOUS
 62
     5
 10
79.835301990714754
 20
-56.776046946496017
 30
0.0
  0
VERTEX
  5
B19
  8
DETAIL
  6
CONTINUOUS
 62
     5
 10
79.917922783173012
 20
-56.814996693051093
 30
0.0
  0
VERTEX
  5
B1A
  8
DETAIL
  6
CONTINUOUS
 62
     5
 10
79.98602548283111
 20
-56.866611821367982
 30
0.0
  0
VERTEX
  5
B1B
  8
DETAIL
  6
CONTINUOUS
 62
     5
 10
80.039983745696816
 20
-56.929210879412011
 30
0.0
  0
VERTEX
  5
B1C
  8
DETAIL
  6
CONTINUOUS
 62
     5
 10
80.080171227777853
 20
-57.001112415148441
 30
0.0
  0
VERTEX
  5
B1D
  8
DETAIL
  6
CONTINUOUS
 62
     5
 10
80.10696158508199
 20
-57.080634976542569
 30
0.0
  0
SEQEND
  5
B1E
  8
DETAIL
  6
CONTINUOUS
 62
     5
  0
POLYLINE
  5
26E
  8
DETAIL
  6
CONTINUOUS
 62
     5
 66
     1
 10
0.0
 20
0.0
 30
0.0
  0
VERTEX
  5
B1F
  8
DETAIL
  6
CONTINUOUS
 62
     5
 10
80.10696158508199
 20
-57.080634976542569
 30
0.0
  0
VERTEX
  5
B20
  8
DETAIL
  6
CONTINUOUS
 62
     5
 10
80.124999569371397
 20
-57.177901008636653
 30
0.0
  0
VERTEX
  5
B21
  8
DETAIL
  6
CONTINUOUS
 62
     5
 10
80.137541696547146
 20
-57.283986879413071
 30
0.0
  0
VERTEX
  5
B22
  8
DETAIL
  6
CONTINUOUS
 62
     5
 10
80.146884394156828
 20
-57.394961416290627
 30
0.0
  0
VERTEX
  5
B23
  8
DETAIL
  6
CONTINUOUS
 62
     5
 10
80.155324089747808
 20
-57.50689344668811
 30
0.0
  0
VERTEX
  5
B24
  8
DETAIL
  6
CONTINUOUS
 62
     5
 10
80.165157210867747
 20
-57.615851798024352
 30
0.0
  0
VERTEX
  5
B25
  8
DETAIL
  6
CONTINUOUS
 62
     5
 10
80.178680185063982
 20
-57.717905297718183
 30
0.0
  0
VERTEX
  5
B26
  8
DETAIL
  6
CONTINUOUS
 62
     5
 10
80.198189439884089
 20
-57.809122773188392
 30
0.0
  0
SEQEND
  5
B27
  8
DETAIL
  6
CONTINUOUS
 62
     5
  0
POLYLINE
  5
278
  8
DETAIL
  6
CONTINUOUS
 62
     5
 66
     1
 10
0.0
 20
0.0
 30
0.0
  0
VERTEX
  5
B28
  8
DETAIL
  6
CONTINUOUS
 62
     5
 10
80.198189439884089
 20
-57.809122773188392
 30
0.0
  0
VERTEX
  5
B29
  8
DETAIL
  6
CONTINUOUS
 62
     5
 10
80.22868262443113
 20
-57.809122773188371
 30
0.0
  0
VERTEX
  5
B2A
  8
DETAIL
  6
CONTINUOUS
 62
     5
 10
80.307322942473476
 20
-57.809122773188392
 30
0.0
  0
VERTEX
  5
B2B
  8
DETAIL
  6
CONTINUOUS
 62
     5
 10
80.414851540613057
 20
-57.809122773188399
 30
0.0
  0
VERTEX
  5
B2C
  8
DETAIL
  6
CONTINUOUS
 62
     5
 10
80.532009565451659
 20
-57.809122773188392
 30
0.0
  0
VERTEX
  5
B2D
  8
DETAIL
  6
CONTINUOUS
 62
     5
 10
80.639538163591183
 20
-57.809122773188392
 30
0.0
  0
VERTEX
  5
B2E
  8
DETAIL
  6
CONTINUOUS
 62
     5
 10
80.718178481633544
 20
-57.809122773188392
 30
0.0
  0
VERTEX
  5
B2F
  8
DETAIL
  6
CONTINUOUS
 62
     5
 10
80.748671666180599
 20
-57.809122773188392
 30
0.0
  0
SEQEND
  5
B30
  8
DETAIL
  6
CONTINUOUS
 62
     5
  0
POLYLINE
  5
282
  8
DETAIL
  6
CONTINUOUS
 62
     5
 66
     1
 10
0.0
 20
0.0
 30
0.0
  0
VERTEX
  5
B31
  8
DETAIL
  6
CONTINUOUS
 62
     5
 10
80.748671666180599
 20
-57.809122773188392
 30
0.0
  0
VERTEX
  5
B32
  8
DETAIL
  6
CONTINUOUS
 62
     5
 10
80.72727726490541
 20
-57.716505385105982
 30
0.0
  0
VERTEX
  5
B33
  8
DETAIL
  6
CONTINUOUS
 62
     5
 10
80.708459533183316
 20
-57.616858593378652
 30
0.0
  0
VERTEX
  5
B34
  8
DETAIL
  6
CONTINUOUS
 62
     5
 10
80.69217954851355
 20
-57.512580024055893
 30
0.0
  0
VERTEX
  5
B35
  8
DETAIL
  6
CONTINUOUS
 62
     5
 10
80.678398388395351
 20
-57.406067303187143
 30
0.0
  0
VERTEX
  5
B36
  8
DETAIL
  6
CONTINUOUS
 62
     5
 10
80.667077130328025
 20
-57.299718056821959
 30
0.0
  0
VERTEX
  5
B37
  8
DETAIL
  6
CONTINUOUS
 62
     5
 10
80.658176851810936
 20
-57.19592991100977
 30
0.0
  0
VERTEX
  5
B38
  8
DETAIL
  6
CONTINUOUS
 62
     5
 10
80.651658630343263
 20
-57.09710049180012
 30
0.0
  0
SEQEND
  5
B39
  8
DETAIL
  6
CONTINUOUS
 62
     5
  0
POLYLINE
  5
28C
  8
DETAIL
  6
CONTINUOUS
 62
     5
 66
     1
 10
0.0
 20
0.0
 30
0.0
  0
VERTEX
  5
B3A
  8
DETAIL
  6
CONTINUOUS
 62
     5
 10
80.651658630343263
 20
-57.09710049180012
 30
0.0
  0
VERTEX
  5
B3B
  8
DETAIL
  6
CONTINUOUS
 62
     5
 10
80.632987506707096
 20
-56.95350370958149
 30
0.0
  0
VERTEX
  5
B3C
  8
DETAIL
  6
CONTINUOUS
 62
     5
 10
80.596178497695973
 20
-56.83419456786482
 30
0.0
  0
VERTEX
  5
B3D
  8
DETAIL
  6
CONTINUOUS
 62
     5
 10
80.544290911873162
 20
-56.736650888598007
 30
0.0
  0
VERTEX
  5
B3E
  8
DETAIL
  6
CONTINUOUS
 62
     5
 10
80.480384057801842
 20
-56.658350493728932
 30
0.0
  0
VERTEX
  5
B3F
  8
DETAIL
  6
CONTINUOUS
 62
     5
 10
80.407517244045394
 20
-56.596771205205577
 30
0.0
  0
VERTEX
  5
B40
  8
DETAIL
  6
CONTINUOUS
 62
     5
 10
80.328749779167012
 20
-56.549390844975818
 30
0.0
  0
VERTEX
  5
B41
  8
DETAIL
  6
CONTINUOUS
 62
     5
 10
80.247140971730005
 20
-56.513687234987621
 30
0.0
  0
SEQEND
  5
B42
  8
DETAIL
  6
CONTINUOUS
 62
     5
  0
POLYLINE
  5
296
  8
DETAIL
  6
CONTINUOUS
 62
     5
 66
     1
 10
0.0
 20
0.0
 30
0.0
  0
VERTEX
  5
B43
  8
DETAIL
  6
CONTINUOUS
 62
     5
 10
79.151961700171341
 20
-56.30542071768194
 30
0.0
  0
VERTEX
  5
B44
  8
DETAIL
  6
CONTINUOUS
 62
     5
 10
79.151961700171341
 20
-56.264623449755277
 30
0.0
  0
VERTEX
  5
B45
  8
DETAIL
  6
CONTINUOUS
 62
     5
 10
79.151961700171341
 20
-56.159409442997067
 30
0.0
  0
VERTEX
  5
B46
  8
DETAIL
  6
CONTINUOUS
 62
     5
 10
79.151961700171341
 20
-56.015545392939899
 30
0.0
  0
VERTEX
  5
B47
  8
DETAIL
  6
CONTINUOUS
 62
     5
 10
79.151961700171341
 20
-55.858797995116412
 30
0.0
  0
VERTEX
  5
B48
  8
DETAIL
  6
CONTINUOUS
 62
     5
 10
79.151961700171341
 20
-55.714933945059251
 30
0.0
  0
VERTEX
  5
B49
  8
DETAIL
  6
CONTINUOUS
 62
     5
 10
79.151961700171341
 20
-55.609719938301019
 30
0.0
  0
VERTEX
  5
B4A
  8
DETAIL
  6
CONTINUOUS
 62
     5
 10
79.151961700171341
 20
-55.568922670374363
 30
0.0
  0
SEQEND
  5
B4B
  8
DETAIL
  6
CONTINUOUS
 62
     5
  0
POLYLINE
  5
2A0
  8
DETAIL
  6
CONTINUOUS
 62
     5
 66
     1
 10
0.0
 20
0.0
 30
0.0
  0
VERTEX
  5
B4C
  8
DETAIL
  6
CONTINUOUS
 62
     5
 10
79.151961700171341
 20
-55.568922670374363
 30
0.0
  0
VERTEX
  5
B4D
  8
DETAIL
  6
CONTINUOUS
 62
     5
 10
79.188962726852935
 20
-55.568922670374363
 30
0.0
  0
VERTEX
  5
B4E
  8
DETAIL
  6
CONTINUOUS
 62
     5
 10
79.284386427242382
 20
-55.568922670374377
 30
0.0
  0
VERTEX
  5
B4F
  8
DETAIL
  6
CONTINUOUS
 62
     5
 10
79.414863731856457
 20
-55.568922670374363
 30
0.0
  0
VERTEX
  5
B50
  8
DETAIL
  6
CONTINUOUS
 62
     5
 10
79.557025571212094
 20
-55.568922670374363
 30
0.0
  0
VERTEX
  5
B51
  8
DETAIL
  6
CONTINUOUS
 62
     5
 10
79.687502875826212
 20
-55.568922670374363
 30
0.0
  0
VERTEX
  5
B52
  8
DETAIL
  6
CONTINUOUS
 62
     5
 10
79.78292657621563
 20
-55.568922670374363
 30
0.0
  0
VERTEX
  5
B53
  8
DETAIL
  6
CONTINUOUS
 62
     5
 10
79.819927602897195
 20
-55.568922670374363
 30
0.0
  0
SEQEND
  5
B54
  8
DETAIL
  6
CONTINUOUS
 62
     5
  0
POLYLINE
  5
2AA
  8
DETAIL
  6
CONTINUOUS
 62
     5
 66
     1
 10
0.0
 20
0.0
 30
0.0
  0
VERTEX
  5
B55
  8
DETAIL
  6
CONTINUOUS
 62
     5
 10
79.819927602897195
 20
-55.568922670374363
 30
0.0
  0
VERTEX
  5
B56
  8
DETAIL
  6
CONTINUOUS
 62
     5
 10
79.944186171333683
 20
-55.587011596432667
 30
0.0
  0
VERTEX
  5
B57
  8
DETAIL
  6
CONTINUOUS
 62
     5
 10
80.047041349991545
 20
-55.638017312559072
 30
0.0
  0
VERTEX
  5
B58
  8
DETAIL
  6
CONTINUOUS
 62
     5
 10
80.124925907241021
 20
-55.717048225680777
 30
0.0
  0
VERTEX
  5
B59
  8
DETAIL
  6
CONTINUOUS
 62
     5
 10
80.174272611452494
 20
-55.819212742725021
 30
0.0
  0
VERTEX
  5
B5A
  8
DETAIL
  6
CONTINUOUS
 62
     5
 10
80.19151423099629
 20
-55.939619270619012
 30
0.0
  0
VERTEX
  5
B5B
  8
DETAIL
  6
CONTINUOUS
 62
     5
 10
80.176034866598897
 20
-56.034909212538011
 30
0.0
  0
VERTEX
  5
B5C
  8
DETAIL
  6
CONTINUOUS
 62
     5
 10
80.130906894404617
 20
-56.132783795337673
 30
0.0
  0
VERTEX
  5
B5D
  8
DETAIL
  6
CONTINUOUS
 62
     5
 10
80.058095495909967
 20
-56.219593551884138
 30
0.0
  0
VERTEX
  5
B5E
  8
DETAIL
  6
CONTINUOUS
 62
     5
 10
79.959565852611703
 20
-56.281689015043497
 30
0.0
  0
VERTEX
  5
B5F
  8
DETAIL
  6
CONTINUOUS
 62
     5
 10
79.837283146006484
 20
-56.30542071768194
 30
0.0
  0
SEQEND
  5
B60
  8
DETAIL
  6
CONTINUOUS
 62
     5
  0
POLYLINE
  5
2B7
  8
DETAIL
  6
CONTINUOUS
 62
     5
 66
     1
 10
0.0
 20
0.0
 30
0.0
  0
VERTEX
  5
B61
  8
DETAIL
  6
CONTINUOUS
 62
     5
 10
79.837283146006484
 20
-56.30542071768194
 30
0.0
  0
VERTEX
  5
B62
  8
DETAIL
  6
CONTINUOUS
 62
     5
 10
79.799320733554978
 20
-56.305420717681962
 30
0.0
  0
VERTEX
  5
B63
  8
DETAIL
  6
CONTINUOUS
 62
     5
 10
79.701417669864242
 20
-56.305420717681962
 30
0.0
  0
VERTEX
  5
B64
  8
DETAIL
  6
CONTINUOUS
 62
     5
 10
79.567550215430003
 20
-56.305420717681962
 30
0.0
  0
VERTEX
  5
B65
  8
DETAIL
  6
CONTINUOUS
 62
     5
 10
79.421694630747865
 20
-56.30542071768194
 30
0.0
  0
VERTEX
  5
B66
  8
DETAIL
  6
CONTINUOUS
 62
     5
 10
79.287827176313584
 20
-56.30542071768194
 30
0.0
  0
VERTEX
  5
B67
  8
DETAIL
  6
CONTINUOUS
 62
     5
 10
79.189924112622833
 20
-56.30542071768194
 30
0.0
  0
VERTEX
  5
B68
  8
DETAIL
  6
CONTINUOUS
 62
     5
 10
79.151961700171341
 20
-56.30542071768194
 30
0.0
  0
SEQEND
  5
B69
  8
DETAIL
  6
CONTINUOUS
 62
     5
  0
LINE
  5
2C1
  8
DETAIL
  6
CONTINUOUS
 62
     5
 10
70.770569420395987
 20
-55.102993089989461
 30
0.0
 11
70.2225347706908
 21
-55.102993089989461
 31
0.0
  0
LINE
  5
2C2
  8
DETAIL
  6
CONTINUOUS
 62
     5
 10
70.2225347706908
 20
-55.102993089989461
 30
0.0
 11
70.2225347706908
 21
-57.342303164951772
 31
0.0
  0
LINE
  5
2C3
  8
DETAIL
  6
CONTINUOUS
 62
     5
 10
70.2225347706908
 20
-57.342303164951772
 30
0.0
 11
70.2225347706908
 21
-57.81312789851836
 31
0.0
  0
LINE
  5
2C4
  8
DETAIL
  6
CONTINUOUS
 62
     5
 10
70.2225347706908
 20
-57.81312789851836
 30
0.0
 11
70.770569420395987
 21
-57.81312789851836
 31
0.0
  0
LINE
  5
2C5
  8
DETAIL
  6
CONTINUOUS
 62
     5
 10
70.770569420395987
 20
-57.81312789851836
 30
0.0
 11
72.049094429411539
 21
-57.81312789851836
 31
0.0
  0
LINE
  5
2C6
  8
DETAIL
  6
CONTINUOUS
 62
     5
 10
72.049094429411539
 20
-57.81312789851836
 30
0.0
 11
72.049094429411539
 21
-57.342303164951772
 31
0.0
  0
LINE
  5
2C7
  8
DETAIL
  6
CONTINUOUS
 62
     5
 10
72.049094429411539
 20
-57.342303164951772
 30
0.0
 11
70.770569420395987
 21
-57.342303164951772
 31
0.0
  0
LINE
  5
2C8
  8
DETAIL
  6
CONTINUOUS
 62
     5
 10
70.770569420395987
 20
-57.342303164951772
 30
0.0
 11
70.770569420395987
 21
-55.102993089989461
 31
0.0
  0
POLYLINE
  5
2C9
  8
DETAIL
  6
CONTINUOUS
 62
     5
 66
     1
 10
0.0
 20
0.0
 30
0.0
  0
VERTEX
  5
B6A
  8
DETAIL
  6
CONTINUOUS
 62
     5
 10
74.409448292209163
 20
-53.506728137906059
 30
0.0
  0
VERTEX
  5
B6B
  8
DETAIL
  6
CONTINUOUS
 62
     5
 10
74.683351831638703
 20
-53.562353258196751
 30
0.0
  0
VERTEX
  5
B6C
  8
DETAIL
  6
CONTINUOUS
 62
     5
 10
74.89207592129695
 20
-53.632504021934167
 30
0.0
  0
VERTEX
  5
B6D
  8
DETAIL
  6
CONTINUOUS
 62
     5
 10
75.031157863498223
 20
-53.730141940777777
 30
0.0
  0
VERTEX
  5
B6E
  8
DETAIL
  6
CONTINUOUS
 62
     5
 10
75.09613496055681
 20
-53.868228526386993
 30
0.0
  0
VERTEX
  5
B6F
  8
DETAIL
  6
CONTINUOUS
 62
     5
 10
75.087939776930682
 20
-54.006370612140373
 30
0.0
  0
VERTEX
  5
B70
  8
DETAIL
  6
CONTINUOUS
 62
     5
 10
75.021345681160369
 20
-54.117518764868031
 30
0.0
  0
VERTEX
  5
B71
  8
DETAIL
  6
CONTINUOUS
 62
     5
 10
74.89684589532574
 20
-54.206069041571389
 30
0.0
  0
VERTEX
  5
B72
  8
DETAIL
  6
CONTINUOUS
 62
     5
 10
74.713652884540863
 20
-54.260339674779729
 30
0.0
  0
VERTEX
  5
B73
  8
DETAIL
  6
CONTINUOUS
 62
     5
 10
74.477679034551372
 20
-54.268124278875817
 30
0.0
  0
VERTEX
  5
B74
  8
DETAIL
  6
CONTINUOUS
 62
     5
 10
74.273198882888323
 20
-54.217969973842919
 30
0.0
  0
VERTEX
  5
B75
  8
DETAIL
  6
CONTINUOUS
 62
     5
 10
74.126329095707334
 20
-54.118124405122281
 30
0.0
  0
VERTEX
  5
B76
  8
DETAIL
  6
CONTINUOUS
 62
     5
 10
74.037725952079711
 20
-53.980695921581201
 30
0.0
  0
VERTEX
  5
B77
  8
DETAIL
  6
CONTINUOUS
 62
     5
 10
74.008045731076905
 20
-53.817792872087011
 30
0.0
  0
SEQEND
  5
B78
  8
DETAIL
  6
CONTINUOUS
 62
     5
  0
POLYLINE
  5
2D9
  8
DETAIL
  6
CONTINUOUS
 62
     5
 66
     1
 10
0.0
 20
0.0
 30
0.0
  0
VERTEX
  5
B79
  8
DETAIL
  6
CONTINUOUS
 62
     5
 10
74.008045731076905
 20
-53.817792872087011
 30
0.0
  0
VERTEX
  5
B7A
  8
DETAIL
  6
CONTINUOUS
 62
     5
 10
73.97885904514014
 20
-53.817792872087011
 30
0.0
  0
VERTEX
  5
B7B
  8
DETAIL
  6
CONTINUOUS
 62
     5
 10
73.903588118250724
 20
-53.817792872087011
 30
0.0
  0
VERTEX
  5
B7C
  8
DETAIL
  6
CONTINUOUS
 62
     5
 10
73.800666646789622
 20
-53.817792872087018
 30
0.0
  0
VERTEX
  5
B7D
  8
DETAIL
  6
CONTINUOUS
 62
     5
 10
73.688528327138002
 20
-53.817792872087011
 30
0.0
  0
VERTEX
  5
B7E
  8
DETAIL
  6
CONTINUOUS
 62
     5
 10
73.585606855676915
 20
-53.817792872087011
 30
0.0
  0
VERTEX
  5
B7F
  8
DETAIL
  6
CONTINUOUS
 62
     5
 10
73.510335928787455
 20
-53.817792872087011
 30
0.0
  0
VERTEX
  5
B80
  8
DETAIL
  6
CONTINUOUS
 62
     5
 10
73.481149242850734
 20
-53.817792872087011
 30
0.0
  0
SEQEND
  5
B81
  8
DETAIL
  6
CONTINUOUS
 62
     5
  0
POLYLINE
  5
2E3
  8
DETAIL
  6
CONTINUOUS
 62
     5
 66
     1
 10
0.0
 20
0.0
 30
0.0
  0
VERTEX
  5
B82
  8
DETAIL
  6
CONTINUOUS
 62
     5
 10
73.481149242850734
 20
-53.817792872087011
 30
0.0
  0
VERTEX
  5
B83
  8
DETAIL
  6
CONTINUOUS
 62
     5
 10
73.532092905766135
 20
-54.133395654512967
 30
0.0
  0
VERTEX
  5
B84
  8
DETAIL
  6
CONTINUOUS
 62
     5
 10
73.694177429418701
 20
-54.407215336061512
 30
0.0
  0
VERTEX
  5
B85
  8
DETAIL
  6
CONTINUOUS
 62
     5
 10
73.981283116167901
 20
-54.610408451545773
 30
0.0
  0
VERTEX
  5
B86
  8
DETAIL
  6
CONTINUOUS
 62
     5
 10
74.407290268373131
 20
-54.714131535778897
 30
0.0
  0
VERTEX
  5
B87
  8
DETAIL
  6
CONTINUOUS
 62
     5
 10
74.902361880409202
 20
-54.694259851119362
 30
0.0
  0
VERTEX
  5
B88
  8
DETAIL
  6
CONTINUOUS
 62
     5
 10
75.272373843847546
 20
-54.562564694466651
 30
0.0
  0
VERTEX
  5
B89
  8
DETAIL
  6
CONTINUOUS
 62
     5
 10
75.517463086049574
 20
-54.344973545355721
 30
0.0
  0
VERTEX
  5
B8A
  8
DETAIL
  6
CONTINUOUS
 62
     5
 10
75.645176816336345
 20
-54.067245357337832
 30
0.0
  0
VERTEX
  5
B8B
  8
DETAIL
  6
CONTINUOUS
 62
     5
 10
75.663873882991311
 20
-53.76531910667056
 30
0.0
  0
VERTEX
  5
B8C
  8
DETAIL
  6
CONTINUOUS
 62
     5
 10
75.590797208393681
 20
-53.51109300139683
 30
0.0
  0
VERTEX
  5
B8D
  8
DETAIL
  6
CONTINUOUS
 62
     5
 10
75.434066828164944
 20
-53.308702004777381
 30
0.0
  0
VERTEX
  5
B8E
  8
DETAIL
  6
CONTINUOUS
 62
     5
 10
75.198342323712083
 20
-53.159163349372982
 30
0.0
  0
VERTEX
  5
B8F
  8
DETAIL
  6
CONTINUOUS
 62
     5
 10
74.888283276442053
 20
-53.063494267744311
 30
0.0
  0
SEQEND
  5
B90
  8
DETAIL
  6
CONTINUOUS
 62
     5
  0
POLYLINE
  5
2F3
  8
DETAIL
  6
CONTINUOUS
 62
     5
 66
     1
 10
0.0
 20
0.0
 30
0.0
  0
VERTEX
  5
B91
  8
DETAIL
  6
CONTINUOUS
 62
     5
 10
74.888283276442053
 20
-53.063494267744311
 30
0.0
  0
VERTEX
  5
B92
  8
DETAIL
  6
CONTINUOUS
 62
     5
 10
74.581850171040273
 20
-53.006239387758711
 30
0.0
  0
VERTEX
  5
B93
  8
DETAIL
  6
CONTINUOUS
 62
     5
 10
74.336811972765872
 20
-52.946151569781897
 30
0.0
  0
VERTEX
  5
B94
  8
DETAIL
  6
CONTINUOUS
 62
     5
 10
74.166359890953288
 20
-52.856651511422712
 30
0.0
  0
VERTEX
  5
B95
  8
DETAIL
  6
CONTINUOUS
 62
     5
 10
74.083685134937014
 20
-52.711159910289879
 30
0.0
  0
VERTEX
  5
B96
  8
DETAIL
  6
CONTINUOUS
 62
     5
 10
74.091149499152863
 20
-52.555123281857369
 30
0.0
  0
VERTEX
  5
B97
  8
DETAIL
  6
CONTINUOUS
 62
     5
 10
74.157648799057341
 20
-52.444046226030743
 30
0.0
  0
VERTEX
  5
B98
  8
DETAIL
  6
CONTINUOUS
 62
     5
 10
74.274375323890936
 20
-52.365061216793968
 30
0.0
  0
VERTEX
  5
B99
  8
DETAIL
  6
CONTINUOUS
 62
     5
 10
74.434864724800576
 20
-52.320957440200473
 30
0.0
  0
VERTEX
  5
B9A
  8
DETAIL
  6
CONTINUOUS
 62
     5
 10
74.632709773518854
 20
-52.315036749689313
 30
0.0
  0
VERTEX
  5
B9B
  8
DETAIL
  6
CONTINUOUS
 62
     5
 10
74.81250836310619
 20
-52.354818199398949
 30
0.0
  0
VERTEX
  5
B9C
  8
DETAIL
  6
CONTINUOUS
 62
     5
 10
74.945404875059694
 20
-52.439095370147577
 30
0.0
  0
VERTEX
  5
B9D
  8
DETAIL
  6
CONTINUOUS
 62
     5
 10
75.027789774486621
 20
-52.564127471228332
 30
0.0
  0
VERTEX
  5
B9E
  8
DETAIL
  6
CONTINUOUS
 62
     5
 10
75.056053526493983
 20
-52.72617371193428
 30
0.0
  0
SEQEND
  5
B9F
  8
DETAIL
  6
CONTINUOUS
 62
     5
  0
POLYLINE
  5
303
  8
DETAIL
  6
CONTINUOUS
 62
     5
 66
     1
 10
0.0
 20
0.0
 30
0.0
  0
VERTEX
  5
BA0
  8
DETAIL
  6
CONTINUOUS
 62
     5
 10
75.056053526493983
 20
-52.72617371193428
 30
0.0
  0
VERTEX
  5
BA1
  8
DETAIL
  6
CONTINUOUS
 62
     5
 10
75.085363467016592
 20
-52.726173711934273
 30
0.0
  0
VERTEX
  5
BA2
  8
DETAIL
  6
CONTINUOUS
 62
     5
 10
75.160952260995941
 20
-52.726173711934273
 30
0.0
  0
VERTEX
  5
BA3
  8
DETAIL
  6
CONTINUOUS
 62
     5
 10
75.264308367049338
 20
-52.726173711934287
 30
0.0
  0
VERTEX
  5
BA4
  8
DETAIL
  6
CONTINUOUS
 62
     5
 10
75.376920243794103
 20
-52.72617371193428
 30
0.0
  0
VERTEX
  5
BA5
  8
DETAIL
  6
CONTINUOUS
 62
     5
 10
75.480276349847486
 20
-52.72617371193428
 30
0.0
  0
VERTEX
  5
BA6
  8
DETAIL
  6
CONTINUOUS
 62
     5
 10
75.555865143826807
 20
-52.726173711934273
 30
0.0
  0
VERTEX
  5
BA7
  8
DETAIL
  6
CONTINUOUS
 62
     5
 10
75.585175084349444
 20
-52.72617371193428
 30
0.0
  0
SEQEND
  5
BA8
  8
DETAIL
  6
CONTINUOUS
 62
     5
  0
POLYLINE
  5
30D
  8
DETAIL
  6
CONTINUOUS
 62
     5
 66
     1
 10
0.0
 20
0.0
 30
0.0
  0
VERTEX
  5
BA9
  8
DETAIL
  6
CONTINUOUS
 62
     5
 10
75.585175084349444
 20
-52.72617371193428
 30
0.0
  0
VERTEX
  5
BAA
  8
DETAIL
  6
CONTINUOUS
 62
     5
 10
75.532694634608603
 20
-52.433309176334539
 30
0.0
  0
VERTEX
  5
BAB
  8
DETAIL
  6
CONTINUOUS
 62
     5
 10
75.371512494679237
 20
-52.170206896620712
 30
0.0
  0
VERTEX
  5
BAC
  8
DETAIL
  6
CONTINUOUS
 62
     5
 10
75.096017478501011
 20
-51.970041779851208
 30
0.0
  0
VERTEX
  5
BAD
  8
DETAIL
  6
CONTINUOUS
 62
     5
 10
74.700598400013661
 20
-51.865988733084507
 30
0.0
  0
VERTEX
  5
BAE
  8
DETAIL
  6
CONTINUOUS
 62
     5
 10
74.312607023238186
 20
-51.878581594154731
 30
0.0
  0
VERTEX
  5
BAF
  8
DETAIL
  6
CONTINUOUS
 62
     5
 10
73.989827099967187
 20
-51.983307326969573
 30
0.0
  0
VERTEX
  5
BB0
  8
DETAIL
  6
CONTINUOUS
 62
     5
 10
73.726451370640149
 20
-52.174979098756907
 30
0.0
  0
VERTEX
  5
BB1
  8
DETAIL
  6
CONTINUOUS
 62
     5
 10
73.562217533028786
 20
-52.450906165323751
 30
0.0
  0
VERTEX
  5
BB2
  8
DETAIL
  6
CONTINUOUS
 62
     5
 10
73.533271979986338
 20
-52.780919944914388
 30
0.0
  0
VERTEX
  5
BB3
  8
DETAIL
  6
CONTINUOUS
 62
     5
 10
73.61840231352798
 20
-53.046047574763243
 30
0.0
  0
VERTEX
  5
BB4
  8
DETAIL
  6
CONTINUOUS
 62
     5
 10
73.798408724821286
 20
-53.255785250987302
 30
0.0
  0
VERTEX
  5
BB5
  8
DETAIL
  6
CONTINUOUS
 62
     5
 10
74.064890841752828
 20
-53.409542322422851
 30
0.0
  0
VERTEX
  5
BB6
  8
DETAIL
  6
CONTINUOUS
 62
     5
 10
74.409448292209163
 20
-53.506728137906059
 30
0.0
  0
SEQEND
  5
BB7
  8
DETAIL
  6
CONTINUOUS
 62
     5
  0
POLYLINE
  5
31D
  8
DETAIL
  6
CONTINUOUS
 62
     5
 66
     1
 10
0.0
 20
0.0
 30
0.0
  0
VERTEX
  5
BB8
  8
DETAIL
  6
CONTINUOUS
 62
     5
 10
82.050337399341487
 20
-53.506728137906059
 30
0.0
  0
VERTEX
  5
BB9
  8
DETAIL
  6
CONTINUOUS
 62
     5
 10
82.324000303112314
 20
-53.562353258196751
 30
0.0
  0
VERTEX
  5
BBA
  8
DETAIL
  6
CONTINUOUS
 62
     5
 10
82.532177493544395
 20
-53.632504021934167
 30
0.0
  0
VERTEX
  5
BBB
  8
DETAIL
  6
CONTINUOUS
 62
     5
 10
82.670668784581068
 20
-53.730141940777777
 30
0.0
  0
VERTEX
  5
BBC
  8
DETAIL
  6
CONTINUOUS
 62
     5
 10
82.735273990165567
 20
-53.868228526386993
 30
0.0
  0
VERTEX
  5
BBD
  8
DETAIL
  6
CONTINUOUS
 62
     5
 10
82.727163879752354
 20
-54.006370612140373
 30
0.0
  0
VERTEX
  5
BBE
  8
DETAIL
  6
CONTINUOUS
 62
     5
 10
82.661067462277614
 20
-54.117518764868031
 30
0.0
  0
VERTEX
  5
BBF
  8
DETAIL
  6
CONTINUOUS
 62
     5
 10
82.53725130047566
 20
-54.206069041571389
 30
0.0
  0
VERTEX
  5
BC0
  8
DETAIL
  6
CONTINUOUS
 62
     5
 10
82.354698161785819
 20
-54.260339674779729
 30
0.0
  0
VERTEX
  5
BC1
  8
DETAIL
  6
CONTINUOUS
 62
     5
 10
82.118888179009701
 20
-54.268124278875817
 30
0.0
  0
VERTEX
  5
BC2
  8
DETAIL
  6
CONTINUOUS
 62
     5
 10
81.913833783159262
 20
-54.217969973842919
 30
0.0
  0
VERTEX
  5
BC3
  8
DETAIL
  6
CONTINUOUS
 62
     5
 10
81.766269433960716
 20
-54.118124405122281
 30
0.0
  0
VERTEX
  5
BC4
  8
DETAIL
  6
CONTINUOUS
 62
     5
 10
81.677081108160664
 20
-53.980695921581201
 30
0.0
  0
VERTEX
  5
BC5
  8
DETAIL
  6
CONTINUOUS
 62
     5
 10
81.647154782505808
 20
-53.817792872087011
 30
0.0
  0
SEQEND
  5
BC6
  8
DETAIL
  6
CONTINUOUS
 62
     5
  0
POLYLINE
  5
32D
  8
DETAIL
  6
CONTINUOUS
 62
     5
 66
     1
 10
0.0
 20
0.0
 30
0.0
  0
VERTEX
  5
BC7
  8
DETAIL
  6
CONTINUOUS
 62
     5
 10
81.647154782505808
 20
-53.817792872087011
 30
0.0
  0
VERTEX
  5
BC8
  8
DETAIL
  6
CONTINUOUS
 62
     5
 10
81.618066700237804
 20
-53.817792872087011
 30
0.0
  0
VERTEX
  5
BC9
  8
DETAIL
  6
CONTINUOUS
 62
     5
 10
81.543050067020289
 20
-53.817792872087011
 30
0.0
  0
VERTEX
  5
BCA
  8
DETAIL
  6
CONTINUOUS
 62
     5
 10
81.440476303233055
 20
-53.817792872087018
 30
0.0
  0
VERTEX
  5
BCB
  8
DETAIL
  6
CONTINUOUS
 62
     5
 10
81.328716829255868
 20
-53.817792872087011
 30
0.0
  0
VERTEX
  5
BCC
  8
DETAIL
  6
CONTINUOUS
 62
     5
 10
81.226143065468634
 20
-53.817792872087011
 30
0.0
  0
VERTEX
  5
BCD
  8
DETAIL
  6
CONTINUOUS
 62
     5
 10
81.151126432251075
 20
-53.817792872087011
 30
0.0
  0
VERTEX
  5
BCE
  8
DETAIL
  6
CONTINUOUS
 62
     5
 10
81.122038349983058
 20
-53.817792872087011
 30
0.0
  0
SEQEND
  5
BCF
  8
DETAIL
  6
CONTINUOUS
 62
     5
  0
POLYLINE
  5
337
  8
DETAIL
  6
CONTINUOUS
 62
     5
 66
     1
 10
0.0
 20
0.0
 30
0.0
  0
VERTEX
  5
BD0
  8
DETAIL
  6
CONTINUOUS
 62
     5
 10
81.122038349983058
 20
-53.817792872087011
 30
0.0
  0
VERTEX
  5
BD1
  8
DETAIL
  6
CONTINUOUS
 62
     5
 10
81.173249993519548
 20
-54.133395654512967
 30
0.0
  0
VERTEX
  5
BD2
  8
DETAIL
  6
CONTINUOUS
 62
     5
 10
81.335788443530262
 20
-54.407215336061512
 30
0.0
  0
VERTEX
  5
BD3
  8
DETAIL
  6
CONTINUOUS
 62
     5
 10
81.623008979117344
 20
-54.610408451545773
 30
0.0
  0
VERTEX
  5
BD4
  8
DETAIL
  6
CONTINUOUS
 62
     5
 10
82.048266879382751
 20
-54.714131535778897
 30
0.0
  0
VERTEX
  5
BD5
  8
DETAIL
  6
CONTINUOUS
 62
     5
 10
82.542189395377903
 20
-54.694259851119362
 30
0.0
  0
VERTEX
  5
BD6
  8
DETAIL
  6
CONTINUOUS
 62
     5
 10
82.911893272251945
 20
-54.562564694466651
 30
0.0
  0
VERTEX
  5
BD7
  8
DETAIL
  6
CONTINUOUS
 62
     5
 10
83.157122885255063
 20
-54.344973545355721
 30
0.0
  0
VERTEX
  5
BD8
  8
DETAIL
  6
CONTINUOUS
 62
     5
 10
83.285097304172695
 20
-54.067245357337832
 30
0.0
  0
VERTEX
  5
BD9
  8
DETAIL
  6
CONTINUOUS
 62
     5
 10
83.303888559027698
 20
-53.76531910667056
 30
0.0
  0
VERTEX
  5
BDA
  8
DETAIL
  6
CONTINUOUS
 62
     5
 10
83.23103611311312
 20
-53.51109300139683
 30
0.0
  0
VERTEX
  5
BDB
  8
DETAIL
  6
CONTINUOUS
 62
     5
 10
83.074770597226987
 20
-53.308702004777381
 30
0.0
  0
VERTEX
  5
BDC
  8
DETAIL
  6
CONTINUOUS
 62
     5
 10
82.839718778822274
 20
-53.159163349372982
 30
0.0
  0
VERTEX
  5
BDD
  8
DETAIL
  6
CONTINUOUS
 62
     5
 10
82.530507425351971
 20
-53.063494267744311
 30
0.0
  0
SEQEND
  5
BDE
  8
DETAIL
  6
CONTINUOUS
 62
     5
  0
POLYLINE
  5
347
  8
DETAIL
  6
CONTINUOUS
 62
     5
 66
     1
 10
0.0
 20
0.0
 30
0.0
  0
VERTEX
  5
BDF
  8
DETAIL
  6
CONTINUOUS
 62
     5
 10
82.530507425351971
 20
-53.063494267744311
 30
0.0
  0
VERTEX
  5
BE0
  8
DETAIL
  6
CONTINUOUS
 62
     5
 10
82.223407102894811
 20
-53.006239387758711
 30
0.0
  0
VERTEX
  5
BE1
  8
DETAIL
  6
CONTINUOUS
 62
     5
 10
81.978106392992103
 20
-52.946151569781897
 30
0.0
  0
VERTEX
  5
BE2
  8
DETAIL
  6
CONTINUOUS
 62
     5
 10
81.807632435210635
 20
-52.856651511422712
 30
0.0
  0
VERTEX
  5
BE3
  8
DETAIL
  6
CONTINUOUS
 62
     5
 10
81.725012369116968
 20
-52.711159910289879
 30
0.0
  0
VERTEX
  5
BE4
  8
DETAIL
  6
CONTINUOUS
 62
     5
 10
81.732483620211966
 20
-52.555123281857369
 30
0.0
  0
VERTEX
  5
BE5
  8
DETAIL
  6
CONTINUOUS
 62
     5
 10
81.798982920116458
 20
-52.444046226030743
 30
0.0
  0
VERTEX
  5
BE6
  8
DETAIL
  6
CONTINUOUS
 62
     5
 10
81.915709444950082
 20
-52.365061216793968
 30
0.0
  0
VERTEX
  5
BE7
  8
DETAIL
  6
CONTINUOUS
 62
     5
 10
82.076198845859693
 20
-52.320957440200473
 30
0.0
  0
VERTEX
  5
BE8
  8
DETAIL
  6
CONTINUOUS
 62
     5
 10
82.273941401612007
 20
-52.315036749689313
 30
0.0
  0
VERTEX
  5
BE9
  8
DETAIL
  6
CONTINUOUS
 62
     5
 10
82.453444665617084
 20
-52.354818199398949
 30
0.0
  0
VERTEX
  5
BEA
  8
DETAIL
  6
CONTINUOUS
 62
     5
 10
82.586089603925913
 20
-52.439095370147577
 30
0.0
  0
VERTEX
  5
BEB
  8
DETAIL
  6
CONTINUOUS
 62
     5
 10
82.668299495599683
 20
-52.564127471228332
 30
0.0
  0
VERTEX
  5
BEC
  8
DETAIL
  6
CONTINUOUS
 62
     5
 10
82.696497619699556
 20
-52.72617371193428
 30
0.0
  0
SEQEND
  5
BED
  8
DETAIL
  6
CONTINUOUS
 62
     5
  0
POLYLINE
  5
357
  8
DETAIL
  6
CONTINUOUS
 62
     5
 66
     1
 10
0.0
 20
0.0
 30
0.0
  0
VERTEX
  5
BEE
  8
DETAIL
  6
CONTINUOUS
 62
     5
 10
82.696497619699556
 20
-52.72617371193428
 30
0.0
  0
VERTEX
  5
BEF
  8
DETAIL
  6
CONTINUOUS
 62
     5
 10
82.725807560222222
 20
-52.726173711934273
 30
0.0
  0
VERTEX
  5
BF0
  8
DETAIL
  6
CONTINUOUS
 62
     5
 10
82.801396354201714
 20
-52.726173711934273
 30
0.0
  0
VERTEX
  5
BF1
  8
DETAIL
  6
CONTINUOUS
 62
     5
 10
82.90475246025531
 20
-52.726173711934287
 30
0.0
  0
VERTEX
  5
BF2
  8
DETAIL
  6
CONTINUOUS
 62
     5
 10
83.017364337000188
 20
-52.72617371193428
 30
0.0
  0
VERTEX
  5
BF3
  8
DETAIL
  6
CONTINUOUS
 62
     5
 10
83.120720443053784
 20
-52.72617371193428
 30
0.0
  0
VERTEX
  5
BF4
  8
DETAIL
  6
CONTINUOUS
 62
     5
 10
83.196309237033276
 20
-52.726173711934273
 30
0.0
  0
VERTEX
  5
BF5
  8
DETAIL
  6
CONTINUOUS
 62
     5
 10
83.225619177555899
 20
-52.72617371193428
 30
0.0
  0
SEQEND
  5
BF6
  8
DETAIL
  6
CONTINUOUS
 62
     5
  0
POLYLINE
  5
361
  8
DETAIL
  6
CONTINUOUS
 62
     5
 66
     1
 10
0.0
 20
0.0
 30
0.0
  0
VERTEX
  5
BF7
  8
DETAIL
  6
CONTINUOUS
 62
     5
 10
83.225619177555899
 20
-52.72617371193428
 30
0.0
  0
VERTEX
  5
BF8
  8
DETAIL
  6
CONTINUOUS
 62
     5
 10
83.172870747194267
 20
-52.433309176334539
 30
0.0
  0
VERTEX
  5
BF9
  8
DETAIL
  6
CONTINUOUS
 62
     5
 10
83.011234680907222
 20
-52.170206896620712
 30
0.0
  0
VERTEX
  5
BFA
  8
DETAIL
  6
CONTINUOUS
 62
     5
 10
82.735624815891498
 20
-51.970041779851208
 30
0.0
  0
VERTEX
  5
BFB
  8
DETAIL
  6
CONTINUOUS
 62
     5
 10
82.340954989343984
 20
-51.865988733084507
 30
0.0
  0
VERTEX
  5
BFC
  8
DETAIL
  6
CONTINUOUS
 62
     5
 10
81.953666276796525
 20
-51.878581594154731
 30
0.0
  0
VERTEX
  5
BFD
  8
DETAIL
  6
CONTINUOUS
 62
     5
 10
81.63159732251971
 20
-51.983307326969573
 30
0.0
  0
VERTEX
  5
BFE
  8
DETAIL
  6
CONTINUOUS
 62
     5
 10
81.369129445908385
 20
-52.174979098756907
 30
0.0
  0
VERTEX
  5
BFF
  8
DETAIL
  6
CONTINUOUS
 62
     5
 10
81.205606577291221
 20
-52.450906165323751
 30
0.0
  0
VERTEX
  5
C00
  8
DETAIL
  6
CONTINUOUS
 62
     5
 10
81.176829955343123
 20
-52.780919944914388
 30
0.0
  0
VERTEX
  5
C01
  8
DETAIL
  6
CONTINUOUS
 62
     5
 10
81.261883722993247
 20
-53.046047574763243
 30
0.0
  0
VERTEX
  5
C02
  8
DETAIL
  6
CONTINUOUS
 62
     5
 10
81.441551056766428
 20
-53.255785250987302
 30
0.0
  0
VERTEX
  5
C03
  8
DETAIL
  6
CONTINUOUS
 62
     5
 10
81.707234700827556
 20
-53.409542322422851
 30
0.0
  0
VERTEX
  5
C04
  8
DETAIL
  6
CONTINUOUS
 62
     5
 10
82.050337399341487
 20
-53.506728137906059
 30
0.0
  0
SEQEND
  5
C05
  8
DETAIL
  6
CONTINUOUS
 62
     5
  0
POLYLINE
  5
371
  8
DETAIL
  6
CONTINUOUS
 62
     5
 66
     1
 10
0.0
 20
0.0
 30
0.0
  0
VERTEX
  5
C06
  8
DETAIL
  6
CONTINUOUS
 62
     5
 10
75.485491964955145
 20
-57.394369794277722
 30
0.0
  0
VERTEX
  5
C07
  8
DETAIL
  6
CONTINUOUS
 62
     5
 10
75.210505565056508
 20
-57.32969896078626
 30
0.0
  0
VERTEX
  5
C08
  8
DETAIL
  6
CONTINUOUS
 62
     5
 10
74.999320428880125
 20
-57.152859096012691
 30
0.0
  0
VERTEX
  5
C09
  8
DETAIL
  6
CONTINUOUS
 62
     5
 10
74.857580556439814
 20
-56.889609153508218
 30
0.0
  0
VERTEX
  5
C0A
  8
DETAIL
  6
CONTINUOUS
 62
     5
 10
74.79092994774939
 20
-56.565708086824102
 30
0.0
  0
VERTEX
  5
C0B
  8
DETAIL
  6
CONTINUOUS
 62
     5
 10
74.803920424812546
 20
-56.217146321256443
 30
0.0
  0
VERTEX
  5
C0C
  8
DETAIL
  6
CONTINUOUS
 62
     5
 10
74.894331981881635
 20
-55.90903605822816
 30
0.0
  0
VERTEX
  5
C0D
  8
DETAIL
  6
CONTINUOUS
 62
     5
 10
75.058388988743573
 20
-55.670797640332147
 30
0.0
  0
VERTEX
  5
C0E
  8
DETAIL
  6
CONTINUOUS
 62
     5
 10
75.292416282598651
 20
-55.528058765305602
 30
0.0
  0
VERTEX
  5
C0F
  8
DETAIL
  6
CONTINUOUS
 62
     5
 10
75.559712874266751
 20
-55.502263554361001
 30
0.0
  0
VERTEX
  5
C10
  8
DETAIL
  6
CONTINUOUS
 62
     5
 10
75.750079379900455
 20
-55.553433268956518
 30
0.0
  0
VERTEX
  5
C11
  8
DETAIL
  6
CONTINUOUS
 62
     5
 10
75.895447017207019
 20
-55.655398983676349
 30
0.0
  0
VERTEX
  5
C12
  8
DETAIL
  6
CONTINUOUS
 62
     5
 10
76.000245669918272
 20
-55.795921093839361
 30
0.0
  0
VERTEX
  5
C13
  8
DETAIL
  6
CONTINUOUS
 62
     5
 10
76.068905221765789
 20
-55.962759994764383
 30
0.0
  0
SEQEND
  5
C14
  8
DETAIL
  6
CONTINUOUS
 62
     5
  0
POLYLINE
  5
381
  8
DETAIL
  6
CONTINUOUS
 62
     5
 66
     1
 10
0.0
 20
0.0
 30
0.0
  0
VERTEX
  5
C15
  8
DETAIL
  6
CONTINUOUS
 62
     5
 10
76.068905221765789
 20
-55.962759994764383
 30
0.0
  0
VERTEX
  5
C16
  8
DETAIL
  6
CONTINUOUS
 62
     5
 10
76.100310490248447
 20
-55.962759994764383
 30
0.0
  0
VERTEX
  5
C17
  8
DETAIL
  6
CONTINUOUS
 62
     5
 10
76.181303024756303
 20
-55.962759994764383
 30
0.0
  0
VERTEX
  5
C18
  8
DETAIL
  6
CONTINUOUS
 62
     5
 10
76.292047918879263
 20
-55.96275999476439
 30
0.0
  0
VERTEX
  5
C19
  8
DETAIL
  6
CONTINUOUS
 62
     5
 10
76.412710266207313
 20
-55.962759994764383
 30
0.0
  0
VERTEX
  5
C1A
  8
DETAIL
  6
CONTINUOUS
 62
     5
 10
76.523455160330272
 20
-55.962759994764369
 30
0.0
  0
VERTEX
  5
C1B
  8
DETAIL
  6
CONTINUOUS
 62
     5
 10
76.604447694838115
 20
-55.962759994764383
 30
0.0
  0
VERTEX
  5
C1C
  8
DETAIL
  6
CONTINUOUS
 62
     5
 10
76.635852963320772
 20
-55.962759994764383
 30
0.0
  0
SEQEND
  5
C1D
  8
DETAIL
  6
CONTINUOUS
 62
     5
  0
POLYLINE
  5
38B
  8
DETAIL
  6
CONTINUOUS
 62
     5
 66
     1
 10
0.0
 20
0.0
 30
0.0
  0
VERTEX
  5
C1E
  8
DETAIL
  6
CONTINUOUS
 62
     5
 10
76.635852963320772
 20
-55.962759994764383
 30
0.0
  0
VERTEX
  5
C1F
  8
DETAIL
  6
CONTINUOUS
 62
     5
 10
76.507987946402338
 20
-55.593940797017282
 30
0.0
  0
VERTEX
  5
C20
  8
DETAIL
  6
CONTINUOUS
 62
     5
 10
76.265768257221453
 20
-55.301469300926662
 30
0.0
  0
VERTEX
  5
C21
  8
DETAIL
  6
CONTINUOUS
 62
     5
 10
75.916995546165893
 20
-55.108792177711621
 30
0.0
  0
VERTEX
  5
C22
  8
DETAIL
  6
CONTINUOUS
 62
     5
 10
75.469471463623464
 20
-55.039356098591263
 30
0.0
  0
VERTEX
  5
C23
  8
DETAIL
  6
CONTINUOUS
 62
     5
 10
74.925511472677471
 20
-55.150546999974488
 30
0.0
  0
VERTEX
  5
C24
  8
DETAIL
  6
CONTINUOUS
 62
     5
 10
74.535832247155099
 20
-55.45394219727654
 30
0.0
  0
VERTEX
  5
C25
  8
DETAIL
  6
CONTINUOUS
 62
     5
 10
74.301351628278624
 20
-55.904275430226001
 30
0.0
  0
VERTEX
  5
C26
  8
DETAIL
  6
CONTINUOUS
 62
     5
 10
74.222987457270364
 20
-56.456280438551403
 30
0.0
  0
VERTEX
  5
C27
  8
DETAIL
  6
CONTINUOUS
 62
     5
 10
74.303667091361575
 20
-57.007068611922378
 30
0.0
  0
VERTEX
  5
C28
  8
DETAIL
  6
CONTINUOUS
 62
     5
 10
74.542006815376354
 20
-57.456894250862433
 30
0.0
  0
VERTEX
  5
C29
  8
DETAIL
  6
CONTINUOUS
 62
     5
 10
74.93245786192638
 20
-57.760199054710903
 30
0.0
  0
VERTEX
  5
C2A
  8
DETAIL
  6
CONTINUOUS
 62
     5
 10
75.469471463623464
 20
-57.871424722807198
 30
0.0
  0
VERTEX
  5
C2B
  8
DETAIL
  6
CONTINUOUS
 62
     5
 10
75.916432325416096
 20
-57.80378955941827
 30
0.0
  0
VERTEX
  5
C2C
  8
DETAIL
  6
CONTINUOUS
 62
     5
 10
76.269606502332294
 20
-57.611369709879462
 30
0.0
  0
VERTEX
  5
C2D
  8
DETAIL
  6
CONTINUOUS
 62
     5
 10
76.515309816151557
 20
-57.309893635132667
 30
0.0
  0
VERTEX
  5
C2E
  8
DETAIL
  6
CONTINUOUS
 62
     5
 10
76.639858088653455
 20
-56.915089796119901
 30
0.0
  0
SEQEND
  5
C2F
  8
DETAIL
  6
CONTINUOUS
 62
     5
  0
POLYLINE
  5
39E
  8
DETAIL
  6
CONTINUOUS
 62
     5
 66
     1
 10
0.0
 20
0.0
 30
0.0
  0
VERTEX
  5
C30
  8
DETAIL
  6
CONTINUOUS
 62
     5
 10
76.639858088653455
 20
-56.915089796119901
 30
0.0
  0
VERTEX
  5
C31
  8
DETAIL
  6
CONTINUOUS
 62
     5
 10
76.60823096191622
 20
-56.915089796119887
 30
0.0
  0
VERTEX
  5
C32
  8
DETAIL
  6
CONTINUOUS
 62
     5
 10
76.526666266646572
 20
-56.915089796119901
 30
0.0
  0
VERTEX
  5
C33
  8
DETAIL
  6
CONTINUOUS
 62
     5
 10
76.41513903025745
 20
-56.915089796119908
 30
0.0
  0
VERTEX
  5
C34
  8
DETAIL
  6
CONTINUOUS
 62
     5
 10
76.293624280161808
 20
-56.915089796119901
 30
0.0
  0
VERTEX
  5
C35
  8
DETAIL
  6
CONTINUOUS
 62
     5
 10
76.182097043772671
 20
-56.915089796119887
 30
0.0
  0
VERTEX
  5
C36
  8
DETAIL
  6
CONTINUOUS
 62
     5
 10
76.100532348503023
 20
-56.915089796119887
 30
0.0
  0
VERTEX
  5
C37
  8
DETAIL
  6
CONTINUOUS
 62
     5
 10
76.068905221765789
 20
-56.915089796119901
 30
0.0
  0
SEQEND
  5
C38
  8
DETAIL
  6
CONTINUOUS
 62
     5
  0
POLYLINE
  5
3A8
  8
DETAIL
  6
CONTINUOUS
 62
     5
 66
     1
 10
0.0
 20
0.0
 30
0.0
  0
VERTEX
  5
C39
  8
DETAIL
  6
CONTINUOUS
 62
     5
 10
76.068905221765789
 20
-56.915089796119901
 30
0.0
  0
VERTEX
  5
C3A
  8
DETAIL
  6
CONTINUOUS
 62
     5
 10
76.030189010215452
 20
-57.027533008694533
 30
0.0
  0
VERTEX
  5
C3B
  8
DETAIL
  6
CONTINUOUS
 62
     5
 10
75.977958906385737
 20
-57.129404870050529
 30
0.0
  0
VERTEX
  5
C3C
  8
DETAIL
  6
CONTINUOUS
 62
     5
 10
75.91139753775974
 20
-57.218253262637241
 30
0.0
  0
VERTEX
  5
C3D
  8
DETAIL
  6
CONTINUOUS
 62
     5
 10
75.829687531820568
 20
-57.291626068903952
 30
0.0
  0
VERTEX
  5
C3E
  8
DETAIL
  6
CONTINUOUS
 62
     5
 10
75.732011516051315
 20
-57.347071171300051
 30
0.0
  0
VERTEX
  5
C3F
  8
DETAIL
  6
CONTINUOUS
 62
     5
 10
75.617552117935176
 20
-57.38213645227485
 30
0.0
  0
VERTEX
  5
C40
  8
DETAIL
  6
CONTINUOUS
 62
     5
 10
75.485491964955145
 20
-57.394369794277722
 30
0.0
  0
SEQEND
  5
C41
  8
DETAIL
  6
CONTINUOUS
 62
     5
  0
POLYLINE
  5
3B2
  8
DETAIL
  6
CONTINUOUS
 62
     5
 66
     1
 10
0.0
 20
0.0
 30
0.0
  0
VERTEX
  5
C42
  8
DETAIL
  6
CONTINUOUS
 62
     5
 10
82.828221741756323
 20
-57.394369794277722
 30
0.0
  0
VERTEX
  5
C43
  8
DETAIL
  6
CONTINUOUS
 62
     5
 10
82.554143194573953
 20
-57.32969896078626
 30
0.0
  0
VERTEX
  5
C44
  8
DETAIL
  6
CONTINUOUS
 62
     5
 10
82.343767469253336
 20
-57.152859096012691
 30
0.0
  0
VERTEX
  5
C45
  8
DETAIL
  6
CONTINUOUS
 62
     5
 10
82.202640123947319
 20
-56.889609153508218
 30
0.0
  0
VERTEX
  5
C46
  8
DETAIL
  6
CONTINUOUS
 62
     5
 10
82.136306716808647
 20
-56.565708086824102
 30
0.0
  0
VERTEX
  5
C47
  8
DETAIL
  6
CONTINUOUS
 62
     5
 10
82.149230350632976
 20
-56.217146321256443
 30
0.0
  0
VERTEX
  5
C48
  8
DETAIL
  6
CONTINUOUS
 62
     5
 10
82.239215326305114
 20
-55.90903605822816
 30
0.0
  0
VERTEX
  5
C49
  8
DETAIL
  6
CONTINUOUS
 62
     5
 10
82.402583240141226
 20
-55.670797640332147
 30
0.0
  0
VERTEX
  5
C4A
  8
DETAIL
  6
CONTINUOUS
 62
     5
 10
82.635757371202374
 20
-55.528058765305602
 30
0.0
  0
VERTEX
  5
C4B
  8
DETAIL
  6
CONTINUOUS
 62
     5
 10
82.902955723564574
 20
-55.502263554361001
 30
0.0
  0
VERTEX
  5
C4C
  8
DETAIL
  6
CONTINUOUS
 62
     5
 10
83.093983977262454
 20
-55.553433268956518
 30
0.0
  0
VERTEX
  5
C4D
  8
DETAIL
  6
CONTINUOUS
 62
     5
 10
83.239641471158919
 20
-55.655398983676349
 30
0.0
  0
VERTEX
  5
C4E
  8
DETAIL
  6
CONTINUOUS
 62
     5
 10
83.345572205267842
 20
-55.795921093839361
 30
0.0
  0
VERTEX
  5
C4F
  8
DETAIL
  6
CONTINUOUS
 62
     5
 10
83.417420179603141
 20
-55.962759994764383
 30
0.0
  0
SEQEND
  5
C50
  8
DETAIL
  6
CONTINUOUS
 62
     5
  0
POLYLINE
  5
3C2
  8
DETAIL
  6
CONTINUOUS
 62
     5
 66
     1
 10
0.0
 20
0.0
 30
0.0
  0
VERTEX
  5
C51
  8
DETAIL
  6
CONTINUOUS
 62
     5
 10
83.417420179603141
 20
-55.962759994764383
 30
0.0
  0
VERTEX
  5
C52
  8
DETAIL
  6
CONTINUOUS
 62
     5
 10
83.448850099002982
 20
-55.962759994764383
 30
0.0
  0
VERTEX
  5
C53
  8
DETAIL
  6
CONTINUOUS
 62
     5
 10
83.529906206928985
 20
-55.962759994764383
 30
0.0
  0
VERTEX
  5
C54
  8
DETAIL
  6
CONTINUOUS
 62
     5
 10
83.640738027970585
 20
-55.96275999476439
 30
0.0
  0
VERTEX
  5
C55
  8
DETAIL
  6
CONTINUOUS
 62
     5
 10
83.761495086717403
 20
-55.962759994764383
 30
0.0
  0
VERTEX
  5
C56
  8
DETAIL
  6
CONTINUOUS
 62
     5
 10
83.872326907759003
 20
-55.962759994764369
 30
0.0
  0
VERTEX
  5
C57
  8
DETAIL
  6
CONTINUOUS
 62
     5
 10
83.953383015684977
 20
-55.962759994764383
 30
0.0
  0
VERTEX
  5
C58
  8
DETAIL
  6
CONTINUOUS
 62
     5
 10
83.984812935084832
 20
-55.962759994764383
 30
0.0
  0
SEQEND
  5
C59
  8
DETAIL
  6
CONTINUOUS
 62
     5
  0
POLYLINE
  5
3CC
  8
DETAIL
  6
CONTINUOUS
 62
     5
 66
     1
 10
0.0
 20
0.0
 30
0.0
  0
VERTEX
  5
C5A
  8
DETAIL
  6
CONTINUOUS
 62
     5
 10
83.984812935084832
 20
-55.962759994764383
 30
0.0
  0
VERTEX
  5
C5B
  8
DETAIL
  6
CONTINUOUS
 62
     5
 10
83.856440324157376
 20
-55.593940797017282
 30
0.0
  0
VERTEX
  5
C5C
  8
DETAIL
  6
CONTINUOUS
 62
     5
 10
83.613671320911976
 20
-55.301469300926662
 30
0.0
  0
VERTEX
  5
C5D
  8
DETAIL
  6
CONTINUOUS
 62
     5
 10
83.263765215014033
 20
-55.108792177711621
 30
0.0
  0
VERTEX
  5
C5E
  8
DETAIL
  6
CONTINUOUS
 62
     5
 10
82.813981296128986
 20
-55.039356098591263
 30
0.0
  0
VERTEX
  5
C5F
  8
DETAIL
  6
CONTINUOUS
 62
     5
 10
82.269764031507265
 20
-55.150546999974488
 30
0.0
  0
VERTEX
  5
C60
  8
DETAIL
  6
CONTINUOUS
 62
     5
 10
81.879952692475968
 20
-55.45394219727654
 30
0.0
  0
VERTEX
  5
C61
  8
DETAIL
  6
CONTINUOUS
 62
     5
 10
81.645423400201651
 20
-55.904275430226001
 30
0.0
  0
VERTEX
  5
C62
  8
DETAIL
  6
CONTINUOUS
 62
     5
 10
81.567052275850969
 20
-56.456280438551403
 30
0.0
  0
VERTEX
  5
C63
  8
DETAIL
  6
CONTINUOUS
 62
     5
 10
81.647801443367953
 20
-57.007068611922378
 30
0.0
  0
VERTEX
  5
C64
  8
DETAIL
  6
CONTINUOUS
 62
     5
 10
81.886294140919404
 20
-57.456894250862433
 30
0.0
  0
VERTEX
  5
C65
  8
DETAIL
  6
CONTINUOUS
 62
     5
 10
82.276898161006116
 20
-57.760199054710903
 30
0.0
  0
VERTEX
  5
C66
  8
DETAIL
  6
CONTINUOUS
 62
     5
 10
82.813981296128986
 20
-57.871424722807198
 30
0.0
  0
VERTEX
  5
C67
  8
DETAIL
  6
CONTINUOUS
 62
     5
 10
83.263264574347062
 20
-57.80378955941827
 30
0.0
  0
VERTEX
  5
C68
  8
DETAIL
  6
CONTINUOUS
 62
     5
 10
83.617342685800054
 20
-57.611369709879462
 30
0.0
  0
VERTEX
  5
C69
  8
DETAIL
  6
CONTINUOUS
 62
     5
 10
83.863449293489836
 20
-57.309893635132667
 30
0.0
  0
VERTEX
  5
C6A
  8
DETAIL
  6
CONTINUOUS
 62
     5
 10
83.988818060418453
 20
-56.915089796119901
 30
0.0
  0
SEQEND
  5
C6B
  8
DETAIL
  6
CONTINUOUS
 62
     5
  0
POLYLINE
  5
3DF
  8
DETAIL
  6
CONTINUOUS
 62
     5
 66
     1
 10
0.0
 20
0.0
 30
0.0
  0
VERTEX
  5
C6C
  8
DETAIL
  6
CONTINUOUS
 62
     5
 10
83.988818060418453
 20
-56.915089796119901
 30
0.0
  0
VERTEX
  5
C6D
  8
DETAIL
  6
CONTINUOUS
 62
     5
 10
83.957166282763936
 20
-56.915089796119887
 30
0.0
  0
VERTEX
  5
C6E
  8
DETAIL
  6
CONTINUOUS
 62
     5
 10
83.875538014076028
 20
-56.915089796119901
 30
0.0
  0
VERTEX
  5
C6F
  8
DETAIL
  6
CONTINUOUS
 62
     5
 10
83.763923850768123
 20
-56.915089796119908
 30
0.0
  0
VERTEX
  5
C70
  8
DETAIL
  6
CONTINUOUS
 62
     5
 10
83.642314389253471
 20
-56.915089796119901
 30
0.0
  0
VERTEX
  5
C71
  8
DETAIL
  6
CONTINUOUS
 62
     5
 10
83.530700225945566
 20
-56.915089796119887
 30
0.0
  0
VERTEX
  5
C72
  8
DETAIL
  6
CONTINUOUS
 62
     5
 10
83.44907195725763
 20
-56.915089796119887
 30
0.0
  0
VERTEX
  5
C73
  8
DETAIL
  6
CONTINUOUS
 62
     5
 10
83.417420179603141
 20
-56.915089796119901
 30
0.0
  0
SEQEND
  5
C74
  8
DETAIL
  6
CONTINUOUS
 62
     5
  0
POLYLINE
  5
3E9
  8
DETAIL
  6
CONTINUOUS
 62
     5
 66
     1
 10
0.0
 20
0.0
 30
0.0
  0
VERTEX
  5
C75
  8
DETAIL
  6
CONTINUOUS
 62
     5
 10
83.417420179603141
 20
-56.915089796119901
 30
0.0
  0
VERTEX
  5
C76
  8
DETAIL
  6
CONTINUOUS
 62
     5
 10
83.376328398087395
 20
-57.027533008694533
 30
0.0
  0
VERTEX
  5
C77
  8
DETAIL
  6
CONTINUOUS
 62
     5
 10
83.322563450309545
 20
-57.129404870050529
 30
0.0
  0
VERTEX
  5
C78
  8
DETAIL
  6
CONTINUOUS
 62
     5
 10
83.255113351248653
 20
-57.218253262637241
 30
0.0
  0
VERTEX
  5
C79
  8
DETAIL
  6
CONTINUOUS
 62
     5
 10
83.172966115883767
 20
-57.291626068903952
 30
0.0
  0
VERTEX
  5
C7A
  8
DETAIL
  6
CONTINUOUS
 62
     5
 10
83.075109759194063
 20
-57.347071171300051
 30
0.0
  0
VERTEX
  5
C7B
  8
DETAIL
  6
CONTINUOUS
 62
     5
 10
82.960532296158533
 20
-57.38213645227485
 30
0.0
  0
VERTEX
  5
C7C
  8
DETAIL
  6
CONTINUOUS
 62
     5
 10
82.828221741756323
 20
-57.394369794277722
 30
0.0
  0
SEQEND
  5
C7D
  8
DETAIL
  6
CONTINUOUS
 62
     5
  0
POLYLINE
  5
3F3
  8
DETAIL
  6
CONTINUOUS
 62
     5
 66
     1
 10
0.0
 20
0.0
 30
0.0
  0
VERTEX
  5
C7E
  8
DETAIL
  6
CONTINUOUS
 62
     5
 10
-72.808801477864563
 20
-51.091582426214707
 30
0.0
  0
VERTEX
  5
C7F
  8
DETAIL
  6
CONTINUOUS
 62
     5
 10
-72.837583091188762
 20
-51.092964482013208
 30
0.0
  0
VERTEX
  5
C80
  8
DETAIL
  6
CONTINUOUS
 62
     5
 10
-72.865927790070899
 20
-51.097070473368071
 30
0.0
  0
VERTEX
  5
C81
  8
DETAIL
  6
CONTINUOUS
 62
     5
 10
-72.893651769124943
 20
-51.103840136218352
 30
0.0
  0
VERTEX
  5
C82
  8
DETAIL
  6
CONTINUOUS
 62
     5
 10
-72.920571222964853
 20
-51.113213206503012
 30
0.0
  0
VERTEX
  5
C83
  8
DETAIL
  6
CONTINUOUS
 62
     5
 10
-72.946502346204696
 20
-51.125129420161151
 30
0.0
  0
VERTEX
  5
C84
  8
DETAIL
  6
CONTINUOUS
 62
     5
 10
-72.971261333458429
 20
-51.139528513131779
 30
0.0
  0
VERTEX
  5
C85
  8
DETAIL
  6
CONTINUOUS
 62
     5
 10
-72.994664379340065
 20
-51.156350221353932
 30
0.0
  0
SEQEND
  5
C86
  8
DETAIL
  6
CONTINUOUS
 62
     5
  0
POLYLINE
  5
3FD
  8
DETAIL
  6
CONTINUOUS
 62
     5
 66
     1
 10
0.0
 20
0.0
 30
0.0
  0
VERTEX
  5
C87
  8
DETAIL
  6
CONTINUOUS
 62
     5
 10
-69.691162317708404
 20
-51.39130573350667
 30
0.0
  0
VERTEX
  5
C88
  8
DETAIL
  6
CONTINUOUS
 62
     5
 10
-69.692553915316566
 20
-51.36252361798195
 30
0.0
  0
VERTEX
  5
C89
  8
DETAIL
  6
CONTINUOUS
 62
     5
 10
-69.696684514496354
 20
-51.334175403696271
 30
0.0
  0
VERTEX
  5
C8A
  8
DETAIL
  6
CONTINUOUS
 62
     5
 10
-69.70348782478068
 20
-51.306441882832573
 30
0.0
  0
VERTEX
  5
C8B
  8
DETAIL
  6
CONTINUOUS
 62
     5
 10
-69.712897555702455
 20
-51.279503847573793
 30
0.0
  0
VERTEX
  5
C8C
  8
DETAIL
  6
CONTINUOUS
 62
     5
 10
-69.724847416794603
 20
-51.253542090102933
 30
0.0
  0
VERTEX
  5
C8D
  8
DETAIL
  6
CONTINUOUS
 62
     5
 10
-69.73927111759005
 20
-51.228737402602903
 30
0.0
  0
VERTEX
  5
C8E
  8
DETAIL
  6
CONTINUOUS
 62
     5
 10
-69.756102367621679
 20
-51.205270577256663
 30
0.0
  0
SEQEND
  5
C8F
  8
DETAIL
  6
CONTINUOUS
 62
     5
  0
POLYLINE
  5
407
  8
DETAIL
  6
CONTINUOUS
 62
     5
 66
     1
 10
0.0
 20
0.0
 30
0.0
  0
VERTEX
  5
C90
  8
DETAIL
  6
CONTINUOUS
 62
     5
 10
-73.108697039930576
 20
-52.60880247829845
 30
0.0
  0
VERTEX
  5
C91
  8
DETAIL
  6
CONTINUOUS
 62
     5
 10
-73.10731498413206
 20
-52.637584593823128
 30
0.0
  0
VERTEX
  5
C92
  8
DETAIL
  6
CONTINUOUS
 62
     5
 10
-73.103208992777212
 20
-52.665932808108849
 30
0.0
  0
VERTEX
  5
C93
  8
DETAIL
  6
CONTINUOUS
 62
     5
 10
-73.09643932992698
 20
-52.693666328972547
 30
0.0
  0
VERTEX
  5
C94
  8
DETAIL
  6
CONTINUOUS
 62
     5
 10
-73.087066259642341
 20
-52.72060436423132
 30
0.0
  0
VERTEX
  5
C95
  8
DETAIL
  6
CONTINUOUS
 62
     5
 10
-73.075150045984273
 20
-52.746566121702173
 30
0.0
  0
VERTEX
  5
C96
  8
DETAIL
  6
CONTINUOUS
 62
     5
 10
-73.06075095301378
 20
-52.771370809202232
 30
0.0
  0
VERTEX
  5
C97
  8
DETAIL
  6
CONTINUOUS
 62
     5
 10
-73.043929244791812
 20
-52.79483763454845
 30
0.0
  0
SEQEND
  5
C98
  8
DETAIL
  6
CONTINUOUS
 62
     5
  0
POLYLINE
  5
411
  8
DETAIL
  6
CONTINUOUS
 62
     5
 66
     1
 10
0.0
 20
0.0
 30
0.0
  0
VERTEX
  5
C99
  8
DETAIL
  6
CONTINUOUS
 62
     5
 10
-69.991230134548459
 20
-52.908870295138513
 30
0.0
  0
VERTEX
  5
C9A
  8
DETAIL
  6
CONTINUOUS
 62
     5
 10
-69.96244852122426
 20
-52.907470160121683
 30
0.0
  0
VERTEX
  5
C9B
  8
DETAIL
  6
CONTINUOUS
 62
     5
 10
-69.934103822342124
 20
-52.903321983924101
 30
0.0
  0
VERTEX
  5
C9C
  8
DETAIL
  6
CONTINUOUS
 62
     5
 10
-69.906379843288093
 20
-52.896504109825003
 30
0.0
  0
VERTEX
  5
C9D
  8
DETAIL
  6
CONTINUOUS
 62
     5
 10
-69.879460389448155
 20
-52.887094881103678
 30
0.0
  0
VERTEX
  5
C9E
  8
DETAIL
  6
CONTINUOUS
 62
     5
 10
-69.853529266208298
 20
-52.875172641039427
 30
0.0
  0
VERTEX
  5
C9F
  8
DETAIL
  6
CONTINUOUS
 62
     5
 10
-69.828770278954579
 20
-52.860815732911533
 30
0.0
  0
VERTEX
  5
CA0
  8
DETAIL
  6
CONTINUOUS
 62
     5
 10
-69.805367233072957
 20
-52.844102499999288
 30
0.0
  0
SEQEND
  5
CA1
  8
DETAIL
  6
CONTINUOUS
 62
     5
  0
POLYLINE
  5
41B
  8
DETAIL
  6
CONTINUOUS
 62
     5
 66
     1
 10
0.0
 20
0.0
 30
0.0
  0
VERTEX
  5
CA2
  8
DETAIL
  6
CONTINUOUS
 62
     5
 10
-72.994664379340065
 20
-52.844102499999288
 30
0.0
  0
VERTEX
  5
CA3
  8
DETAIL
  6
CONTINUOUS
 62
     5
 10
-72.971261333458429
 20
-52.860815732911533
 30
0.0
  0
VERTEX
  5
CA4
  8
DETAIL
  6
CONTINUOUS
 62
     5
 10
-72.946502346204696
 20
-52.875172641039427
 30
0.0
  0
VERTEX
  5
CA5
  8
DETAIL
  6
CONTINUOUS
 62
     5
 10
-72.920571222964881
 20
-52.887094881103657
 30
0.0
  0
VERTEX
  5
CA6
  8
DETAIL
  6
CONTINUOUS
 62
     5
 10
-72.893651769124943
 20
-52.896504109824967
 30
0.0
  0
VERTEX
  5
CA7
  8
DETAIL
  6
CONTINUOUS
 62
     5
 10
-72.86592779007087
 20
-52.903321983924101
 30
0.0
  0
VERTEX
  5
CA8
  8
DETAIL
  6
CONTINUOUS
 62
     5
 10
-72.837583091188762
 20
-52.90747016012169
 30
0.0
  0
VERTEX
  5
CA9
  8
DETAIL
  6
CONTINUOUS
 62
     5
 10
-72.808801477864563
 20
-52.908870295138513
 30
0.0
  0
SEQEND
  5
CAA
  8
DETAIL
  6
CONTINUOUS
 62
     5
  0
POLYLINE
  5
425
  8
DETAIL
  6
CONTINUOUS
 62
     5
 66
     1
 10
0.0
 20
0.0
 30
0.0
  0
VERTEX
  5
CAB
  8
DETAIL
  6
CONTINUOUS
 62
     5
 10
-73.043929244791812
 20
-51.205270577256663
 30
0.0
  0
VERTEX
  5
CAC
  8
DETAIL
  6
CONTINUOUS
 62
     5
 10
-73.060750953013766
 20
-51.228737402602881
 30
0.0
  0
VERTEX
  5
CAD
  8
DETAIL
  6
CONTINUOUS
 62
     5
 10
-73.075150045984273
 20
-51.253542090102933
 30
0.0
  0
VERTEX
  5
CAE
  8
DETAIL
  6
CONTINUOUS
 62
     5
 10
-73.087066259642341
 20
-51.279503847573793
 30
0.0
  0
VERTEX
  5
CAF
  8
DETAIL
  6
CONTINUOUS
 62
     5
 10
-73.096439329926952
 20
-51.306441882832559
 30
0.0
  0
VERTEX
  5
CB0
  8
DETAIL
  6
CONTINUOUS
 62
     5
 10
-73.103208992777212
 20
-51.334175403696271
 30
0.0
  0
VERTEX
  5
CB1
  8
DETAIL
  6
CONTINUOUS
 62
     5
 10
-73.10731498413206
 20
-51.36252361798195
 30
0.0
  0
VERTEX
  5
CB2
  8
DETAIL
  6
CONTINUOUS
 62
     5
 10
-73.108697039930576
 20
-51.39130573350667
 30
0.0
  0
SEQEND
  5
CB3
  8
DETAIL
  6
CONTINUOUS
 62
     5
  0
POLYLINE
  5
42F
  8
DETAIL
  6
CONTINUOUS
 62
     5
 66
     1
 10
0.0
 20
0.0
 30
0.0
  0
VERTEX
  5
CB4
  8
DETAIL
  6
CONTINUOUS
 62
     5
 10
-69.805367233072957
 20
-51.156350221353932
 30
0.0
  0
VERTEX
  5
CB5
  8
DETAIL
  6
CONTINUOUS
 62
     5
 10
-69.828770278954579
 20
-51.139528513131779
 30
0.0
  0
VERTEX
  5
CB6
  8
DETAIL
  6
CONTINUOUS
 62
     5
 10
-69.853529266208312
 20
-51.125129420161151
 30
0.0
  0
VERTEX
  5
CB7
  8
DETAIL
  6
CONTINUOUS
 62
     5
 10
-69.87946038944817
 20
-51.113213206503019
 30
0.0
  0
VERTEX
  5
CB8
  8
DETAIL
  6
CONTINUOUS
 62
     5
 10
-69.906379843288093
 20
-51.103840136218352
 30
0.0
  0
VERTEX
  5
CB9
  8
DETAIL
  6
CONTINUOUS
 62
     5
 10
-69.934103822342124
 20
-51.097070473368071
 30
0.0
  0
VERTEX
  5
CBA
  8
DETAIL
  6
CONTINUOUS
 62
     5
 10
-69.96244852122426
 20
-51.092964482013208
 30
0.0
  0
VERTEX
  5
CBB
  8
DETAIL
  6
CONTINUOUS
 62
     5
 10
-69.991230134548459
 20
-51.091582426214707
 30
0.0
  0
SEQEND
  5
CBC
  8
DETAIL
  6
CONTINUOUS
 62
     5
  0
POLYLINE
  5
439
  8
DETAIL
  6
CONTINUOUS
 62
     5
 66
     1
 10
0.0
 20
0.0
 30
0.0
  0
VERTEX
  5
CBD
  8
DETAIL
  6
CONTINUOUS
 62
     5
 10
-69.756102367621679
 20
-52.79483763454845
 30
0.0
  0
VERTEX
  5
CBE
  8
DETAIL
  6
CONTINUOUS
 62
     5
 10
-69.739271117590036
 20
-52.771370809202232
 30
0.0
  0
VERTEX
  5
CBF
  8
DETAIL
  6
CONTINUOUS
 62
     5
 10
-69.724847416794603
 20
-52.746566121702202
 30
0.0
  0
VERTEX
  5
CC0
  8
DETAIL
  6
CONTINUOUS
 62
     5
 10
-69.712897555702455
 20
-52.72060436423132
 30
0.0
  0
VERTEX
  5
CC1
  8
DETAIL
  6
CONTINUOUS
 62
     5
 10
-69.70348782478068
 20
-52.693666328972562
 30
0.0
  0
VERTEX
  5
CC2
  8
DETAIL
  6
CONTINUOUS
 62
     5
 10
-69.696684514496354
 20
-52.665932808108849
 30
0.0
  0
VERTEX
  5
CC3
  8
DETAIL
  6
CONTINUOUS
 62
     5
 10
-69.69255391531658
 20
-52.637584593823163
 30
0.0
  0
VERTEX
  5
CC4
  8
DETAIL
  6
CONTINUOUS
 62
     5
 10
-69.691162317708404
 20
-52.60880247829845
 30
0.0
  0
SEQEND
  5
CC5
  8
DETAIL
  6
CONTINUOUS
 62
     5
  0
POLYLINE
  5
443
  8
DETAIL
  6
CONTINUOUS
 62
     5
 66
     1
 10
0.0
 20
0.0
 30
0.0
  0
VERTEX
  5
CC6
  8
DETAIL
  6
CONTINUOUS
 62
     5
 10
88.264398663194697
 20
-59.764265802950831
 30
0.0
  0
VERTEX
  5
CC7
  8
DETAIL
  6
CONTINUOUS
 62
     5
 10
88.608371861663045
 20
-59.72467532808902
 30
0.0
  0
VERTEX
  5
CC8
  8
DETAIL
  6
CONTINUOUS
 62
     5
 10
88.924111347561549
 20
-59.611894151165203
 30
0.0
  0
VERTEX
  5
CC9
  8
DETAIL
  6
CONTINUOUS
 62
     5
 10
89.202619696585657
 20
-59.434907643671629
 30
0.0
  0
VERTEX
  5
CCA
  8
DETAIL
  6
CONTINUOUS
 62
     5
 10
89.434899484430829
 20
-59.202701177100678
 30
0.0
  0
VERTEX
  5
CCB
  8
DETAIL
  6
CONTINUOUS
 62
     5
 10
89.611953286792499
 20
-58.924260122944673
 30
0.0
  0
VERTEX
  5
CCC
  8
DETAIL
  6
CONTINUOUS
 62
     5
 10
89.724783679366226
 20
-58.608569852695922
 30
0.0
  0
VERTEX
  5
CCD
  8
DETAIL
  6
CONTINUOUS
 62
     5
 10
89.764393237847344
 20
-58.264615737846732
 30
0.0
  0
SEQEND
  5
CCE
  8
DETAIL
  6
CONTINUOUS
 62
     5
  0
POLYLINE
  5
44D
  8
DETAIL
  6
CONTINUOUS
 62
     5
 66
     1
 10
0.0
 20
0.0
 30
0.0
  0
VERTEX
  5
CCF
  8
DETAIL
  6
CONTINUOUS
 62
     5
 10
81.050024205729187
 20
12.2375408376738
 30
0.0
  0
VERTEX
  5
CD0
  8
DETAIL
  6
CONTINUOUS
 62
     5
 10
81.023623525014187
 20
12.46681696427952
 30
0.0
  0
VERTEX
  5
CD1
  8
DETAIL
  6
CONTINUOUS
 62
     5
 10
80.948414981310265
 20
12.677287690655991
 30
0.0
  0
VERTEX
  5
CD2
  8
DETAIL
  6
CONTINUOUS
 62
     5
 10
80.830388822278934
 20
12.862950716329429
 30
0.0
  0
VERTEX
  5
CD3
  8
DETAIL
  6
CONTINUOUS
 62
     5
 10
80.675535295581767
 20
13.01780374082608
 30
0.0
  0
VERTEX
  5
CD4
  8
DETAIL
  6
CONTINUOUS
 62
     5
 10
80.489844648880336
 20
13.135844463672161
 30
0.0
  0
VERTEX
  5
CD5
  8
DETAIL
  6
CONTINUOUS
 62
     5
 10
80.279307129836212
 20
13.21107058439391
 30
0.0
  0
VERTEX
  5
CD6
  8
DETAIL
  6
CONTINUOUS
 62
     5
 10
80.049912986110911
 20
13.23747980251755
 30
0.0
  0
SEQEND
  5
CD7
  8
DETAIL
  6
CONTINUOUS
 62
     5
  0
POLYLINE
  5
457
  8
DETAIL
  6
CONTINUOUS
 62
     5
 66
     1
 10
0.0
 20
0.0
 30
0.0
  0
VERTEX
  5
CD8
  8
DETAIL
  6
CONTINUOUS
 62
     5
 10
62.750021493055563
 20
13.23747980251755
 30
0.0
  0
VERTEX
  5
CD9
  8
DETAIL
  6
CONTINUOUS
 62
     5
 10
62.520646432949761
 20
13.21107058439391
 30
0.0
  0
VERTEX
  5
CDA
  8
DETAIL
  6
CONTINUOUS
 62
     5
 10
62.310158129555539
 20
13.135844463672161
 30
0.0
  0
VERTEX
  5
CDB
  8
DETAIL
  6
CONTINUOUS
 62
     5
 10
62.124534777722282
 20
13.01780374082608
 30
0.0
  0
VERTEX
  5
CDC
  8
DETAIL
  6
CONTINUOUS
 62
     5
 10
61.969754572299337
 20
12.862950716329429
 30
0.0
  0
VERTEX
  5
CDD
  8
DETAIL
  6
CONTINUOUS
 62
     5
 10
61.85179570813613
 20
12.677287690655991
 30
0.0
  0
VERTEX
  5
CDE
  8
DETAIL
  6
CONTINUOUS
 62
     5
 10
61.776636380081989
 20
12.466816964279531
 30
0.0
  0
VERTEX
  5
CDF
  8
DETAIL
  6
CONTINUOUS
 62
     5
 10
61.750254782986289
 20
12.2375408376738
 30
0.0
  0
SEQEND
  5
CE0
  8
DETAIL
  6
CONTINUOUS
 62
     5
  0
POLYLINE
  5
461
  8
DETAIL
  6
CONTINUOUS
 62
     5
 66
     1
 10
0.0
 20
0.0
 30
0.0
  0
VERTEX
  5
CE1
  8
DETAIL
  6
CONTINUOUS
 62
     5
 10
61.750254782986289
 20
-0.237666681857263
 30
0.0
  0
VERTEX
  5
CE2
  8
DETAIL
  6
CONTINUOUS
 62
     5
 10
61.776636380081989
 20
-0.4669970461180754
 30
0.0
  0
VERTEX
  5
CE3
  8
DETAIL
  6
CONTINUOUS
 62
     5
 10
61.85179570813613
 20
-0.6774888649159664
 30
0.0
  0
VERTEX
  5
CE4
  8
DETAIL
  6
CONTINUOUS
 62
     5
 10
61.969754572299337
 20
-0.8631488773863477
 30
0.0
  0
VERTEX
  5
CE5
  8
DETAIL
  6
CONTINUOUS
 62
     5
 10
62.124534777722282
 20
-1.0179838226646309
 30
0.0
  0
VERTEX
  5
CE6
  8
DETAIL
  6
CONTINUOUS
 62
     5
 10
62.310158129555532
 20
-1.136000439886228
 30
0.0
  0
VERTEX
  5
CE7
  8
DETAIL
  6
CONTINUOUS
 62
     5
 10
62.520646432949761
 20
-1.2112054681865521
 30
0.0
  0
VERTEX
  5
CE8
  8
DETAIL
  6
CONTINUOUS
 62
     5
 10
62.750021493055563
 20
-1.237605646701013
 30
0.0
  0
SEQEND
  5
CE9
  8
DETAIL
  6
CONTINUOUS
 62
     5
  0
POLYLINE
  5
46B
  8
DETAIL
  6
CONTINUOUS
 62
     5
 66
     1
 10
0.0
 20
0.0
 30
0.0
  0
VERTEX
  5
CEA
  8
DETAIL
  6
CONTINUOUS
 62
     5
 10
80.049912986110911
 20
-1.237605646701013
 30
0.0
  0
VERTEX
  5
CEB
  8
DETAIL
  6
CONTINUOUS
 62
     5
 10
80.279307129836212
 20
-1.2112054681865521
 30
0.0
  0
VERTEX
  5
CEC
  8
DETAIL
  6
CONTINUOUS
 62
     5
 10
80.489844648880336
 20
-1.1360004398862289
 30
0.0
  0
VERTEX
  5
CED
  8
DETAIL
  6
CONTINUOUS
 62
     5
 10
80.675535295581781
 20
-1.0179838226646309
 30
0.0
  0
VERTEX
  5
CEE
  8
DETAIL
  6
CONTINUOUS
 62
     5
 10
80.83038882227892
 20
-0.8631488773863479
 30
0.0
  0
VERTEX
  5
CEF
  8
DETAIL
  6
CONTINUOUS
 62
     5
 10
80.94841498131025
 20
-0.6774888649159666
 30
0.0
  0
VERTEX
  5
CF0
  8
DETAIL
  6
CONTINUOUS
 62
     5
 10
81.023623525014216
 20
-0.4669970461180755
 30
0.0
  0
VERTEX
  5
CF1
  8
DETAIL
  6
CONTINUOUS
 62
     5
 10
81.050024205729187
 20
-0.237666681857263
 30
0.0
  0
SEQEND
  5
CF2
  8
DETAIL
  6
CONTINUOUS
 62
     5
  0
POLYLINE
  5
475
  8
DETAIL
  6
CONTINUOUS
 62
     5
 66
     1
 10
0.0
 20
0.0
 30
0.0
  0
VERTEX
  5
CF3
  8
DETAIL
  6
CONTINUOUS
 62
     5
 10
-52.749905264756762
 20
47.149966239149762
 30
0.0
  0
VERTEX
  5
CF4
  8
DETAIL
  6
CONTINUOUS
 62
     5
 10
-53.208521297432959
 20
47.097138261092837
 30
0.0
  0
VERTEX
  5
CF5
  8
DETAIL
  6
CONTINUOUS
 62
     5
 10
-53.629508450432262
 20
46.946661411824458
 30
0.0
  0
VERTEX
  5
CF6
  8
DETAIL
  6
CONTINUOUS
 62
     5
 10
-54.000865136010162
 20
46.710546318698249
 30
0.0
  0
VERTEX
  5
CF7
  8
DETAIL
  6
CONTINUOUS
 62
     5
 10
-54.310589766422233
 20
46.400803609067808
 30
0.0
  0
VERTEX
  5
CF8
  8
DETAIL
  6
CONTINUOUS
 62
     5
 10
-54.54668075392398
 20
46.029443910286773
 30
0.0
  0
VERTEX
  5
CF9
  8
DETAIL
  6
CONTINUOUS
 62
     5
 10
-54.697136510770981
 20
45.608477849708727
 30
0.0
  0
VERTEX
  5
CFA
  8
DETAIL
  6
CONTINUOUS
 62
     5
 10
-54.74995544921876
 20
45.14991605468731
 30
0.0
  0
SEQEND
  5
CFB
  8
DETAIL
  6
CONTINUOUS
 62
     5
  0
POLYLINE
  5
47F
  8
DETAIL
  6
CONTINUOUS
 62
     5
 66
     1
 10
0.0
 20
0.0
 30
0.0
  0
VERTEX
  5
CFC
  8
DETAIL
  6
CONTINUOUS
 62
     5
 10
-54.74995544921876
 20
-33.15021415364572
 30
0.0
  0
VERTEX
  5
CFD
  8
DETAIL
  6
CONTINUOUS
 62
     5
 10
-54.697136510770981
 20
-33.608766406857171
 30
0.0
  0
VERTEX
  5
CFE
  8
DETAIL
  6
CONTINUOUS
 62
     5
 10
-54.546680753924001
 20
-34.02970785961012
 30
0.0
  0
VERTEX
  5
CFF
  8
DETAIL
  6
CONTINUOUS
 62
     5
 10
-54.310589766422233
 20
-34.401033910956997
 30
0.0
  0
VERTEX
  5
D00
  8
DETAIL
  6
CONTINUOUS
 62
     5
 10
-54.000865136010162
 20
-34.710739959950281
 30
0.0
  0
VERTEX
  5
D01
  8
DETAIL
  6
CONTINUOUS
 62
     5
 10
-53.629508450432262
 20
-34.946821405642453
 30
0.0
  0
VERTEX
  5
D02
  8
DETAIL
  6
CONTINUOUS
 62
     5
 10
-53.208521297432974
 20
-35.097273647085942
 30
0.0
  0
VERTEX
  5
D03
  8
DETAIL
  6
CONTINUOUS
 62
     5
 10
-52.749905264756762
 20
-35.15009208333322
 30
0.0
  0
SEQEND
  5
D04
  8
DETAIL
  6
CONTINUOUS
 62
     5
  0
POLYLINE
  5
489
  8
DETAIL
  6
CONTINUOUS
 62
     5
 66
     1
 10
0.0
 20
0.0
 30
0.0
  0
VERTEX
  5
D05
  8
DETAIL
  6
CONTINUOUS
 62
     5
 10
52.749942825520968
 20
-35.15009208333322
 30
0.0
  0
VERTEX
  5
D06
  8
DETAIL
  6
CONTINUOUS
 62
     5
 10
53.208603554042313
 20
-35.097273647085942
 30
0.0
  0
VERTEX
  5
D07
  8
DETAIL
  6
CONTINUOUS
 62
     5
 10
53.62958719163796
 20
-34.946821405642453
 30
0.0
  0
VERTEX
  5
D08
  8
DETAIL
  6
CONTINUOUS
 62
     5
 10
54.000907216578767
 20
-34.710739959950281
 30
0.0
  0
VERTEX
  5
D09
  8
DETAIL
  6
CONTINUOUS
 62
     5
 10
54.31057710713543
 20
-34.40103391095699
 30
0.0
  0
VERTEX
  5
D0A
  8
DETAIL
  6
CONTINUOUS
 62
     5
 10
54.546610341578763
 20
-34.029707859610113
 30
0.0
  0
VERTEX
  5
D0B
  8
DETAIL
  6
CONTINUOUS
 62
     5
 10
54.697020398179532
 20
-33.608766406857171
 30
0.0
  0
VERTEX
  5
D0C
  8
DETAIL
  6
CONTINUOUS
 62
     5
 10
54.749820755208482
 20
-33.15021415364572
 30
0.0
  0
SEQEND
  5
D0D
  8
DETAIL
  6
CONTINUOUS
 62
     5
  0
POLYLINE
  5
493
  8
DETAIL
  6
CONTINUOUS
 62
     5
 66
     1
 10
0.0
 20
0.0
 30
0.0
  0
VERTEX
  5
D0E
  8
DETAIL
  6
CONTINUOUS
 62
     5
 10
54.749820755208482
 20
45.14991605468731
 30
0.0
  0
VERTEX
  5
D0F
  8
DETAIL
  6
CONTINUOUS
 62
     5
 10
54.697020398179511
 20
45.608477849708727
 30
0.0
  0
VERTEX
  5
D10
  8
DETAIL
  6
CONTINUOUS
 62
     5
 10
54.546610341578763
 20
46.029443910286773
 30
0.0
  0
VERTEX
  5
D11
  8
DETAIL
  6
CONTINUOUS
 62
     5
 10
54.310577107135437
 20
46.400803609067808
 30
0.0
  0
VERTEX
  5
D12
  8
DETAIL
  6
CONTINUOUS
 62
     5
 10
54.000907216578767
 20
46.710546318698249
 30
0.0
  0
VERTEX
  5
D13
  8
DETAIL
  6
CONTINUOUS
 62
     5
 10
53.629587191637967
 20
46.946661411824458
 30
0.0
  0
VERTEX
  5
D14
  8
DETAIL
  6
CONTINUOUS
 62
     5
 10
53.208603554042313
 20
47.097138261092837
 30
0.0
  0
VERTEX
  5
D15
  8
DETAIL
  6
CONTINUOUS
 62
     5
 10
52.749942825520968
 20
47.149966239149762
 30
0.0
  0
SEQEND
  5
D16
  8
DETAIL
  6
CONTINUOUS
 62
     5
  0
POLYLINE
  5
49D
  8
DETAIL
  6
CONTINUOUS
 62
     5
 66
     1
 10
0.0
 20
0.0
 30
0.0
  0
VERTEX
  5
D17
  8
DETAIL
  6
CONTINUOUS
 62
     5
 10
-63.100005633680659
 20
0.0045235308161864
 30
0.0
  0
VERTEX
  5
D18
  8
DETAIL
  6
CONTINUOUS
 62
     5
 10
-63.126405309994631
 20
0.2337996574219117
 30
0.0
  0
VERTEX
  5
D19
  8
DETAIL
  6
CONTINUOUS
 62
     5
 10
-63.201606822891463
 20
0.44427038379838
 30
0.0
  0
VERTEX
  5
D1A
  8
DETAIL
  6
CONTINUOUS
 62
     5
 10
-63.319613898303452
 20
0.6299334094718218
 30
0.0
  0
VERTEX
  5
D1B
  8
DETAIL
  6
CONTINUOUS
 62
     5
 10
-63.474430262162961
 20
0.7847864339684675
 30
0.0
  0
VERTEX
  5
D1C
  8
DETAIL
  6
CONTINUOUS
 62
     5
 10
-63.660059640402316
 20
0.902827156814548
 30
0.0
  0
VERTEX
  5
D1D
  8
DETAIL
  6
CONTINUOUS
 62
     5
 10
-63.870505758953847
 20
0.9780532775362939
 30
0.0
  0
VERTEX
  5
D1E
  8
DETAIL
  6
CONTINUOUS
 62
     5
 10
-64.099772343749905
 20
1.0044624956599351
 30
0.0
  0
SEQEND
  5
D1F
  8
DETAIL
  6
CONTINUOUS
 62
     5
  0
POLYLINE
  5
4A7
  8
DETAIL
  6
CONTINUOUS
 62
     5
 66
     1
 10
0.0
 20
0.0
 30
0.0
  0
VERTEX
  5
D20
  8
DETAIL
  6
CONTINUOUS
 62
     5
 10
-78.70008701388906
 20
1.0044624956599351
 30
0.0
  0
VERTEX
  5
D21
  8
DETAIL
  6
CONTINUOUS
 62
     5
 10
-78.929363140494772
 20
0.9780532775362939
 30
0.0
  0
VERTEX
  5
D22
  8
DETAIL
  6
CONTINUOUS
 62
     5
 10
-79.139833866871257
 20
0.9028271568145484
 30
0.0
  0
VERTEX
  5
D23
  8
DETAIL
  6
CONTINUOUS
 62
     5
 10
-79.325496892544692
 20
0.7847864339684678
 30
0.0
  0
VERTEX
  5
D24
  8
DETAIL
  6
CONTINUOUS
 62
     5
 10
-79.480349917041323
 20
0.6299334094718218
 30
0.0
  0
VERTEX
  5
D25
  8
DETAIL
  6
CONTINUOUS
 62
     5
 10
-79.598390639887413
 20
0.4442703837983801
 30
0.0
  0
VERTEX
  5
D26
  8
DETAIL
  6
CONTINUOUS
 62
     5
 10
-79.673616760609193
 20
0.2337996574219118
 30
0.0
  0
VERTEX
  5
D27
  8
DETAIL
  6
CONTINUOUS
 62
     5
 10
-79.70002597873281
 20
0.0045235308161864
 30
0.0
  0
SEQEND
  5
D28
  8
DETAIL
  6
CONTINUOUS
 62
     5
  0
POLYLINE
  5
4B1
  8
DETAIL
  6
CONTINUOUS
 62
     5
 66
     1
 10
0.0
 20
0.0
 30
0.0
  0
VERTEX
  5
D29
  8
DETAIL
  6
CONTINUOUS
 62
     5
 10
-79.70002597873281
 20
-10.445656861978931
 30
0.0
  0
VERTEX
  5
D2A
  8
DETAIL
  6
CONTINUOUS
 62
     5
 10
-79.673616760609193
 20
-10.674932988584651
 30
0.0
  0
VERTEX
  5
D2B
  8
DETAIL
  6
CONTINUOUS
 62
     5
 10
-79.598390639887413
 20
-10.88540371496112
 30
0.0
  0
VERTEX
  5
D2C
  8
DETAIL
  6
CONTINUOUS
 62
     5
 10
-79.480349917041323
 20
-11.07106674063456
 30
0.0
  0
VERTEX
  5
D2D
  8
DETAIL
  6
CONTINUOUS
 62
     5
 10
-79.325496892544692
 20
-11.225919765131209
 30
0.0
  0
VERTEX
  5
D2E
  8
DETAIL
  6
CONTINUOUS
 62
     5
 10
-79.139833866871257
 20
-11.34396048797729
 30
0.0
  0
VERTEX
  5
D2F
  8
DETAIL
  6
CONTINUOUS
 62
     5
 10
-78.929363140494786
 20
-11.419186608699039
 30
0.0
  0
VERTEX
  5
D30
  8
DETAIL
  6
CONTINUOUS
 62
     5
 10
-78.70008701388906
 20
-11.445595826822681
 30
0.0
  0
SEQEND
  5
D31
  8
DETAIL
  6
CONTINUOUS
 62
     5
  0
POLYLINE
  5
4BB
  8
DETAIL
  6
CONTINUOUS
 62
     5
 66
     1
 10
0.0
 20
0.0
 30
0.0
  0
VERTEX
  5
D32
  8
DETAIL
  6
CONTINUOUS
 62
     5
 10
-64.099772343749905
 20
-11.445595826822681
 30
0.0
  0
VERTEX
  5
D33
  8
DETAIL
  6
CONTINUOUS
 62
     5
 10
-63.870505758953847
 20
-11.419186608699039
 30
0.0
  0
VERTEX
  5
D34
  8
DETAIL
  6
CONTINUOUS
 62
     5
 10
-63.660059640402316
 20
-11.34396048797729
 30
0.0
  0
VERTEX
  5
D35
  8
DETAIL
  6
CONTINUOUS
 62
     5
 10
-63.474430262162961
 20
-11.225919765131209
 30
0.0
  0
VERTEX
  5
D36
  8
DETAIL
  6
CONTINUOUS
 62
     5
 10
-63.319613898303459
 20
-11.07106674063456
 30
0.0
  0
VERTEX
  5
D37
  8
DETAIL
  6
CONTINUOUS
 62
     5
 10
-63.201606822891449
 20
-10.88540371496112
 30
0.0
  0
VERTEX
  5
D38
  8
DETAIL
  6
CONTINUOUS
 62
     5
 10
-63.126405309994652
 20
-10.674932988584651
 30
0.0
  0
VERTEX
  5
D39
  8
DETAIL
  6
CONTINUOUS
 62
     5
 10
-63.100005633680659
 20
-10.445656861978931
 30
0.0
  0
SEQEND
  5
D3A
  8
DETAIL
  6
CONTINUOUS
 62
     5
  0
POLYLINE
  5
4C5
  8
DETAIL
  6
CONTINUOUS
 62
     5
 66
     1
 10
0.0
 20
0.0
 30
0.0
  0
VERTEX
  5
D3B
  8
DETAIL
  6
CONTINUOUS
 62
     5
 10
-63.429701271701568
 20
-0.0252765451386949
 30
0.0
  0
VERTEX
  5
D3C
  8
DETAIL
  6
CONTINUOUS
 62
     5
 10
-63.465380058593922
 20
0.1959592187500967
 30
0.0
  0
VERTEX
  5
D3D
  8
DETAIL
  6
CONTINUOUS
 62
     5
 10
-63.564732478298772
 20
0.3881238888889639
 30
0.0
  0
VERTEX
  5
D3E
  8
DETAIL
  6
CONTINUOUS
 62
     5
 10
-63.716232619357747
 20
0.5396750173612092
 30
0.0
  0
VERTEX
  5
D3F
  8
DETAIL
  6
CONTINUOUS
 62
     5
 10
-63.908354570312568
 20
0.6390701562501348
 30
0.0
  0
VERTEX
  5
D40
  8
DETAIL
  6
CONTINUOUS
 62
     5
 10
-64.1295724197048
 20
0.6747668576390427
 30
0.0
  0
VERTEX
  5
D41
  8
DETAIL
  6
CONTINUOUS
 62
     5
 10
-64.129572419704814
 20
0.6747668576390427
 30
0.0
  0
VERTEX
  5
D42
  8
DETAIL
  6
CONTINUOUS
 62
     5
 10
-64.1295724197048
 20
0.6747668576390427
 30
0.0
  0
VERTEX
  5
D43
  8
DETAIL
  6
CONTINUOUS
 62
     5
 10
-64.1295724197048
 20
0.6747668576390425
 30
0.0
  0
VERTEX
  5
D44
  8
DETAIL
  6
CONTINUOUS
 62
     5
 10
-64.1295724197048
 20
0.6747668576390427
 30
0.0
  0
VERTEX
  5
D45
  8
DETAIL
  6
CONTINUOUS
 62
     5
 10
-64.1295724197048
 20
0.6747668576390427
 30
0.0
  0
SEQEND
  5
D46
  8
DETAIL
  6
CONTINUOUS
 62
     5
  0
POLYLINE
  5
4D2
  8
DETAIL
  6
CONTINUOUS
 62
     5
 66
     1
 10
0.0
 20
0.0
 30
0.0
  0
VERTEX
  5
D47
  8
DETAIL
  6
CONTINUOUS
 62
     5
 10
-64.1295724197048
 20
-11.11590018880179
 30
0.0
  0
VERTEX
  5
D48
  8
DETAIL
  6
CONTINUOUS
 62
     5
 10
-63.908354570312568
 20
-11.080221401909469
 30
0.0
  0
VERTEX
  5
D49
  8
DETAIL
  6
CONTINUOUS
 62
     5
 10
-63.716232619357747
 20
-10.980868982204679
 30
0.0
  0
VERTEX
  5
D4A
  8
DETAIL
  6
CONTINUOUS
 62
     5
 10
-63.564732478298779
 20
-10.82936884114568
 30
0.0
  0
VERTEX
  5
D4B
  8
DETAIL
  6
CONTINUOUS
 62
     5
 10
-63.465380058593922
 20
-10.637246890190729
 30
0.0
  0
VERTEX
  5
D4C
  8
DETAIL
  6
CONTINUOUS
 62
     5
 10
-63.429701271701568
 20
-10.41602904079809
 30
0.0
  0
VERTEX
  5
D4D
  8
DETAIL
  6
CONTINUOUS
 62
     5
 10
-63.429701271701568
 20
-10.41602904079809
 30
0.0
  0
VERTEX
  5
D4E
  8
DETAIL
  6
CONTINUOUS
 62
     5
 10
-63.429701271701582
 20
-10.41602904079809
 30
0.0
  0
VERTEX
  5
D4F
  8
DETAIL
  6
CONTINUOUS
 62
     5
 10
-63.429701271701568
 20
-10.41602904079809
 30
0.0
  0
VERTEX
  5
D50
  8
DETAIL
  6
CONTINUOUS
 62
     5
 10
-63.429701271701568
 20
-10.41602904079809
 30
0.0
  0
VERTEX
  5
D51
  8
DETAIL
  6
CONTINUOUS
 62
     5
 10
-63.429701271701568
 20
-10.41602904079809
 30
0.0
  0
SEQEND
  5
D52
  8
DETAIL
  6
CONTINUOUS
 62
     5
  0
POLYLINE
  5
4DF
  8
DETAIL
  6
CONTINUOUS
 62
     5
 66
     1
 10
0.0
 20
0.0
 30
0.0
  0
VERTEX
  5
D53
  8
DETAIL
  6
CONTINUOUS
 62
     5
 10
-64.099944598524417
 20
-11.79561752821154
 30
0.0
  0
VERTEX
  5
D54
  8
DETAIL
  6
CONTINUOUS
 62
     5
 10
-63.79042486591964
 20
-11.7599617943313
 30
0.0
  0
VERTEX
  5
D55
  8
DETAIL
  6
CONTINUOUS
 62
     5
 10
-63.506285342597273
 20
-11.65839827015858
 30
0.0
  0
VERTEX
  5
D56
  8
DETAIL
  6
CONTINUOUS
 62
     5
 10
-63.255631544759332
 20
-11.49903247189541
 30
0.0
  0
VERTEX
  5
D57
  8
DETAIL
  6
CONTINUOUS
 62
     5
 10
-63.046568988607781
 20
-11.28996991574383
 30
0.0
  0
VERTEX
  5
D58
  8
DETAIL
  6
CONTINUOUS
 62
     5
 10
-62.887203190344671
 20
-11.039316117905869
 30
0.0
  0
VERTEX
  5
D59
  8
DETAIL
  6
CONTINUOUS
 62
     5
 10
-62.785639666172031
 20
-10.75517659458356
 30
0.0
  0
VERTEX
  5
D5A
  8
DETAIL
  6
CONTINUOUS
 62
     5
 10
-62.749983932291791
 20
-10.445656861978931
 30
0.0
  0
SEQEND
  5
D5B
  8
DETAIL
  6
CONTINUOUS
 62
     5
  0
POLYLINE
  5
4E9
  8
DETAIL
  6
CONTINUOUS
 62
     5
 66
     1
 10
0.0
 20
0.0
 30
0.0
  0
VERTEX
  5
D5C
  8
DETAIL
  6
CONTINUOUS
 62
     5
 10
-62.749983932291791
 20
0.0043512760421436
 30
0.0
  0
VERTEX
  5
D5D
  8
DETAIL
  6
CONTINUOUS
 62
     5
 10
-62.78563966617201
 20
0.3139347881112183
 30
0.0
  0
VERTEX
  5
D5E
  8
DETAIL
  6
CONTINUOUS
 62
     5
 10
-62.887203190344671
 20
0.5981200116797052
 30
0.0
  0
VERTEX
  5
D5F
  8
DETAIL
  6
CONTINUOUS
 62
     5
 10
-63.046568988607781
 20
0.848804443748618
 30
0.0
  0
VERTEX
  5
D60
  8
DETAIL
  6
CONTINUOUS
 62
     5
 10
-63.255631544759318
 20
1.05788558131897
 30
0.0
  0
VERTEX
  5
D61
  8
DETAIL
  6
CONTINUOUS
 62
     5
 10
-63.506285342597273
 20
1.217260921391776
 30
0.0
  0
VERTEX
  5
D62
  8
DETAIL
  6
CONTINUOUS
 62
     5
 10
-63.790424865919647
 20
1.31882796096805
 30
0.0
  0
VERTEX
  5
D63
  8
DETAIL
  6
CONTINUOUS
 62
     5
 10
-64.099944598524417
 20
1.3544841970488051
 30
0.0
  0
SEQEND
  5
D64
  8
DETAIL
  6
CONTINUOUS
 62
     5
  0
POLYLINE
  5
4F3
  8
DETAIL
  6
CONTINUOUS
 62
     5
 66
     1
 10
0.0
 20
0.0
 30
0.0
  0
VERTEX
  5
D65
  8
DETAIL
  6
CONTINUOUS
 62
     5
 10
-64.099944598524417
 20
-11.825417604166431
 30
0.0
  0
VERTEX
  5
D66
  8
DETAIL
  6
CONTINUOUS
 62
     5
 10
-63.783567317980499
 20
-11.78896990008481
 30
0.0
  0
VERTEX
  5
D67
  8
DETAIL
  6
CONTINUOUS
 62
     5
 10
-63.493145768501357
 20
-11.685153002231941
 30
0.0
  0
VERTEX
  5
D68
  8
DETAIL
  6
CONTINUOUS
 62
     5
 10
-63.23696023206579
 20
-11.522256232195829
 30
0.0
  0
VERTEX
  5
D69
  8
DETAIL
  6
CONTINUOUS
 62
     5
 10
-63.023290990652711
 20
-11.30856891156448
 30
0.0
  0
VERTEX
  5
D6A
  8
DETAIL
  6
CONTINUOUS
 62
     5
 10
-62.860418326240961
 20
-11.052380361925881
 30
0.0
  0
VERTEX
  5
D6B
  8
DETAIL
  6
CONTINUOUS
 62
     5
 10
-62.756622520809401
 20
-10.76197990486803
 30
0.0
  0
VERTEX
  5
D6C
  8
DETAIL
  6
CONTINUOUS
 62
     5
 10
-62.720183856336917
 20
-10.445656861978931
 30
0.0
  0
SEQEND
  5
D6D
  8
DETAIL
  6
CONTINUOUS
 62
     5
  0
POLYLINE
  5
4FD
  8
DETAIL
  6
CONTINUOUS
 62
     5
 66
     1
 10
0.0
 20
0.0
 30
0.0
  0
VERTEX
  5
D6E
  8
DETAIL
  6
CONTINUOUS
 62
     5
 10
-62.720183856336917
 20
0.0043512760421436
 30
0.0
  0
VERTEX
  5
D6F
  8
DETAIL
  6
CONTINUOUS
 62
     5
 10
-62.756622520809401
 20
0.3207285565860448
 30
0.0
  0
VERTEX
  5
D70
  8
DETAIL
  6
CONTINUOUS
 62
     5
 10
-62.860418326240939
 20
0.6111501060652066
 30
0.0
  0
VERTEX
  5
D71
  8
DETAIL
  6
CONTINUOUS
 62
     5
 10
-63.023290990652697
 20
0.8673356425007635
 30
0.0
  0
VERTEX
  5
D72
  8
DETAIL
  6
CONTINUOUS
 62
     5
 10
-63.23696023206579
 20
1.08100488391385
 30
0.0
  0
VERTEX
  5
D73
  8
DETAIL
  6
CONTINUOUS
 62
     5
 10
-63.49314576850135
 20
1.2438775483256019
 30
0.0
  0
VERTEX
  5
D74
  8
DETAIL
  6
CONTINUOUS
 62
     5
 10
-63.783567317980527
 20
1.347673353757155
 30
0.0
  0
VERTEX
  5
D75
  8
DETAIL
  6
CONTINUOUS
 62
     5
 10
-64.099944598524417
 20
1.384112018229642
 30
0.0
  0
SEQEND
  5
D76
  8
DETAIL
  6
CONTINUOUS
 62
     5
  0
POLYLINE
  5
507
  8
DETAIL
  6
CONTINUOUS
 62
     5
 66
     1
 10
0.0
 20
0.0
 30
0.0
  0
VERTEX
  5
D77
  8
DETAIL
  6
CONTINUOUS
 62
     5
 10
-64.099944598524417
 20
-11.995605321179941
 30
0.0
  0
VERTEX
  5
D78
  8
DETAIL
  6
CONTINUOUS
 62
     5
 10
-63.7445804881295
 20
-11.95466593575315
 30
0.0
  0
VERTEX
  5
D79
  8
DETAIL
  6
CONTINUOUS
 62
     5
 10
-63.41835103801612
 20
-11.838052968951841
 30
0.0
  0
VERTEX
  5
D7A
  8
DETAIL
  6
CONTINUOUS
 62
     5
 10
-63.130564032402852
 20
-11.65507420499463
 30
0.0
  0
VERTEX
  5
D7B
  8
DETAIL
  6
CONTINUOUS
 62
     5
 10
-62.890527255508289
 20
-11.415037428100129
 30
0.0
  0
VERTEX
  5
D7C
  8
DETAIL
  6
CONTINUOUS
 62
     5
 10
-62.707548491551037
 20
-11.12725042248694
 30
0.0
  0
VERTEX
  5
D7D
  8
DETAIL
  6
CONTINUOUS
 62
     5
 10
-62.590935524749753
 20
-10.801020972373671
 30
0.0
  0
VERTEX
  5
D7E
  8
DETAIL
  6
CONTINUOUS
 62
     5
 10
-62.549996139322943
 20
-10.445656861978931
 30
0.0
  0
SEQEND
  5
D7F
  8
DETAIL
  6
CONTINUOUS
 62
     5
  0
POLYLINE
  5
511
  8
DETAIL
  6
CONTINUOUS
 62
     5
 66
     1
 10
0.0
 20
0.0
 30
0.0
  0
VERTEX
  5
D80
  8
DETAIL
  6
CONTINUOUS
 62
     5
 10
-62.549996139322943
 20
0.0043512760421436
 30
0.0
  0
VERTEX
  5
D81
  8
DETAIL
  6
CONTINUOUS
 62
     5
 10
-62.590935524749717
 20
0.3597791659016121
 30
0.0
  0
VERTEX
  5
D82
  8
DETAIL
  6
CONTINUOUS
 62
     5
 10
-62.707548491551073
 20
0.6860543162611675
 30
0.0
  0
VERTEX
  5
D83
  8
DETAIL
  6
CONTINUOUS
 62
     5
 10
-62.890527255508289
 20
0.9738719561052938
 30
0.0
  0
VERTEX
  5
D84
  8
DETAIL
  6
CONTINUOUS
 62
     5
 10
-63.130564032402852
 20
1.213927314418475
 30
0.0
  0
VERTEX
  5
D85
  8
DETAIL
  6
CONTINUOUS
 62
     5
 10
-63.418351038016112
 20
1.3969156201851951
 30
0.0
  0
VERTEX
  5
D86
  8
DETAIL
  6
CONTINUOUS
 62
     5
 10
-63.744580488129522
 20
1.5135321023899391
 30
0.0
  0
VERTEX
  5
D87
  8
DETAIL
  6
CONTINUOUS
 62
     5
 10
-64.099944598524417
 20
1.5544719900171911
 30
0.0
  0
SEQEND
  5
D88
  8
DETAIL
  6
CONTINUOUS
 62
     5
  0
POLYLINE
  5
51B
  8
DETAIL
  6
CONTINUOUS
 62
     5
 66
     1
 10
0.0
 20
0.0
 30
0.0
  0
VERTEX
  5
D89
  8
DETAIL
  6
CONTINUOUS
 62
     5
 10
-79.370330340711902
 20
-10.41602904079809
 30
0.0
  0
VERTEX
  5
D8A
  8
DETAIL
  6
CONTINUOUS
 62
     5
 10
-79.334651553819555
 20
-10.637246890190729
 30
0.0
  0
VERTEX
  5
D8B
  8
DETAIL
  6
CONTINUOUS
 62
     5
 10
-79.235299134114683
 20
-10.82936884114568
 30
0.0
  0
VERTEX
  5
D8C
  8
DETAIL
  6
CONTINUOUS
 62
     5
 10
-79.083798993055623
 20
-10.980868982204679
 30
0.0
  0
VERTEX
  5
D8D
  8
DETAIL
  6
CONTINUOUS
 62
     5
 10
-78.891677042100682
 20
-11.08022140190946
 30
0.0
  0
VERTEX
  5
D8E
  8
DETAIL
  6
CONTINUOUS
 62
     5
 10
-78.670459192708222
 20
-11.11590018880179
 30
0.0
  0
VERTEX
  5
D8F
  8
DETAIL
  6
CONTINUOUS
 62
     5
 10
-78.67045781467003
 20
-11.115900188801779
 30
0.0
  0
VERTEX
  5
D90
  8
DETAIL
  6
CONTINUOUS
 62
     5
 10
-78.670448168402686
 20
-11.11590018880179
 30
0.0
  0
VERTEX
  5
D91
  8
DETAIL
  6
CONTINUOUS
 62
     5
 10
-78.67042198567701
 20
-11.11590018880179
 30
0.0
  0
VERTEX
  5
D92
  8
DETAIL
  6
CONTINUOUS
 62
     5
 10
-78.670370998263905
 20
-11.11590018880179
 30
0.0
  0
VERTEX
  5
D93
  8
DETAIL
  6
CONTINUOUS
 62
     5
 10
-78.670286937934193
 20
-11.11590018880179
 30
0.0
  0
SEQEND
  5
D94
  8
DETAIL
  6
CONTINUOUS
 62
     5
  0
POLYLINE
  5
528
  8
DETAIL
  6
CONTINUOUS
 62
     5
 66
     1
 10
0.0
 20
0.0
 30
0.0
  0
VERTEX
  5
D95
  8
DETAIL
  6
CONTINUOUS
 62
     5
 10
-78.670286937934193
 20
0.6747668576390427
 30
0.0
  0
VERTEX
  5
D96
  8
DETAIL
  6
CONTINUOUS
 62
     5
 10
-78.891506165364632
 20
0.6390880707467225
 30
0.0
  0
VERTEX
  5
D97
  8
DETAIL
  6
CONTINUOUS
 62
     5
 10
-79.083637762586761
 20
0.539735651041934
 30
0.0
  0
VERTEX
  5
D98
  8
DETAIL
  6
CONTINUOUS
 62
     5
 10
-79.235164086371483
 20
0.3882355099829364
 30
0.0
  0
VERTEX
  5
D99
  8
DETAIL
  6
CONTINUOUS
 62
     5
 10
-79.334567493489587
 20
0.1961135590279882
 30
0.0
  0
VERTEX
  5
D9A
  8
DETAIL
  6
CONTINUOUS
 62
     5
 10
-79.370330340711902
 20
-0.0251042903646521
 30
0.0
  0
VERTEX
  5
D9B
  8
DETAIL
  6
CONTINUOUS
 62
     5
 10
-79.370330340711902
 20
-0.0251222048611526
 30
0.0
  0
VERTEX
  5
D9C
  8
DETAIL
  6
CONTINUOUS
 62
     5
 10
-79.370330340711902
 20
-0.0251649240451152
 30
0.0
  0
VERTEX
  5
D9D
  8
DETAIL
  6
CONTINUOUS
 62
     5
 10
-79.370330340711902
 20
-0.0252159114582318
 30
0.0
  0
VERTEX
  5
D9E
  8
DETAIL
  6
CONTINUOUS
 62
     5
 10
-79.370330340711902
 20
-0.0252586306421945
 30
0.0
  0
VERTEX
  5
D9F
  8
DETAIL
  6
CONTINUOUS
 62
     5
 10
-79.370330340711902
 20
-0.0252765451386949
 30
0.0
  0
SEQEND
  5
DA0
  8
DETAIL
  6
CONTINUOUS
 62
     5
  0
POLYLINE
  5
535
  8
DETAIL
  6
CONTINUOUS
 62
     5
 66
     1
 10
0.0
 20
0.0
 30
0.0
  0
VERTEX
  5
DA1
  8
DETAIL
  6
CONTINUOUS
 62
     5
 10
-78.699914759114563
 20
1.3544841970488051
 30
0.0
  0
VERTEX
  5
DA2
  8
DETAIL
  6
CONTINUOUS
 62
     5
 10
-79.009498271183816
 20
1.31882796096805
 30
0.0
  0
VERTEX
  5
DA3
  8
DETAIL
  6
CONTINUOUS
 62
     5
 10
-79.293683494752429
 20
1.217260921391776
 30
0.0
  0
VERTEX
  5
DA4
  8
DETAIL
  6
CONTINUOUS
 62
     5
 10
-79.544367926821408
 20
1.05788558131897
 30
0.0
  0
VERTEX
  5
DA5
  8
DETAIL
  6
CONTINUOUS
 62
     5
 10
-79.753449064391816
 20
0.848804443748618
 30
0.0
  0
VERTEX
  5
DA6
  8
DETAIL
  6
CONTINUOUS
 62
     5
 10
-79.912824404464644
 20
0.5981200116797054
 30
0.0
  0
VERTEX
  5
DA7
  8
DETAIL
  6
CONTINUOUS
 62
     5
 10
-80.014391444040925
 20
0.3139347881112184
 30
0.0
  0
VERTEX
  5
DA8
  8
DETAIL
  6
CONTINUOUS
 62
     5
 10
-80.050047680121679
 20
0.0043512760421436
 30
0.0
  0
SEQEND
  5
DA9
  8
DETAIL
  6
CONTINUOUS
 62
     5
  0
POLYLINE
  5
53F
  8
DETAIL
  6
CONTINUOUS
 62
     5
 66
     1
 10
0.0
 20
0.0
 30
0.0
  0
VERTEX
  5
DAA
  8
DETAIL
  6
CONTINUOUS
 62
     5
 10
-80.050047680121679
 20
-10.445656861978931
 30
0.0
  0
VERTEX
  5
DAB
  8
DETAIL
  6
CONTINUOUS
 62
     5
 10
-80.014391444040925
 20
-10.75517659458356
 30
0.0
  0
VERTEX
  5
DAC
  8
DETAIL
  6
CONTINUOUS
 62
     5
 10
-79.912824404464644
 20
-11.039316117905869
 30
0.0
  0
VERTEX
  5
DAD
  8
DETAIL
  6
CONTINUOUS
 62
     5
 10
-79.753449064391816
 20
-11.28996991574383
 30
0.0
  0
VERTEX
  5
DAE
  8
DETAIL
  6
CONTINUOUS
 62
     5
 10
-79.544367926821408
 20
-11.49903247189541
 30
0.0
  0
VERTEX
  5
DAF
  8
DETAIL
  6
CONTINUOUS
 62
     5
 10
-79.293683494752429
 20
-11.658398270158569
 30
0.0
  0
VERTEX
  5
DB0
  8
DETAIL
  6
CONTINUOUS
 62
     5
 10
-79.009498271183816
 20
-11.7599617943313
 30
0.0
  0
VERTEX
  5
DB1
  8
DETAIL
  6
CONTINUOUS
 62
     5
 10
-78.699914759114563
 20
-11.79561752821154
 30
0.0
  0
SEQEND
  5
DB2
  8
DETAIL
  6
CONTINUOUS
 62
     5
  0
POLYLINE
  5
549
  8
DETAIL
  6
CONTINUOUS
 62
     5
 66
     1
 10
0.0
 20
0.0
 30
0.0
  0
VERTEX
  5
DB3
  8
DETAIL
  6
CONTINUOUS
 62
     5
 10
-78.699914759114563
 20
1.384112018229642
 30
0.0
  0
VERTEX
  5
DB4
  8
DETAIL
  6
CONTINUOUS
 62
     5
 10
-79.016292039658452
 20
1.347673353757155
 30
0.0
  0
VERTEX
  5
DB5
  8
DETAIL
  6
CONTINUOUS
 62
     5
 10
-79.306713589137615
 20
1.243877548325603
 30
0.0
  0
VERTEX
  5
DB6
  8
DETAIL
  6
CONTINUOUS
 62
     5
 10
-79.562899125573182
 20
1.08100488391385
 30
0.0
  0
VERTEX
  5
DB7
  8
DETAIL
  6
CONTINUOUS
 62
     5
 10
-79.776568366986268
 20
0.8673356425007636
 30
0.0
  0
VERTEX
  5
DB8
  8
DETAIL
  6
CONTINUOUS
 62
     5
 10
-79.939441031398033
 20
0.6111501060652067
 30
0.0
  0
VERTEX
  5
DB9
  8
DETAIL
  6
CONTINUOUS
 62
     5
 10
-80.043236836829564
 20
0.3207285565860449
 30
0.0
  0
VERTEX
  5
DBA
  8
DETAIL
  6
CONTINUOUS
 62
     5
 10
-80.079675501302063
 20
0.0043512760421436
 30
0.0
  0
SEQEND
  5
DBB
  8
DETAIL
  6
CONTINUOUS
 62
     5
  0
POLYLINE
  5
553
  8
DETAIL
  6
CONTINUOUS
 62
     5
 66
     1
 10
0.0
 20
0.0
 30
0.0
  0
VERTEX
  5
DBC
  8
DETAIL
  6
CONTINUOUS
 62
     5
 10
-80.079675501302063
 20
-10.445656861978931
 30
0.0
  0
VERTEX
  5
DBD
  8
DETAIL
  6
CONTINUOUS
 62
     5
 10
-80.043236836829578
 20
-10.76197990486803
 30
0.0
  0
VERTEX
  5
DBE
  8
DETAIL
  6
CONTINUOUS
 62
     5
 10
-79.939441031398033
 20
-11.052380361925881
 30
0.0
  0
VERTEX
  5
DBF
  8
DETAIL
  6
CONTINUOUS
 62
     5
 10
-79.776568366986268
 20
-11.30856891156448
 30
0.0
  0
VERTEX
  5
DC0
  8
DETAIL
  6
CONTINUOUS
 62
     5
 10
-79.562899125573182
 20
-11.522256232195829
 30
0.0
  0
VERTEX
  5
DC1
  8
DETAIL
  6
CONTINUOUS
 62
     5
 10
-79.306713589137615
 20
-11.685153002231941
 30
0.0
  0
VERTEX
  5
DC2
  8
DETAIL
  6
CONTINUOUS
 62
     5
 10
-79.016292039658452
 20
-11.78896990008481
 30
0.0
  0
VERTEX
  5
DC3
  8
DETAIL
  6
CONTINUOUS
 62
     5
 10
-78.699914759114563
 20
-11.825417604166431
 30
0.0
  0
SEQEND
  5
DC4
  8
DETAIL
  6
CONTINUOUS
 62
     5
  0
POLYLINE
  5
55D
  8
DETAIL
  6
CONTINUOUS
 62
     5
 66
     1
 10
0.0
 20
0.0
 30
0.0
  0
VERTEX
  5
DC5
  8
DETAIL
  6
CONTINUOUS
 62
     5
 10
-80.250035473090065
 20
-10.445656861978931
 30
0.0
  0
VERTEX
  5
DC6
  8
DETAIL
  6
CONTINUOUS
 62
     5
 10
-80.209095585462805
 20
-10.801020972373671
 30
0.0
  0
VERTEX
  5
DC7
  8
DETAIL
  6
CONTINUOUS
 62
     5
 10
-80.092479103257972
 20
-11.12725042248694
 30
0.0
  0
VERTEX
  5
DC8
  8
DETAIL
  6
CONTINUOUS
 62
     5
 10
-79.909490797491173
 20
-11.415037428100129
 30
0.0
  0
VERTEX
  5
DC9
  8
DETAIL
  6
CONTINUOUS
 62
     5
 10
-79.669435439177903
 20
-11.65507420499463
 30
0.0
  0
VERTEX
  5
DCA
  8
DETAIL
  6
CONTINUOUS
 62
     5
 10
-79.381617799333682
 20
-11.838052968951841
 30
0.0
  0
VERTEX
  5
DCB
  8
DETAIL
  6
CONTINUOUS
 62
     5
 10
-79.055342648974062
 20
-11.95466593575315
 30
0.0
  0
VERTEX
  5
DCC
  8
DETAIL
  6
CONTINUOUS
 62
     5
 10
-78.699914759114563
 20
-11.995605321179941
 30
0.0
  0
SEQEND
  5
DCD
  8
DETAIL
  6
CONTINUOUS
 62
     5
  0
POLYLINE
  5
567
  8
DETAIL
  6
CONTINUOUS
 62
     5
 66
     1
 10
0.0
 20
0.0
 30
0.0
  0
VERTEX
  5
DCE
  8
DETAIL
  6
CONTINUOUS
 62
     5
 10
-78.699914759114563
 20
1.5544719900171911
 30
0.0
  0
VERTEX
  5
DCF
  8
DETAIL
  6
CONTINUOUS
 62
     5
 10
-79.055342648974033
 20
1.5135321023899391
 30
0.0
  0
VERTEX
  5
DD0
  8
DETAIL
  6
CONTINUOUS
 62
     5
 10
-79.381617799333654
 20
1.3969156201851951
 30
0.0
  0
VERTEX
  5
DD1
  8
DETAIL
  6
CONTINUOUS
 62
     5
 10
-79.669435439177903
 20
1.213927314418475
 30
0.0
  0
VERTEX
  5
DD2
  8
DETAIL
  6
CONTINUOUS
 62
     5
 10
-79.909490797491173
 20
0.9738719561052938
 30
0.0
  0
VERTEX
  5
DD3
  8
DETAIL
  6
CONTINUOUS
 62
     5
 10
-80.092479103257972
 20
0.6860543162611678
 30
0.0
  0
VERTEX
  5
DD4
  8
DETAIL
  6
CONTINUOUS
 62
     5
 10
-80.209095585462777
 20
0.3597791659016123
 30
0.0
  0
VERTEX
  5
DD5
  8
DETAIL
  6
CONTINUOUS
 62
     5
 10
-80.250035473090065
 20
0.0043512760421436
 30
0.0
  0
SEQEND
  5
DD6
  8
DETAIL
  6
CONTINUOUS
 62
     5
  0
LINE
  5
571
  8
DETAIL
  6
CONTINUOUS
 62
     5
 10
-78.699915000000146
 20
1.5544720000007131
 30
0.0
 11
-64.099944999999934
 21
1.5544720000007131
 31
0.0
  0
LINE
  5
572
  8
DETAIL
  6
CONTINUOUS
 62
     5
 10
-64.099944999999934
 20
1.3841120000006411
 30
0.0
 11
-78.699915000000146
 21
1.3841120000006411
 31
0.0
  0
LINE
  5
573
  8
DETAIL
  6
CONTINUOUS
 62
     5
 10
-64.099944999999934
 20
1.354484000000411
 30
0.0
 11
-78.699915000000146
 21
1.354484000000411
 31
0.0
  0
LINE
  5
574
  8
DETAIL
  6
CONTINUOUS
 62
     5
 10
-64.09977200000003
 20
1.0044619999998741
 30
0.0
 11
-78.700087000000153
 21
1.0044619999998741
 31
0.0
  0
LINE
  5
575
  8
DETAIL
  6
CONTINUOUS
 62
     5
 10
-64.129571999999825
 20
0.6747670000004291
 30
0.0
 11
-78.670286999999902
 21
0.6747670000004291
 31
0.0
  0
LINE
  5
576
  8
DETAIL
  6
CONTINUOUS
 62
     5
 10
-80.079675999999807
 20
0.0043510000004972
 30
0.0
 11
-80.250035000000025
 21
0.0043510000004972
 31
0.0
  0
LINE
  5
577
  8
DETAIL
  6
CONTINUOUS
 62
     5
 10
-62.54999599999973
 20
0.0043510000004972
 30
0.0
 11
-62.72018399999979
 21
0.0043510000004972
 31
0.0
  0
LINE
  5
578
  8
DETAIL
  6
CONTINUOUS
 62
     5
 10
-62.72018399999979
 20
-10.445656999999301
 30
0.0
 11
-62.54999599999973
 21
-10.445656999999301
 31
0.0
  0
LINE
  5
579
  8
DETAIL
  6
CONTINUOUS
 62
     5
 10
-80.250035000000025
 20
-10.445656999999301
 30
0.0
 11
-80.079675999999807
 21
-10.445656999999301
 31
0.0
  0
LINE
  5
57A
  8
DETAIL
  6
CONTINUOUS
 62
     5
 10
-78.670286999999902
 20
-11.11589999999978
 30
0.0
 11
-64.129571999999825
 21
-11.11589999999978
 31
0.0
  0
LINE
  5
57B
  8
DETAIL
  6
CONTINUOUS
 62
     5
 10
-78.700087000000153
 20
-11.44559599999957
 30
0.0
 11
-64.09977200000003
 21
-11.44559599999957
 31
0.0
  0
LINE
  5
57C
  8
DETAIL
  6
CONTINUOUS
 62
     5
 10
-78.699915000000146
 20
-11.795618000000101
 30
0.0
 11
-64.099944999999934
 21
-11.795618000000101
 31
0.0
  0
LINE
  5
57D
  8
DETAIL
  6
CONTINUOUS
 62
     5
 10
-78.699915000000146
 20
-11.82541799999944
 30
0.0
 11
-64.099944999999934
 21
-11.82541799999944
 31
0.0
  0
LINE
  5
57E
  8
DETAIL
  6
CONTINUOUS
 62
     5
 10
-64.099944999999934
 20
-11.99560500000007
 30
0.0
 11
-78.699915000000146
 21
-11.99560500000007
 31
0.0
  0
LINE
  5
57F
  8
DETAIL
  6
CONTINUOUS
 62
     5
 10
-62.54999599999973
 20
0.0043510000004972
 30
0.0
 11
-62.54999599999973
 21
-10.445656999999301
 31
0.0
  0
LINE
  5
580
  8
DETAIL
  6
CONTINUOUS
 62
     5
 10
-62.72018399999979
 20
-10.445656999999301
 30
0.0
 11
-62.72018399999979
 21
0.0043510000004972
 31
0.0
  0
LINE
  5
581
  8
DETAIL
  6
CONTINUOUS
 62
     5
 10
-62.74998400000004
 20
-10.445656999999301
 30
0.0
 11
-62.74998400000004
 21
0.0043510000004972
 31
0.0
  0
LINE
  5
582
  8
DETAIL
  6
CONTINUOUS
 62
     5
 10
-63.100006000000107
 20
-10.445656999999301
 30
0.0
 11
-63.100006000000107
 21
0.0045239999999467
 31
0.0
  0
LINE
  5
583
  8
DETAIL
  6
CONTINUOUS
 62
     5
 10
-63.429701000000023
 20
-10.41602899999998
 30
0.0
 11
-63.429701000000023
 21
-0.0252769999997327
 31
0.0
  0
LINE
  5
584
  8
DETAIL
  6
CONTINUOUS
 62
     5
 10
-64.099944999999934
 20
1.3841120000006411
 30
0.0
 11
-64.099944999999934
 21
1.5544720000007131
 31
0.0
  0
LINE
  5
585
  8
DETAIL
  6
CONTINUOUS
 62
     5
 10
-64.099944999999934
 20
-11.99560500000007
 30
0.0
 11
-64.099944999999934
 21
-11.82541799999944
 31
0.0
  0
LINE
  5
586
  8
DETAIL
  6
CONTINUOUS
 62
     5
 10
-78.699915000000146
 20
-11.82541799999944
 30
0.0
 11
-78.699915000000146
 21
-11.99560500000007
 31
0.0
  0
LINE
  5
587
  8
DETAIL
  6
CONTINUOUS
 62
     5
 10
-78.699915000000146
 20
1.5544720000007131
 30
0.0
 11
-78.699915000000146
 21
1.3841120000006411
 31
0.0
  0
LINE
  5
588
  8
DETAIL
  6
CONTINUOUS
 62
     5
 10
-79.37032999999974
 20
-0.0252769999997327
 30
0.0
 11
-79.37032999999974
 21
-10.41602899999998
 31
0.0
  0
LINE
  5
589
  8
DETAIL
  6
CONTINUOUS
 62
     5
 10
-79.70002599999998
 20
0.0045239999999467
 30
0.0
 11
-79.70002599999998
 21
-10.445656999999301
 31
0.0
  0
LINE
  5
58A
  8
DETAIL
  6
CONTINUOUS
 62
     5
 10
-80.050048000000075
 20
0.0043510000004972
 30
0.0
 11
-80.050048000000075
 21
-10.445656999999301
 31
0.0
  0
LINE
  5
58B
  8
DETAIL
  6
CONTINUOUS
 62
     5
 10
-80.079675999999807
 20
0.0043510000004972
 30
0.0
 11
-80.079675999999807
 21
-10.445656999999301
 31
0.0
  0
LINE
  5
58C
  8
DETAIL
  6
CONTINUOUS
 62
     5
 10
-80.250035000000025
 20
-10.445656999999301
 30
0.0
 11
-80.250035000000025
 21
0.0043510000004972
 31
0.0
  0
POLYLINE
  5
58D
  8
DETAIL
  6
CONTINUOUS
 62
     5
 66
     1
 10
0.0
 20
0.0
 30
0.0
  0
VERTEX
  5
DD7
  8
DETAIL
  6
CONTINUOUS
 62
     5
 10
-63.100005633680659
 20
22.450009641926961
 30
0.0
  0
VERTEX
  5
DD8
  8
DETAIL
  6
CONTINUOUS
 62
     5
 10
-63.126405309994631
 20
22.679285768532971
 30
0.0
  0
VERTEX
  5
DD9
  8
DETAIL
  6
CONTINUOUS
 62
     5
 10
-63.201606822891463
 20
22.889756494909552
 30
0.0
  0
VERTEX
  5
DDA
  8
DETAIL
  6
CONTINUOUS
 62
     5
 10
-63.319613898303452
 20
23.075419520582969
 30
0.0
  0
VERTEX
  5
DDB
  8
DETAIL
  6
CONTINUOUS
 62
     5
 10
-63.474430262162961
 20
23.230272545079519
 30
0.0
  0
VERTEX
  5
DDC
  8
DETAIL
  6
CONTINUOUS
 62
     5
 10
-63.660059640402316
 20
23.348313267925469
 30
0.0
  0
VERTEX
  5
DDD
  8
DETAIL
  6
CONTINUOUS
 62
     5
 10
-63.870505758953847
 20
23.423539388647111
 30
0.0
  0
VERTEX
  5
DDE
  8
DETAIL
  6
CONTINUOUS
 62
     5
 10
-64.099772343749905
 20
23.4499486067707
 30
0.0
  0
SEQEND
  5
DDF
  8
DETAIL
  6
CONTINUOUS
 62
     5
  0
POLYLINE
  5
597
  8
DETAIL
  6
CONTINUOUS
 62
     5
 66
     1
 10
0.0
 20
0.0
 30
0.0
  0
VERTEX
  5
DE0
  8
DETAIL
  6
CONTINUOUS
 62
     5
 10
-78.70008701388906
 20
23.4499486067707
 30
0.0
  0
VERTEX
  5
DE1
  8
DETAIL
  6
CONTINUOUS
 62
     5
 10
-78.929363140494772
 20
23.423539388647111
 30
0.0
  0
VERTEX
  5
DE2
  8
DETAIL
  6
CONTINUOUS
 62
     5
 10
-79.139833866871257
 20
23.34831326792548
 30
0.0
  0
VERTEX
  5
DE3
  8
DETAIL
  6
CONTINUOUS
 62
     5
 10
-79.325496892544692
 20
23.230272545079519
 30
0.0
  0
VERTEX
  5
DE4
  8
DETAIL
  6
CONTINUOUS
 62
     5
 10
-79.480349917041323
 20
23.075419520582969
 30
0.0
  0
VERTEX
  5
DE5
  8
DETAIL
  6
CONTINUOUS
 62
     5
 10
-79.598390639887413
 20
22.889756494909552
 30
0.0
  0
VERTEX
  5
DE6
  8
DETAIL
  6
CONTINUOUS
 62
     5
 10
-79.673616760609193
 20
22.679285768532971
 30
0.0
  0
VERTEX
  5
DE7
  8
DETAIL
  6
CONTINUOUS
 62
     5
 10
-79.70002597873281
 20
22.450009641926961
 30
0.0
  0
SEQEND
  5
DE8
  8
DETAIL
  6
CONTINUOUS
 62
     5
  0
POLYLINE
  5
5A1
  8
DETAIL
  6
CONTINUOUS
 62
     5
 66
     1
 10
0.0
 20
0.0
 30
0.0
  0
VERTEX
  5
DE9
  8
DETAIL
  6
CONTINUOUS
 62
     5
 10
-79.70002597873281
 20
11.99982924913183
 30
0.0
  0
VERTEX
  5
DEA
  8
DETAIL
  6
CONTINUOUS
 62
     5
 10
-79.673616760609193
 20
11.770553122526101
 30
0.0
  0
VERTEX
  5
DEB
  8
DETAIL
  6
CONTINUOUS
 62
     5
 10
-79.598390639887413
 20
11.56008239614963
 30
0.0
  0
VERTEX
  5
DEC
  8
DETAIL
  6
CONTINUOUS
 62
     5
 10
-79.480349917041323
 20
11.37441937047619
 30
0.0
  0
VERTEX
  5
DED
  8
DETAIL
  6
CONTINUOUS
 62
     5
 10
-79.325496892544692
 20
11.219566345979549
 30
0.0
  0
VERTEX
  5
DEE
  8
DETAIL
  6
CONTINUOUS
 62
     5
 10
-79.139833866871257
 20
11.10152562313346
 30
0.0
  0
VERTEX
  5
DEF
  8
DETAIL
  6
CONTINUOUS
 62
     5
 10
-78.929363140494786
 20
11.026299502411719
 30
0.0
  0
VERTEX
  5
DF0
  8
DETAIL
  6
CONTINUOUS
 62
     5
 10
-78.70008701388906
 20
10.99989028428808
 30
0.0
  0
SEQEND
  5
DF1
  8
DETAIL
  6
CONTINUOUS
 62
     5
  0
POLYLINE
  5
5AB
  8
DETAIL
  6
CONTINUOUS
 62
     5
 66
     1
 10
0.0
 20
0.0
 30
0.0
  0
VERTEX
  5
DF2
  8
DETAIL
  6
CONTINUOUS
 62
     5
 10
-64.099772343749905
 20
10.99989028428808
 30
0.0
  0
VERTEX
  5
DF3
  8
DETAIL
  6
CONTINUOUS
 62
     5
 10
-63.870505758953847
 20
11.026299502411719
 30
0.0
  0
VERTEX
  5
DF4
  8
DETAIL
  6
CONTINUOUS
 62
     5
 10
-63.660059640402316
 20
11.10152562313346
 30
0.0
  0
VERTEX
  5
DF5
  8
DETAIL
  6
CONTINUOUS
 62
     5
 10
-63.474430262162961
 20
11.219566345979549
 30
0.0
  0
VERTEX
  5
DF6
  8
DETAIL
  6
CONTINUOUS
 62
     5
 10
-63.319613898303459
 20
11.37441937047619
 30
0.0
  0
VERTEX
  5
DF7
  8
DETAIL
  6
CONTINUOUS
 62
     5
 10
-63.201606822891449
 20
11.56008239614963
 30
0.0
  0
VERTEX
  5
DF8
  8
DETAIL
  6
CONTINUOUS
 62
     5
 10
-63.126405309994652
 20
11.770553122526101
 30
0.0
  0
VERTEX
  5
DF9
  8
DETAIL
  6
CONTINUOUS
 62
     5
 10
-63.100005633680659
 20
11.99982924913183
 30
0.0
  0
SEQEND
  5
DFA
  8
DETAIL
  6
CONTINUOUS
 62
     5
  0
POLYLINE
  5
5B5
  8
DETAIL
  6
CONTINUOUS
 62
     5
 66
     1
 10
0.0
 20
0.0
 30
0.0
  0
VERTEX
  5
DFB
  8
DETAIL
  6
CONTINUOUS
 62
     5
 10
89.764393237847344
 20
58.264533296441179
 30
0.0
  0
VERTEX
  5
DFC
  8
DETAIL
  6
CONTINUOUS
 62
     5
 10
89.724783679366226
 20
58.608442715444909
 30
0.0
  0
VERTEX
  5
DFD
  8
DETAIL
  6
CONTINUOUS
 62
     5
 10
89.611953286792541
 20
58.924136501097138
 30
0.0
  0
VERTEX
  5
DFE
  8
DETAIL
  6
CONTINUOUS
 62
     5
 10
89.434899484430844
 20
59.202614215890208
 30
0.0
  0
VERTEX
  5
DFF
  8
DETAIL
  6
CONTINUOUS
 62
     5
 10
89.202619696585657
 20
59.434875422316573
 30
0.0
  0
VERTEX
  5
E00
  8
DETAIL
  6
CONTINUOUS
 62
     5
 10
88.924111347561549
 20
59.611919682868603
 30
0.0
  0
VERTEX
  5
E01
  8
DETAIL
  6
CONTINUOUS
 62
     5
 10
88.608371861663045
 20
59.72474656003871
 30
0.0
  0
VERTEX
  5
E02
  8
DETAIL
  6
CONTINUOUS
 62
     5
 10
88.264398663194697
 20
59.764355616319342
 30
0.0
  0
SEQEND
  5
E03
  8
DETAIL
  6
CONTINUOUS
 62
     5
  0
POLYLINE
  5
5BF
  8
DETAIL
  6
CONTINUOUS
 62
     5
 66
     1
 10
0.0
 20
0.0
 30
0.0
  0
VERTEX
  5
E04
  8
DETAIL
  6
CONTINUOUS
 62
     5
 10
-88.264533357204996
 20
59.764355616319342
 30
0.0
  0
VERTEX
  5
E05
  8
DETAIL
  6
CONTINUOUS
 62
     5
 10
-88.608442776208719
 20
59.72474656003871
 30
0.0
  0
VERTEX
  5
E06
  8
DETAIL
  6
CONTINUOUS
 62
     5
 10
-88.924136561860962
 20
59.611919682868603
 30
0.0
  0
VERTEX
  5
E07
  8
DETAIL
  6
CONTINUOUS
 62
     5
 10
-89.202614276654003
 20
59.434875422316559
 30
0.0
  0
VERTEX
  5
E08
  8
DETAIL
  6
CONTINUOUS
 62
     5
 10
-89.434875483080333
 20
59.202614215890208
 30
0.0
  0
VERTEX
  5
E09
  8
DETAIL
  6
CONTINUOUS
 62
     5
 10
-89.611919743632356
 20
58.924136501097138
 30
0.0
  0
VERTEX
  5
E0A
  8
DETAIL
  6
CONTINUOUS
 62
     5
 10
-89.724746620802506
 20
58.608442715444909
 30
0.0
  0
VERTEX
  5
E0B
  8
DETAIL
  6
CONTINUOUS
 62
     5
 10
-89.764355677083088
 20
58.264533296441179
 30
0.0
  0
SEQEND
  5
E0C
  8
DETAIL
  6
CONTINUOUS
 62
     5
  0
POLYLINE
  5
5C9
  8
DETAIL
  6
CONTINUOUS
 62
     5
 66
     1
 10
0.0
 20
0.0
 30
0.0
  0
VERTEX
  5
E0D
  8
DETAIL
  6
CONTINUOUS
 62
     5
 10
-89.764355677083088
 20
-58.264615737846732
 30
0.0
  0
VERTEX
  5
E0E
  8
DETAIL
  6
CONTINUOUS
 62
     5
 10
-89.724746620802506
 20
-58.608569852695901
 30
0.0
  0
VERTEX
  5
E0F
  8
DETAIL
  6
CONTINUOUS
 62
     5
 10
-89.611919743632356
 20
-58.924260122944681
 30
0.0
  0
VERTEX
  5
E10
  8
DETAIL
  6
CONTINUOUS
 62
     5
 10
-89.434875483080333
 20
-59.202701177100707
 30
0.0
  0
VERTEX
  5
E11
  8
DETAIL
  6
CONTINUOUS
 62
     5
 10
-89.202614276653989
 20
-59.434907643671629
 30
0.0
  0
VERTEX
  5
E12
  8
DETAIL
  6
CONTINUOUS
 62
     5
 10
-88.924136561860948
 20
-59.611894151165203
 30
0.0
  0
VERTEX
  5
E13
  8
DETAIL
  6
CONTINUOUS
 62
     5
 10
-88.608442776208719
 20
-59.724675328089027
 30
0.0
  0
VERTEX
  5
E14
  8
DETAIL
  6
CONTINUOUS
 62
     5
 10
-88.264533357204996
 20
-59.764265802950831
 30
0.0
  0
SEQEND
  5
E15
  8
DETAIL
  6
CONTINUOUS
 62
     5
  0
POLYLINE
  5
5D3
  8
DETAIL
  6
CONTINUOUS
 62
     5
 66
     1
 10
0.0
 20
0.0
 30
0.0
  0
VERTEX
  5
E16
  8
DETAIL
  6
CONTINUOUS
 62
     5
 10
-88.5001778884548
 20
60.00000014757007
 30
0.0
  0
VERTEX
  5
E17
  8
DETAIL
  6
CONTINUOUS
 62
     5
 10
-88.844087307458736
 20
59.960391091289452
 30
0.0
  0
VERTEX
  5
E18
  8
DETAIL
  6
CONTINUOUS
 62
     5
 10
-89.159781093111036
 20
59.847564214119302
 30
0.0
  0
VERTEX
  5
E19
  8
DETAIL
  6
CONTINUOUS
 62
     5
 10
-89.438258807904177
 20
59.670519953567222
 30
0.0
  0
VERTEX
  5
E1A
  8
DETAIL
  6
CONTINUOUS
 62
     5
 10
-89.670520014330577
 20
59.438258747140772
 30
0.0
  0
VERTEX
  5
E1B
  8
DETAIL
  6
CONTINUOUS
 62
     5
 10
-89.847564274882643
 20
59.159781032347531
 30
0.0
  0
VERTEX
  5
E1C
  8
DETAIL
  6
CONTINUOUS
 62
     5
 10
-89.960391152052765
 20
58.844087246695082
 30
0.0
  0
VERTEX
  5
E1D
  8
DETAIL
  6
CONTINUOUS
 62
     5
 10
-90.000000208333404
 20
58.500177827690997
 30
0.0
  0
SEQEND
  5
E1E
  8
DETAIL
  6
CONTINUOUS
 62
     5
  0
POLYLINE
  5
5DD
  8
DETAIL
  6
CONTINUOUS
 62
     5
 66
     1
 10
0.0
 20
0.0
 30
0.0
  0
VERTEX
  5
E1F
  8
DETAIL
  6
CONTINUOUS
 62
     5
 10
90.000037769097162
 20
58.500177827690997
 30
0.0
  0
VERTEX
  5
E20
  8
DETAIL
  6
CONTINUOUS
 62
     5
 10
89.96042821061603
 20
58.844087246695061
 30
0.0
  0
VERTEX
  5
E21
  8
DETAIL
  6
CONTINUOUS
 62
     5
 10
89.847597818042345
 20
59.159781032347531
 30
0.0
  0
VERTEX
  5
E22
  8
DETAIL
  6
CONTINUOUS
 62
     5
 10
89.670544015680662
 20
59.438258747140772
 30
0.0
  0
VERTEX
  5
E23
  8
DETAIL
  6
CONTINUOUS
 62
     5
 10
89.438264227835461
 20
59.670519953567222
 30
0.0
  0
VERTEX
  5
E24
  8
DETAIL
  6
CONTINUOUS
 62
     5
 10
89.159755878811353
 20
59.847564214119302
 30
0.0
  0
VERTEX
  5
E25
  8
DETAIL
  6
CONTINUOUS
 62
     5
 10
88.844016392912863
 20
59.960391091289452
 30
0.0
  0
VERTEX
  5
E26
  8
DETAIL
  6
CONTINUOUS
 62
     5
 10
88.50004319444453
 20
60.00000014757007
 30
0.0
  0
SEQEND
  5
E27
  8
DETAIL
  6
CONTINUOUS
 62
     5
  0
POLYLINE
  5
5E7
  8
DETAIL
  6
CONTINUOUS
 62
     5
 66
     1
 10
0.0
 20
0.0
 30
0.0
  0
VERTEX
  5
E28
  8
DETAIL
  6
CONTINUOUS
 62
     5
 10
-70.008972376302154
 20
-52.991208077256488
 30
0.0
  0
VERTEX
  5
E29
  8
DETAIL
  6
CONTINUOUS
 62
     5
 10
-69.917229383066797
 20
-52.980639769762377
 30
0.0
  0
VERTEX
  5
E2A
  8
DETAIL
  6
CONTINUOUS
 62
     5
 10
-69.833028437063334
 20
-52.950533853698097
 30
0.0
  0
VERTEX
  5
E2B
  8
DETAIL
  6
CONTINUOUS
 62
     5
 10
-69.758765034715751
 20
-52.903288838690692
 30
0.0
  0
VERTEX
  5
E2C
  8
DETAIL
  6
CONTINUOUS
 62
     5
 10
-69.696834672448077
 20
-52.841303234367182
 30
0.0
  0
VERTEX
  5
E2D
  8
DETAIL
  6
CONTINUOUS
 62
     5
 10
-69.649632846684298
 20
-52.766975550354651
 30
0.0
  0
VERTEX
  5
E2E
  8
DETAIL
  6
CONTINUOUS
 62
     5
 10
-69.619555053848416
 20
-52.682704296280143
 30
0.0
  0
VERTEX
  5
E2F
  8
DETAIL
  6
CONTINUOUS
 62
     5
 10
-69.608996790364472
 20
-52.590887981770713
 30
0.0
  0
SEQEND
  5
E30
  8
DETAIL
  6
CONTINUOUS
 62
     5
  0
POLYLINE
  5
5F1
  8
DETAIL
  6
CONTINUOUS
 62
     5
 66
     1
 10
0.0
 20
0.0
 30
0.0
  0
VERTEX
  5
E31
  8
DETAIL
  6
CONTINUOUS
 62
     5
 10
-69.608996790364472
 20
-51.4092202300344
 30
0.0
  0
VERTEX
  5
E32
  8
DETAIL
  6
CONTINUOUS
 62
     5
 10
-69.619555053848416
 20
-51.317403915524963
 30
0.0
  0
VERTEX
  5
E33
  8
DETAIL
  6
CONTINUOUS
 62
     5
 10
-69.649632846684312
 20
-51.233132661450462
 30
0.0
  0
VERTEX
  5
E34
  8
DETAIL
  6
CONTINUOUS
 62
     5
 10
-69.696834672448091
 20
-51.158804977437931
 30
0.0
  0
VERTEX
  5
E35
  8
DETAIL
  6
CONTINUOUS
 62
     5
 10
-69.758765034715751
 20
-51.096819373114428
 30
0.0
  0
VERTEX
  5
E36
  8
DETAIL
  6
CONTINUOUS
 62
     5
 10
-69.833028437063334
 20
-51.049574358107023
 30
0.0
  0
VERTEX
  5
E37
  8
DETAIL
  6
CONTINUOUS
 62
     5
 10
-69.917229383066811
 20
-51.019468442042751
 30
0.0
  0
VERTEX
  5
E38
  8
DETAIL
  6
CONTINUOUS
 62
     5
 10
-70.008972376302154
 20
-51.008900134548647
 30
0.0
  0
SEQEND
  5
E39
  8
DETAIL
  6
CONTINUOUS
 62
     5
  0
POLYLINE
  5
5FB
  8
DETAIL
  6
CONTINUOUS
 62
     5
 66
     1
 10
0.0
 20
0.0
 30
0.0
  0
VERTEX
  5
E3A
  8
DETAIL
  6
CONTINUOUS
 62
     5
 10
-72.791059236110883
 20
-51.008900134548647
 30
0.0
  0
VERTEX
  5
E3B
  8
DETAIL
  6
CONTINUOUS
 62
     5
 10
-72.882747991691261
 20
-51.019468442042736
 30
0.0
  0
VERTEX
  5
E3C
  8
DETAIL
  6
CONTINUOUS
 62
     5
 10
-72.966927845273375
 20
-51.049574358107037
 30
0.0
  0
VERTEX
  5
E3D
  8
DETAIL
  6
CONTINUOUS
 62
     5
 10
-73.041194260824014
 20
-51.09681937311445
 30
0.0
  0
VERTEX
  5
E3E
  8
DETAIL
  6
CONTINUOUS
 62
     5
 10
-73.103142702309981
 20
-51.158804977437931
 30
0.0
  0
VERTEX
  5
E3F
  8
DETAIL
  6
CONTINUOUS
 62
     5
 10
-73.150368633698193
 20
-51.233132661450462
 30
0.0
  0
VERTEX
  5
E40
  8
DETAIL
  6
CONTINUOUS
 62
     5
 10
-73.180467518955425
 20
-51.31740391552497
 30
0.0
  0
VERTEX
  5
E41
  8
DETAIL
  6
CONTINUOUS
 62
     5
 10
-73.19103482204855
 20
-51.4092202300344
 30
0.0
  0
SEQEND
  5
E42
  8
DETAIL
  6
CONTINUOUS
 62
     5
  0
POLYLINE
  5
605
  8
DETAIL
  6
CONTINUOUS
 62
     5
 66
     1
 10
0.0
 20
0.0
 30
0.0
  0
VERTEX
  5
E43
  8
DETAIL
  6
CONTINUOUS
 62
     5
 10
-73.19103482204855
 20
-52.590887981770713
 30
0.0
  0
VERTEX
  5
E44
  8
DETAIL
  6
CONTINUOUS
 62
     5
 10
-73.180467518955425
 20
-52.682704296280143
 30
0.0
  0
VERTEX
  5
E45
  8
DETAIL
  6
CONTINUOUS
 62
     5
 10
-73.150368633698207
 20
-52.766975550354651
 30
0.0
  0
VERTEX
  5
E46
  8
DETAIL
  6
CONTINUOUS
 62
     5
 10
-73.103142702309981
 20
-52.84130323436716
 30
0.0
  0
VERTEX
  5
E47
  8
DETAIL
  6
CONTINUOUS
 62
     5
 10
-73.041194260824
 20
-52.903288838690671
 30
0.0
  0
VERTEX
  5
E48
  8
DETAIL
  6
CONTINUOUS
 62
     5
 10
-72.966927845273375
 20
-52.950533853698097
 30
0.0
  0
VERTEX
  5
E49
  8
DETAIL
  6
CONTINUOUS
 62
     5
 10
-72.882747991691289
 20
-52.980639769762377
 30
0.0
  0
VERTEX
  5
E4A
  8
DETAIL
  6
CONTINUOUS
 62
     5
 10
-72.791059236110883
 20
-52.991208077256488
 30
0.0
  0
SEQEND
  5
E4B
  8
DETAIL
  6
CONTINUOUS
 62
     5
  0
POLYLINE
  5
60F
  8
DETAIL
  6
CONTINUOUS
 62
     5
 66
     1
 10
0.0
 20
0.0
 30
0.0
  0
VERTEX
  5
E4C
  8
DETAIL
  6
CONTINUOUS
 62
     5
 10
62.779649314235932
 20
12.90761190972262
 30
0.0
  0
VERTEX
  5
E4D
  8
DETAIL
  6
CONTINUOUS
 62
     5
 10
62.55841355034714
 20
12.872017183160031
 30
0.0
  0
VERTEX
  5
E4E
  8
DETAIL
  6
CONTINUOUS
 62
     5
 10
62.366248880208282
 20
12.772715750868359
 30
0.0
  0
VERTEX
  5
E4F
  8
DETAIL
  6
CONTINUOUS
 62
     5
 10
62.21469775173604
 20
12.62124179253502
 30
0.0
  0
VERTEX
  5
E50
  8
DETAIL
  6
CONTINUOUS
 62
     5
 10
62.11530261284711
 20
12.42912948784741
 30
0.0
  0
VERTEX
  5
E51
  8
DETAIL
  6
CONTINUOUS
 62
     5
 10
62.079605911458209
 20
12.20791301649297
 30
0.0
  0
VERTEX
  5
E52
  8
DETAIL
  6
CONTINUOUS
 62
     5
 10
62.079605911458209
 20
12.207895101996471
 30
0.0
  0
VERTEX
  5
E53
  8
DETAIL
  6
CONTINUOUS
 62
     5
 10
62.079605911458209
 20
12.207852382812501
 30
0.0
  0
VERTEX
  5
E54
  8
DETAIL
  6
CONTINUOUS
 62
     5
 10
62.079605911458209
 20
12.207801395399381
 30
0.0
  0
VERTEX
  5
E55
  8
DETAIL
  6
CONTINUOUS
 62
     5
 10
62.079605911458209
 20
12.20775867621542
 30
0.0
  0
VERTEX
  5
E56
  8
DETAIL
  6
CONTINUOUS
 62
     5
 10
62.079605911458209
 20
12.20774076171892
 30
0.0
  0
SEQEND
  5
E57
  8
DETAIL
  6
CONTINUOUS
 62
     5
  0
POLYLINE
  5
61C
  8
DETAIL
  6
CONTINUOUS
 62
     5
 66
     1
 10
0.0
 20
0.0
 30
0.0
  0
VERTEX
  5
E58
  8
DETAIL
  6
CONTINUOUS
 62
     5
 10
80.720328567708293
 20
12.20774076171892
 30
0.0
  0
VERTEX
  5
E59
  8
DETAIL
  6
CONTINUOUS
 62
     5
 10
80.684631866319435
 20
12.428958611111209
 30
0.0
  0
VERTEX
  5
E5A
  8
DETAIL
  6
CONTINUOUS
 62
     5
 10
80.585236727430583
 20
12.621080562066121
 30
0.0
  0
VERTEX
  5
E5B
  8
DETAIL
  6
CONTINUOUS
 62
     5
 10
80.433685598958434
 20
12.77258070312525
 30
0.0
  0
VERTEX
  5
E5C
  8
DETAIL
  6
CONTINUOUS
 62
     5
 10
80.241520928819511
 20
12.87193312283021
 30
0.0
  0
VERTEX
  5
E5D
  8
DETAIL
  6
CONTINUOUS
 62
     5
 10
80.020285164930527
 20
12.90761190972262
 30
0.0
  0
VERTEX
  5
E5E
  8
DETAIL
  6
CONTINUOUS
 62
     5
 10
80.020285164930527
 20
12.90761190972262
 30
0.0
  0
VERTEX
  5
E5F
  8
DETAIL
  6
CONTINUOUS
 62
     5
 10
80.020285164930527
 20
12.90761190972262
 30
0.0
  0
VERTEX
  5
E60
  8
DETAIL
  6
CONTINUOUS
 62
     5
 10
80.020285164930527
 20
12.90761190972262
 30
0.0
  0
VERTEX
  5
E61
  8
DETAIL
  6
CONTINUOUS
 62
     5
 10
80.020285164930527
 20
12.90761190972262
 30
0.0
  0
VERTEX
  5
E62
  8
DETAIL
  6
CONTINUOUS
 62
     5
 10
80.020285164930527
 20
12.90761190972262
 30
0.0
  0
SEQEND
  5
E63
  8
DETAIL
  6
CONTINUOUS
 62
     5
  0
POLYLINE
  5
629
  8
DETAIL
  6
CONTINUOUS
 62
     5
 66
     1
 10
0.0
 20
0.0
 30
0.0
  0
VERTEX
  5
E64
  8
DETAIL
  6
CONTINUOUS
 62
     5
 10
50.750064895833482
 20
43.649921480035097
 30
0.0
  0
VERTEX
  5
E65
  8
DETAIL
  6
CONTINUOUS
 62
     5
 10
50.723646135900182
 20
43.879197606640837
 30
0.0
  0
VERTEX
  5
E66
  8
DETAIL
  6
CONTINUOUS
 62
     5
 10
50.64839540735349
 20
44.089668333017322
 30
0.0
  0
VERTEX
  5
E67
  8
DETAIL
  6
CONTINUOUS
 62
     5
 10
50.530321037073342
 20
44.27533135869075
 30
0.0
  0
VERTEX
  5
E68
  8
DETAIL
  6
CONTINUOUS
 62
     5
 10
50.375431351939532
 20
44.430184383187402
 30
0.0
  0
VERTEX
  5
E69
  8
DETAIL
  6
CONTINUOUS
 62
     5
 10
50.189734678832032
 20
44.54822510603347
 30
0.0
  0
VERTEX
  5
E6A
  8
DETAIL
  6
CONTINUOUS
 62
     5
 10
49.979239344630628
 20
44.623451226755222
 30
0.0
  0
VERTEX
  5
E6B
  8
DETAIL
  6
CONTINUOUS
 62
     5
 10
49.74995367621522
 20
44.649860444878847
 30
0.0
  0
SEQEND
  5
E6C
  8
DETAIL
  6
CONTINUOUS
 62
     5
  0
POLYLINE
  5
633
  8
DETAIL
  6
CONTINUOUS
 62
     5
 66
     1
 10
0.0
 20
0.0
 30
0.0
  0
VERTEX
  5
E6D
  8
DETAIL
  6
CONTINUOUS
 62
     5
 10
89.343402569444621
 20
58.264533296441179
 30
0.0
  0
VERTEX
  5
E6E
  8
DETAIL
  6
CONTINUOUS
 62
     5
 10
89.288405065104357
 20
58.605446165364789
 30
0.0
  0
VERTEX
  5
E6F
  8
DETAIL
  6
CONTINUOUS
 62
     5
 10
89.135263680555695
 20
58.901545232205059
 30
0.0
  0
VERTEX
  5
E70
  8
DETAIL
  6
CONTINUOUS
 62
     5
 10
88.901755108507103
 20
59.135053804253673
 30
0.0
  0
VERTEX
  5
E71
  8
DETAIL
  6
CONTINUOUS
 62
     5
 10
88.605656041666833
 20
59.288195188802277
 30
0.0
  0
VERTEX
  5
E72
  8
DETAIL
  6
CONTINUOUS
 62
     5
 10
88.264743172743223
 20
59.343192693142541
 30
0.0
  0
VERTEX
  5
E73
  8
DETAIL
  6
CONTINUOUS
 62
     5
 10
88.264740416666854
 20
59.343192693142541
 30
0.0
  0
VERTEX
  5
E74
  8
DETAIL
  6
CONTINUOUS
 62
     5
 10
88.264721124132109
 20
59.343192693142541
 30
0.0
  0
VERTEX
  5
E75
  8
DETAIL
  6
CONTINUOUS
 62
     5
 10
88.264668758680727
 20
59.343192693142541
 30
0.0
  0
VERTEX
  5
E76
  8
DETAIL
  6
CONTINUOUS
 62
     5
 10
88.264566783854363
 20
59.343192693142541
 30
0.0
  0
VERTEX
  5
E77
  8
DETAIL
  6
CONTINUOUS
 62
     5
 10
88.264398663194697
 20
59.343192693142541
 30
0.0
  0
SEQEND
  5
E78
  8
DETAIL
  6
CONTINUOUS
 62
     5
  0
POLYLINE
  5
640
  8
DETAIL
  6
CONTINUOUS
 62
     5
 66
     1
 10
0.0
 20
0.0
 30
0.0
  0
VERTEX
  5
E79
  8
DETAIL
  6
CONTINUOUS
 62
     5
 10
81.400045907118042
 20
12.23736858289976
 30
0.0
  0
VERTEX
  5
E7A
  8
DETAIL
  6
CONTINUOUS
 62
     5
 10
81.364380631428176
 20
12.546942553159189
 30
0.0
  0
VERTEX
  5
E7B
  8
DETAIL
  6
CONTINUOUS
 62
     5
 10
81.262792499430574
 20
12.831103168902819
 30
0.0
  0
VERTEX
  5
E7C
  8
DETAIL
  6
CONTINUOUS
 62
     5
 10
81.103393053733384
 20
13.08175395353773
 30
0.0
  0
VERTEX
  5
E7D
  8
DETAIL
  6
CONTINUOUS
 62
     5
 10
80.894293836944698
 20
13.290798430471041
 30
0.0
  0
VERTEX
  5
E7E
  8
DETAIL
  6
CONTINUOUS
 62
     5
 10
80.643606391672677
 20
13.450140123109851
 30
0.0
  0
VERTEX
  5
E7F
  8
DETAIL
  6
CONTINUOUS
 62
     5
 10
80.359442260525384
 20
13.55168255486126
 30
0.0
  0
VERTEX
  5
E80
  8
DETAIL
  6
CONTINUOUS
 62
     5
 10
80.049912986110911
 20
13.587329249132379
 30
0.0
  0
SEQEND
  5
E81
  8
DETAIL
  6
CONTINUOUS
 62
     5
  0
POLYLINE
  5
64A
  8
DETAIL
  6
CONTINUOUS
 62
     5
 66
     1
 10
0.0
 20
0.0
 30
0.0
  0
VERTEX
  5
E82
  8
DETAIL
  6
CONTINUOUS
 62
     5
 10
62.750021493055563
 20
13.587329249132379
 30
0.0
  0
VERTEX
  5
E83
  8
DETAIL
  6
CONTINUOUS
 62
     5
 10
62.440511302260433
 20
13.55168255486126
 30
0.0
  0
VERTEX
  5
E84
  8
DETAIL
  6
CONTINUOUS
 62
     5
 10
62.156396386762999
 20
13.450140123109851
 30
0.0
  0
VERTEX
  5
E85
  8
DETAIL
  6
CONTINUOUS
 62
     5
 10
61.905776236359131
 20
13.290798430471041
 30
0.0
  0
VERTEX
  5
E86
  8
DETAIL
  6
CONTINUOUS
 62
     5
 10
61.696750340844737
 20
13.08175395353773
 30
0.0
  0
VERTEX
  5
E87
  8
DETAIL
  6
CONTINUOUS
 62
     5
 10
61.537418190015728
 20
12.831103168902819
 30
0.0
  0
VERTEX
  5
E88
  8
DETAIL
  6
CONTINUOUS
 62
     5
 10
61.435879273668
 20
12.546942553159189
 30
0.0
  0
VERTEX
  5
E89
  8
DETAIL
  6
CONTINUOUS
 62
     5
 10
61.400233081597442
 20
12.23736858289976
 30
0.0
  0
SEQEND
  5
E8A
  8
DETAIL
  6
CONTINUOUS
 62
     5
  0
POLYLINE
  5
654
  8
DETAIL
  6
CONTINUOUS
 62
     5
 66
     1
 10
0.0
 20
0.0
 30
0.0
  0
VERTEX
  5
E8B
  8
DETAIL
  6
CONTINUOUS
 62
     5
 10
89.643125876736121
 20
58.264533296441179
 30
0.0
  0
VERTEX
  5
E8C
  8
DETAIL
  6
CONTINUOUS
 62
     5
 10
89.572865221354164
 20
58.700268973524558
 30
0.0
  0
VERTEX
  5
E8D
  8
DETAIL
  6
CONTINUOUS
 62
     5
 10
89.377208602430514
 20
59.078705822482881
 30
0.0
  0
VERTEX
  5
E8E
  8
DETAIL
  6
CONTINUOUS
 62
     5
 10
89.078844040798558
 20
59.377147554253682
 30
0.0
  0
VERTEX
  5
E8F
  8
DETAIL
  6
CONTINUOUS
 62
     5
 10
88.700459557291666
 20
59.572897879774402
 30
0.0
  0
VERTEX
  5
E90
  8
DETAIL
  6
CONTINUOUS
 62
     5
 10
88.264743172743223
 20
59.643260509982603
 30
0.0
  0
VERTEX
  5
E91
  8
DETAIL
  6
CONTINUOUS
 62
     5
 10
88.264740416666854
 20
59.643260509982603
 30
0.0
  0
VERTEX
  5
E92
  8
DETAIL
  6
CONTINUOUS
 62
     5
 10
88.264721124132109
 20
59.643260509982603
 30
0.0
  0
VERTEX
  5
E93
  8
DETAIL
  6
CONTINUOUS
 62
     5
 10
88.264668758680727
 20
59.643260509982618
 30
0.0
  0
VERTEX
  5
E94
  8
DETAIL
  6
CONTINUOUS
 62
     5
 10
88.264566783854363
 20
59.643260509982603
 30
0.0
  0
VERTEX
  5
E95
  8
DETAIL
  6
CONTINUOUS
 62
     5
 10
88.264398663194697
 20
59.643260509982603
 30
0.0
  0
SEQEND
  5
E96
  8
DETAIL
  6
CONTINUOUS
 62
     5
  0
POLYLINE
  5
661
  8
DETAIL
  6
CONTINUOUS
 62
     5
 66
     1
 10
0.0
 20
0.0
 30
0.0
  0
VERTEX
  5
E97
  8
DETAIL
  6
CONTINUOUS
 62
     5
 10
81.430018237847406
 20
12.23736858289976
 30
0.0
  0
VERTEX
  5
E98
  8
DETAIL
  6
CONTINUOUS
 62
     5
 10
81.393560489755657
 20
12.553745863443661
 30
0.0
  0
VERTEX
  5
E99
  8
DETAIL
  6
CONTINUOUS
 62
     5
 10
81.289715468674274
 20
12.84416741292282
 30
0.0
  0
VERTEX
  5
E9A
  8
DETAIL
  6
CONTINUOUS
 62
     5
 10
81.126775509394434
 20
13.100352949358379
 30
0.0
  0
VERTEX
  5
E9B
  8
DETAIL
  6
CONTINUOUS
 62
     5
 10
80.913032946707091
 20
13.314022190771469
 30
0.0
  0
VERTEX
  5
E9C
  8
DETAIL
  6
CONTINUOUS
 62
     5
 10
80.656780115403393
 20
13.47689485518322
 30
0.0
  0
VERTEX
  5
E9D
  8
DETAIL
  6
CONTINUOUS
 62
     5
 10
80.366309350274307
 20
13.580690660614771
 30
0.0
  0
VERTEX
  5
E9E
  8
DETAIL
  6
CONTINUOUS
 62
     5
 10
80.049912986110911
 20
13.61712932508726
 30
0.0
  0
SEQEND
  5
E9F
  8
DETAIL
  6
CONTINUOUS
 62
     5
  0
POLYLINE
  5
66B
  8
DETAIL
  6
CONTINUOUS
 62
     5
 66
     1
 10
0.0
 20
0.0
 30
0.0
  0
VERTEX
  5
EA0
  8
DETAIL
  6
CONTINUOUS
 62
     5
 10
62.750021493055563
 20
13.61712932508726
 30
0.0
  0
VERTEX
  5
EA1
  8
DETAIL
  6
CONTINUOUS
 62
     5
 10
62.433644212511652
 20
13.580690660614771
 30
0.0
  0
VERTEX
  5
EA2
  8
DETAIL
  6
CONTINUOUS
 62
     5
 10
62.143222663032503
 20
13.47689485518322
 30
0.0
  0
VERTEX
  5
EA3
  8
DETAIL
  6
CONTINUOUS
 62
     5
 10
61.887037126596937
 20
13.314022190771469
 30
0.0
  0
VERTEX
  5
EA4
  8
DETAIL
  6
CONTINUOUS
 62
     5
 10
61.673367885183829
 20
13.100352949358379
 30
0.0
  0
VERTEX
  5
EA5
  8
DETAIL
  6
CONTINUOUS
 62
     5
 10
61.510495220772093
 20
12.84416741292282
 30
0.0
  0
VERTEX
  5
EA6
  8
DETAIL
  6
CONTINUOUS
 62
     5
 10
61.40669941534054
 20
12.553745863443661
 30
0.0
  0
VERTEX
  5
EA7
  8
DETAIL
  6
CONTINUOUS
 62
     5
 10
61.370260750868042
 20
12.23736858289976
 30
0.0
  0
SEQEND
  5
EA8
  8
DETAIL
  6
CONTINUOUS
 62
     5
  0
POLYLINE
  5
675
  8
DETAIL
  6
CONTINUOUS
 62
     5
 66
     1
 10
0.0
 20
0.0
 30
0.0
  0
VERTEX
  5
EA9
  8
DETAIL
  6
CONTINUOUS
 62
     5
 10
88.964442065972435
 20
57.46423761501773
 30
0.0
  0
VERTEX
  5
EAA
  8
DETAIL
  6
CONTINUOUS
 62
     5
 10
88.924814428272995
 20
57.808156575831148
 30
0.0
  0
VERTEX
  5
EAB
  8
DETAIL
  6
CONTINUOUS
 62
     5
 10
88.81194185085657
 20
58.123874969308368
 30
0.0
  0
VERTEX
  5
EAC
  8
DETAIL
  6
CONTINUOUS
 62
     5
 10
88.634839837246005
 20
58.40238633153561
 30
0.0
  0
VERTEX
  5
EAD
  8
DETAIL
  6
CONTINUOUS
 62
     5
 10
88.402523890964133
 20
58.634684198599203
 30
0.0
  0
VERTEX
  5
EAE
  8
DETAIL
  6
CONTINUOUS
 62
     5
 10
88.124009515533871
 20
58.811762106585412
 30
0.0
  0
VERTEX
  5
EAF
  8
DETAIL
  6
CONTINUOUS
 62
     5
 10
87.808312214477965
 20
58.924613591580531
 30
0.0
  0
VERTEX
  5
EB0
  8
DETAIL
  6
CONTINUOUS
 62
     5
 10
87.464447491319333
 20
58.964232189670831
 30
0.0
  0
SEQEND
  5
EB1
  8
DETAIL
  6
CONTINUOUS
 62
     5
  0
POLYLINE
  5
67F
  8
DETAIL
  6
CONTINUOUS
 62
     5
 66
     1
 10
0.0
 20
0.0
 30
0.0
  0
VERTEX
  5
EB2
  8
DETAIL
  6
CONTINUOUS
 62
     5
 10
81.600205954860925
 20
12.23736858289976
 30
0.0
  0
VERTEX
  5
EB3
  8
DETAIL
  6
CONTINUOUS
 62
     5
 10
81.559256525423962
 20
12.592796472759231
 30
0.0
  0
VERTEX
  5
EB4
  8
DETAIL
  6
CONTINUOUS
 62
     5
 10
81.442615435394259
 20
12.91907162311878
 30
0.0
  0
VERTEX
  5
EB5
  8
DETAIL
  6
CONTINUOUS
 62
     5
 10
81.259593482193353
 20
13.20688926296291
 30
0.0
  0
VERTEX
  5
EB6
  8
DETAIL
  6
CONTINUOUS
 62
     5
 10
81.019501463242946
 20
13.44694462127609
 30
0.0
  0
VERTEX
  5
EB7
  8
DETAIL
  6
CONTINUOUS
 62
     5
 10
80.731650175964646
 20
13.629932927042811
 30
0.0
  0
VERTEX
  5
EB8
  8
DETAIL
  6
CONTINUOUS
 62
     5
 10
80.405350417780113
 20
13.74654940924756
 30
0.0
  0
VERTEX
  5
EB9
  8
DETAIL
  6
CONTINUOUS
 62
     5
 10
80.049912986110911
 20
13.78748929687481
 30
0.0
  0
SEQEND
  5
EBA
  8
DETAIL
  6
CONTINUOUS
 62
     5
  0
POLYLINE
  5
689
  8
DETAIL
  6
CONTINUOUS
 62
     5
 66
     1
 10
0.0
 20
0.0
 30
0.0
  0
VERTEX
  5
EBB
  8
DETAIL
  6
CONTINUOUS
 62
     5
 10
62.750021493055563
 20
13.78748929687481
 30
0.0
  0
VERTEX
  5
EBC
  8
DETAIL
  6
CONTINUOUS
 62
     5
 10
62.394603145005703
 20
13.74654940924755
 30
0.0
  0
VERTEX
  5
EBD
  8
DETAIL
  6
CONTINUOUS
 62
     5
 10
62.068352602470959
 20
13.629932927042811
 30
0.0
  0
VERTEX
  5
EBE
  8
DETAIL
  6
CONTINUOUS
 62
     5
 10
61.780568610060733
 20
13.44694462127609
 30
0.0
  0
VERTEX
  5
EBF
  8
DETAIL
  6
CONTINUOUS
 62
     5
 10
61.540549912384492
 20
13.20688926296291
 30
0.0
  0
VERTEX
  5
EC0
  8
DETAIL
  6
CONTINUOUS
 62
     5
 10
61.357595254051667
 20
12.91907162311878
 30
0.0
  0
VERTEX
  5
EC1
  8
DETAIL
  6
CONTINUOUS
 62
     5
 10
61.241003379671739
 20
12.592796472759231
 30
0.0
  0
VERTEX
  5
EC2
  8
DETAIL
  6
CONTINUOUS
 62
     5
 10
61.200073033854103
 20
12.23736858289976
 30
0.0
  0
SEQEND
  5
EC3
  8
DETAIL
  6
CONTINUOUS
 62
     5
  0
POLYLINE
  5
693
  8
DETAIL
  6
CONTINUOUS
 62
     5
 66
     1
 10
0.0
 20
0.0
 30
0.0
  0
VERTEX
  5
EC4
  8
DETAIL
  6
CONTINUOUS
 62
     5
 10
80.020285164930527
 20
-0.907910008680119
 30
0.0
  0
VERTEX
  5
EC5
  8
DETAIL
  6
CONTINUOUS
 62
     5
 10
80.241520928819511
 20
-0.8722312217877988
 30
0.0
  0
VERTEX
  5
EC6
  8
DETAIL
  6
CONTINUOUS
 62
     5
 10
80.433685598958405
 20
-0.7728788020830106
 30
0.0
  0
VERTEX
  5
EC7
  8
DETAIL
  6
CONTINUOUS
 62
     5
 10
80.585236727430598
 20
-0.6213786610240132
 30
0.0
  0
VERTEX
  5
EC8
  8
DETAIL
  6
CONTINUOUS
 62
     5
 10
80.684631866319435
 20
-0.4292567100690648
 30
0.0
  0
VERTEX
  5
EC9
  8
DETAIL
  6
CONTINUOUS
 62
     5
 10
80.720328567708293
 20
-0.2080388606764245
 30
0.0
  0
VERTEX
  5
ECA
  8
DETAIL
  6
CONTINUOUS
 62
     5
 10
80.720328567708293
 20
-0.2080388606764245
 30
0.0
  0
VERTEX
  5
ECB
  8
DETAIL
  6
CONTINUOUS
 62
     5
 10
80.720328567708293
 20
-0.2080388606764245
 30
0.0
  0
VERTEX
  5
ECC
  8
DETAIL
  6
CONTINUOUS
 62
     5
 10
80.720328567708293
 20
-0.2080388606764245
 30
0.0
  0
VERTEX
  5
ECD
  8
DETAIL
  6
CONTINUOUS
 62
     5
 10
80.720328567708293
 20
-0.2080388606764245
 30
0.0
  0
VERTEX
  5
ECE
  8
DETAIL
  6
CONTINUOUS
 62
     5
 10
80.720328567708293
 20
-0.2080388606764245
 30
0.0
  0
SEQEND
  5
ECF
  8
DETAIL
  6
CONTINUOUS
 62
     5
  0
POLYLINE
  5
6A0
  8
DETAIL
  6
CONTINUOUS
 62
     5
 66
     1
 10
0.0
 20
0.0
 30
0.0
  0
VERTEX
  5
ED0
  8
DETAIL
  6
CONTINUOUS
 62
     5
 10
62.079605911458209
 20
-0.2080388606764245
 30
0.0
  0
VERTEX
  5
ED1
  8
DETAIL
  6
CONTINUOUS
 62
     5
 10
62.11530261284711
 20
-0.4291905642354833
 30
0.0
  0
VERTEX
  5
ED2
  8
DETAIL
  6
CONTINUOUS
 62
     5
 10
62.214697751736033
 20
-0.6213042469612338
 30
0.0
  0
VERTEX
  5
ED3
  8
DETAIL
  6
CONTINUOUS
 62
     5
 10
62.366248880208289
 20
-0.7728291927078245
 30
0.0
  0
VERTEX
  5
ED4
  8
DETAIL
  6
CONTINUOUS
 62
     5
 10
62.55841355034714
 20
-0.8722146853294033
 30
0.0
  0
VERTEX
  5
ED5
  8
DETAIL
  6
CONTINUOUS
 62
     5
 10
62.779649314235932
 20
-0.907910008680119
 30
0.0
  0
VERTEX
  5
ED6
  8
DETAIL
  6
CONTINUOUS
 62
     5
 10
62.779649314235932
 20
-0.907910008680119
 30
0.0
  0
VERTEX
  5
ED7
  8
DETAIL
  6
CONTINUOUS
 62
     5
 10
62.779649314235932
 20
-0.907910008680119
 30
0.0
  0
VERTEX
  5
ED8
  8
DETAIL
  6
CONTINUOUS
 62
     5
 10
62.779649314235932
 20
-0.907910008680119
 30
0.0
  0
VERTEX
  5
ED9
  8
DETAIL
  6
CONTINUOUS
 62
     5
 10
62.779649314235932
 20
-0.9079100086801192
 30
0.0
  0
VERTEX
  5
EDA
  8
DETAIL
  6
CONTINUOUS
 62
     5
 10
62.779649314235932
 20
-0.907910008680119
 30
0.0
  0
SEQEND
  5
EDB
  8
DETAIL
  6
CONTINUOUS
 62
     5
  0
POLYLINE
  5
6AD
  8
DETAIL
  6
CONTINUOUS
 62
     5
 66
     1
 10
0.0
 20
0.0
 30
0.0
  0
VERTEX
  5
EDC
  8
DETAIL
  6
CONTINUOUS
 62
     5
 10
49.74995367621522
 20
-32.649986289062333
 30
0.0
  0
VERTEX
  5
EDD
  8
DETAIL
  6
CONTINUOUS
 62
     5
 10
49.979239344630606
 20
-32.623586612748333
 30
0.0
  0
VERTEX
  5
EDE
  8
DETAIL
  6
CONTINUOUS
 62
     5
 10
50.189734678832032
 20
-32.548385099851451
 30
0.0
  0
VERTEX
  5
EDF
  8
DETAIL
  6
CONTINUOUS
 62
     5
 10
50.375431351939532
 20
-32.430378024439356
 30
0.0
  0
VERTEX
  5
EE0
  8
DETAIL
  6
CONTINUOUS
 62
     5
 10
50.530321037073328
 20
-32.275561660579761
 30
0.0
  0
VERTEX
  5
EE1
  8
DETAIL
  6
CONTINUOUS
 62
     5
 10
50.648395407353497
 20
-32.089932282340321
 30
0.0
  0
VERTEX
  5
EE2
  8
DETAIL
  6
CONTINUOUS
 62
     5
 10
50.723646135900182
 20
-31.879486163788709
 30
0.0
  0
VERTEX
  5
EE3
  8
DETAIL
  6
CONTINUOUS
 62
     5
 10
50.750064895833482
 20
-31.650219578992608
 30
0.0
  0
SEQEND
  5
EE4
  8
DETAIL
  6
CONTINUOUS
 62
     5
  0
POLYLINE
  5
6B7
  8
DETAIL
  6
CONTINUOUS
 62
     5
 66
     1
 10
0.0
 20
0.0
 30
0.0
  0
VERTEX
  5
EE5
  8
DETAIL
  6
CONTINUOUS
 62
     5
 10
88.264398663194697
 20
-59.343275134548087
 30
0.0
  0
VERTEX
  5
EE6
  8
DETAIL
  6
CONTINUOUS
 62
     5
 10
88.605479652778016
 20
-59.2883134592009
 30
0.0
  0
VERTEX
  5
EE7
  8
DETAIL
  6
CONTINUOUS
 62
     5
 10
88.901680694444607
 20
-59.135257513020463
 30
0.0
  0
VERTEX
  5
EE8
  8
DETAIL
  6
CONTINUOUS
 62
     5
 10
89.135241631944623
 20
-58.901850915798349
 30
0.0
  0
VERTEX
  5
EE9
  8
DETAIL
  6
CONTINUOUS
 62
     5
 10
89.288402309027987
 20
-58.605837287326239
 30
0.0
  0
VERTEX
  5
EEA
  8
DETAIL
  6
CONTINUOUS
 62
     5
 10
89.343402569444621
 20
-58.264960247395713
 30
0.0
  0
VERTEX
  5
EEB
  8
DETAIL
  6
CONTINUOUS
 62
     5
 10
89.343402569444621
 20
-58.264957491319322
 30
0.0
  0
VERTEX
  5
EEC
  8
DETAIL
  6
CONTINUOUS
 62
     5
 10
89.343402569444592
 20
-58.26493819878457
 30
0.0
  0
VERTEX
  5
EED
  8
DETAIL
  6
CONTINUOUS
 62
     5
 10
89.343402569444621
 20
-58.264885833333139
 30
0.0
  0
VERTEX
  5
EEE
  8
DETAIL
  6
CONTINUOUS
 62
     5
 10
89.343402569444621
 20
-58.26478385850664
 30
0.0
  0
VERTEX
  5
EEF
  8
DETAIL
  6
CONTINUOUS
 62
     5
 10
89.343402569444621
 20
-58.264615737846732
 30
0.0
  0
SEQEND
  5
EF0
  8
DETAIL
  6
CONTINUOUS
 62
     5
  0
POLYLINE
  5
6C4
  8
DETAIL
  6
CONTINUOUS
 62
     5
 66
     1
 10
0.0
 20
0.0
 30
0.0
  0
VERTEX
  5
EF1
  8
DETAIL
  6
CONTINUOUS
 62
     5
 10
80.049912986110911
 20
-1.5876273480898799
 30
0.0
  0
VERTEX
  5
EF2
  8
DETAIL
  6
CONTINUOUS
 62
     5
 10
80.359442260525384
 20
-1.5519716142096329
 30
0.0
  0
VERTEX
  5
EF3
  8
DETAIL
  6
CONTINUOUS
 62
     5
 10
80.643606391672677
 20
-1.4504080900369121
 30
0.0
  0
VERTEX
  5
EF4
  8
DETAIL
  6
CONTINUOUS
 62
     5
 10
80.894293836944698
 20
-1.291042291773747
 30
0.0
  0
VERTEX
  5
EF5
  8
DETAIL
  6
CONTINUOUS
 62
     5
 10
81.103393053733384
 20
-1.0819797356221681
 30
0.0
  0
VERTEX
  5
EF6
  8
DETAIL
  6
CONTINUOUS
 62
     5
 10
81.26279249943056
 20
-0.8313259377842083
 30
0.0
  0
VERTEX
  5
EF7
  8
DETAIL
  6
CONTINUOUS
 62
     5
 10
81.36438063142819
 20
-0.5471864144618963
 30
0.0
  0
VERTEX
  5
EF8
  8
DETAIL
  6
CONTINUOUS
 62
     5
 10
81.400045907118042
 20
-0.237666681857263
 30
0.0
  0
SEQEND
  5
EF9
  8
DETAIL
  6
CONTINUOUS
 62
     5
  0
POLYLINE
  5
6CE
  8
DETAIL
  6
CONTINUOUS
 62
     5
 66
     1
 10
0.0
 20
0.0
 30
0.0
  0
VERTEX
  5
EFA
  8
DETAIL
  6
CONTINUOUS
 62
     5
 10
61.400233081597442
 20
-0.237666681857263
 30
0.0
  0
VERTEX
  5
EFB
  8
DETAIL
  6
CONTINUOUS
 62
     5
 10
61.435879273668
 20
-0.5471864144618963
 30
0.0
  0
VERTEX
  5
EFC
  8
DETAIL
  6
CONTINUOUS
 62
     5
 10
61.537418190015742
 20
-0.8313259377842083
 30
0.0
  0
VERTEX
  5
EFD
  8
DETAIL
  6
CONTINUOUS
 62
     5
 10
61.696750340844737
 20
-1.0819797356221681
 30
0.0
  0
VERTEX
  5
EFE
  8
DETAIL
  6
CONTINUOUS
 62
     5
 10
61.905776236359131
 20
-1.2910422917737461
 30
0.0
  0
VERTEX
  5
EFF
  8
DETAIL
  6
CONTINUOUS
 62
     5
 10
62.156396386762999
 20
-1.4504080900369121
 30
0.0
  0
VERTEX
  5
F00
  8
DETAIL
  6
CONTINUOUS
 62
     5
 10
62.440511302260447
 20
-1.5519716142096329
 30
0.0
  0
VERTEX
  5
F01
  8
DETAIL
  6
CONTINUOUS
 62
     5
 10
62.750021493055563
 20
-1.5876273480898799
 30
0.0
  0
SEQEND
  5
F02
  8
DETAIL
  6
CONTINUOUS
 62
     5
  0
POLYLINE
  5
6D8
  8
DETAIL
  6
CONTINUOUS
 62
     5
 66
     1
 10
0.0
 20
0.0
 30
0.0
  0
VERTEX
  5
F03
  8
DETAIL
  6
CONTINUOUS
 62
     5
 10
88.264398663194697
 20
-59.643342951388149
 30
0.0
  0
VERTEX
  5
F04
  8
DETAIL
  6
CONTINUOUS
 62
     5
 10
88.700150876736188
 20
-59.573214587673093
 30
0.0
  0
VERTEX
  5
F05
  8
DETAIL
  6
CONTINUOUS
 62
     5
 10
89.078620798611126
 20
-59.377574505207988
 30
0.0
  0
VERTEX
  5
F06
  8
DETAIL
  6
CONTINUOUS
 62
     5
 10
89.377087335069419
 20
-59.079160334201212
 30
0.0
  0
VERTEX
  5
F07
  8
DETAIL
  6
CONTINUOUS
 62
     5
 10
89.572829392361086
 20
-58.700709704861012
 30
0.0
  0
VERTEX
  5
F08
  8
DETAIL
  6
CONTINUOUS
 62
     5
 10
89.643125876736121
 20
-58.264960247395713
 30
0.0
  0
VERTEX
  5
F09
  8
DETAIL
  6
CONTINUOUS
 62
     5
 10
89.643125876736121
 20
-58.264957491319322
 30
0.0
  0
VERTEX
  5
F0A
  8
DETAIL
  6
CONTINUOUS
 62
     5
 10
89.643125876736121
 20
-58.26493819878457
 30
0.0
  0
VERTEX
  5
F0B
  8
DETAIL
  6
CONTINUOUS
 62
     5
 10
89.643125876736121
 20
-58.264885833333139
 30
0.0
  0
VERTEX
  5
F0C
  8
DETAIL
  6
CONTINUOUS
 62
     5
 10
89.643125876736121
 20
-58.26478385850664
 30
0.0
  0
VERTEX
  5
F0D
  8
DETAIL
  6
CONTINUOUS
 62
     5
 10
89.643125876736121
 20
-58.264615737846732
 30
0.0
  0
SEQEND
  5
F0E
  8
DETAIL
  6
CONTINUOUS
 62
     5
  0
POLYLINE
  5
6E5
  8
DETAIL
  6
CONTINUOUS
 62
     5
 66
     1
 10
0.0
 20
0.0
 30
0.0
  0
VERTEX
  5
F0F
  8
DETAIL
  6
CONTINUOUS
 62
     5
 10
80.049912986110911
 20
-1.617427424044763
 30
0.0
  0
VERTEX
  5
F10
  8
DETAIL
  6
CONTINUOUS
 62
     5
 10
80.366309350274307
 20
-1.580979719963141
 30
0.0
  0
VERTEX
  5
F11
  8
DETAIL
  6
CONTINUOUS
 62
     5
 10
80.656780115403393
 20
-1.4771628221102779
 30
0.0
  0
VERTEX
  5
F12
  8
DETAIL
  6
CONTINUOUS
 62
     5
 10
80.913032946707091
 20
-1.31426605207417
 30
0.0
  0
VERTEX
  5
F13
  8
DETAIL
  6
CONTINUOUS
 62
     5
 10
81.126775509394434
 20
-1.100578731442815
 30
0.0
  0
VERTEX
  5
F14
  8
DETAIL
  6
CONTINUOUS
 62
     5
 10
81.289715468674274
 20
-0.8443901818042139
 30
0.0
  0
VERTEX
  5
F15
  8
DETAIL
  6
CONTINUOUS
 62
     5
 10
81.393560489755657
 20
-0.5539897247463638
 30
0.0
  0
VERTEX
  5
F16
  8
DETAIL
  6
CONTINUOUS
 62
     5
 10
81.430018237847406
 20
-0.237666681857263
 30
0.0
  0
SEQEND
  5
F17
  8
DETAIL
  6
CONTINUOUS
 62
     5
  0
POLYLINE
  5
6EF
  8
DETAIL
  6
CONTINUOUS
 62
     5
 66
     1
 10
0.0
 20
0.0
 30
0.0
  0
VERTEX
  5
F18
  8
DETAIL
  6
CONTINUOUS
 62
     5
 10
61.370260750868042
 20
-0.237666681857263
 30
0.0
  0
VERTEX
  5
F19
  8
DETAIL
  6
CONTINUOUS
 62
     5
 10
61.406699415340533
 20
-0.5539897247463637
 30
0.0
  0
VERTEX
  5
F1A
  8
DETAIL
  6
CONTINUOUS
 62
     5
 10
61.510495220772093
 20
-0.8443901818042141
 30
0.0
  0
VERTEX
  5
F1B
  8
DETAIL
  6
CONTINUOUS
 62
     5
 10
61.673367885183829
 20
-1.100578731442815
 30
0.0
  0
VERTEX
  5
F1C
  8
DETAIL
  6
CONTINUOUS
 62
     5
 10
61.88703712659693
 20
-1.3142660520741689
 30
0.0
  0
VERTEX
  5
F1D
  8
DETAIL
  6
CONTINUOUS
 62
     5
 10
62.143222663032489
 20
-1.4771628221102771
 30
0.0
  0
VERTEX
  5
F1E
  8
DETAIL
  6
CONTINUOUS
 62
     5
 10
62.433644212511652
 20
-1.580979719963141
 30
0.0
  0
VERTEX
  5
F1F
  8
DETAIL
  6
CONTINUOUS
 62
     5
 10
62.750021493055563
 20
-1.617427424044763
 30
0.0
  0
SEQEND
  5
F20
  8
DETAIL
  6
CONTINUOUS
 62
     5
  0
POLYLINE
  5
6F9
  8
DETAIL
  6
CONTINUOUS
 62
     5
 66
     1
 10
0.0
 20
0.0
 30
0.0
  0
VERTEX
  5
F21
  8
DETAIL
  6
CONTINUOUS
 62
     5
 10
80.049912986110911
 20
-1.7876151410591761
 30
0.0
  0
VERTEX
  5
F22
  8
DETAIL
  6
CONTINUOUS
 62
     5
 10
80.405350417780113
 20
-1.746675755632382
 30
0.0
  0
VERTEX
  5
F23
  8
DETAIL
  6
CONTINUOUS
 62
     5
 10
80.731650175964646
 20
-1.6300627888310599
 30
0.0
  0
VERTEX
  5
F24
  8
DETAIL
  6
CONTINUOUS
 62
     5
 10
81.019501463242946
 20
-1.4470840248738031
 30
0.0
  0
VERTEX
  5
F25
  8
DETAIL
  6
CONTINUOUS
 62
     5
 10
81.259593482193353
 20
-1.207047247979202
 30
0.0
  0
VERTEX
  5
F26
  8
DETAIL
  6
CONTINUOUS
 62
     5
 10
81.442615435394231
 20
-0.9192602423658511
 30
0.0
  0
VERTEX
  5
F27
  8
DETAIL
  6
CONTINUOUS
 62
     5
 10
81.559256525423976
 20
-0.5930307922523405
 30
0.0
  0
VERTEX
  5
F28
  8
DETAIL
  6
CONTINUOUS
 62
     5
 10
81.600205954860925
 20
-0.237666681857263
 30
0.0
  0
SEQEND
  5
F29
  8
DETAIL
  6
CONTINUOUS
 62
     5
  0
POLYLINE
  5
703
  8
DETAIL
  6
CONTINUOUS
 62
     5
 66
     1
 10
0.0
 20
0.0
 30
0.0
  0
VERTEX
  5
F2A
  8
DETAIL
  6
CONTINUOUS
 62
     5
 10
61.200073033854103
 20
-0.237666681857263
 30
0.0
  0
VERTEX
  5
F2B
  8
DETAIL
  6
CONTINUOUS
 62
     5
 10
61.241003379671717
 20
-0.5930307922523403
 30
0.0
  0
VERTEX
  5
F2C
  8
DETAIL
  6
CONTINUOUS
 62
     5
 10
61.357595254051667
 20
-0.9192602423658508
 30
0.0
  0
VERTEX
  5
F2D
  8
DETAIL
  6
CONTINUOUS
 62
     5
 10
61.540549912384492
 20
-1.207047247979202
 30
0.0
  0
VERTEX
  5
F2E
  8
DETAIL
  6
CONTINUOUS
 62
     5
 10
61.780568610060733
 20
-1.4470840248738031
 30
0.0
  0
VERTEX
  5
F2F
  8
DETAIL
  6
CONTINUOUS
 62
     5
 10
62.068352602470952
 20
-1.6300627888310599
 30
0.0
  0
VERTEX
  5
F30
  8
DETAIL
  6
CONTINUOUS
 62
     5
 10
62.394603145005711
 20
-1.746675755632382
 30
0.0
  0
VERTEX
  5
F31
  8
DETAIL
  6
CONTINUOUS
 62
     5
 10
62.750021493055563
 20
-1.7876151410591761
 30
0.0
  0
SEQEND
  5
F32
  8
DETAIL
  6
CONTINUOUS
 62
     5
  0
POLYLINE
  5
70D
  8
DETAIL
  6
CONTINUOUS
 62
     5
 66
     1
 10
0.0
 20
0.0
 30
0.0
  0
VERTEX
  5
F33
  8
DETAIL
  6
CONTINUOUS
 62
     5
 10
-49.74991611545147
 20
44.649860444878847
 30
0.0
  0
VERTEX
  5
F34
  8
DETAIL
  6
CONTINUOUS
 62
     5
 10
-49.979256021521778
 20
44.623451226755222
 30
0.0
  0
VERTEX
  5
F35
  8
DETAIL
  6
CONTINUOUS
 62
     5
 10
-50.189772448144467
 20
44.548225106033478
 30
0.0
  0
VERTEX
  5
F36
  8
DETAIL
  6
CONTINUOUS
 62
     5
 10
-50.375466108048862
 20
44.430184383187402
 30
0.0
  0
VERTEX
  5
F37
  8
DETAIL
  6
CONTINUOUS
 62
     5
 10
-50.530337713964222
 20
44.27533135869075
 30
0.0
  0
VERTEX
  5
F38
  8
DETAIL
  6
CONTINUOUS
 62
     5
 10
-50.64838797861988
 20
44.0896683330173
 30
0.0
  0
VERTEX
  5
F39
  8
DETAIL
  6
CONTINUOUS
 62
     5
 10
-50.723617614745137
 20
43.879197606640851
 30
0.0
  0
VERTEX
  5
F3A
  8
DETAIL
  6
CONTINUOUS
 62
     5
 10
-50.750027335069248
 20
43.649921480035097
 30
0.0
  0
SEQEND
  5
F3B
  8
DETAIL
  6
CONTINUOUS
 62
     5
  0
POLYLINE
  5
717
  8
DETAIL
  6
CONTINUOUS
 62
     5
 66
     1
 10
0.0
 20
0.0
 30
0.0
  0
VERTEX
  5
F3C
  8
DETAIL
  6
CONTINUOUS
 62
     5
 10
-88.264533357204996
 20
59.343192693142541
 30
0.0
  0
VERTEX
  5
F3D
  8
DETAIL
  6
CONTINUOUS
 62
     5
 10
-88.605513750000057
 20
59.288279249132017
 30
0.0
  0
VERTEX
  5
F3E
  8
DETAIL
  6
CONTINUOUS
 62
     5
 10
-88.90163073133678
 20
59.135188851996517
 30
0.0
  0
VERTEX
  5
F3F
  8
DETAIL
  6
CONTINUOUS
 62
     5
 10
-89.135140681423565
 20
58.901706462673587
 30
0.0
  0
VERTEX
  5
F40
  8
DETAIL
  6
CONTINUOUS
 62
     5
 10
-89.288299980468693
 20
58.605617042100661
 30
0.0
  0
VERTEX
  5
F41
  8
DETAIL
  6
CONTINUOUS
 62
     5
 10
-89.343365008680379
 20
58.264705551215222
 30
0.0
  0
VERTEX
  5
F42
  8
DETAIL
  6
CONTINUOUS
 62
     5
 10
-89.343365008680379
 20
58.264687636718733
 30
0.0
  0
VERTEX
  5
F43
  8
DETAIL
  6
CONTINUOUS
 62
     5
 10
-89.343365008680379
 20
58.26464491753476
 30
0.0
  0
VERTEX
  5
F44
  8
DETAIL
  6
CONTINUOUS
 62
     5
 10
-89.343365008680379
 20
58.264593930121642
 30
0.0
  0
VERTEX
  5
F45
  8
DETAIL
  6
CONTINUOUS
 62
     5
 10
-89.343365008680379
 20
58.264551210937682
 30
0.0
  0
VERTEX
  5
F46
  8
DETAIL
  6
CONTINUOUS
 62
     5
 10
-89.343365008680379
 20
58.264533296441179
 30
0.0
  0
SEQEND
  5
F47
  8
DETAIL
  6
CONTINUOUS
 62
     5
  0
POLYLINE
  5
724
  8
DETAIL
  6
CONTINUOUS
 62
     5
 66
     1
 10
0.0
 20
0.0
 30
0.0
  0
VERTEX
  5
F48
  8
DETAIL
  6
CONTINUOUS
 62
     5
 10
-88.264533357204996
 20
59.643260509982603
 30
0.0
  0
VERTEX
  5
F49
  8
DETAIL
  6
CONTINUOUS
 62
     5
 10
-88.700285570746502
 20
59.572981940104142
 30
0.0
  0
VERTEX
  5
F4A
  8
DETAIL
  6
CONTINUOUS
 62
     5
 10
-89.078755492621397
 20
59.377282601996519
 30
0.0
  0
VERTEX
  5
F4B
  8
DETAIL
  6
CONTINUOUS
 62
     5
 10
-89.377222029079704
 20
59.078867052951402
 30
0.0
  0
VERTEX
  5
F4C
  8
DETAIL
  6
CONTINUOUS
 62
     5
 10
-89.572964086371385
 20
58.700439850260409
 30
0.0
  0
VERTEX
  5
F4D
  8
DETAIL
  6
CONTINUOUS
 62
     5
 10
-89.643260570746406
 20
58.264705551215222
 30
0.0
  0
VERTEX
  5
F4E
  8
DETAIL
  6
CONTINUOUS
 62
     5
 10
-89.643260570746406
 20
58.264687636718733
 30
0.0
  0
VERTEX
  5
F4F
  8
DETAIL
  6
CONTINUOUS
 62
     5
 10
-89.643260570746406
 20
58.26464491753476
 30
0.0
  0
VERTEX
  5
F50
  8
DETAIL
  6
CONTINUOUS
 62
     5
 10
-89.643260570746406
 20
58.264593930121642
 30
0.0
  0
VERTEX
  5
F51
  8
DETAIL
  6
CONTINUOUS
 62
     5
 10
-89.643260570746406
 20
58.264551210937682
 30
0.0
  0
VERTEX
  5
F52
  8
DETAIL
  6
CONTINUOUS
 62
     5
 10
-89.643260570746406
 20
58.264533296441179
 30
0.0
  0
SEQEND
  5
F53
  8
DETAIL
  6
CONTINUOUS
 62
     5
  0
POLYLINE
  5
731
  8
DETAIL
  6
CONTINUOUS
 62
     5
 66
     1
 10
0.0
 20
0.0
 30
0.0
  0
VERTEX
  5
F54
  8
DETAIL
  6
CONTINUOUS
 62
     5
 10
-87.464409930555547
 20
58.964232189670831
 30
0.0
  0
VERTEX
  5
F55
  8
DETAIL
  6
CONTINUOUS
 62
     5
 10
-87.808328891368987
 20
58.924613591580531
 30
0.0
  0
VERTEX
  5
F56
  8
DETAIL
  6
CONTINUOUS
 62
     5
 10
-88.124047284846114
 20
58.811762106585412
 30
0.0
  0
VERTEX
  5
F57
  8
DETAIL
  6
CONTINUOUS
 62
     5
 10
-88.402558647073278
 20
58.634684198599203
 30
0.0
  0
VERTEX
  5
F58
  8
DETAIL
  6
CONTINUOUS
 62
     5
 10
-88.634856514136771
 20
58.402386331535602
 30
0.0
  0
VERTEX
  5
F59
  8
DETAIL
  6
CONTINUOUS
 62
     5
 10
-88.81193442212286
 20
58.123874969308361
 30
0.0
  0
VERTEX
  5
F5A
  8
DETAIL
  6
CONTINUOUS
 62
     5
 10
-88.924785907117965
 20
57.808156575831177
 30
0.0
  0
VERTEX
  5
F5B
  8
DETAIL
  6
CONTINUOUS
 62
     5
 10
-88.964404505208222
 20
57.46423761501773
 30
0.0
  0
SEQEND
  5
F5C
  8
DETAIL
  6
CONTINUOUS
 62
     5
  0
POLYLINE
  5
73B
  8
DETAIL
  6
CONTINUOUS
 62
     5
 66
     1
 10
0.0
 20
0.0
 30
0.0
  0
VERTEX
  5
F5D
  8
DETAIL
  6
CONTINUOUS
 62
     5
 10
-63.429701271701568
 20
22.420209565972058
 30
0.0
  0
VERTEX
  5
F5E
  8
DETAIL
  6
CONTINUOUS
 62
     5
 10
-63.465380058593922
 20
22.64144532986122
 30
0.0
  0
VERTEX
  5
F5F
  8
DETAIL
  6
CONTINUOUS
 62
     5
 10
-63.564732478298772
 20
22.833610000000132
 30
0.0
  0
VERTEX
  5
F60
  8
DETAIL
  6
CONTINUOUS
 62
     5
 10
-63.716232619357747
 20
22.985161128472239
 30
0.0
  0
VERTEX
  5
F61
  8
DETAIL
  6
CONTINUOUS
 62
     5
 10
-63.908354570312568
 20
23.084556267360991
 30
0.0
  0
VERTEX
  5
F62
  8
DETAIL
  6
CONTINUOUS
 62
     5
 10
-64.1295724197048
 20
23.12025296874981
 30
0.0
  0
VERTEX
  5
F63
  8
DETAIL
  6
CONTINUOUS
 62
     5
 10
-64.129572419704814
 20
23.12025296874981
 30
0.0
  0
VERTEX
  5
F64
  8
DETAIL
  6
CONTINUOUS
 62
     5
 10
-64.1295724197048
 20
23.12025296874981
 30
0.0
  0
VERTEX
  5
F65
  8
DETAIL
  6
CONTINUOUS
 62
     5
 10
-64.1295724197048
 20
23.12025296874981
 30
0.0
  0
VERTEX
  5
F66
  8
DETAIL
  6
CONTINUOUS
 62
     5
 10
-64.1295724197048
 20
23.12025296874981
 30
0.0
  0
VERTEX
  5
F67
  8
DETAIL
  6
CONTINUOUS
 62
     5
 10
-64.1295724197048
 20
23.12025296874981
 30
0.0
  0
SEQEND
  5
F68
  8
DETAIL
  6
CONTINUOUS
 62
     5
  0
POLYLINE
  5
748
  8
DETAIL
  6
CONTINUOUS
 62
     5
 66
     1
 10
0.0
 20
0.0
 30
0.0
  0
VERTEX
  5
F69
  8
DETAIL
  6
CONTINUOUS
 62
     5
 10
-64.1295724197048
 20
11.329585922308979
 30
0.0
  0
VERTEX
  5
F6A
  8
DETAIL
  6
CONTINUOUS
 62
     5
 10
-63.908354570312568
 20
11.36526470920138
 30
0.0
  0
VERTEX
  5
F6B
  8
DETAIL
  6
CONTINUOUS
 62
     5
 10
-63.716232619357747
 20
11.46461712890634
 30
0.0
  0
VERTEX
  5
F6C
  8
DETAIL
  6
CONTINUOUS
 62
     5
 10
-63.564732478298779
 20
11.61611726996548
 30
0.0
  0
VERTEX
  5
F6D
  8
DETAIL
  6
CONTINUOUS
 62
     5
 10
-63.465380058593922
 20
11.808239220920379
 30
0.0
  0
VERTEX
  5
F6E
  8
DETAIL
  6
CONTINUOUS
 62
     5
 10
-63.429701271701568
 20
12.02945707031267
 30
0.0
  0
VERTEX
  5
F6F
  8
DETAIL
  6
CONTINUOUS
 62
     5
 10
-63.429701271701568
 20
12.02945707031267
 30
0.0
  0
VERTEX
  5
F70
  8
DETAIL
  6
CONTINUOUS
 62
     5
 10
-63.429701271701582
 20
12.02945707031267
 30
0.0
  0
VERTEX
  5
F71
  8
DETAIL
  6
CONTINUOUS
 62
     5
 10
-63.429701271701568
 20
12.02945707031267
 30
0.0
  0
VERTEX
  5
F72
  8
DETAIL
  6
CONTINUOUS
 62
     5
 10
-63.429701271701568
 20
12.02945707031267
 30
0.0
  0
VERTEX
  5
F73
  8
DETAIL
  6
CONTINUOUS
 62
     5
 10
-63.429701271701568
 20
12.02945707031267
 30
0.0
  0
SEQEND
  5
F74
  8
DETAIL
  6
CONTINUOUS
 62
     5
  0
POLYLINE
  5
755
  8
DETAIL
  6
CONTINUOUS
 62
     5
 66
     1
 10
0.0
 20
0.0
 30
0.0
  0
VERTEX
  5
F75
  8
DETAIL
  6
CONTINUOUS
 62
     5
 10
-64.099944598524417
 20
10.64986858289922
 30
0.0
  0
VERTEX
  5
F76
  8
DETAIL
  6
CONTINUOUS
 62
     5
 10
-63.79042486591964
 20
10.685524316779469
 30
0.0
  0
VERTEX
  5
F77
  8
DETAIL
  6
CONTINUOUS
 62
     5
 10
-63.506285342597273
 20
10.78708784095218
 30
0.0
  0
VERTEX
  5
F78
  8
DETAIL
  6
CONTINUOUS
 62
     5
 10
-63.255631544759332
 20
10.946453639215351
 30
0.0
  0
VERTEX
  5
F79
  8
DETAIL
  6
CONTINUOUS
 62
     5
 10
-63.046568988607781
 20
11.15551619536693
 30
0.0
  0
VERTEX
  5
F7A
  8
DETAIL
  6
CONTINUOUS
 62
     5
 10
-62.887203190344671
 20
11.40616999320488
 30
0.0
  0
VERTEX
  5
F7B
  8
DETAIL
  6
CONTINUOUS
 62
     5
 10
-62.785639666172031
 20
11.69030951652719
 30
0.0
  0
VERTEX
  5
F7C
  8
DETAIL
  6
CONTINUOUS
 62
     5
 10
-62.749983932291791
 20
11.99982924913183
 30
0.0
  0
SEQEND
  5
F7D
  8
DETAIL
  6
CONTINUOUS
 62
     5
  0
POLYLINE
  5
75F
  8
DETAIL
  6
CONTINUOUS
 62
     5
 66
     1
 10
0.0
 20
0.0
 30
0.0
  0
VERTEX
  5
F7E
  8
DETAIL
  6
CONTINUOUS
 62
     5
 10
-62.749983932291791
 20
22.449837387152911
 30
0.0
  0
VERTEX
  5
F7F
  8
DETAIL
  6
CONTINUOUS
 62
     5
 10
-62.78563966617201
 20
22.75942089922227
 30
0.0
  0
VERTEX
  5
F80
  8
DETAIL
  6
CONTINUOUS
 62
     5
 10
-62.887203190344671
 20
23.04360612279087
 30
0.0
  0
VERTEX
  5
F81
  8
DETAIL
  6
CONTINUOUS
 62
     5
 10
-63.046568988607781
 20
23.294290554859771
 30
0.0
  0
VERTEX
  5
F82
  8
DETAIL
  6
CONTINUOUS
 62
     5
 10
-63.255631544759318
 20
23.503371692430029
 30
0.0
  0
VERTEX
  5
F83
  8
DETAIL
  6
CONTINUOUS
 62
     5
 10
-63.506285342597273
 20
23.662747032502701
 30
0.0
  0
VERTEX
  5
F84
  8
DETAIL
  6
CONTINUOUS
 62
     5
 10
-63.790424865919647
 20
23.764314072078861
 30
0.0
  0
VERTEX
  5
F85
  8
DETAIL
  6
CONTINUOUS
 62
     5
 10
-64.099944598524417
 20
23.799970308159569
 30
0.0
  0
SEQEND
  5
F86
  8
DETAIL
  6
CONTINUOUS
 62
     5
  0
POLYLINE
  5
769
  8
DETAIL
  6
CONTINUOUS
 62
     5
 66
     1
 10
0.0
 20
0.0
 30
0.0
  0
VERTEX
  5
F87
  8
DETAIL
  6
CONTINUOUS
 62
     5
 10
-64.099944598524417
 20
10.62006850694433
 30
0.0
  0
VERTEX
  5
F88
  8
DETAIL
  6
CONTINUOUS
 62
     5
 10
-63.783567317980499
 20
10.656516211026
 30
0.0
  0
VERTEX
  5
F89
  8
DETAIL
  6
CONTINUOUS
 62
     5
 10
-63.493145768501357
 20
10.760333108878971
 30
0.0
  0
VERTEX
  5
F8A
  8
DETAIL
  6
CONTINUOUS
 62
     5
 10
-63.23696023206579
 20
10.92322987891521
 30
0.0
  0
VERTEX
  5
F8B
  8
DETAIL
  6
CONTINUOUS
 62
     5
 10
-63.023290990652711
 20
11.13691719954666
 30
0.0
  0
VERTEX
  5
F8C
  8
DETAIL
  6
CONTINUOUS
 62
     5
 10
-62.860418326240961
 20
11.393105749185271
 30
0.0
  0
VERTEX
  5
F8D
  8
DETAIL
  6
CONTINUOUS
 62
     5
 10
-62.756622520809401
 20
11.68350620624301
 30
0.0
  0
VERTEX
  5
F8E
  8
DETAIL
  6
CONTINUOUS
 62
     5
 10
-62.720183856336917
 20
11.99982924913183
 30
0.0
  0
SEQEND
  5
F8F
  8
DETAIL
  6
CONTINUOUS
 62
     5
  0
POLYLINE
  5
773
  8
DETAIL
  6
CONTINUOUS
 62
     5
 66
     1
 10
0.0
 20
0.0
 30
0.0
  0
VERTEX
  5
F90
  8
DETAIL
  6
CONTINUOUS
 62
     5
 10
-62.720183856336917
 20
22.449837387152911
 30
0.0
  0
VERTEX
  5
F91
  8
DETAIL
  6
CONTINUOUS
 62
     5
 10
-62.756622520809401
 20
22.766214667696811
 30
0.0
  0
VERTEX
  5
F92
  8
DETAIL
  6
CONTINUOUS
 62
     5
 10
-62.860418326240939
 20
23.056636217175971
 30
0.0
  0
VERTEX
  5
F93
  8
DETAIL
  6
CONTINUOUS
 62
     5
 10
-63.023290990652697
 20
23.31282175361153
 30
0.0
  0
VERTEX
  5
F94
  8
DETAIL
  6
CONTINUOUS
 62
     5
 10
-63.23696023206579
 20
23.526490995024609
 30
0.0
  0
VERTEX
  5
F95
  8
DETAIL
  6
CONTINUOUS
 62
     5
 10
-63.49314576850135
 20
23.689363659436371
 30
0.0
  0
VERTEX
  5
F96
  8
DETAIL
  6
CONTINUOUS
 62
     5
 10
-63.783567317980527
 20
23.79315946486793
 30
0.0
  0
VERTEX
  5
F97
  8
DETAIL
  6
CONTINUOUS
 62
     5
 10
-64.099944598524417
 20
23.829598129340411
 30
0.0
  0
SEQEND
  5
F98
  8
DETAIL
  6
CONTINUOUS
 62
     5
  0
POLYLINE
  5
77D
  8
DETAIL
  6
CONTINUOUS
 62
     5
 66
     1
 10
0.0
 20
0.0
 30
0.0
  0
VERTEX
  5
F99
  8
DETAIL
  6
CONTINUOUS
 62
     5
 10
-64.099944598524417
 20
10.44988078993083
 30
0.0
  0
VERTEX
  5
F9A
  8
DETAIL
  6
CONTINUOUS
 62
     5
 10
-63.7445804881295
 20
10.490820175357619
 30
0.0
  0
VERTEX
  5
F9B
  8
DETAIL
  6
CONTINUOUS
 62
     5
 10
-63.41835103801612
 20
10.60743314215892
 30
0.0
  0
VERTEX
  5
F9C
  8
DETAIL
  6
CONTINUOUS
 62
     5
 10
-63.130564032402852
 20
10.79041190611613
 30
0.0
  0
VERTEX
  5
F9D
  8
DETAIL
  6
CONTINUOUS
 62
     5
 10
-62.890527255508289
 20
11.030448683010629
 30
0.0
  0
VERTEX
  5
F9E
  8
DETAIL
  6
CONTINUOUS
 62
     5
 10
-62.707548491551037
 20
11.318235688623821
 30
0.0
  0
VERTEX
  5
F9F
  8
DETAIL
  6
CONTINUOUS
 62
     5
 10
-62.590935524749753
 20
11.64446513873709
 30
0.0
  0
VERTEX
  5
FA0
  8
DETAIL
  6
CONTINUOUS
 62
     5
 10
-62.549996139322943
 20
11.99982924913183
 30
0.0
  0
SEQEND
  5
FA1
  8
DETAIL
  6
CONTINUOUS
 62
     5
  0
POLYLINE
  5
787
  8
DETAIL
  6
CONTINUOUS
 62
     5
 66
     1
 10
0.0
 20
0.0
 30
0.0
  0
VERTEX
  5
FA2
  8
DETAIL
  6
CONTINUOUS
 62
     5
 10
-62.549996139322943
 20
22.449837387152911
 30
0.0
  0
VERTEX
  5
FA3
  8
DETAIL
  6
CONTINUOUS
 62
     5
 10
-62.590935524749717
 20
22.805265277012431
 30
0.0
  0
VERTEX
  5
FA4
  8
DETAIL
  6
CONTINUOUS
 62
     5
 10
-62.707548491551073
 20
23.131540427372119
 30
0.0
  0
VERTEX
  5
FA5
  8
DETAIL
  6
CONTINUOUS
 62
     5
 10
-62.890527255508289
 20
23.419358067216411
 30
0.0
  0
VERTEX
  5
FA6
  8
DETAIL
  6
CONTINUOUS
 62
     5
 10
-63.130564032402852
 20
23.659413425529792
 30
0.0
  0
VERTEX
  5
FA7
  8
DETAIL
  6
CONTINUOUS
 62
     5
 10
-63.418351038016112
 20
23.84240173129669
 30
0.0
  0
VERTEX
  5
FA8
  8
DETAIL
  6
CONTINUOUS
 62
     5
 10
-63.744580488129522
 20
23.959018213501569
 30
0.0
  0
VERTEX
  5
FA9
  8
DETAIL
  6
CONTINUOUS
 62
     5
 10
-64.099944598524417
 20
23.999958101128868
 30
0.0
  0
SEQEND
  5
FAA
  8
DETAIL
  6
CONTINUOUS
 62
     5
  0
POLYLINE
  5
791
  8
DETAIL
  6
CONTINUOUS
 62
     5
 66
     1
 10
0.0
 20
0.0
 30
0.0
  0
VERTEX
  5
FAB
  8
DETAIL
  6
CONTINUOUS
 62
     5
 10
-79.370330340711902
 20
12.02945707031267
 30
0.0
  0
VERTEX
  5
FAC
  8
DETAIL
  6
CONTINUOUS
 62
     5
 10
-79.334651553819555
 20
11.808239220920379
 30
0.0
  0
VERTEX
  5
FAD
  8
DETAIL
  6
CONTINUOUS
 62
     5
 10
-79.235299134114683
 20
11.61611726996547
 30
0.0
  0
VERTEX
  5
FAE
  8
DETAIL
  6
CONTINUOUS
 62
     5
 10
-79.083798993055623
 20
11.46461712890634
 30
0.0
  0
VERTEX
  5
FAF
  8
DETAIL
  6
CONTINUOUS
 62
     5
 10
-78.891677042100682
 20
11.36526470920138
 30
0.0
  0
VERTEX
  5
FB0
  8
DETAIL
  6
CONTINUOUS
 62
     5
 10
-78.670459192708222
 20
11.329585922308979
 30
0.0
  0
VERTEX
  5
FB1
  8
DETAIL
  6
CONTINUOUS
 62
     5
 10
-78.67045781467003
 20
11.329585922308979
 30
0.0
  0
VERTEX
  5
FB2
  8
DETAIL
  6
CONTINUOUS
 62
     5
 10
-78.670448168402686
 20
11.329585922308979
 30
0.0
  0
VERTEX
  5
FB3
  8
DETAIL
  6
CONTINUOUS
 62
     5
 10
-78.67042198567701
 20
11.329585922308979
 30
0.0
  0
VERTEX
  5
FB4
  8
DETAIL
  6
CONTINUOUS
 62
     5
 10
-78.670370998263905
 20
11.329585922308979
 30
0.0
  0
VERTEX
  5
FB5
  8
DETAIL
  6
CONTINUOUS
 62
     5
 10
-78.670286937934193
 20
11.329585922308979
 30
0.0
  0
SEQEND
  5
FB6
  8
DETAIL
  6
CONTINUOUS
 62
     5
  0
POLYLINE
  5
79E
  8
DETAIL
  6
CONTINUOUS
 62
     5
 66
     1
 10
0.0
 20
0.0
 30
0.0
  0
VERTEX
  5
FB7
  8
DETAIL
  6
CONTINUOUS
 62
     5
 10
-78.670286937934193
 20
23.12025296874981
 30
0.0
  0
VERTEX
  5
FB8
  8
DETAIL
  6
CONTINUOUS
 62
     5
 10
-78.891506165364632
 20
23.084574181857491
 30
0.0
  0
VERTEX
  5
FB9
  8
DETAIL
  6
CONTINUOUS
 62
     5
 10
-79.083637762586761
 20
22.985221762152761
 30
0.0
  0
VERTEX
  5
FBA
  8
DETAIL
  6
CONTINUOUS
 62
     5
 10
-79.235164086371483
 20
22.8337216210939
 30
0.0
  0
VERTEX
  5
FBB
  8
DETAIL
  6
CONTINUOUS
 62
     5
 10
-79.334567493489587
 20
22.641599670139222
 30
0.0
  0
VERTEX
  5
FBC
  8
DETAIL
  6
CONTINUOUS
 62
     5
 10
-79.370330340711902
 20
22.420381820747021
 30
0.0
  0
VERTEX
  5
FBD
  8
DETAIL
  6
CONTINUOUS
 62
     5
 10
-79.370330340711902
 20
22.420363906250429
 30
0.0
  0
VERTEX
  5
FBE
  8
DETAIL
  6
CONTINUOUS
 62
     5
 10
-79.370330340711902
 20
22.420321187066239
 30
0.0
  0
VERTEX
  5
FBF
  8
DETAIL
  6
CONTINUOUS
 62
     5
 10
-79.370330340711902
 20
22.420270199652862
 30
0.0
  0
VERTEX
  5
FC0
  8
DETAIL
  6
CONTINUOUS
 62
     5
 10
-79.370330340711902
 20
22.420227480468672
 30
0.0
  0
VERTEX
  5
FC1
  8
DETAIL
  6
CONTINUOUS
 62
     5
 10
-79.370330340711902
 20
22.420209565972058
 30
0.0
  0
SEQEND
  5
FC2
  8
DETAIL
  6
CONTINUOUS
 62
     5
  0
POLYLINE
  5
7AB
  8
DETAIL
  6
CONTINUOUS
 62
     5
 66
     1
 10
0.0
 20
0.0
 30
0.0
  0
VERTEX
  5
FC3
  8
DETAIL
  6
CONTINUOUS
 62
     5
 10
-78.699914759114563
 20
23.799970308159569
 30
0.0
  0
VERTEX
  5
FC4
  8
DETAIL
  6
CONTINUOUS
 62
     5
 10
-79.009498271183816
 20
23.764314072078861
 30
0.0
  0
VERTEX
  5
FC5
  8
DETAIL
  6
CONTINUOUS
 62
     5
 10
-79.293683494752429
 20
23.662747032502701
 30
0.0
  0
VERTEX
  5
FC6
  8
DETAIL
  6
CONTINUOUS
 62
     5
 10
-79.544367926821408
 20
23.503371692430012
 30
0.0
  0
VERTEX
  5
FC7
  8
DETAIL
  6
CONTINUOUS
 62
     5
 10
-79.753449064391816
 20
23.294290554859771
 30
0.0
  0
VERTEX
  5
FC8
  8
DETAIL
  6
CONTINUOUS
 62
     5
 10
-79.912824404464644
 20
23.043606122790859
 30
0.0
  0
VERTEX
  5
FC9
  8
DETAIL
  6
CONTINUOUS
 62
     5
 10
-80.014391444040925
 20
22.75942089922227
 30
0.0
  0
VERTEX
  5
FCA
  8
DETAIL
  6
CONTINUOUS
 62
     5
 10
-80.050047680121679
 20
22.449837387152911
 30
0.0
  0
SEQEND
  5
FCB
  8
DETAIL
  6
CONTINUOUS
 62
     5
  0
POLYLINE
  5
7B5
  8
DETAIL
  6
CONTINUOUS
 62
     5
 66
     1
 10
0.0
 20
0.0
 30
0.0
  0
VERTEX
  5
FCC
  8
DETAIL
  6
CONTINUOUS
 62
     5
 10
-80.050047680121679
 20
11.99982924913183
 30
0.0
  0
VERTEX
  5
FCD
  8
DETAIL
  6
CONTINUOUS
 62
     5
 10
-80.014391444040925
 20
11.69030951652719
 30
0.0
  0
VERTEX
  5
FCE
  8
DETAIL
  6
CONTINUOUS
 62
     5
 10
-79.912824404464644
 20
11.406169993204889
 30
0.0
  0
VERTEX
  5
FCF
  8
DETAIL
  6
CONTINUOUS
 62
     5
 10
-79.753449064391816
 20
11.15551619536693
 30
0.0
  0
VERTEX
  5
FD0
  8
DETAIL
  6
CONTINUOUS
 62
     5
 10
-79.544367926821408
 20
10.946453639215351
 30
0.0
  0
VERTEX
  5
FD1
  8
DETAIL
  6
CONTINUOUS
 62
     5
 10
-79.293683494752429
 20
10.78708784095218
 30
0.0
  0
VERTEX
  5
FD2
  8
DETAIL
  6
CONTINUOUS
 62
     5
 10
-79.009498271183816
 20
10.685524316779469
 30
0.0
  0
VERTEX
  5
FD3
  8
DETAIL
  6
CONTINUOUS
 62
     5
 10
-78.699914759114563
 20
10.64986858289922
 30
0.0
  0
SEQEND
  5
FD4
  8
DETAIL
  6
CONTINUOUS
 62
     5
  0
POLYLINE
  5
7BF
  8
DETAIL
  6
CONTINUOUS
 62
     5
 66
     1
 10
0.0
 20
0.0
 30
0.0
  0
VERTEX
  5
FD5
  8
DETAIL
  6
CONTINUOUS
 62
     5
 10
-78.699914759114563
 20
23.829598129340411
 30
0.0
  0
VERTEX
  5
FD6
  8
DETAIL
  6
CONTINUOUS
 62
     5
 10
-79.016292039658452
 20
23.79315946486793
 30
0.0
  0
VERTEX
  5
FD7
  8
DETAIL
  6
CONTINUOUS
 62
     5
 10
-79.306713589137615
 20
23.689363659436371
 30
0.0
  0
VERTEX
  5
FD8
  8
DETAIL
  6
CONTINUOUS
 62
     5
 10
-79.562899125573182
 20
23.526490995024609
 30
0.0
  0
VERTEX
  5
FD9
  8
DETAIL
  6
CONTINUOUS
 62
     5
 10
-79.776568366986268
 20
23.31282175361153
 30
0.0
  0
VERTEX
  5
FDA
  8
DETAIL
  6
CONTINUOUS
 62
     5
 10
-79.939441031398033
 20
23.056636217175971
 30
0.0
  0
VERTEX
  5
FDB
  8
DETAIL
  6
CONTINUOUS
 62
     5
 10
-80.043236836829564
 20
22.766214667696811
 30
0.0
  0
VERTEX
  5
FDC
  8
DETAIL
  6
CONTINUOUS
 62
     5
 10
-80.079675501302063
 20
22.449837387152911
 30
0.0
  0
SEQEND
  5
FDD
  8
DETAIL
  6
CONTINUOUS
 62
     5
  0
POLYLINE
  5
7C9
  8
DETAIL
  6
CONTINUOUS
 62
     5
 66
     1
 10
0.0
 20
0.0
 30
0.0
  0
VERTEX
  5
FDE
  8
DETAIL
  6
CONTINUOUS
 62
     5
 10
-80.079675501302063
 20
11.99982924913183
 30
0.0
  0
VERTEX
  5
FDF
  8
DETAIL
  6
CONTINUOUS
 62
     5
 10
-80.043236836829578
 20
11.68350620624301
 30
0.0
  0
VERTEX
  5
FE0
  8
DETAIL
  6
CONTINUOUS
 62
     5
 10
-79.939441031398033
 20
11.393105749185271
 30
0.0
  0
VERTEX
  5
FE1
  8
DETAIL
  6
CONTINUOUS
 62
     5
 10
-79.776568366986268
 20
11.13691719954666
 30
0.0
  0
VERTEX
  5
FE2
  8
DETAIL
  6
CONTINUOUS
 62
     5
 10
-79.562899125573182
 20
10.92322987891521
 30
0.0
  0
VERTEX
  5
FE3
  8
DETAIL
  6
CONTINUOUS
 62
     5
 10
-79.306713589137615
 20
10.760333108878971
 30
0.0
  0
VERTEX
  5
FE4
  8
DETAIL
  6
CONTINUOUS
 62
     5
 10
-79.016292039658452
 20
10.656516211026
 30
0.0
  0
VERTEX
  5
FE5
  8
DETAIL
  6
CONTINUOUS
 62
     5
 10
-78.699914759114563
 20
10.62006850694433
 30
0.0
  0
SEQEND
  5
FE6
  8
DETAIL
  6
CONTINUOUS
 62
     5
  0
POLYLINE
  5
7D3
  8
DETAIL
  6
CONTINUOUS
 62
     5
 66
     1
 10
0.0
 20
0.0
 30
0.0
  0
VERTEX
  5
FE7
  8
DETAIL
  6
CONTINUOUS
 62
     5
 10
-80.250035473090065
 20
11.99982924913183
 30
0.0
  0
VERTEX
  5
FE8
  8
DETAIL
  6
CONTINUOUS
 62
     5
 10
-80.209095585462805
 20
11.64446513873709
 30
0.0
  0
VERTEX
  5
FE9
  8
DETAIL
  6
CONTINUOUS
 62
     5
 10
-80.092479103257972
 20
11.318235688623821
 30
0.0
  0
VERTEX
  5
FEA
  8
DETAIL
  6
CONTINUOUS
 62
     5
 10
-79.909490797491173
 20
11.030448683010629
 30
0.0
  0
VERTEX
  5
FEB
  8
DETAIL
  6
CONTINUOUS
 62
     5
 10
-79.669435439177903
 20
10.79041190611613
 30
0.0
  0
VERTEX
  5
FEC
  8
DETAIL
  6
CONTINUOUS
 62
     5
 10
-79.381617799333682
 20
10.60743314215892
 30
0.0
  0
VERTEX
  5
FED
  8
DETAIL
  6
CONTINUOUS
 62
     5
 10
-79.055342648974062
 20
10.490820175357619
 30
0.0
  0
VERTEX
  5
FEE
  8
DETAIL
  6
CONTINUOUS
 62
     5
 10
-78.699914759114563
 20
10.44988078993083
 30
0.0
  0
SEQEND
  5
FEF
  8
DETAIL
  6
CONTINUOUS
 62
     5
  0
POLYLINE
  5
7DD
  8
DETAIL
  6
CONTINUOUS
 62
     5
 66
     1
 10
0.0
 20
0.0
 30
0.0
  0
VERTEX
  5
FF0
  8
DETAIL
  6
CONTINUOUS
 62
     5
 10
-78.699914759114563
 20
23.999958101128868
 30
0.0
  0
VERTEX
  5
FF1
  8
DETAIL
  6
CONTINUOUS
 62
     5
 10
-79.055342648974033
 20
23.959018213501569
 30
0.0
  0
VERTEX
  5
FF2
  8
DETAIL
  6
CONTINUOUS
 62
     5
 10
-79.381617799333654
 20
23.84240173129669
 30
0.0
  0
VERTEX
  5
FF3
  8
DETAIL
  6
CONTINUOUS
 62
     5
 10
-79.669435439177903
 20
23.659413425529792
 30
0.0
  0
VERTEX
  5
FF4
  8
DETAIL
  6
CONTINUOUS
 62
     5
 10
-79.909490797491173
 20
23.419358067216411
 30
0.0
  0
VERTEX
  5
FF5
  8
DETAIL
  6
CONTINUOUS
 62
     5
 10
-80.092479103257972
 20
23.131540427372109
 30
0.0
  0
VERTEX
  5
FF6
  8
DETAIL
  6
CONTINUOUS
 62
     5
 10
-80.209095585462777
 20
22.805265277012431
 30
0.0
  0
VERTEX
  5
FF7
  8
DETAIL
  6
CONTINUOUS
 62
     5
 10
-80.250035473090065
 20
22.449837387152911
 30
0.0
  0
SEQEND
  5
FF8
  8
DETAIL
  6
CONTINUOUS
 62
     5
  0
POLYLINE
  5
7E7
  8
DETAIL
  6
CONTINUOUS
 62
     5
 66
     1
 10
0.0
 20
0.0
 30
0.0
  0
VERTEX
  5
FF9
  8
DETAIL
  6
CONTINUOUS
 62
     5
 10
-50.750027335069248
 20
-31.650219578992608
 30
0.0
  0
VERTEX
  5
FFA
  8
DETAIL
  6
CONTINUOUS
 62
     5
 10
-50.72361761474513
 20
-31.879486163788709
 30
0.0
  0
VERTEX
  5
FFB
  8
DETAIL
  6
CONTINUOUS
 62
     5
 10
-50.64838797861988
 20
-32.089932282340321
 30
0.0
  0
VERTEX
  5
FFC
  8
DETAIL
  6
CONTINUOUS
 62
     5
 10
-50.530337713964251
 20
-32.275561660579761
 30
0.0
  0
VERTEX
  5
FFD
  8
DETAIL
  6
CONTINUOUS
 62
     5
 10
-50.375466108048862
 20
-32.430378024439356
 30
0.0
  0
VERTEX
  5
FFE
  8
DETAIL
  6
CONTINUOUS
 62
     5
 10
-50.189772448144467
 20
-32.548385099851451
 30
0.0
  0
VERTEX
  5
FFF
  8
DETAIL
  6
CONTINUOUS
 62
     5
 10
-49.979256021521778
 20
-32.623586612748333
 30
0.0
  0
VERTEX
  5
1000
  8
DETAIL
  6
CONTINUOUS
 62
     5
 10
-49.74991611545147
 20
-32.649986289062333
 30
0.0
  0
SEQEND
  5
1001
  8
DETAIL
  6
CONTINUOUS
 62
     5
  0
POLYLINE
  5
7F1
  8
DETAIL
  6
CONTINUOUS
 62
     5
 66
     1
 10
0.0
 20
0.0
 30
0.0
  0
VERTEX
  5
1002
  8
DETAIL
  6
CONTINUOUS
 62
     5
 10
-89.343365008680379
 20
-58.264615737846732
 30
0.0
  0
VERTEX
  5
1003
  8
DETAIL
  6
CONTINUOUS
 62
     5
 10
-89.288384040798448
 20
-58.605528606770342
 30
0.0
  0
VERTEX
  5
1004
  8
DETAIL
  6
CONTINUOUS
 62
     5
 10
-89.135275729166565
 20
-58.901627673610612
 30
0.0
  0
VERTEX
  5
1005
  8
DETAIL
  6
CONTINUOUS
 62
     5
 10
-88.901791961805472
 20
-59.135136245659218
 30
0.0
  0
VERTEX
  5
1006
  8
DETAIL
  6
CONTINUOUS
 62
     5
 10
-88.605684626736064
 20
-59.288277630207823
 30
0.0
  0
VERTEX
  5
1007
  8
DETAIL
  6
CONTINUOUS
 62
     5
 10
-88.264705611979011
 20
-59.343275134548087
 30
0.0
  0
VERTEX
  5
1008
  8
DETAIL
  6
CONTINUOUS
 62
     5
 10
-88.264687697482543
 20
-59.343275134548087
 30
0.0
  0
VERTEX
  5
1009
  8
DETAIL
  6
CONTINUOUS
 62
     5
 10
-88.264644978298563
 20
-59.343275134548101
 30
0.0
  0
VERTEX
  5
100A
  8
DETAIL
  6
CONTINUOUS
 62
     5
 10
-88.264593990885459
 20
-59.343275134548101
 30
0.0
  0
VERTEX
  5
100B
  8
DETAIL
  6
CONTINUOUS
 62
     5
 10
-88.264551271701492
 20
-59.343275134548101
 30
0.0
  0
VERTEX
  5
100C
  8
DETAIL
  6
CONTINUOUS
 62
     5
 10
-88.264533357204996
 20
-59.343275134548087
 30
0.0
  0
SEQEND
  5
100D
  8
DETAIL
  6
CONTINUOUS
 62
     5
  0
POLYLINE
  5
7FE
  8
DETAIL
  6
CONTINUOUS
 62
     5
 66
     1
 10
0.0
 20
0.0
 30
0.0
  0
VERTEX
  5
100E
  8
DETAIL
  6
CONTINUOUS
 62
     5
 10
-89.643260570746406
 20
-58.264615737846732
 30
0.0
  0
VERTEX
  5
100F
  8
DETAIL
  6
CONTINUOUS
 62
     5
 10
-89.572982000867938
 20
-58.700367951388429
 30
0.0
  0
VERTEX
  5
1010
  8
DETAIL
  6
CONTINUOUS
 62
     5
 10
-89.377282662760294
 20
-59.078837873263339
 30
0.0
  0
VERTEX
  5
1011
  8
DETAIL
  6
CONTINUOUS
 62
     5
 10
-89.078867113715177
 20
-59.377304409721603
 30
0.0
  0
VERTEX
  5
1012
  8
DETAIL
  6
CONTINUOUS
 62
     5
 10
-88.700439911024176
 20
-59.573046467013178
 30
0.0
  0
VERTEX
  5
1013
  8
DETAIL
  6
CONTINUOUS
 62
     5
 10
-88.264705611979011
 20
-59.643342951388149
 30
0.0
  0
VERTEX
  5
1014
  8
DETAIL
  6
CONTINUOUS
 62
     5
 10
-88.264687697482543
 20
-59.643342951388149
 30
0.0
  0
VERTEX
  5
1015
  8
DETAIL
  6
CONTINUOUS
 62
     5
 10
-88.264644978298563
 20
-59.643342951388142
 30
0.0
  0
VERTEX
  5
1016
  8
DETAIL
  6
CONTINUOUS
 62
     5
 10
-88.264593990885459
 20
-59.643342951388149
 30
0.0
  0
VERTEX
  5
1017
  8
DETAIL
  6
CONTINUOUS
 62
     5
 10
-88.264551271701492
 20
-59.643342951388149
 30
0.0
  0
VERTEX
  5
1018
  8
DETAIL
  6
CONTINUOUS
 62
     5
 10
-88.264533357204996
 20
-59.643342951388149
 30
0.0
  0
SEQEND
  5
1019
  8
DETAIL
  6
CONTINUOUS
 62
     5
  0
POLYLINE
  5
80B
  8
DETAIL
  6
CONTINUOUS
 62
     5
 66
     1
 10
0.0
 20
0.0
 30
0.0
  0
VERTEX
  5
101A
  8
DETAIL
  6
CONTINUOUS
 62
     5
 10
89.644503999999884
 20
-48.02096900000015
 30
0.0
  0
VERTEX
  5
101B
  8
DETAIL
  6
CONTINUOUS
 62
     5
 10
89.617976999999897
 20
-48.143959000000002
 30
0.0
  0
VERTEX
  5
101C
  8
DETAIL
  6
CONTINUOUS
 62
     5
 10
89.554931000000138
 20
-48.237664999999637
 30
0.0
  0
VERTEX
  5
101D
  8
DETAIL
  6
CONTINUOUS
 62
     5
 10
89.463980999999876
 20
-48.300365999999492
 30
0.0
  0
VERTEX
  5
101E
  8
DETAIL
  6
CONTINUOUS
 62
     5
 10
89.343402999999853
 20
-48.326203999999962
 30
0.0
  0
SEQEND
  5
101F
  8
DETAIL
  6
CONTINUOUS
 62
     5
  0
LINE
  5
812
  8
DETAIL
  6
CONTINUOUS
 62
     5
 10
90.000038000000146
 20
58.500178000000219
 30
0.0
 11
90.000038000000146
 21
-58.5
 31
0.0
  0
LINE
  5
813
  8
DETAIL
  6
CONTINUOUS
 62
     5
 10
89.764392999999927
 20
58.264533000000469
 30
0.0
 11
89.764392999999927
 21
-58.264615999999478
 31
0.0
  0
LINE
  5
814
  8
DETAIL
  6
CONTINUOUS
 62
     5
 10
89.643125999999938
 20
-48.021312999999282
 30
0.0
 11
89.643125999999938
 21
-58.264615999999478
 31
0.0
  0
LINE
  5
815
  8
DETAIL
  6
CONTINUOUS
 62
     5
 10
89.643125999999938
 20
58.264533000000469
 30
0.0
 11
89.643125999999938
 21
-47.989617999999602
 31
0.0
  0
LINE
  5
816
  8
DETAIL
  6
CONTINUOUS
 62
     5
 10
89.343402999999853
 20
-47.674047999999857
 30
0.0
 11
89.343402999999853
 21
58.264533000000469
 31
0.0
  0
LINE
  5
817
  8
DETAIL
  6
CONTINUOUS
 62
     5
 10
89.343402999999853
 20
-58.264615999999478
 30
0.0
 11
89.343402999999853
 21
-48.326203999999962
 31
0.0
  0
LINE
  5
818
  8
DETAIL
  6
CONTINUOUS
 62
     5
 10
88.964441999999949
 20
-47.973770999999942
 30
0.0
 11
88.964441999999949
 21
57.464238000000478
 31
0.0
  0
LINE
  5
819
  8
DETAIL
  6
CONTINUOUS
 62
     5
 10
81.600206000000085
 20
12.237369000000401
 30
0.0
 11
81.600206000000085
 21
-0.2376669999994192
 31
0.0
  0
LINE
  5
81A
  8
DETAIL
  6
CONTINUOUS
 62
     5
 10
81.430018000000032
 20
-0.2376669999994192
 30
0.0
 11
81.430018000000032
 21
12.237369000000401
 31
0.0
  0
LINE
  5
81B
  8
DETAIL
  6
CONTINUOUS
 62
     5
 10
81.400046000000174
 20
-0.2376669999994192
 30
0.0
 11
81.400046000000174
 21
12.237369000000401
 31
0.0
  0
LINE
  5
81C
  8
DETAIL
  6
CONTINUOUS
 62
     5
 10
81.050024000000121
 20
12.237541000000419
 30
0.0
 11
81.050024000000121
 21
-0.2378389999994397
 31
0.0
  0
LINE
  5
81D
  8
DETAIL
  6
CONTINUOUS
 62
     5
 10
80.720329000000234
 20
-0.2080390000000989
 30
0.0
 11
80.720329000000234
 21
12.20774100000016
 31
0.0
  0
LINE
  5
81E
  8
DETAIL
  6
CONTINUOUS
 62
     5
 10
80.049912999999805
 20
13.617129000000199
 30
0.0
 11
80.049912999999805
 21
13.78748900000028
 31
0.0
  0
LINE
  5
81F
  8
DETAIL
  6
CONTINUOUS
 62
     5
 10
80.049912999999805
 20
-1.787615000000186
 30
0.0
 11
80.049912999999805
 21
-1.6174270000001341
 31
0.0
  0
LINE
  5
820
  8
DETAIL
  6
CONTINUOUS
 62
     5
 10
50.839292999999998
 20
44.131029000000112
 30
0.0
 11
50.930932000000212
 21
43.717790000000591
 31
0.0
  0
POLYLINE
  5
821
  8
DETAIL
  6
CONTINUOUS
 62
     5
 66
     1
 10
0.0
 20
0.0
 30
0.0
  0
VERTEX
  5
1020
  8
DETAIL
  6
CONTINUOUS
 62
     5
 10
50.273952999999892
 20
44.695163000000328
 30
0.0
  0
VERTEX
  5
1021
  8
DETAIL
  6
CONTINUOUS
 62
     5
 10
50.605371000000112
 20
44.472094000000652
 30
0.0
  0
VERTEX
  5
1022
  8
DETAIL
  6
CONTINUOUS
 62
     5
 10
50.839292999999998
 20
44.131029000000112
 30
0.0
  0
SEQEND
  5
1023
  8
DETAIL
  6
CONTINUOUS
 62
     5
  0
LINE
  5
826
  8
DETAIL
  6
CONTINUOUS
 62
     5
 10
-88.500177999999806
 20
60.0
 30
0.0
 11
88.500043000000005
 21
60.0
 31
0.0
  0
LINE
  5
827
  8
DETAIL
  6
CONTINUOUS
 62
     5
 10
-88.264533000000014
 20
59.764356000000582
 30
0.0
 11
88.264399000000139
 21
59.764356000000582
 31
0.0
  0
LINE
  5
828
  8
DETAIL
  6
CONTINUOUS
 62
     5
 10
-88.264533000000014
 20
59.643261000000152
 30
0.0
 11
88.264399000000139
 21
59.643261000000152
 31
0.0
  0
LINE
  5
829
  8
DETAIL
  6
CONTINUOUS
 62
     5
 10
88.264399000000139
 20
59.34319300000061
 30
0.0
 11
-88.264533000000014
 21
59.34319300000061
 31
0.0
  0
LINE
  5
82A
  8
DETAIL
  6
CONTINUOUS
 62
     5
 10
87.464446999999808
 20
58.964232000000251
 30
0.0
 11
-87.464410000000044
 21
58.964232000000251
 31
0.0
  0
POLYLINE
  5
82B
  8
DETAIL
  6
CONTINUOUS
 62
     5
 66
     1
 10
0.0
 20
0.0
 30
0.0
  0
VERTEX
  5
1024
  8
DETAIL
  6
CONTINUOUS
 62
     5
 10
50.845150000000103
 20
-32.118063999999322
 30
0.0
  0
VERTEX
  5
1025
  8
DETAIL
  6
CONTINUOUS
 62
     5
 10
50.613639000000148
 20
-32.463950999999717
 30
0.0
  0
VERTEX
  5
1026
  8
DETAIL
  6
CONTINUOUS
 62
     5
 10
50.27670900000021
 20
-32.694083999999762
 30
0.0
  0
SEQEND
  5
1027
  8
DETAIL
  6
CONTINUOUS
 62
     5
  0
LINE
  5
830
  8
DETAIL
  6
CONTINUOUS
 62
     5
 10
62.75002099999984
 20
-1.6174270000001341
 30
0.0
 11
62.75002099999984
 21
-1.787615000000186
 31
0.0
  0
LINE
  5
831
  8
DETAIL
  6
CONTINUOUS
 62
     5
 10
62.75002099999984
 20
13.78748900000028
 30
0.0
 11
62.75002099999984
 21
13.617129000000199
 31
0.0
  0
LINE
  5
832
  8
DETAIL
  6
CONTINUOUS
 62
     5
 10
62.07960600000024
 20
12.20774100000016
 30
0.0
 11
62.07960600000024
 21
-0.2080390000000989
 31
0.0
  0
LINE
  5
833
  8
DETAIL
  6
CONTINUOUS
 62
     5
 10
61.750254999999932
 20
-0.2378389999994397
 30
0.0
 11
61.750254999999932
 21
12.237541000000419
 31
0.0
  0
LINE
  5
834
  8
DETAIL
  6
CONTINUOUS
 62
     5
 10
61.400232999999851
 20
12.237369000000401
 30
0.0
 11
61.400232999999851
 21
-0.2376669999994192
 31
0.0
  0
LINE
  5
835
  8
DETAIL
  6
CONTINUOUS
 62
     5
 10
61.370261000000021
 20
12.237369000000401
 30
0.0
 11
61.370261000000021
 21
-0.2376669999994192
 31
0.0
  0
LINE
  5
836
  8
DETAIL
  6
CONTINUOUS
 62
     5
 10
61.200072999999968
 20
-0.2376669999994192
 30
0.0
 11
61.200072999999968
 21
12.237369000000401
 31
0.0
  0
LINE
  5
837
  8
DETAIL
  6
CONTINUOUS
 62
     5
 10
49.897747999999851
 20
44.77285000000029
 30
0.0
 11
50.273952999999892
 21
44.695163000000328
 31
0.0
  0
LINE
  5
838
  8
DETAIL
  6
CONTINUOUS
 62
     5
 10
-50.276671000000078
 20
44.693957999999839
 30
0.0
 11
-49.897538000000146
 21
44.77285000000029
 31
0.0
  0
LINE
  5
839
  8
DETAIL
  6
CONTINUOUS
 62
     5
 10
50.930932000000212
 20
-31.717743000000159
 30
0.0
 11
50.845150000000103
 21
-32.118063999999322
 31
0.0
  0
POLYLINE
  5
83A
  8
DETAIL
  6
CONTINUOUS
 62
     5
 66
     1
 10
0.0
 20
0.0
 30
0.0
  0
VERTEX
  5
1028
  8
DETAIL
  6
CONTINUOUS
 62
     5
 10
50.930932000000212
 20
-31.717743000000159
 30
0.0
  0
VERTEX
  5
1029
  8
DETAIL
  6
CONTINUOUS
 62
     5
 10
50.931966000000102
 20
-31.695005999999928
 30
0.0
  0
VERTEX
  5
102A
  8
DETAIL
  6
CONTINUOUS
 62
     5
 10
50.932655000000068
 20
-31.672612999999728
 30
0.0
  0
VERTEX
  5
102B
  8
DETAIL
  6
CONTINUOUS
 62
     5
 10
50.932655000000068
 20
-31.650219999999539
 30
0.0
  0
SEQEND
  5
102C
  8
DETAIL
  6
CONTINUOUS
 62
     5
  0
LINE
  5
840
  8
DETAIL
  6
CONTINUOUS
 62
     5
 10
54.749820999999883
 20
45.149916000000289
 30
0.0
 11
54.749820999999883
 21
-33.150213999999323
 31
0.0
  0
LINE
  5
841
  8
DETAIL
  6
CONTINUOUS
 62
     5
 10
49.848483000000201
 20
44.77750100000047
 30
0.0
 11
49.897747999999851
 21
44.77285000000029
 31
0.0
  0
POLYLINE
  5
842
  8
DETAIL
  6
CONTINUOUS
 62
     5
 66
     1
 10
0.0
 20
0.0
 30
0.0
  0
VERTEX
  5
102D
  8
DETAIL
  6
CONTINUOUS
 62
     5
 10
49.749953999999903
 20
44.781291000000238
 30
0.0
  0
VERTEX
  5
102E
  8
DETAIL
  6
CONTINUOUS
 62
     5
 10
49.799218999999987
 20
44.78025700000034
 30
0.0
  0
VERTEX
  5
102F
  8
DETAIL
  6
CONTINUOUS
 62
     5
 10
49.848483000000201
 20
44.77750100000047
 30
0.0
  0
SEQEND
  5
1030
  8
DETAIL
  6
CONTINUOUS
 62
     5
  0
LINE
  5
847
  8
DETAIL
  6
CONTINUOUS
 62
     5
 10
-52.749905000000112
 20
47.149965999999928
 30
0.0
 11
52.749942999999803
 21
47.149965999999928
 31
0.0
  0
LINE
  5
848
  8
DETAIL
  6
CONTINUOUS
 62
     5
 10
-49.749915999999757
 20
44.781291000000238
 30
0.0
 11
49.749953999999903
 21
44.781291000000238
 31
0.0
  0
LINE
  5
849
  8
DETAIL
  6
CONTINUOUS
 62
     5
 10
49.749953999999903
 20
44.649860000000437
 30
0.0
 11
-49.749915999999757
 21
44.649860000000437
 31
0.0
  0
LINE
  5
84A
  8
DETAIL
  6
CONTINUOUS
 62
     5
 10
-49.799180999999848
 20
44.78025700000034
 30
0.0
 11
-49.749915999999757
 21
44.781291000000238
 31
0.0
  0
POLYLINE
  5
84B
  8
DETAIL
  6
CONTINUOUS
 62
     5
 66
     1
 10
0.0
 20
0.0
 30
0.0
  0
VERTEX
  5
1031
  8
DETAIL
  6
CONTINUOUS
 62
     5
 10
-49.897538000000146
 20
44.77285000000029
 30
0.0
  0
VERTEX
  5
1032
  8
DETAIL
  6
CONTINUOUS
 62
     5
 10
-49.848445999999967
 20
44.77750100000047
 30
0.0
  0
VERTEX
  5
1033
  8
DETAIL
  6
CONTINUOUS
 62
     5
 10
-49.799180999999848
 20
44.78025700000034
 30
0.0
  0
SEQEND
  5
1034
  8
DETAIL
  6
CONTINUOUS
 62
     5
  0
LINE
  5
850
  8
DETAIL
  6
CONTINUOUS
 62
     5
 10
50.932655000000068
 20
43.64992100000017
 30
0.0
 11
50.932655000000068
 21
-31.650219999999539
 31
0.0
  0
LINE
  5
851
  8
DETAIL
  6
CONTINUOUS
 62
     5
 10
50.750065000000177
 20
-31.650219999999539
 30
0.0
 11
50.750065000000177
 21
43.64992100000017
 31
0.0
  0
POLYLINE
  5
852
  8
DETAIL
  6
CONTINUOUS
 62
     5
 66
     1
 10
0.0
 20
0.0
 30
0.0
  0
VERTEX
  5
1035
  8
DETAIL
  6
CONTINUOUS
 62
     5
 10
50.932655000000068
 20
43.64992100000017
 30
0.0
  0
VERTEX
  5
1036
  8
DETAIL
  6
CONTINUOUS
 62
     5
 10
50.932655000000068
 20
43.672315000000701
 30
0.0
  0
VERTEX
  5
1037
  8
DETAIL
  6
CONTINUOUS
 62
     5
 10
50.931966000000102
 20
43.695052000000018
 30
0.0
  0
VERTEX
  5
1038
  8
DETAIL
  6
CONTINUOUS
 62
     5
 10
50.930932000000212
 20
43.717790000000591
 30
0.0
  0
SEQEND
  5
1039
  8
DETAIL
  6
CONTINUOUS
 62
     5
  0
POLYLINE
  5
858
  8
DETAIL
  6
CONTINUOUS
 62
     5
 66
     1
 10
0.0
 20
0.0
 30
0.0
  0
VERTEX
  5
103A
  8
DETAIL
  6
CONTINUOUS
 62
     5
 10
49.897747999999851
 20
-32.772975999999289
 30
0.0
  0
VERTEX
  5
103B
  8
DETAIL
  6
CONTINUOUS
 62
     5
 10
49.884657000000061
 20
-32.703730000000178
 30
0.0
  0
VERTEX
  5
103C
  8
DETAIL
  6
CONTINUOUS
 62
     5
 10
49.872944000000182
 20
-32.658943999999792
 30
0.0
  0
VERTEX
  5
103D
  8
DETAIL
  6
CONTINUOUS
 62
     5
 10
49.863296999999882
 20
-32.643784999999298
 30
0.0
  0
SEQEND
  5
103E
  8
DETAIL
  6
CONTINUOUS
 62
     5
  0
POLYLINE
  5
85E
  8
DETAIL
  6
CONTINUOUS
 62
     5
 66
     1
 10
0.0
 20
0.0
 30
0.0
  0
VERTEX
  5
103F
  8
DETAIL
  6
CONTINUOUS
 62
     5
 10
-50.930894999999957
 20
43.717790000000591
 30
0.0
  0
VERTEX
  5
1040
  8
DETAIL
  6
CONTINUOUS
 62
     5
 10
-50.835810000000038
 20
43.711244000000079
 30
0.0
  0
VERTEX
  5
1041
  8
DETAIL
  6
CONTINUOUS
 62
     5
 10
-50.77155899999979
 20
43.705904000000373
 30
0.0
  0
VERTEX
  5
1042
  8
DETAIL
  6
CONTINUOUS
 62
     5
 10
-50.748649000000121
 20
43.702115000000049
 30
0.0
  0
SEQEND
  5
1043
  8
DETAIL
  6
CONTINUOUS
 62
     5
  0
POLYLINE
  5
864
  8
DETAIL
  6
CONTINUOUS
 62
     5
 66
     1
 10
0.0
 20
0.0
 30
0.0
  0
VERTEX
  5
1044
  8
DETAIL
  6
CONTINUOUS
 62
     5
 10
50.930932000000212
 20
43.717790000000591
 30
0.0
  0
VERTEX
  5
1045
  8
DETAIL
  6
CONTINUOUS
 62
     5
 10
50.835848000000169
 20
43.711416000000092
 30
0.0
  0
VERTEX
  5
1046
  8
DETAIL
  6
CONTINUOUS
 62
     5
 10
50.771424000000032
 20
43.705904000000373
 30
0.0
  0
VERTEX
  5
1047
  8
DETAIL
  6
CONTINUOUS
 62
     5
 10
50.748687000000238
 20
43.702115000000049
 30
0.0
  0
SEQEND
  5
1048
  8
DETAIL
  6
CONTINUOUS
 62
     5
  0
POLYLINE
  5
86A
  8
DETAIL
  6
CONTINUOUS
 62
     5
 66
     1
 10
0.0
 20
0.0
 30
0.0
  0
VERTEX
  5
1049
  8
DETAIL
  6
CONTINUOUS
 62
     5
 10
49.897747999999851
 20
44.77285000000029
 30
0.0
  0
VERTEX
  5
104A
  8
DETAIL
  6
CONTINUOUS
 62
     5
 10
49.884657000000061
 20
44.703432000000248
 30
0.0
  0
VERTEX
  5
104B
  8
DETAIL
  6
CONTINUOUS
 62
     5
 10
49.872944000000182
 20
44.658645000000419
 30
0.0
  0
VERTEX
  5
104C
  8
DETAIL
  6
CONTINUOUS
 62
     5
 10
49.863296999999882
 20
44.64348700000027
 30
0.0
  0
SEQEND
  5
104D
  8
DETAIL
  6
CONTINUOUS
 62
     5
  0
LINE
  5
870
  8
DETAIL
  6
CONTINUOUS
 62
     5
 10
-50.930894999999957
 20
43.717790000000591
 30
0.0
 11
-54.749954999999773
 21
45.149916000000289
 31
0.0
  0
LINE
  5
871
  8
DETAIL
  6
CONTINUOUS
 62
     5
 10
-78.699915000000146
 20
23.99995800000033
 30
0.0
 11
-64.099944999999934
 21
23.99995800000033
 31
0.0
  0
LINE
  5
872
  8
DETAIL
  6
CONTINUOUS
 62
     5
 10
-64.099944999999934
 20
23.82959800000026
 30
0.0
 11
-78.699915000000146
 21
23.82959800000026
 31
0.0
  0
LINE
  5
873
  8
DETAIL
  6
CONTINUOUS
 62
     5
 10
-64.099944999999934
 20
23.79997000000003
 30
0.0
 11
-78.699915000000146
 21
23.79997000000003
 31
0.0
  0
LINE
  5
874
  8
DETAIL
  6
CONTINUOUS
 62
     5
 10
-64.09977200000003
 20
23.44994899999983
 30
0.0
 11
-78.700087000000153
 21
23.44994899999983
 31
0.0
  0
LINE
  5
875
  8
DETAIL
  6
CONTINUOUS
 62
     5
 10
-64.129571999999825
 20
23.120253000000051
 30
0.0
 11
-78.670286999999902
 21
23.120253000000051
 31
0.0
  0
LINE
  5
876
  8
DETAIL
  6
CONTINUOUS
 62
     5
 10
-80.079675999999807
 20
22.44983700000012
 30
0.0
 11
-80.250035000000025
 21
22.44983700000012
 31
0.0
  0
LINE
  5
877
  8
DETAIL
  6
CONTINUOUS
 62
     5
 10
-62.54999599999973
 20
22.44983700000012
 30
0.0
 11
-62.72018399999979
 21
22.44983700000012
 31
0.0
  0
LINE
  5
878
  8
DETAIL
  6
CONTINUOUS
 62
     5
 10
62.75002099999984
 20
13.78748900000028
 30
0.0
 11
80.049912999999805
 21
13.78748900000028
 31
0.0
  0
LINE
  5
879
  8
DETAIL
  6
CONTINUOUS
 62
     5
 10
80.049912999999805
 20
13.617129000000199
 30
0.0
 11
62.75002099999984
 21
13.617129000000199
 31
0.0
  0
LINE
  5
87A
  8
DETAIL
  6
CONTINUOUS
 62
     5
 10
80.049912999999805
 20
13.587328999999951
 30
0.0
 11
62.75002099999984
 21
13.587328999999951
 31
0.0
  0
LINE
  5
87B
  8
DETAIL
  6
CONTINUOUS
 62
     5
 10
62.75002099999984
 20
13.23748000000068
 30
0.0
 11
80.050256999999874
 21
13.23748000000068
 31
0.0
  0
LINE
  5
87C
  8
DETAIL
  6
CONTINUOUS
 62
     5
 10
80.020285000000058
 20
12.90761199999997
 30
0.0
 11
62.77964900000007
 21
12.90761199999997
 31
0.0
  0
LINE
  5
87D
  8
DETAIL
  6
CONTINUOUS
 62
     5
 10
61.370261000000021
 20
12.237369000000401
 30
0.0
 11
61.200072999999968
 21
12.237369000000401
 31
0.0
  0
LINE
  5
87E
  8
DETAIL
  6
CONTINUOUS
 62
     5
 10
81.600206000000085
 20
12.237369000000401
 30
0.0
 11
81.430018000000032
 21
12.237369000000401
 31
0.0
  0
LINE
  5
87F
  8
DETAIL
  6
CONTINUOUS
 62
     5
 10
-62.72018399999979
 20
11.99982900000032
 30
0.0
 11
-62.54999599999973
 21
11.99982900000032
 31
0.0
  0
LINE
  5
880
  8
DETAIL
  6
CONTINUOUS
 62
     5
 10
-80.250035000000025
 20
11.99982900000032
 30
0.0
 11
-80.079675999999807
 21
11.99982900000032
 31
0.0
  0
LINE
  5
881
  8
DETAIL
  6
CONTINUOUS
 62
     5
 10
-78.670286999999902
 20
11.32958600000074
 30
0.0
 11
-64.129571999999825
 21
11.32958600000074
 31
0.0
  0
LINE
  5
882
  8
DETAIL
  6
CONTINUOUS
 62
     5
 10
-78.700087000000153
 20
10.99989000000005
 30
0.0
 11
-64.09977200000003
 21
10.99989000000005
 31
0.0
  0
LINE
  5
883
  8
DETAIL
  6
CONTINUOUS
 62
     5
 10
-78.699915000000146
 20
10.64986899999985
 30
0.0
 11
-64.099944999999934
 21
10.64986899999985
 31
0.0
  0
LINE
  5
884
  8
DETAIL
  6
CONTINUOUS
 62
     5
 10
-78.699915000000146
 20
10.620069000000511
 30
0.0
 11
-64.099944999999934
 21
10.620069000000511
 31
0.0
  0
LINE
  5
885
  8
DETAIL
  6
CONTINUOUS
 62
     5
 10
-64.099944999999934
 20
10.44988100000046
 30
0.0
 11
-78.699915000000146
 21
10.44988100000046
 31
0.0
  0
LINE
  5
886
  8
DETAIL
  6
CONTINUOUS
 62
     5
 10
-50.930894999999957
 20
-31.717743000000159
 30
0.0
 11
-54.749954999999773
 21
-33.150213999999323
 31
0.0
  0
LINE
  5
887
  8
DETAIL
  6
CONTINUOUS
 62
     5
 10
52.749942999999803
 20
-35.150091999999859
 30
0.0
 11
49.897747999999851
 21
-32.772975999999289
 31
0.0
  0
LINE
  5
888
  8
DETAIL
  6
CONTINUOUS
 62
     5
 10
-49.897538000000146
 20
44.77285000000029
 30
0.0
 11
-52.749905000000112
 21
47.149965999999928
 31
0.0
  0
LINE
  5
889
  8
DETAIL
  6
CONTINUOUS
 62
     5
 10
81.430018000000032
 20
-0.2376669999994192
 30
0.0
 11
81.600206000000085
 21
-0.2376669999994192
 31
0.0
  0
LINE
  5
88A
  8
DETAIL
  6
CONTINUOUS
 62
     5
 10
61.200072999999968
 20
-0.2376669999994192
 30
0.0
 11
61.370261000000021
 21
-0.2376669999994192
 31
0.0
  0
LINE
  5
88B
  8
DETAIL
  6
CONTINUOUS
 62
     5
 10
62.77964900000007
 20
-0.9079099999999016
 30
0.0
 11
80.020285000000058
 21
-0.9079099999999016
 31
0.0
  0
LINE
  5
88C
  8
DETAIL
  6
CONTINUOUS
 62
     5
 10
80.050256999999874
 20
-1.237605999999686
 30
0.0
 11
62.75002099999984
 21
-1.237605999999686
 31
0.0
  0
LINE
  5
88D
  8
DETAIL
  6
CONTINUOUS
 62
     5
 10
62.75002099999984
 20
-1.5876269999998831
 30
0.0
 11
80.049912999999805
 21
-1.5876269999998831
 31
0.0
  0
LINE
  5
88E
  8
DETAIL
  6
CONTINUOUS
 62
     5
 10
62.75002099999984
 20
-1.6174270000001341
 30
0.0
 11
80.049912999999805
 21
-1.6174270000001341
 31
0.0
  0
LINE
  5
88F
  8
DETAIL
  6
CONTINUOUS
 62
     5
 10
80.049912999999805
 20
-1.787615000000186
 30
0.0
 11
62.75002099999984
 21
-1.787615000000186
 31
0.0
  0
LINE
  5
890
  8
DETAIL
  6
CONTINUOUS
 62
     5
 10
49.897747999999851
 20
44.77285000000029
 30
0.0
 11
52.749942999999803
 21
47.149965999999928
 31
0.0
  0
POLYLINE
  5
891
  8
DETAIL
  6
CONTINUOUS
 62
     5
 66
     1
 10
0.0
 20
0.0
 30
0.0
  0
VERTEX
  5
104E
  8
DETAIL
  6
CONTINUOUS
 62
     5
 10
-69.805366999999933
 20
-52.844102999999457
 30
0.0
  0
VERTEX
  5
104F
  8
DETAIL
  6
CONTINUOUS
 62
     5
 10
-69.787624999999935
 20
-52.828943999999851
 30
0.0
  0
VERTEX
  5
1050
  8
DETAIL
  6
CONTINUOUS
 62
     5
 10
-69.771260999999853
 20
-52.81240799999977
 30
0.0
  0
VERTEX
  5
1051
  8
DETAIL
  6
CONTINUOUS
 62
     5
 10
-69.756101999999828
 20
-52.794837999999793
 30
0.0
  0
SEQEND
  5
1052
  8
DETAIL
  6
CONTINUOUS
 62
     5
  0
LINE
  5
897
  8
DETAIL
  6
CONTINUOUS
 62
     5
 10
50.930932000000212
 20
-31.717743000000159
 30
0.0
 11
54.749820999999883
 21
-33.150213999999323
 31
0.0
  0
LINE
  5
898
  8
DETAIL
  6
CONTINUOUS
 62
     5
 10
-52.749905000000112
 20
-35.150091999999859
 30
0.0
 11
-49.897538000000146
 21
-32.772975999999289
 31
0.0
  0
LINE
  5
899
  8
DETAIL
  6
CONTINUOUS
 62
     5
 10
50.930932000000212
 20
43.717790000000591
 30
0.0
 11
54.749820999999883
 21
45.149916000000289
 31
0.0
  0
POLYLINE
  5
89A
  8
DETAIL
  6
CONTINUOUS
 62
     5
 66
     1
 10
0.0
 20
0.0
 30
0.0
  0
VERTEX
  5
1053
  8
DETAIL
  6
CONTINUOUS
 62
     5
 10
-73.043928999999935
 20
-51.205270999999811
 30
0.0
  0
VERTEX
  5
1054
  8
DETAIL
  6
CONTINUOUS
 62
     5
 10
-73.028770999999793
 20
-51.18804499999986
 30
0.0
  0
VERTEX
  5
1055
  8
DETAIL
  6
CONTINUOUS
 62
     5
 10
-73.012233999999793
 20
-51.17150899999978
 30
0.0
  0
VERTEX
  5
1056
  8
DETAIL
  6
CONTINUOUS
 62
     5
 10
-72.99466399999983
 20
-51.156349999999293
 30
0.0
  0
SEQEND
  5
1057
  8
DETAIL
  6
CONTINUOUS
 62
     5
  0
POLYLINE
  5
8A0
  8
DETAIL
  6
CONTINUOUS
 62
     5
 66
     1
 10
0.0
 20
0.0
 30
0.0
  0
VERTEX
  5
1058
  8
DETAIL
  6
CONTINUOUS
 62
     5
 10
50.930932000000212
 20
-31.717743000000159
 30
0.0
  0
VERTEX
  5
1059
  8
DETAIL
  6
CONTINUOUS
 62
     5
 10
50.835848000000169
 20
-31.711542000000009
 30
0.0
  0
VERTEX
  5
105A
  8
DETAIL
  6
CONTINUOUS
 62
     5
 10
50.771424000000032
 20
-31.70602999999938
 30
0.0
  0
VERTEX
  5
105B
  8
DETAIL
  6
CONTINUOUS
 62
     5
 10
50.748687000000238
 20
-31.702240999999962
 30
0.0
  0
SEQEND
  5
105C
  8
DETAIL
  6
CONTINUOUS
 62
     5
  0
POLYLINE
  5
8A6
  8
DETAIL
  6
CONTINUOUS
 62
     5
 66
     1
 10
0.0
 20
0.0
 30
0.0
  0
VERTEX
  5
105D
  8
DETAIL
  6
CONTINUOUS
 62
     5
 10
-49.749915999999757
 20
-32.781588999999258
 30
0.0
  0
VERTEX
  5
105E
  8
DETAIL
  6
CONTINUOUS
 62
     5
 10
-49.799180999999848
 20
-32.780554999999367
 30
0.0
  0
VERTEX
  5
105F
  8
DETAIL
  6
CONTINUOUS
 62
     5
 10
-49.848445999999967
 20
-32.77745499999947
 30
0.0
  0
SEQEND
  5
1060
  8
DETAIL
  6
CONTINUOUS
 62
     5
  0
LINE
  5
8AB
  8
DETAIL
  6
CONTINUOUS
 62
     5
 10
-49.749915999999757
 20
-32.649985999999451
 30
0.0
 11
49.749953999999903
 21
-32.649985999999451
 31
0.0
  0
LINE
  5
8AC
  8
DETAIL
  6
CONTINUOUS
 62
     5
 10
49.749953999999903
 20
-32.781588999999258
 30
0.0
 11
-49.749915999999757
 21
-32.781588999999258
 31
0.0
  0
LINE
  5
8AD
  8
DETAIL
  6
CONTINUOUS
 62
     5
 10
49.799218999999987
 20
-32.780554999999367
 30
0.0
 11
49.749953999999903
 21
-32.781588999999258
 31
0.0
  0
POLYLINE
  5
8AE
  8
DETAIL
  6
CONTINUOUS
 62
     5
 66
     1
 10
0.0
 20
0.0
 30
0.0
  0
VERTEX
  5
1061
  8
DETAIL
  6
CONTINUOUS
 62
     5
 10
-50.930894999999957
 20
-31.717743000000159
 30
0.0
  0
VERTEX
  5
1062
  8
DETAIL
  6
CONTINUOUS
 62
     5
 10
-50.835810000000038
 20
-31.711542000000009
 30
0.0
  0
VERTEX
  5
1063
  8
DETAIL
  6
CONTINUOUS
 62
     5
 10
-50.77155899999979
 20
-31.70602999999938
 30
0.0
  0
VERTEX
  5
1064
  8
DETAIL
  6
CONTINUOUS
 62
     5
 10
-50.748649000000121
 20
-31.702240999999962
 30
0.0
  0
SEQEND
  5
1065
  8
DETAIL
  6
CONTINUOUS
 62
     5
  0
POLYLINE
  5
8B4
  8
DETAIL
  6
CONTINUOUS
 62
     5
 66
     1
 10
0.0
 20
0.0
 30
0.0
  0
VERTEX
  5
1066
  8
DETAIL
  6
CONTINUOUS
 62
     5
 10
-49.897538000000146
 20
44.77285000000029
 30
0.0
  0
VERTEX
  5
1067
  8
DETAIL
  6
CONTINUOUS
 62
     5
 10
-49.884446999999902
 20
44.703432000000248
 30
0.0
  0
VERTEX
  5
1068
  8
DETAIL
  6
CONTINUOUS
 62
     5
 10
-49.872734000000023
 20
44.658645000000419
 30
0.0
  0
VERTEX
  5
1069
  8
DETAIL
  6
CONTINUOUS
 62
     5
 10
-49.863432000000103
 20
44.64348700000027
 30
0.0
  0
SEQEND
  5
106A
  8
DETAIL
  6
CONTINUOUS
 62
     5
  0
LINE
  5
8BA
  8
DETAIL
  6
CONTINUOUS
 62
     5
 10
-49.897538000000146
 20
-32.772975999999289
 30
0.0
 11
-50.27374299999974
 21
-32.695461999999679
 31
0.0
  0
POLYLINE
  5
8BB
  8
DETAIL
  6
CONTINUOUS
 62
     5
 66
     1
 10
0.0
 20
0.0
 30
0.0
  0
VERTEX
  5
106B
  8
DETAIL
  6
CONTINUOUS
 62
     5
 10
89.343402999999853
 20
-47.674047999999857
 30
0.0
  0
VERTEX
  5
106C
  8
DETAIL
  6
CONTINUOUS
 62
     5
 10
89.401280000000042
 20
-47.679559999999583
 30
0.0
  0
VERTEX
  5
106D
  8
DETAIL
  6
CONTINUOUS
 62
     5
 10
89.459847000000096
 20
-47.698163000000022
 30
0.0
  0
VERTEX
  5
106E
  8
DETAIL
  6
CONTINUOUS
 62
     5
 10
89.514967999999968
 20
-47.728825000000143
 30
0.0
  0
VERTEX
  5
106F
  8
DETAIL
  6
CONTINUOUS
 62
     5
 10
89.563889000000017
 20
-47.772576999999721
 30
0.0
  0
VERTEX
  5
1070
  8
DETAIL
  6
CONTINUOUS
 62
     5
 10
89.603852000000174
 20
-47.828042999999518
 30
0.0
  0
VERTEX
  5
1071
  8
DETAIL
  6
CONTINUOUS
 62
     5
 10
89.632102000000046
 20
-47.895222999999532
 30
0.0
  0
VERTEX
  5
1072
  8
DETAIL
  6
CONTINUOUS
 62
     5
 10
89.644158999999945
 20
-47.979282999999647
 30
0.0
  0
SEQEND
  5
1073
  8
DETAIL
  6
CONTINUOUS
 62
     5
  0
LINE
  5
8C5
  8
DETAIL
  6
CONTINUOUS
 62
     5
 10
-49.848445999999967
 20
-32.77745499999947
 30
0.0
 11
-49.897538000000146
 21
-32.772975999999289
 31
0.0
  0
LINE
  5
8C6
  8
DETAIL
  6
CONTINUOUS
 62
     5
 10
52.749942999999803
 20
-35.150091999999859
 30
0.0
 11
-52.749905000000112
 21
-35.150091999999859
 31
0.0
  0
POLYLINE
  5
8C7
  8
DETAIL
  6
CONTINUOUS
 62
     5
 66
     1
 10
0.0
 20
0.0
 30
0.0
  0
VERTEX
  5
1074
  8
DETAIL
  6
CONTINUOUS
 62
     5
 10
49.897747999999851
 20
-32.772975999999289
 30
0.0
  0
VERTEX
  5
1075
  8
DETAIL
  6
CONTINUOUS
 62
     5
 10
49.848483000000201
 20
-32.77745499999947
 30
0.0
  0
VERTEX
  5
1076
  8
DETAIL
  6
CONTINUOUS
 62
     5
 10
49.799218999999987
 20
-32.780554999999367
 30
0.0
  0
SEQEND
  5
1077
  8
DETAIL
  6
CONTINUOUS
 62
     5
  0
LINE
  5
8CC
  8
DETAIL
  6
CONTINUOUS
 62
     5
 10
50.27670900000021
 20
-32.694083999999762
 30
0.0
 11
49.897747999999851
 21
-32.772975999999289
 31
0.0
  0
LINE
  5
8CD
  8
DETAIL
  6
CONTINUOUS
 62
     5
 10
89.343402999999853
 20
-47.674047999999857
 30
0.0
 11
-89.343365000000205
 21
-47.674047999999857
 31
0.0
  0
LINE
  5
8CE
  8
DETAIL
  6
CONTINUOUS
 62
     5
 10
89.644158999999945
 20
-47.979282999999647
 30
0.0
 11
-89.644465999999696
 21
-47.979282999999647
 31
0.0
  0
LINE
  5
8CF
  8
DETAIL
  6
CONTINUOUS
 62
     5
 10
89.343402999999853
 20
-48.326203999999962
 30
0.0
 11
-89.343365000000205
 21
-48.326203999999962
 31
0.0
  0
POLYLINE
  5
8D0
  8
DETAIL
  6
CONTINUOUS
 62
     5
 66
     1
 10
0.0
 20
0.0
 30
0.0
  0
VERTEX
  5
1078
  8
DETAIL
  6
CONTINUOUS
 62
     5
 10
-49.897538000000146
 20
-32.772975999999289
 30
0.0
  0
VERTEX
  5
1079
  8
DETAIL
  6
CONTINUOUS
 62
     5
 10
-49.884446999999902
 20
-32.703730000000178
 30
0.0
  0
VERTEX
  5
107A
  8
DETAIL
  6
CONTINUOUS
 62
     5
 10
-49.872734000000023
 20
-32.658943999999792
 30
0.0
  0
VERTEX
  5
107B
  8
DETAIL
  6
CONTINUOUS
 62
     5
 10
-49.863432000000103
 20
-32.643784999999298
 30
0.0
  0
SEQEND
  5
107C
  8
DETAIL
  6
CONTINUOUS
 62
     5
  0
LINE
  5
8D6
  8
DETAIL
  6
CONTINUOUS
 62
     5
 10
-50.839254999999859
 20
-32.131155000000042
 30
0.0
 11
-50.930894999999957
 21
-31.717743000000159
 31
0.0
  0
POLYLINE
  5
8D7
  8
DETAIL
  6
CONTINUOUS
 62
     5
 66
     1
 10
0.0
 20
0.0
 30
0.0
  0
VERTEX
  5
107D
  8
DETAIL
  6
CONTINUOUS
 62
     5
 10
-50.27374299999974
 20
-32.695461999999679
 30
0.0
  0
VERTEX
  5
107E
  8
DETAIL
  6
CONTINUOUS
 62
     5
 10
-50.605505999999878
 20
-32.47221899999932
 30
0.0
  0
VERTEX
  5
107F
  8
DETAIL
  6
CONTINUOUS
 62
     5
 10
-50.839254999999859
 20
-32.131155000000042
 30
0.0
  0
SEQEND
  5
1080
  8
DETAIL
  6
CONTINUOUS
 62
     5
  0
LINE
  5
8DC
  8
DETAIL
  6
CONTINUOUS
 62
     5
 10
-70.008972000000099
 20
-51.008899999999812
 30
0.0
 11
-72.791059000000104
 21
-51.008899999999812
 31
0.0
  0
LINE
  5
8DD
  8
DETAIL
  6
CONTINUOUS
 62
     5
 10
-72.80880100000013
 20
-51.091582000000017
 30
0.0
 11
-69.991230000000101
 21
-51.091582000000017
 31
0.0
  0
LINE
  5
8DE
  8
DETAIL
  6
CONTINUOUS
 62
     5
 10
-69.991230000000101
 20
-52.908869999999297
 30
0.0
 11
-72.80880100000013
 21
-52.908869999999297
 31
0.0
  0
LINE
  5
8DF
  8
DETAIL
  6
CONTINUOUS
 62
     5
 10
-72.791059000000104
 20
-52.991207999999453
 30
0.0
 11
-70.008972000000099
 21
-52.991207999999453
 31
0.0
  0
POLYLINE
  5
8E0
  8
DETAIL
  6
CONTINUOUS
 62
     5
 66
     1
 10
0.0
 20
0.0
 30
0.0
  0
VERTEX
  5
1081
  8
DETAIL
  6
CONTINUOUS
 62
     5
 10
-50.930894999999957
 20
43.717790000000591
 30
0.0
  0
VERTEX
  5
1082
  8
DETAIL
  6
CONTINUOUS
 62
     5
 10
-50.931927999999971
 20
43.695052000000018
 30
0.0
  0
VERTEX
  5
1083
  8
DETAIL
  6
CONTINUOUS
 62
     5
 10
-50.932444999999902
 20
43.672315000000701
 30
0.0
  0
VERTEX
  5
1084
  8
DETAIL
  6
CONTINUOUS
 62
     5
 10
-50.932616999999937
 20
43.64992100000017
 30
0.0
  0
SEQEND
  5
1085
  8
DETAIL
  6
CONTINUOUS
 62
     5
  0
LINE
  5
8E6
  8
DETAIL
  6
CONTINUOUS
 62
     5
 10
-50.750027000000053
 20
43.64992100000017
 30
0.0
 11
-50.750027000000053
 21
-31.650219999999539
 31
0.0
  0
LINE
  5
8E7
  8
DETAIL
  6
CONTINUOUS
 62
     5
 10
-50.932616999999937
 20
-31.650219999999539
 30
0.0
 11
-50.932616999999937
 21
43.64992100000017
 31
0.0
  0
LINE
  5
8E8
  8
DETAIL
  6
CONTINUOUS
 62
     5
 10
-54.749954999999773
 20
-33.150213999999323
 30
0.0
 11
-54.749954999999773
 21
45.149916000000289
 31
0.0
  0
POLYLINE
  5
8E9
  8
DETAIL
  6
CONTINUOUS
 62
     5
 66
     1
 10
0.0
 20
0.0
 30
0.0
  0
VERTEX
  5
1086
  8
DETAIL
  6
CONTINUOUS
 62
     5
 10
-50.932616999999937
 20
-31.650219999999539
 30
0.0
  0
VERTEX
  5
1087
  8
DETAIL
  6
CONTINUOUS
 62
     5
 10
-50.932444999999902
 20
-31.672612999999728
 30
0.0
  0
VERTEX
  5
1088
  8
DETAIL
  6
CONTINUOUS
 62
     5
 10
-50.931927999999971
 20
-31.695005999999928
 30
0.0
  0
VERTEX
  5
1089
  8
DETAIL
  6
CONTINUOUS
 62
     5
 10
-50.930894999999957
 20
-31.717743000000159
 30
0.0
  0
SEQEND
  5
108A
  8
DETAIL
  6
CONTINUOUS
 62
     5
  0
LINE
  5
8EF
  8
DETAIL
  6
CONTINUOUS
 62
     5
 10
-88.264533000000014
 20
-59.343275000000169
 30
0.0
 11
88.264399000000139
 21
-59.343275000000169
 31
0.0
  0
LINE
  5
8F0
  8
DETAIL
  6
CONTINUOUS
 62
     5
 10
88.264399000000139
 20
-59.643342999999717
 30
0.0
 11
-88.264533000000014
 21
-59.643342999999717
 31
0.0
  0
LINE
  5
8F1
  8
DETAIL
  6
CONTINUOUS
 62
     5
 10
88.264399000000139
 20
-59.764266000000141
 30
0.0
 11
-88.264533000000014
 21
-59.764266000000141
 31
0.0
  0
LINE
  5
8F2
  8
DETAIL
  6
CONTINUOUS
 62
     5
 10
-50.930894999999957
 20
43.717790000000591
 30
0.0
 11
-50.844767000000047
 21
44.118282000000363
 31
0.0
  0
LINE
  5
8F3
  8
DETAIL
  6
CONTINUOUS
 62
     5
 10
-62.54999599999973
 20
22.44983700000012
 30
0.0
 11
-62.54999599999973
 21
11.99982900000032
 31
0.0
  0
LINE
  5
8F4
  8
DETAIL
  6
CONTINUOUS
 62
     5
 10
-62.72018399999979
 20
11.99982900000032
 30
0.0
 11
-62.72018399999979
 21
22.44983700000012
 31
0.0
  0
LINE
  5
8F5
  8
DETAIL
  6
CONTINUOUS
 62
     5
 10
-62.74998400000004
 20
11.99982900000032
 30
0.0
 11
-62.74998400000004
 21
22.44983700000012
 31
0.0
  0
LINE
  5
8F6
  8
DETAIL
  6
CONTINUOUS
 62
     5
 10
-63.100006000000107
 20
11.99982900000032
 30
0.0
 11
-63.100006000000107
 21
22.450010000000479
 31
0.0
  0
LINE
  5
8F7
  8
DETAIL
  6
CONTINUOUS
 62
     5
 10
-63.429701000000023
 20
12.02945700000055
 30
0.0
 11
-63.429701000000023
 21
22.420210000000221
 31
0.0
  0
POLYLINE
  5
8F8
  8
DETAIL
  6
CONTINUOUS
 62
     5
 66
     1
 10
0.0
 20
0.0
 30
0.0
  0
VERTEX
  5
108B
  8
DETAIL
  6
CONTINUOUS
 62
     5
 10
-50.844767000000047
 20
44.118282000000363
 30
0.0
  0
VERTEX
  5
108C
  8
DETAIL
  6
CONTINUOUS
 62
     5
 10
-50.613428999999989
 20
44.463998000000167
 30
0.0
  0
VERTEX
  5
108D
  8
DETAIL
  6
CONTINUOUS
 62
     5
 10
-50.276671000000078
 20
44.693957999999839
 30
0.0
  0
SEQEND
  5
108E
  8
DETAIL
  6
CONTINUOUS
 62
     5
  0
LINE
  5
8FD
  8
DETAIL
  6
CONTINUOUS
 62
     5
 10
-64.099944999999934
 20
23.82959800000026
 30
0.0
 11
-64.099944999999934
 21
23.99995800000033
 31
0.0
  0
LINE
  5
8FE
  8
DETAIL
  6
CONTINUOUS
 62
     5
 10
-64.099944999999934
 20
10.44988100000046
 30
0.0
 11
-64.099944999999934
 21
10.620069000000511
 31
0.0
  0
LINE
  5
8FF
  8
DETAIL
  6
CONTINUOUS
 62
     5
 10
-69.608996999999803
 20
-52.590887999999723
 30
0.0
 11
-69.608996999999803
 21
-51.409219999999543
 31
0.0
  0
LINE
  5
900
  8
DETAIL
  6
CONTINUOUS
 62
     5
 10
-69.691162000000077
 20
-51.391305999999531
 30
0.0
 11
-69.691162000000077
 21
-52.608801999999741
 31
0.0
  0
POLYLINE
  5
901
  8
DETAIL
  6
CONTINUOUS
 62
     5
 66
     1
 10
0.0
 20
0.0
 30
0.0
  0
VERTEX
  5
108F
  8
DETAIL
  6
CONTINUOUS
 62
     5
 10
-89.644465999999696
 20
-47.979282999999647
 30
0.0
  0
VERTEX
  5
1090
  8
DETAIL
  6
CONTINUOUS
 62
     5
 10
-89.617938999999737
 20
-47.856637999999279
 30
0.0
  0
VERTEX
  5
1091
  8
DETAIL
  6
CONTINUOUS
 62
     5
 10
-89.554893999999862
 20
-47.762930999999291
 30
0.0
  0
VERTEX
  5
1092
  8
DETAIL
  6
CONTINUOUS
 62
     5
 10
-89.463771000000179
 20
-47.699540999999932
 30
0.0
  0
VERTEX
  5
1093
  8
DETAIL
  6
CONTINUOUS
 62
     5
 10
-89.343365000000205
 20
-47.674047999999857
 30
0.0
  0
SEQEND
  5
1094
  8
DETAIL
  6
CONTINUOUS
 62
     5
  0
LINE
  5
908
  8
DETAIL
  6
CONTINUOUS
 62
     5
 10
-73.10869700000012
 20
-52.608801999999741
 30
0.0
 11
-73.10869700000012
 21
-51.391305999999531
 31
0.0
  0
LINE
  5
909
  8
DETAIL
  6
CONTINUOUS
 62
     5
 10
-73.191034999999815
 20
-51.409219999999543
 30
0.0
 11
-73.191034999999815
 21
-52.590887999999723
 31
0.0
  0
POLYLINE
  5
90A
  8
DETAIL
  6
CONTINUOUS
 62
     5
 66
     1
 10
0.0
 20
0.0
 30
0.0
  0
VERTEX
  5
1095
  8
DETAIL
  6
CONTINUOUS
 62
     5
 10
-69.805366999999933
 20
-51.156349999999293
 30
0.0
  0
VERTEX
  5
1096
  8
DETAIL
  6
CONTINUOUS
 62
     5
 10
-69.787624999999935
 20
-51.17150899999978
 30
0.0
  0
VERTEX
  5
1097
  8
DETAIL
  6
CONTINUOUS
 62
     5
 10
-69.771260999999853
 20
-51.18804499999986
 30
0.0
  0
VERTEX
  5
1098
  8
DETAIL
  6
CONTINUOUS
 62
     5
 10
-69.756101999999828
 20
-51.205270999999811
 30
0.0
  0
SEQEND
  5
1099
  8
DETAIL
  6
CONTINUOUS
 62
     5
  0
LINE
  5
910
  8
DETAIL
  6
CONTINUOUS
 62
     5
 10
-78.699915000000146
 20
10.620069000000511
 30
0.0
 11
-78.699915000000146
 21
10.44988100000046
 31
0.0
  0
LINE
  5
911
  8
DETAIL
  6
CONTINUOUS
 62
     5
 10
-78.699915000000146
 20
23.99995800000033
 30
0.0
 11
-78.699915000000146
 21
23.82959800000026
 31
0.0
  0
LINE
  5
912
  8
DETAIL
  6
CONTINUOUS
 62
     5
 10
-79.37032999999974
 20
22.420210000000221
 30
0.0
 11
-79.37032999999974
 21
12.02945700000055
 31
0.0
  0
LINE
  5
913
  8
DETAIL
  6
CONTINUOUS
 62
     5
 10
-79.70002599999998
 20
22.450010000000479
 30
0.0
 11
-79.70002599999998
 21
11.99982900000032
 31
0.0
  0
LINE
  5
914
  8
DETAIL
  6
CONTINUOUS
 62
     5
 10
-80.050048000000075
 20
22.44983700000012
 30
0.0
 11
-80.050048000000075
 21
11.99982900000032
 31
0.0
  0
LINE
  5
915
  8
DETAIL
  6
CONTINUOUS
 62
     5
 10
-80.079675999999807
 20
22.44983700000012
 30
0.0
 11
-80.079675999999807
 21
11.99982900000032
 31
0.0
  0
LINE
  5
916
  8
DETAIL
  6
CONTINUOUS
 62
     5
 10
-80.250035000000025
 20
11.99982900000032
 30
0.0
 11
-80.250035000000025
 21
22.44983700000012
 31
0.0
  0
POLYLINE
  5
917
  8
DETAIL
  6
CONTINUOUS
 62
     5
 66
     1
 10
0.0
 20
0.0
 30
0.0
  0
VERTEX
  5
109A
  8
DETAIL
  6
CONTINUOUS
 62
     5
 10
-72.99466399999983
 20
-52.844102999999457
 30
0.0
  0
VERTEX
  5
109B
  8
DETAIL
  6
CONTINUOUS
 62
     5
 10
-73.012233999999793
 20
-52.828943999999851
 30
0.0
  0
VERTEX
  5
109C
  8
DETAIL
  6
CONTINUOUS
 62
     5
 10
-73.028770999999793
 20
-52.81240799999977
 30
0.0
  0
VERTEX
  5
109D
  8
DETAIL
  6
CONTINUOUS
 62
     5
 10
-73.043928999999935
 20
-52.794837999999793
 30
0.0
  0
SEQEND
  5
109E
  8
DETAIL
  6
CONTINUOUS
 62
     5
  0
LINE
  5
91D
  8
DETAIL
  6
CONTINUOUS
 62
     5
 10
-88.964405000000127
 20
57.464238000000478
 30
0.0
 11
-88.964405000000127
 21
-47.957234999999862
 31
0.0
  0
LINE
  5
91E
  8
DETAIL
  6
CONTINUOUS
 62
     5
 10
-89.343365000000205
 20
-48.326203999999962
 30
0.0
 11
-89.343365000000205
 21
-58.264615999999478
 31
0.0
  0
LINE
  5
91F
  8
DETAIL
  6
CONTINUOUS
 62
     5
 10
-89.343365000000205
 20
58.264533000000469
 30
0.0
 11
-89.343365000000205
 21
-47.674047999999857
 31
0.0
  0
LINE
  5
920
  8
DETAIL
  6
CONTINUOUS
 62
     5
 10
-89.643261000000152
 20
-47.989617999999602
 30
0.0
 11
-89.643261000000152
 21
58.264533000000469
 31
0.0
  0
LINE
  5
921
  8
DETAIL
  6
CONTINUOUS
 62
     5
 10
-89.643261000000152
 20
-58.264615999999478
 30
0.0
 11
-89.643261000000152
 21
-48.021312999999282
 31
0.0
  0
LINE
  5
922
  8
DETAIL
  6
CONTINUOUS
 62
     5
 10
-89.764356000000134
 20
-58.264615999999478
 30
0.0
 11
-89.764356000000134
 21
58.264533000000469
 31
0.0
  0
LINE
  5
923
  8
DETAIL
  6
CONTINUOUS
 62
     5
 10
-90.0
 20
-58.5
 30
0.0
 11
-90.0
 21
58.500178000000219
 31
0.0
  0
POLYLINE
  5
924
  8
DETAIL
  6
CONTINUOUS
 62
     5
 66
     1
 10
0.0
 20
0.0
 30
0.0
  0
VERTEX
  5
109F
  8
DETAIL
  6
CONTINUOUS
 62
     5
 10
-89.644122000000138
 20
-48.02096900000015
 30
0.0
  0
VERTEX
  5
10A0
  8
DETAIL
  6
CONTINUOUS
 62
     5
 10
-89.631891999999866
 20
-48.104684999999343
 30
0.0
  0
VERTEX
  5
10A1
  8
DETAIL
  6
CONTINUOUS
 62
     5
 10
-89.603986000000063
 20
-48.172208999999377
 30
0.0
  0
VERTEX
  5
10A2
  8
DETAIL
  6
CONTINUOUS
 62
     5
 10
-89.564022999999906
 20
-48.228019000000131
 30
0.0
  0
VERTEX
  5
10A3
  8
DETAIL
  6
CONTINUOUS
 62
     5
 10
-89.514931000000146
 20
-48.271426999999669
 30
0.0
  0
VERTEX
  5
10A4
  8
DETAIL
  6
CONTINUOUS
 62
     5
 10
-89.459980999999956
 20
-48.302432999999851
 30
0.0
  0
VERTEX
  5
10A5
  8
DETAIL
  6
CONTINUOUS
 62
     5
 10
-89.401414999999815
 20
-48.320347999999278
 30
0.0
  0
VERTEX
  5
10A6
  8
DETAIL
  6
CONTINUOUS
 62
     5
 10
-89.343365000000205
 20
-48.326203999999962
 30
0.0
  0
SEQEND
  5
10A7
  8
DETAIL
  6
CONTINUOUS
 62
     5
  0
LINE
  5
92E
  8
DETAIL
  6
CONTINUOUS
 62
     5
 10
-88.499999999999986
 20
-60.0
 30
0.0
 11
88.500038000000131
 21
-60.0
 31
0.0
  0
ARC
  5
92F
  8
DETAIL
  6
CONTINUOUS
 62
     5
 10
-88.499999999999986
 20
-58.5
 30
0.0
 40
1.5
 50
180.0
 51
270.0
  0
ARC
  5
930
  8
DETAIL
  6
CONTINUOUS
 62
     5
 10
88.500038000000131
 20
-58.5
 30
0.0
 40
1.5
 50
270.0
 51
0.0
  0
LINE
  5
931
  8
BASIS
  6
DASHDOT
 62
     6
 10
100.0
 20
-0.0000000000009095
 30
0.0
 11
-100.0
 21
-0.0000000000009095
 31
0.0
  0
LINE
  5
932
  8
BASIS
  6
DASHDOT
 62
     6
 10
0.0
 20
70.0
 30
0.0
 11
0.0
 21
-70.0
 31
0.0
  0
CIRCLE
  5
933
  8
ARRANGE
  6
CONTINUOUS
 62
     1
 10
0.0
 20
0.0
 30
0.0
 40
15.0
  0
LINE
  5
934
  8
ARRANGE
  6
CONTINUOUS
 62
     1
 10
15.011205009398511
 20
-14.856705945097019
 30
0.0
 11
-15.011205009398511
 21
14.856705945097019
 31
0.0
  0
LINE
  5
935
  8
ARRANGE
  6
CONTINUOUS
 62
     1
 10
14.989128993150191
 20
14.87897843939572
 30
0.0
 11
-14.989128993150191
 21
-14.87897843939481
 31
0.0
  0
LINE
  5
942
  8
SIZE
  6
CONTINUOUS
 62
    30
 10
-90.0
 20
78.500178000000219
 30
0.0
 11
-89.999999999999986
 21
191.56749023307469
 31
0.0
  0
LINE
  5
943
  8
SIZE
  6
CONTINUOUS
 62
    30
 10
90.000038000000146
 20
78.500178000000219
 30
0.0
 11
90.000038000000146
 21
191.56749023307469
 31
0.0
  0
LINE
  5
944
  8
SIZE
  6
CONTINUOUS
 62
    30
 10
90.000038000000146
 20
171.56749023307469
 30
0.0
 11
-90.0
 21
171.56749023307469
 31
0.0
  0
LINE
  5
945
  8
SIZE
  6
CONTINUOUS
 62
    30
 10
-90.0
 20
171.56749023307469
 30
0.0
 11
-288.57142857142873
 21
171.56749023307469
 31
0.0
  0
CIRCLE
  5
946
  8
SIZE
  6
CONTINUOUS
 62
    30
 10
90.000038000000146
 20
171.56749023307469
 30
0.0
 40
7.5
  0
CIRCLE
  5
947
  8
SIZE
  6
CONTINUOUS
 62
    30
 10
-90.0
 20
171.56749023307469
 30
0.0
 40
7.5
  0
TEXT
  5
948
  8
SIZE
  6
CONTINUOUS
 62
    30
 10
-268.5714285714285
 20
191.56749023307469
 30
0.0
 40
60.0
  1
180
 41
0.9
 72
     1
 11
-204.28571428571431
 21
191.56749023307469
 31
0.0
  0
POINT
  5
949
  8
DEFPOINTS
  6
CONTINUOUS
 62
     7
 10
-90.0
 20
58.500178000000219
 30
0.0
  0
POINT
  5
94A
  8
DEFPOINTS
  6
CONTINUOUS
 62
     7
 10
90.000038000000146
 20
58.500178000000219
 30
0.0
  0
POINT
  5
94B
  8
DEFPOINTS
  6
CONTINUOUS
 62
     7
 10
90.000038000000146
 20
171.56749023307469
 30
0.0
  0
LINE
  5
94C
  8
SIZE
  6
CONTINUOUS
 62
    30
 10
-108.50017799999981
 20
60.0
 30
0.0
 11
-260.98961758874702
 21
60.000000000000028
 31
0.0
  0
LINE
  5
94D
  8
SIZE
  6
CONTINUOUS
 62
    30
 10
-108.5
 20
-60.0
 30
0.0
 11
-260.98961758874702
 21
-59.999999999999957
 31
0.0
  0
LINE
  5
94E
  8
SIZE
  6
CONTINUOUS
 62
    30
 10
-240.989617588747
 20
60.000000000000028
 30
0.0
 11
-240.989617588747
 21
-59.999999999999957
 31
0.0
  0
LINE
  5
94F
  8
SIZE
  6
CONTINUOUS
 62
    30
 10
-240.989617588747
 20
-59.999999999999957
 30
0.0
 11
-240.98961758874711
 21
-258.5714285714285
 31
0.0
  0
CIRCLE
  5
950
  8
SIZE
  6
CONTINUOUS
 62
    30
 10
-240.989617588747
 20
60.000000000000028
 30
0.0
 40
7.5
  0
CIRCLE
  5
951
  8
SIZE
  6
CONTINUOUS
 62
    30
 10
-240.989617588747
 20
-59.999999999999957
 30
0.0
 40
7.5
  0
TEXT
  5
952
  8
SIZE
  6
CONTINUOUS
 62
    30
 10
-260.98961758874702
 20
-238.5714285714285
 30
0.0
 40
60.0
  1
120
 50
90.0
 41
0.9
 72
     1
 11
-260.98961758874702
 21
-174.28571428571419
 31
0.0
  0
POINT
  5
953
  8
DEFPOINTS
  6
CONTINUOUS
 62
     7
 10
-88.500177999999806
 20
60.0
 30
0.0
  0
POINT
  5
954
  8
DEFPOINTS
  6
CONTINUOUS
 62
     7
 10
-88.499999999999986
 20
-60.0
 30
0.0
  0
POINT
  5
955
  8
DEFPOINTS
  6
CONTINUOUS
 62
     7
 10
-240.989617588747
 20
-59.999999999999957
 30
0.0
  0
POINT
  5
967
  8
DEFPOINTS
  6
CONTINUOUS
 62
     7
 10
0.0
 20
-71.857499999999163
 30
0.0
  0
POINT
  5
968
  8
DEFPOINTS
  6
CONTINUOUS
 62
     7
 10
-46.0
 20
-59.514705500000673
 30
0.0
  0
POINT
  5
971
  8
DEFPOINTS
  6
CONTINUOUS
 62
     7
 10
0.0
 20
-71.857499999999163
 30
0.0
  0
POINT
  5
972
  8
DEFPOINTS
  6
CONTINUOUS
 62
     7
 10
46.0
 20
-59.514705500000673
 30
0.0
  0
POLYLINE
  5
974
  8
OUTLINE
  6
CONTINUOUS
 62
     3
 66
     1
 10
0.0
 20
0.0
 30
0.0
  0
VERTEX
  5
10A8
  8
OUTLINE
  6
CONTINUOUS
 62
     3
 10
-88.5001778884548
 20
60.00000014757007
 30
0.0
  0
VERTEX
  5
10A9
  8
OUTLINE
  6
CONTINUOUS
 62
     3
 10
-88.844087307458736
 20
59.960391091289452
 30
0.0
  0
VERTEX
  5
10AA
  8
OUTLINE
  6
CONTINUOUS
 62
     3
 10
-89.159781093111036
 20
59.847564214119302
 30
0.0
  0
VERTEX
  5
10AB
  8
OUTLINE
  6
CONTINUOUS
 62
     3
 10
-89.438258807904177
 20
59.670519953567222
 30
0.0
  0
VERTEX
  5
10AC
  8
OUTLINE
  6
CONTINUOUS
 62
     3
 10
-89.670520014330577
 20
59.438258747140772
 30
0.0
  0
VERTEX
  5
10AD
  8
OUTLINE
  6
CONTINUOUS
 62
     3
 10
-89.847564274882643
 20
59.159781032347531
 30
0.0
  0
VERTEX
  5
10AE
  8
OUTLINE
  6
CONTINUOUS
 62
     3
 10
-89.960391152052765
 20
58.844087246695082
 30
0.0
  0
VERTEX
  5
10AF
  8
OUTLINE
  6
CONTINUOUS
 62
     3
 10
-90.000000208333404
 20
58.500177827690997
 30
0.0
  0
SEQEND
  5
10B0
  8
OUTLINE
  6
CONTINUOUS
 62
     3
  0
LINE
  5
97E
  8
OUTLINE
  6
CONTINUOUS
 62
     3
 10
-88.500177999999806
 20
60.0
 30
0.0
 11
88.500043000000005
 21
60.0
 31
0.0
  0
LINE
  5
97F
  8
OUTLINE
  6
CONTINUOUS
 62
     3
 10
-90.0
 20
-58.5
 30
0.0
 11
-90.0
 21
58.500178000000219
 31
0.0
  0
ARC
  5
980
  8
OUTLINE
  6
CONTINUOUS
 62
     3
 10
-88.499999999999986
 20
-58.5
 30
0.0
 40
1.5
 50
180.0
 51
270.0
  0
LINE
  5
981
  8
OUTLINE
  6
CONTINUOUS
 62
     3
 10
-88.499999999999986
 20
-60.0
 30
0.0
 11
88.500038000000131
 21
-60.0
 31
0.0
  0
ARC
  5
982
  8
OUTLINE
  6
CONTINUOUS
 62
     3
 10
88.500038000000131
 20
-58.5
 30
0.0
 40
1.5
 50
270.0
 51
0.0
  0
LINE
  5
983
  8
OUTLINE
  6
CONTINUOUS
 62
     3
 10
90.000038000000146
 20
58.500178000000219
 30
0.0
 11
90.000038000000146
 21
-58.5
 31
0.0
  0
POLYLINE
  5
984
  8
OUTLINE
  6
CONTINUOUS
 62
     3
 66
     1
 10
0.0
 20
0.0
 30
0.0
  0
VERTEX
  5
10B1
  8
OUTLINE
  6
CONTINUOUS
 62
     3
 10
90.000037769097162
 20
58.500177827690997
 30
0.0
  0
VERTEX
  5
10B2
  8
OUTLINE
  6
CONTINUOUS
 62
     3
 10
89.96042821061603
 20
58.844087246695061
 30
0.0
  0
VERTEX
  5
10B3
  8
OUTLINE
  6
CONTINUOUS
 62
     3
 10
89.847597818042345
 20
59.159781032347531
 30
0.0
  0
VERTEX
  5
10B4
  8
OUTLINE
  6
CONTINUOUS
 62
     3
 10
89.670544015680662
 20
59.438258747140772
 30
0.0
  0
VERTEX
  5
10B5
  8
OUTLINE
  6
CONTINUOUS
 62
     3
 10
89.438264227835461
 20
59.670519953567222
 30
0.0
  0
VERTEX
  5
10B6
  8
OUTLINE
  6
CONTINUOUS
 62
     3
 10
89.159755878811353
 20
59.847564214119302
 30
0.0
  0
VERTEX
  5
10B7
  8
OUTLINE
  6
CONTINUOUS
 62
     3
 10
88.844016392912863
 20
59.960391091289452
 30
0.0
  0
VERTEX
  5
10B8
  8
OUTLINE
  6
CONTINUOUS
 62
     3
 10
88.50004319444453
 20
60.00000014757007
 30
0.0
  0
SEQEND
  5
10B9
  8
OUTLINE
  6
CONTINUOUS
 62
     3
  0
ENDSEC
  0
EOF
