  0
SECTION
  2
HEADER
  9
$ACADVER
  1
AC1009
  9
$INSBASE
 10
0.0
 20
0.0
 30
0.0
  9
$EXTMIN
 10
-416.80027397601589
 20
-217.88654948584741
 30
-0.0015258207003583
  9
$EXTMAX
 10
330.61171194695271
 20
359.71754229791259
 30
0.0000000349246037
  9
$LIMMIN
 10
-4267.1522210604817
 20
-2696.0832101984129
  9
$LIMMAX
 10
7190.7174225864646
 20
5141.155363923066
  9
$ORTHOMODE
 70
     0
  9
$REGENMODE
 70
     1
  9
$FILLMODE
 70
     1
  9
$QTEXTMODE
 70
     0
  9
$MIRRTEXT
 70
     0
  9
$DRAGMODE
 70
     2
  9
$LTSCALE
 40
20.0
  9
$OSMODE
 70
   431
  9
$ATTMODE
 70
     1
  9
$TEXTSIZE
 40
64.0
  9
$TRACEWID
 40
0.05
  9
$TEXTSTYLE
  7
STANDARD_MODELNAME
  9
$CLAYER
  8
SYMBOLLINE
  9
$CELTYPE
  6
CONTINUOUS
  9
$CECOLOR
 62
     7
  9
$DIMSCALE
 40
1.0
  9
$DIMASZ
 40
30.0
  9
$DIMEXO
 40
20.0
  9
$DIMDLI
 40
80.0
  9
$DIMRND
 40
0.0
  9
$DIMDLE
 40
0.0
  9
$DIMEXE
 40
20.0
  9
$DIMTP
 40
0.0
  9
$DIMTM
 40
0.0
  9
$DIMTXT
 40
60.0
  9
$DIMCEN
 40
0.09
  9
$DIMTSZ
 40
0.0
  9
$DIMTOL
 70
     0
  9
$DIMLIM
 70
     0
  9
$DIMTIH
 70
     0
  9
$DIMTOH
 70
     0
  9
$DIMSE1
 70
     0
  9
$DIMSE2
 70
     0
  9
$DIMTAD
 70
     1
  9
$DIMZIN
 70
     8
  9
$DIMBLK
  1
SMALL
  9
$DIMASO
 70
     1
  9
$DIMSHO
 70
     0
  9
$DIMPOST
  1

  9
$DIMAPOST
  1

  9
$DIMALT
 70
     0
  9
$DIMALTD
 70
     2
  9
$DIMALTF
 40
25.399999999999999
  9
$DIMLFAC
 40
1.0
  9
$DIMTOFL
 70
     1
  9
$DIMTVP
 40
0.0
  9
$DIMTIX
 70
     0
  9
$DIMSOXD
 70
     0
  9
$DIMSAH
 70
     0
  9
$DIMBLK1
  1

  9
$DIMBLK2
  1

  9
$DIMSTYLE
  2
STANDARD
  9
$DIMCLRD
 70
     0
  9
$DIMCLRE
 70
     0
  9
$DIMCLRT
 70
     0
  9
$DIMTFAC
 40
1.0
  9
$DIMGAP
 40
0.09
  9
$LUNITS
 70
     2
  9
$LUPREC
 70
     4
  9
$SKETCHINC
 40
0.1
  9
$FILLETRAD
 40
0.0
  9
$AUNITS
 70
     1
  9
$AUPREC
 70
     3
  9
$MENU
  1
ACAD
  9
$ELEVATION
 40
0.0
  9
$PELEVATION
 40
0.0
  9
$THICKNESS
 40
0.0
  9
$LIMCHECK
 70
     0
  9
$BLIPMODE
 70
     0
  9
$CHAMFERA
 40
0.0
  9
$CHAMFERB
 40
0.0
  9
$SKPOLY
 70
     0
  9
$TDCREATE
 40
2450330.4399309959
  9
$TDUPDATE
 40
2456791.3868803591
  9
$TDINDWG
 40
4.0826928240999996
  9
$TDUSRTIMER
 40
4.0826922916999999
  9
$USRTIMER
 70
     1
  9
$ANGBASE
 50
0.0
  9
$ANGDIR
 70
     0
  9
$PDMODE
 70
     3
  9
$PDSIZE
 40
-2.0
  9
$PLINEWID
 40
0.0
  9
$COORDS
 70
     1
  9
$SPLFRAME
 70
     0
  9
$SPLINETYPE
 70
     6
  9
$SPLINESEGS
 70
     8
  9
$ATTDIA
 70
     0
  9
$ATTREQ
 70
     1
  9
$HANDLING
 70
     1
  9
$HANDSEED
  5
12D
  9
$SURFTAB1
 70
     6
  9
$SURFTAB2
 70
     6
  9
$SURFTYPE
 70
     6
  9
$SURFU
 70
     6
  9
$SURFV
 70
     6
  9
$UCSNAME
  2

  9
$UCSORG
 10
0.0
 20
0.0
 30
0.0
  9
$UCSXDIR
 10
1.0
 20
0.0
 30
0.0
  9
$UCSYDIR
 10
0.0
 20
1.0
 30
0.0
  9
$PUCSNAME
  2

  9
$PUCSORG
 10
0.0
 20
0.0
 30
0.0
  9
$PUCSXDIR
 10
1.0
 20
0.0
 30
0.0
  9
$PUCSYDIR
 10
0.0
 20
1.0
 30
0.0
  9
$USERI1
 70
     0
  9
$USERI2
 70
     0
  9
$USERI3
 70
     0
  9
$USERI4
 70
     0
  9
$USERI5
 70
     0
  9
$USERR1
 40
20.0
  9
$USERR2
 40
0.0
  9
$USERR3
 40
0.0
  9
$USERR4
 40
0.0
  9
$USERR5
 40
0.0
  9
$WORLDVIEW
 70
     1
  9
$SHADEDGE
 70
     3
  9
$SHADEDIF
 70
    70
  9
$TILEMODE
 70
     1
  9
$MAXACTVP
 70
    64
  9
$PLIMCHECK
 70
     0
  9
$PEXTMIN
 10
1.0000000000000000E+020
 20
1.0000000000000000E+020
 30
1.0000000000000000E+020
  9
$PEXTMAX
 10
-1.0000000000000000E+020
 20
-1.0000000000000000E+020
 30
-1.0000000000000000E+020
  9
$PLIMMIN
 10
0.0
 20
0.0
  9
$PLIMMAX
 10
12.0
 20
9.0
  9
$UNITMODE
 70
     0
  9
$VISRETAIN
 70
     1
  9
$PLINEGEN
 70
     0
  9
$PSLTSCALE
 70
     1
  0
ENDSEC
  0
SECTION
  2
TABLES
  0
TABLE
  2
VPORT
 70
     1
  0
VPORT
  2
*ACTIVE
 70
     0
 10
0.0
 20
0.0
 11
1.0
 21
1.0
 12
-1857.3992584618561
 22
-3119.9084693464142
 13
0.0
 23
0.0
 14
50.0
 24
50.0
 15
100.0
 25
100.0
 16
-10.147175584733301
 26
-23.68337525775587
 36
853.52693352516758
 17
1814.456648411372
 27
3192.6849485089092
 37
-1.7180471651868561
 40
582.02654681439788
 41
1.5540025412960601
 42
50.0
 43
0.0
 44
0.0
 50
0.0
 51
336.79777160775751
 71
     0
 72
  1000
 73
     1
 74
     0
 75
     0
 76
     0
 77
     0
 78
     0
  0
ENDTAB
  0
TABLE
  2
LTYPE
 70
     3
  0
LTYPE
  2
CONTINUOUS
 70
     0
  3
実線
 72
    65
 73
     0
 40
0.0
  0
LTYPE
  2
DASHDOT
 70
     0
  3
____ _ ____ _ ____ _ ____ _ ____ _ ____ _ ____
 72
    65
 73
     4
 40
5.5
 49
4.0
 49
-0.6
 49
0.3
 49
-0.6
  0
ENDTAB
  0
TABLE
  2
LAYER
 70
    12
  0
LAYER
  2
0
 70
     0
 62
     7
  6
CONTINUOUS
  0
LAYER
  2
DETAIL
 70
     0
 62
     5
  6
CONTINUOUS
  0
LAYER
  2
OUTLINE
 70
     0
 62
     3
  6
CONTINUOUS
  0
LAYER
  2
BASIS
 70
     0
 62
     6
  6
DASHDOT
  0
LAYER
  2
SIZE
 70
     0
 62
    30
  6
CONTINUOUS
  0
LAYER
  2
NOTE
 70
     0
 62
     4
  6
CONTINUOUS
  0
LAYER
  2
ARRANGE
 70
     0
 62
     1
  6
CONTINUOUS
  0
LAYER
  2
FIX
 70
     0
 62
    11
  6
CONTINUOUS
  0
LAYER
  2
SERVICESPACE
 70
     0
 62
     2
  6
DASHDOT
  0
LAYER
  2
ETC
 70
     0
 62
    61
  6
CONTINUOUS
  0
LAYER
  2
SYMBOLLINE
 70
     0
 62
    15
  6
CONTINUOUS
  0
LAYER
  2
DEFPOINTS
 70
     0
 62
     7
  6
CONTINUOUS
  0
ENDTAB
  0
TABLE
  2
STYLE
 70
     3
  0
STYLE
  2
STANDARD
 70
     0
 40
0.0
 41
0.9
 50
0.0
 71
     0
 42
64.0
  3
SIMPLEX
  4
BIGFONT
  0
STYLE
  2
ANNOTATIVE
 70
     0
 40
0.0
 41
1.0
 50
0.0
 71
     0
 42
0.2
  3
txt
  4

  0
STYLE
  2
STANDARD_MODELNAME
 70
     0
 40
80.0
 41
0.8
 50
0.0
 71
     0
 42
64.0
  3
MONOTXT.shx
  4
BIGFONT.shx
  0
ENDTAB
  0
TABLE
  2
VIEW
 70
     1
  0
VIEW
  2
ALL
 70
     0
 40
9000.0
 10
241.50664699999999
 20
0.0
 41
12483.01
 11
0.0
 21
0.0
 31
1.0
 12
0.0
 22
0.0
 32
0.0
 42
50.0
 43
0.0
 44
0.0
 50
0.0
 71
     0
  0
ENDTAB
  0
TABLE
  2
UCS
 70
     0
  0
ENDTAB
  0
TABLE
  2
APPID
 70
     4
  0
APPID
  2
ACAD
 70
     0
  0
APPID
  2
ACADANNOTATIVE
 70
     0
  0
APPID
  2
ACAD_MLEADERVER
 70
     0
  0
APPID
  2
ACAD_EXEMPT_FROM_CAD_STANDARDS
 70
     0
  0
ENDTAB
  0
TABLE
  2
DIMSTYLE
 70
     3
  0
DIMSTYLE
  2
STANDARD
 70
     0
  3

  4

  5

  6

  7

 40
1.0
 41
0.18
 42
0.0625
 43
0.38
 44
0.18
 45
0.0
 46
0.0
 47
0.0
 48
0.0
140
0.18
141
0.09
142
0.0
143
25.399999999999999
144
1.0
145
0.0
146
1.0
147
0.09
 71
     0
 72
     0
 73
     1
 74
     1
 75
     0
 76
     0
 77
     0
 78
     0
170
     0
171
     2
172
     0
173
     0
174
     0
175
     0
176
     0
177
     0
178
     0
  0
DIMSTYLE
  2
ANNOTATIVE
 70
     0
  3

  4

  5

  6

  7

 40
1.0
 41
0.18
 42
0.0625
 43
0.38
 44
0.18
 45
0.0
 46
0.0
 47
0.0
 48
0.0
140
0.18
141
0.09
142
0.0
143
25.399999999999999
144
1.0
145
0.0
146
1.0
147
0.09
 71
     0
 72
     0
 73
     1
 74
     1
 75
     0
 76
     0
 77
     0
 78
     0
170
     0
171
     2
172
     0
173
     0
174
     0
175
     0
176
     0
177
     0
178
     0
  0
ENDTAB
  0
ENDSEC
  0
SECTION
  2
BLOCKS
  0
BLOCK
  8
0
  2
$MODEL_SPACE
 70
     0
 10
0.0
 20
0.0
 30
0.0
  3
$MODEL_SPACE
  1

  0
ENDBLK
  5
76
  8
0
  0
BLOCK
 67
     1
  8
0
  2
$PAPER_SPACE
 70
     0
 10
0.0
 20
0.0
 30
0.0
  3
$PAPER_SPACE
  1

  0
ENDBLK
  5
72
 67
     1
  8
0
  0
BLOCK
  8
0
  2
_SMALL
 70
     0
 10
0.0
 20
0.0
 30
0.0
  3
_SMALL
  1

  0
CIRCLE
  5
8C
  8
0
  6
CONTINUOUS
 62
     7
 10
0.0
 20
0.0
 30
0.0
 40
0.25
  0
ENDBLK
  5
8D
  8
0
  0
ENDSEC
  0
SECTION
  2
ENTITIES
  0
TEXT
  5
8E
  8
ETC
  6
CONTINUOUS
 62
    61
 10
-416.5523519314761
 20
279.16064075797573
 30
0.0
 40
80.0
  1
PAC-SF50AT_6
 50
0.0000029998804485
 41
0.8
  7
STANDARD_MODELNAME
  0
LINE
  5
8F
  8
DETAIL
  6
CONTINUOUS
 62
     5
 10
-90.0
 20
-30.0
 30
0.0
 11
90.000038000000146
 21
-30.0
 31
0.0
  0
LINE
  5
90
  8
DETAIL
  6
CONTINUOUS
 62
     5
 10
-90.0
 20
-15.0
 30
0.0
 11
90.000038000000146
 21
-15.0
 31
0.0
  0
LINE
  5
91
  8
DETAIL
  6
CONTINUOUS
 62
     5
 10
-88.0
 20
0.0
 30
0.0
 11
88.000038000000131
 21
0.0
 31
0.0
  0
LINE
  5
92
  8
DETAIL
  6
CONTINUOUS
 62
     5
 10
-90.0
 20
-30.0
 30
0.0
 11
-90.0
 21
-15.0
 31
0.0
  0
LINE
  5
93
  8
DETAIL
  6
CONTINUOUS
 62
     5
 10
-88.0
 20
-15.0
 30
0.0
 11
-88.0
 21
0.0
 31
0.0
  0
LINE
  5
94
  8
DETAIL
  6
CONTINUOUS
 62
     5
 10
90.000038000000146
 20
-30.0
 30
0.0
 11
90.000038000000146
 21
-15.0
 31
0.0
  0
LINE
  5
95
  8
DETAIL
  6
CONTINUOUS
 62
     5
 10
88.000038000000131
 20
-15.0
 30
0.0
 11
88.000038000000131
 21
0.0
 31
0.0
  0
LINE
  5
96
  8
NOTE
  6
CONTINUOUS
 62
     4
 10
-46.0
 20
17.76470550000067
 30
0.0
 11
-46.0
 21
-17.76470549999976
 31
0.0
  0
CIRCLE
  5
97
  8
FIX
  6
CONTINUOUS
 62
    11
 10
-46.0
 20
0.0
 30
0.0
 40
12.42149793872491
  0
LINE
  5
98
  8
NOTE
  6
CONTINUOUS
 62
     4
 10
46.0
 20
17.76470550000067
 30
0.0
 11
46.0
 21
-17.76470549999976
 31
0.0
  0
CIRCLE
  5
99
  8
FIX
  6
CONTINUOUS
 62
    11
 10
46.0
 20
0.0
 30
0.0
 40
12.42149793872491
  0
LINE
  5
9A
  8
BASIS
  6
DASHDOT
 62
     6
 10
0.0
 20
25.760192156441921
 30
0.0
 11
0.0
 21
-42.694650649606949
 31
0.0
  0
CIRCLE
  5
9B
  8
ARRANGE
  6
CONTINUOUS
 62
     1
 10
0.0
 20
0.0
 30
0.0
 40
15.0
  0
LINE
  5
9C
  8
ARRANGE
  6
CONTINUOUS
 62
     1
 10
15.011205009398511
 20
-14.856705945097019
 30
0.0
 11
-15.011205009398511
 21
14.856705945097019
 31
0.0
  0
LINE
  5
9D
  8
ARRANGE
  6
CONTINUOUS
 62
     1
 10
14.989128993150191
 20
14.87897843939572
 30
0.0
 11
-14.989128993150191
 21
-14.87897843939481
 31
0.0
  0
LINE
  5
9E
  8
SIZE
  6
CONTINUOUS
 62
    30
 10
-90.0
 20
-50.0
 30
0.0
 11
-90.000000000000014
 21
-176.06665611618689
 31
0.0
  0
LINE
  5
9F
  8
SIZE
  6
CONTINUOUS
 62
    30
 10
90.000038000000146
 20
-50.0
 30
0.0
 11
90.000038000000117
 21
-176.06665611618689
 31
0.0
  0
LINE
  5
A0
  8
SIZE
  6
CONTINUOUS
 62
    30
 10
90.000038000000117
 20
-156.066656116187
 30
0.0
 11
-90.000000000000014
 21
-156.066656116187
 31
0.0
  0
LINE
  5
A1
  8
SIZE
  6
CONTINUOUS
 62
    30
 10
-90.000000000000014
 20
-156.066656116187
 30
0.0
 11
-288.57142857142873
 21
-156.066656116187
 31
0.0
  0
CIRCLE
  5
A2
  8
SIZE
  6
CONTINUOUS
 62
    30
 10
90.000038000000117
 20
-156.066656116187
 30
0.0
 40
7.5
  0
CIRCLE
  5
A3
  8
SIZE
  6
CONTINUOUS
 62
    30
 10
-90.000000000000014
 20
-156.066656116187
 30
0.0
 40
7.5
  0
TEXT
  5
A4
  8
SIZE
  6
CONTINUOUS
 62
    30
 10
-268.5714285714285
 20
-136.066656116187
 30
0.0
 40
60.0
  1
180
 41
0.9
 72
     1
 11
-204.28571428571431
 21
-136.066656116187
 31
0.0
  0
POINT
  5
A5
  8
DEFPOINTS
  6
CONTINUOUS
 62
     7
 10
-90.0
 20
-30.0
 30
0.0
  0
POINT
  5
A6
  8
DEFPOINTS
  6
CONTINUOUS
 62
     7
 10
90.000038000000146
 20
-30.0
 30
0.0
  0
POINT
  5
A7
  8
DEFPOINTS
  6
CONTINUOUS
 62
     7
 10
90.000038000000117
 20
-156.066656116187
 30
0.0
  0
LINE
  5
A8
  8
SIZE
  6
CONTINUOUS
 62
    30
 10
0.0000000000000012
 20
45.76019215644191
 30
0.0
 11
0.000000000000005
 21
107.2016887050367
 31
0.0
  0
LINE
  5
A9
  8
SIZE
  6
CONTINUOUS
 62
    30
 10
-46.0
 20
37.764705500000673
 30
0.0
 11
-45.999999999999993
 21
107.2016887050367
 31
0.0
  0
LINE
  5
AA
  8
SIZE
  6
CONTINUOUS
 62
    30
 10
0.0000000000000038
 20
87.20168870503673
 30
0.0
 11
-45.999999999999993
 21
87.20168870503673
 31
0.0
  0
LINE
  5
AB
  8
SIZE
  6
CONTINUOUS
 62
    30
 10
-45.999999999999993
 20
87.20168870503673
 30
0.0
 11
-200.8571428571428
 21
87.20168870503673
 31
0.0
  0
CIRCLE
  5
AC
  8
SIZE
  6
CONTINUOUS
 62
    30
 10
0.0000000000000038
 20
87.20168870503673
 30
0.0
 40
7.5
  0
CIRCLE
  5
AD
  8
SIZE
  6
CONTINUOUS
 62
    30
 10
-45.999999999999993
 20
87.20168870503673
 30
0.0
 40
7.5
  0
TEXT
  5
AE
  8
SIZE
  6
CONTINUOUS
 62
    30
 10
-180.8571428571428
 20
107.2016887050367
 30
0.0
 40
60.0
  1
46
 41
0.9
 72
     1
 11
-138.42857142857139
 21
107.2016887050367
 31
0.0
  0
POINT
  5
AF
  8
DEFPOINTS
  6
CONTINUOUS
 62
     7
 10
0.0
 20
25.760192156441921
 30
0.0
  0
POINT
  5
B0
  8
DEFPOINTS
  6
CONTINUOUS
 62
     7
 10
-46.0
 20
17.76470550000067
 30
0.0
  0
POINT
  5
B1
  8
DEFPOINTS
  6
CONTINUOUS
 62
     7
 10
-45.999999999999993
 20
87.20168870503673
 30
0.0
  0
LINE
  5
B2
  8
SIZE
  6
CONTINUOUS
 62
    30
 10
0.0000000000000012
 20
45.76019215644191
 30
0.0
 11
0.000000000000005
 21
107.2016887050367
 31
0.0
  0
LINE
  5
B3
  8
SIZE
  6
CONTINUOUS
 62
    30
 10
46.0
 20
37.764705500000673
 30
0.0
 11
46.0
 21
107.2016887050367
 31
0.0
  0
LINE
  5
B4
  8
SIZE
  6
CONTINUOUS
 62
    30
 10
0.0000000000000038
 20
87.20168870503673
 30
0.0
 11
46.0
 21
87.20168870503673
 31
0.0
  0
LINE
  5
B5
  8
SIZE
  6
CONTINUOUS
 62
    30
 10
46.0
 20
87.20168870503673
 30
0.0
 11
200.8571428571428
 21
87.20168870503673
 31
0.0
  0
CIRCLE
  5
B6
  8
SIZE
  6
CONTINUOUS
 62
    30
 10
0.0000000000000038
 20
87.20168870503673
 30
0.0
 40
7.5
  0
CIRCLE
  5
B7
  8
SIZE
  6
CONTINUOUS
 62
    30
 10
46.0
 20
87.20168870503673
 30
0.0
 40
7.5
  0
TEXT
  5
B8
  8
SIZE
  6
CONTINUOUS
 62
    30
 10
96.0
 20
107.2016887050367
 30
0.0
 40
60.0
  1
46
 41
0.9
 72
     1
 11
138.42857142857139
 21
107.2016887050367
 31
0.0
  0
POINT
  5
B9
  8
DEFPOINTS
  6
CONTINUOUS
 62
     7
 10
0.0
 20
25.760192156441921
 30
0.0
  0
POINT
  5
BA
  8
DEFPOINTS
  6
CONTINUOUS
 62
     7
 10
46.0
 20
17.76470550000067
 30
0.0
  0
POINT
  5
BB
  8
DEFPOINTS
  6
CONTINUOUS
 62
     7
 10
46.0
 20
87.20168870503673
 30
0.0
  0
LINE
  5
BC
  8
SIZE
  6
CONTINUOUS
 62
    30
 10
108.0000380000001
 20
-0.0000000000000057
 30
0.0
 11
282.37077580168938
 21
-0.0000000000000551
 31
0.0
  0
LINE
  5
BD
  8
SIZE
  6
CONTINUOUS
 62
    30
 10
110.0000380000001
 20
-30.0
 30
0.0
 11
282.37077580168938
 21
-30.00000000000005
 31
0.0
  0
LINE
  5
BE
  8
SIZE
  6
CONTINUOUS
 62
    30
 10
262.37077580168949
 20
-0.0000000000000494
 30
0.0
 11
262.37077580168949
 21
29.99999999999995
 31
0.0
  0
LINE
  5
BF
  8
SIZE
  6
CONTINUOUS
 62
    30
 10
262.37077580168949
 20
-30.00000000000005
 30
0.0
 11
262.37077580168938
 21
-217.4285714285713
 31
0.0
  0
LINE
  5
C0
  8
SIZE
  6
CONTINUOUS
 62
    30
 10
262.37077580168949
 20
-0.0000000000000494
 30
0.0
 11
262.37077580168949
 21
-30.00000000000005
 31
0.0
  0
CIRCLE
  5
C1
  8
SIZE
  6
CONTINUOUS
 62
    30
 10
262.37077580168949
 20
-0.0000000000000494
 30
0.0
 40
7.5
  0
CIRCLE
  5
C2
  8
SIZE
  6
CONTINUOUS
 62
    30
 10
262.37077580168949
 20
-30.00000000000005
 30
0.0
 40
7.5
  0
TEXT
  5
C3
  8
SIZE
  6
CONTINUOUS
 62
    30
 10
242.3707758016894
 20
-197.4285714285713
 30
0.0
 40
60.0
  1
30
 50
90.0
 41
0.9
 72
     1
 11
242.3707758016894
 21
-153.71428571428561
 31
0.0
  0
POINT
  5
C4
  8
DEFPOINTS
  6
CONTINUOUS
 62
     7
 10
88.000038000000131
 20
0.0
 30
0.0
  0
POINT
  5
C5
  8
DEFPOINTS
  6
CONTINUOUS
 62
     7
 10
90.000038000000146
 20
-30.0
 30
0.0
  0
POINT
  5
C6
  8
DEFPOINTS
  6
CONTINUOUS
 62
     7
 10
262.37077580168949
 20
-30.00000000000005
 30
0.0
  0
LINE
  5
C7
  8
OUTLINE
  6
CONTINUOUS
 62
     3
 10
88.000038000000131
 20
-15.0
 30
0.0
 11
88.000038000000131
 21
0.0
 31
0.0
  0
LINE
  5
C8
  8
OUTLINE
  6
CONTINUOUS
 62
     3
 10
90.000038000000146
 20
-30.0
 30
0.0
 11
90.000038000000146
 21
-15.0
 31
0.0
  0
LINE
  5
C9
  8
OUTLINE
  6
CONTINUOUS
 62
     3
 10
-88.0
 20
0.0
 30
0.0
 11
88.000038000000131
 21
0.0
 31
0.0
  0
LINE
  5
CA
  8
OUTLINE
  6
CONTINUOUS
 62
     3
 10
-90.0
 20
-15.0
 30
0.0
 11
90.000038000000146
 21
-15.0
 31
0.0
  0
LINE
  5
CC
  8
OUTLINE
  6
CONTINUOUS
 62
     3
 10
-90.0
 20
-30.0
 30
0.0
 11
90.000038000000146
 21
-30.0
 31
0.0
  0
LINE
  5
CD
  8
OUTLINE
  6
CONTINUOUS
 62
     3
 10
-88.0
 20
-15.0
 30
0.0
 11
-88.0
 21
0.0
 31
0.0
  0
LINE
  5
CE
  8
OUTLINE
  6
CONTINUOUS
 62
     3
 10
-90.0
 20
-30.0
 30
0.0
 11
-90.0
 21
-15.0
 31
0.0
  0
LINE
  5
F0
  8
NOTE
  6
CONTINUOUS
 62
     4
 10
-63.764705500000211
 20
0.0000000000004547
 30
0.0
 11
-28.235294499999782
 21
0.0000000000004547
 31
0.0
  0
LINE
  5
F6
  8
NOTE
  6
CONTINUOUS
 62
     4
 10
28.235294499999782
 20
0.0
 30
0.0
 11
63.764705500000211
 21
0.0
 31
0.0
  0
ENDSEC
  0
EOF
