  0
SECTION
  2
HEADER
  9
$ACADVER
  1
AC1009
  9
$INSBASE
 10
0.0
 20
0.0
 30
0.0
  9
$EXTMIN
 10
-433.40942951516621
 20
-259.14398526495643
 30
-0.0015258207003583
  9
$EXTMAX
 10
314.00255640780227
 20
367.49068237223759
 30
0.0000000349246037
  9
$LIMMIN
 10
-4267.1522210604817
 20
-2696.0832101984129
  9
$LIMMAX
 10
7190.7174225864646
 20
5141.155363923066
  9
$ORTHOMODE
 70
     1
  9
$REGENMODE
 70
     1
  9
$FILLMODE
 70
     1
  9
$QTEXTMODE
 70
     0
  9
$MIRRTEXT
 70
     0
  9
$DRAGMODE
 70
     2
  9
$LTSCALE
 40
20.0
  9
$OSMODE
 70
   431
  9
$ATTMODE
 70
     1
  9
$TEXTSIZE
 40
64.0
  9
$TRACEWID
 40
0.05
  9
$TEXTSTYLE
  7
STANDARD_MODELNAME
  9
$CLAYER
  8
SYMBOLLINE
  9
$CELTYPE
  6
CONTINUOUS
  9
$CECOLOR
 62
     7
  9
$DIMSCALE
 40
1.0
  9
$DIMASZ
 40
30.0
  9
$DIMEXO
 40
20.0
  9
$DIMDLI
 40
80.0
  9
$DIMRND
 40
0.0
  9
$DIMDLE
 40
0.0
  9
$DIMEXE
 40
20.0
  9
$DIMTP
 40
0.0
  9
$DIMTM
 40
0.0
  9
$DIMTXT
 40
60.0
  9
$DIMCEN
 40
0.09
  9
$DIMTSZ
 40
0.0
  9
$DIMTOL
 70
     0
  9
$DIMLIM
 70
     0
  9
$DIMTIH
 70
     0
  9
$DIMTOH
 70
     0
  9
$DIMSE1
 70
     0
  9
$DIMSE2
 70
     0
  9
$DIMTAD
 70
     1
  9
$DIMZIN
 70
     8
  9
$DIMBLK
  1
SMALL
  9
$DIMASO
 70
     1
  9
$DIMSHO
 70
     0
  9
$DIMPOST
  1

  9
$DIMAPOST
  1

  9
$DIMALT
 70
     0
  9
$DIMALTD
 70
     2
  9
$DIMALTF
 40
25.399999999999999
  9
$DIMLFAC
 40
1.0
  9
$DIMTOFL
 70
     1
  9
$DIMTVP
 40
0.0
  9
$DIMTIX
 70
     0
  9
$DIMSOXD
 70
     0
  9
$DIMSAH
 70
     0
  9
$DIMBLK1
  1

  9
$DIMBLK2
  1

  9
$DIMSTYLE
  2
STANDARD
  9
$DIMCLRD
 70
     0
  9
$DIMCLRE
 70
     0
  9
$DIMCLRT
 70
     0
  9
$DIMTFAC
 40
1.0
  9
$DIMGAP
 40
0.09
  9
$LUNITS
 70
     2
  9
$LUPREC
 70
     4
  9
$SKETCHINC
 40
0.1
  9
$FILLETRAD
 40
0.5
  9
$AUNITS
 70
     1
  9
$AUPREC
 70
     3
  9
$MENU
  1
ACAD
  9
$ELEVATION
 40
0.0
  9
$PELEVATION
 40
0.0
  9
$THICKNESS
 40
0.0
  9
$LIMCHECK
 70
     0
  9
$BLIPMODE
 70
     0
  9
$CHAMFERA
 40
0.0
  9
$CHAMFERB
 40
0.0
  9
$SKPOLY
 70
     0
  9
$TDCREATE
 40
2450330.4399309959
  9
$TDUPDATE
 40
2456791.4525318979
  9
$TDINDWG
 40
4.0812945022999996
  9
$TDUSRTIMER
 40
4.0812939582999999
  9
$USRTIMER
 70
     1
  9
$ANGBASE
 50
0.0
  9
$ANGDIR
 70
     0
  9
$PDMODE
 70
     3
  9
$PDSIZE
 40
-2.0
  9
$PLINEWID
 40
0.0
  9
$COORDS
 70
     1
  9
$SPLFRAME
 70
     0
  9
$SPLINETYPE
 70
     6
  9
$SPLINESEGS
 70
     8
  9
$ATTDIA
 70
     0
  9
$ATTREQ
 70
     1
  9
$HANDLING
 70
     1
  9
$HANDSEED
  5
7AC
  9
$SURFTAB1
 70
     6
  9
$SURFTAB2
 70
     6
  9
$SURFTYPE
 70
     6
  9
$SURFU
 70
     6
  9
$SURFV
 70
     6
  9
$UCSNAME
  2

  9
$UCSORG
 10
0.0
 20
0.0
 30
0.0
  9
$UCSXDIR
 10
1.0
 20
0.0
 30
0.0
  9
$UCSYDIR
 10
0.0
 20
1.0
 30
0.0
  9
$PUCSNAME
  2

  9
$PUCSORG
 10
0.0
 20
0.0
 30
0.0
  9
$PUCSXDIR
 10
1.0
 20
0.0
 30
0.0
  9
$PUCSYDIR
 10
0.0
 20
1.0
 30
0.0
  9
$USERI1
 70
     0
  9
$USERI2
 70
     0
  9
$USERI3
 70
     0
  9
$USERI4
 70
     0
  9
$USERI5
 70
     0
  9
$USERR1
 40
20.0
  9
$USERR2
 40
0.0
  9
$USERR3
 40
0.0
  9
$USERR4
 40
0.0
  9
$USERR5
 40
0.0
  9
$WORLDVIEW
 70
     1
  9
$SHADEDGE
 70
     3
  9
$SHADEDIF
 70
    70
  9
$TILEMODE
 70
     1
  9
$MAXACTVP
 70
    64
  9
$PLIMCHECK
 70
     0
  9
$PEXTMIN
 10
1.0000000000000000E+020
 20
1.0000000000000000E+020
 30
1.0000000000000000E+020
  9
$PEXTMAX
 10
-1.0000000000000000E+020
 20
-1.0000000000000000E+020
 30
-1.0000000000000000E+020
  9
$PLIMMIN
 10
0.0
 20
0.0
  9
$PLIMMAX
 10
12.0
 20
9.0
  9
$UNITMODE
 70
     0
  9
$VISRETAIN
 70
     1
  9
$PLINEGEN
 70
     0
  9
$PSLTSCALE
 70
     1
  0
ENDSEC
  0
SECTION
  2
TABLES
  0
TABLE
  2
VPORT
 70
     1
  0
VPORT
  2
*ACTIVE
 70
     0
 10
0.0
 20
0.0
 11
1.0
 21
1.0
 12
-1874.0072403812451
 22
-3136.6387005394608
 13
0.0
 23
0.0
 14
50.0
 24
50.0
 15
100.0
 25
100.0
 16
-10.147175584733301
 26
-23.68337525775587
 36
853.52693352516758
 17
1814.456648411372
 27
3192.6849485089092
 37
-1.7180471651868561
 40
631.41144674595944
 41
1.5540025412960601
 42
50.0
 43
0.0
 44
0.0
 50
0.0
 51
336.79777160775751
 71
     0
 72
  1000
 73
     1
 74
     0
 75
     0
 76
     0
 77
     0
 78
     0
  0
ENDTAB
  0
TABLE
  2
LTYPE
 70
     3
  0
LTYPE
  2
CONTINUOUS
 70
     0
  3
実線
 72
    65
 73
     0
 40
0.0
  0
LTYPE
  2
DASHDOT
 70
     0
  3
____ _ ____ _ ____ _ ____ _ ____ _ ____ _ ____
 72
    65
 73
     4
 40
5.5
 49
4.0
 49
-0.6
 49
0.3
 49
-0.6
  0
ENDTAB
  0
TABLE
  2
LAYER
 70
    12
  0
LAYER
  2
0
 70
     0
 62
     7
  6
CONTINUOUS
  0
LAYER
  2
DETAIL
 70
     0
 62
     5
  6
CONTINUOUS
  0
LAYER
  2
OUTLINE
 70
     0
 62
     3
  6
CONTINUOUS
  0
LAYER
  2
BASIS
 70
     0
 62
     6
  6
DASHDOT
  0
LAYER
  2
SIZE
 70
     0
 62
    30
  6
CONTINUOUS
  0
LAYER
  2
NOTE
 70
     0
 62
     4
  6
CONTINUOUS
  0
LAYER
  2
ARRANGE
 70
     0
 62
     1
  6
CONTINUOUS
  0
LAYER
  2
FIX
 70
     0
 62
    11
  6
CONTINUOUS
  0
LAYER
  2
SERVICESPACE
 70
     0
 62
     2
  6
DASHDOT
  0
LAYER
  2
ETC
 70
     0
 62
    61
  6
CONTINUOUS
  0
LAYER
  2
SYMBOLLINE
 70
     0
 62
    15
  6
CONTINUOUS
  0
LAYER
  2
DEFPOINTS
 70
     0
 62
     7
  6
CONTINUOUS
  0
ENDTAB
  0
TABLE
  2
STYLE
 70
     3
  0
STYLE
  2
STANDARD
 70
     0
 40
0.0
 41
0.9
 50
0.0
 71
     0
 42
64.0
  3
SIMPLEX
  4
BIGFONT
  0
STYLE
  2
ANNOTATIVE
 70
     0
 40
0.0
 41
1.0
 50
0.0
 71
     0
 42
0.2
  3
txt
  4

  0
STYLE
  2
STANDARD_MODELNAME
 70
     0
 40
80.0
 41
0.8
 50
0.0
 71
     0
 42
64.0
  3
MONOTXT.shx
  4
BIGFONT.shx
  0
ENDTAB
  0
TABLE
  2
VIEW
 70
     1
  0
VIEW
  2
ALL
 70
     0
 40
9000.0
 10
241.50664699999999
 20
0.0
 41
12483.01
 11
0.0
 21
0.0
 31
1.0
 12
0.0
 22
0.0
 32
0.0
 42
50.0
 43
0.0
 44
0.0
 50
0.0
 71
     0
  0
ENDTAB
  0
TABLE
  2
UCS
 70
     0
  0
ENDTAB
  0
TABLE
  2
APPID
 70
     4
  0
APPID
  2
ACAD
 70
     0
  0
APPID
  2
ACADANNOTATIVE
 70
     0
  0
APPID
  2
ACAD_MLEADERVER
 70
     0
  0
APPID
  2
ACAD_EXEMPT_FROM_CAD_STANDARDS
 70
     0
  0
ENDTAB
  0
TABLE
  2
DIMSTYLE
 70
     3
  0
DIMSTYLE
  2
STANDARD
 70
     0
  3

  4

  5

  6

  7

 40
1.0
 41
0.18
 42
0.0625
 43
0.38
 44
0.18
 45
0.0
 46
0.0
 47
0.0
 48
0.0
140
0.18
141
0.09
142
0.0
143
25.399999999999999
144
1.0
145
0.0
146
1.0
147
0.09
 71
     0
 72
     0
 73
     1
 74
     1
 75
     0
 76
     0
 77
     0
 78
     0
170
     0
171
     2
172
     0
173
     0
174
     0
175
     0
176
     0
177
     0
178
     0
  0
DIMSTYLE
  2
ANNOTATIVE
 70
     0
  3

  4

  5

  6

  7

 40
1.0
 41
0.18
 42
0.0625
 43
0.38
 44
0.18
 45
0.0
 46
0.0
 47
0.0
 48
0.0
140
0.18
141
0.09
142
0.0
143
25.399999999999999
144
1.0
145
0.0
146
1.0
147
0.09
 71
     0
 72
     0
 73
     1
 74
     1
 75
     0
 76
     0
 77
     0
 78
     0
170
     0
171
     2
172
     0
173
     0
174
     0
175
     0
176
     0
177
     0
178
     0
  0
ENDTAB
  0
ENDSEC
  0
SECTION
  2
BLOCKS
  0
BLOCK
  8
0
  2
$MODEL_SPACE
 70
     0
 10
0.0
 20
0.0
 30
0.0
  3
$MODEL_SPACE
  1

  0
ENDBLK
  5
76
  8
0
  0
BLOCK
 67
     1
  8
0
  2
$PAPER_SPACE
 70
     0
 10
0.0
 20
0.0
 30
0.0
  3
$PAPER_SPACE
  1

  0
ENDBLK
  5
72
 67
     1
  8
0
  0
BLOCK
  8
0
  2
_SMALL
 70
     0
 10
0.0
 20
0.0
 30
0.0
  3
_SMALL
  1

  0
CIRCLE
  5
8C
  8
0
  6
CONTINUOUS
 62
     7
 10
0.0
 20
0.0
 30
0.0
 40
0.25
  0
ENDBLK
  5
8D
  8
0
  0
ENDSEC
  0
SECTION
  2
ENTITIES
  0
TEXT
  5
8E
  8
ETC
  6
CONTINUOUS
 62
    61
 10
-432.7338019822509
 20
287.07414349298318
 30
0.0
 40
80.0
  1
PAC-YT52CR_2
 50
0.0000029998804485
 41
0.8
  7
STANDARD_MODELNAME
  0
ARC
  5
8F
  8
DETAIL
  6
CONTINUOUS
 62
     5
 10
31.968958559965358
 20
-56.992220632479082
 30
0.0
 40
3.0310414400344752
 50
270.0
 51
0.0
  0
LINE
  5
90
  8
DETAIL
  6
CONTINUOUS
 62
     5
 10
31.968958559965358
 20
-60.02326207251371
 30
0.0
 11
-31.96014604245466
 21
-60.02326207251371
 31
0.0
  0
ARC
  5
91
  8
DETAIL
  6
CONTINUOUS
 62
     5
 10
-31.96014604245466
 20
-56.98340811496837
 30
0.0
 40
3.039853957545267
 50
180.0
 51
270.0
  0
LINE
  5
92
  8
DETAIL
  6
CONTINUOUS
 62
     5
 10
-35.0
 20
-56.98340811496837
 30
0.0
 11
-35.0
 21
56.956921154034703
 31
0.0
  0
ARC
  5
93
  8
DETAIL
  6
CONTINUOUS
 62
     5
 10
-31.98018322654843
 20
56.956921154034703
 30
0.0
 40
3.019816773451764
 50
90.0
 51
180.0
  0
LINE
  5
94
  8
DETAIL
  6
CONTINUOUS
 62
     5
 10
-31.98018322654843
 20
59.976737927486283
 30
0.0
 11
32.041969665924633
 21
59.976737927486283
 31
0.0
  0
ARC
  5
95
  8
DETAIL
  6
CONTINUOUS
 62
     5
 10
32.041969665924633
 20
57.018707593410902
 30
0.0
 40
2.958030334075036
 50
0.0
 51
90.0
  0
LINE
  5
96
  8
DETAIL
  6
CONTINUOUS
 62
     5
 10
35.0
 20
57.018707593410902
 30
0.0
 11
35.0
 21
-56.992220632479082
 31
0.0
  0
LINE
  5
97
  8
DETAIL
  6
CONTINUOUS
 62
     5
 10
26.699999999999829
 20
-36.549255321275282
 30
0.0
 11
26.699999999999829
 21
37.97947243660019
 31
0.0
  0
LINE
  5
98
  8
DETAIL
  6
CONTINUOUS
 62
     5
 10
-26.699999999999829
 20
37.963859420648987
 30
0.0
 11
-26.699999999999829
 21
-36.551280694916393
 31
0.0
  0
LINE
  5
99
  8
DETAIL
  6
CONTINUOUS
 62
     5
 10
24.702734509113728
 20
39.976737927486283
 30
0.0
 11
-24.687121493162518
 21
39.976737927486283
 31
0.0
  0
LINE
  5
9A
  8
DETAIL
  6
CONTINUOUS
 62
     5
 10
-24.728018622402491
 20
-38.523262072513717
 30
0.0
 11
24.72599324876137
 21
-38.523262072513717
 31
0.0
  0
ARC
  5
9B
  8
DETAIL
  6
CONTINUOUS
 62
     5
 10
-24.687121493162518
 20
37.963859420648987
 30
0.0
 40
2.0128785068377351
 50
90.0
 51
180.0
  0
ARC
  5
9C
  8
DETAIL
  6
CONTINUOUS
 62
     5
 10
24.702734509113728
 20
37.97947243660019
 30
0.0
 40
1.9972654908862311
 50
0.0
 51
90.0
  0
ARC
  5
9D
  8
DETAIL
  6
CONTINUOUS
 62
     5
 10
24.72599324876137
 20
-36.549255321275282
 30
0.0
 40
1.974006751238512
 50
270.0
 51
0.0
  0
ARC
  5
9E
  8
DETAIL
  6
CONTINUOUS
 62
     5
 10
-24.728018622402491
 20
-36.551280694916393
 30
0.0
 40
1.9719813775973301
 50
180.0
 51
270.0
  0
LINE
  5
9F
  8
DETAIL
  6
CONTINUOUS
 62
     5
 10
20.225199016682389
 20
28.096604506999029
 30
0.0
 11
-20.159685421506769
 21
28.096604506999029
 31
0.0
  0
LINE
  5
A0
  8
DETAIL
  6
CONTINUOUS
 62
     5
 10
21.699999999999829
 20
4.4959878258287054
 30
0.0
 11
21.699999999999829
 21
26.621754201239131
 31
0.0
  0
LINE
  5
A1
  8
DETAIL
  6
CONTINUOUS
 62
     5
 10
-21.699999999999829
 20
26.556251291814991
 30
0.0
 11
-21.699999999999829
 21
4.4303964876107766
 31
0.0
  0
LINE
  5
A2
  8
DETAIL
  6
CONTINUOUS
 62
     5
 10
20.180750101658301
 20
2.976737927486282
 30
0.0
 11
-20.246341439876229
 21
2.976737927486282
 31
0.0
  0
ARC
  5
A3
  8
DETAIL
  6
CONTINUOUS
 62
     5
 10
-20.159685421506769
 20
26.556289928505979
 30
0.0
 40
1.5403145784932191
 50
90.0
 51
180.00143718650651
  0
ARC
  5
A4
  8
DETAIL
  6
CONTINUOUS
 62
     5
 10
20.225199016682389
 20
26.621803523681589
 30
0.0
 40
1.4748009833173299
 50
359.99808383110519
 51
90.0
  0
ARC
  5
A5
  8
DETAIL
  6
CONTINUOUS
 62
     5
 10
-20.246341439876229
 20
4.4303964876107766
 30
0.0
 40
1.4536585601241341
 50
180.0
 51
270.0
  0
ARC
  5
A6
  8
DETAIL
  6
CONTINUOUS
 62
     5
 10
20.180750101658301
 20
4.4959878258287054
 30
0.0
 40
1.51924989834191
 50
270.0
 51
0.0
  0
LINE
  5
A7
  8
DETAIL
  6
CONTINUOUS
 62
     5
 10
20.734075309520449
 20
-4.0232620725137149
 30
0.0
 11
3.6784025618508149
 21
-4.0232620725137149
 31
0.0
  0
LINE
  5
A8
  8
DETAIL
  6
CONTINUOUS
 62
     5
 10
20.710836208158071
 20
-12.02326207251372
 30
0.0
 11
3.721648814001127
 21
-12.02326207251372
 31
0.0
  0
LINE
  5
AA
  8
DETAIL
  6
CONTINUOUS
 62
     5
 10
-3.1999999999998181
 20
-23.52326207251372
 30
0.0
 11
-21.199999999999829
 21
-23.52326207251372
 31
0.0
  0
LINE
  5
AB
  8
DETAIL
  6
CONTINUOUS
 62
     5
 10
-21.699999999999829
 20
-4.5232620725137176
 30
0.0
 11
-21.699999999999829
 21
-23.02326207251372
 31
0.0
  0
LINE
  5
AD
  8
DETAIL
  6
CONTINUOUS
 62
     5
 10
-3.1999999999998172
 20
-4.0232620725137149
 30
0.0
 11
-21.199999999999829
 21
-4.0232620725137176
 31
0.0
  0
LINE
  5
B0
  8
DETAIL
  6
CONTINUOUS
 62
     5
 10
-2.6999999999998172
 20
-4.5232620725137149
 30
0.0
 11
-2.6999999999998181
 21
-23.02326207251372
 31
0.0
  0
LINE
  5
B1
  8
DETAIL
  6
CONTINUOUS
 62
     5
 10
21.699999999999829
 20
-4.9891867629930839
 30
0.0
 11
21.699999999999829
 21
-11.034098280671961
 31
0.0
  0
LINE
  5
B2
  8
DETAIL
  6
CONTINUOUS
 62
     5
 10
2.6999999999998181
 20
-11.00161325851241
 30
0.0
 11
2.6999999999998181
 21
-5.0016646343647153
 31
0.0
  0
ARC
  5
B3
  8
DETAIL
  6
CONTINUOUS
 62
     5
 10
20.734075309520449
 20
-4.9891867629930839
 30
0.0
 40
0.9659246904793155
 50
0.0
 51
90.0
  0
ARC
  5
B4
  8
DETAIL
  6
CONTINUOUS
 62
     5
 10
20.710836208158071
 20
-11.034098280671961
 30
0.0
 40
0.9891637918418467
 50
270.0
 51
0.0
  0
ARC
  5
B5
  8
DETAIL
  6
CONTINUOUS
 62
     5
 10
3.6784025618508149
 20
-5.0016646343647153
 30
0.0
 40
0.9784025618507724
 50
90.0
 51
180.0
  0
ARC
  5
B6
  8
DETAIL
  6
CONTINUOUS
 62
     5
 10
3.721648814001127
 20
-11.00161325851241
 30
0.0
 40
1.021648814001191
 50
180.0
 51
270.0
  0
LINE
  5
BF
  8
DETAIL
  6
CONTINUOUS
 62
     5
 10
-3.6732951430740282
 20
-27.02326207251372
 30
0.0
 11
-20.68909493323736
 21
-27.02326207251372
 31
0.0
  0
LINE
  5
C0
  8
DETAIL
  6
CONTINUOUS
 62
     5
 10
-3.6841403972257449
 20
-35.023262072513717
 30
0.0
 11
-20.714691480280639
 21
-35.023262072513717
 31
0.0
  0
LINE
  5
C1
  8
DETAIL
  6
CONTINUOUS
 62
     5
 10
-21.699999999999829
 20
-28.034167139276189
 30
0.0
 11
-21.699999999999829
 21
-34.03795355279361
 31
0.0
  0
LINE
  5
C2
  8
DETAIL
  6
CONTINUOUS
 62
     5
 10
-2.6999999999998181
 20
-27.996557215587931
 30
0.0
 11
-2.6999999999998181
 21
-34.039121675287788
 31
0.0
  0
ARC
  5
C3
  8
DETAIL
  6
CONTINUOUS
 62
     5
 10
-20.68909493323736
 20
-28.034167139276189
 30
0.0
 40
1.010905066762527
 50
90.0
 51
180.0
  0
ARC
  5
C4
  8
DETAIL
  6
CONTINUOUS
 62
     5
 10
-3.6732951430740282
 20
-27.996557215587931
 30
0.0
 40
0.9732951430740968
 50
0.0
 51
90.0
  0
ARC
  5
C5
  8
DETAIL
  6
CONTINUOUS
 62
     5
 10
-3.6841403972257449
 20
-34.039121675287788
 30
0.0
 40
0.9841403972257008
 50
270.0
 51
0.0
  0
ARC
  5
C6
  8
DETAIL
  6
CONTINUOUS
 62
     5
 10
-20.714691480280639
 20
-34.03795355279361
 30
0.0
 40
0.9853085197197051
 50
180.0
 51
270.0
  0
LINE
  5
C7
  8
DETAIL
  6
CONTINUOUS
 62
     5
 10
20.734075309520449
 20
-15.52326207251371
 30
0.0
 11
3.6784025618508149
 21
-15.52326207251371
 31
0.0
  0
LINE
  5
C8
  8
DETAIL
  6
CONTINUOUS
 62
     5
 10
20.710836208158071
 20
-23.52326207251372
 30
0.0
 11
3.721648814001127
 21
-23.52326207251372
 31
0.0
  0
LINE
  5
C9
  8
DETAIL
  6
CONTINUOUS
 62
     5
 10
21.699999999999829
 20
-16.489186762993079
 30
0.0
 11
21.699999999999829
 21
-22.534098280671969
 31
0.0
  0
LINE
  5
CA
  8
DETAIL
  6
CONTINUOUS
 62
     5
 10
2.6999999999998181
 20
-22.50161325851241
 30
0.0
 11
2.6999999999998181
 21
-16.501664634364712
 31
0.0
  0
ARC
  5
CB
  8
DETAIL
  6
CONTINUOUS
 62
     5
 10
20.734075309520449
 20
-16.489186762993079
 30
0.0
 40
0.9659246904793155
 50
0.0
 51
90.0
  0
ARC
  5
CC
  8
DETAIL
  6
CONTINUOUS
 62
     5
 10
20.710836208158071
 20
-22.534098280671969
 30
0.0
 40
0.9891637918418432
 50
270.0
 51
0.0
  0
ARC
  5
CD
  8
DETAIL
  6
CONTINUOUS
 62
     5
 10
3.6784025618508149
 20
-16.501664634364712
 30
0.0
 40
0.9784025618507655
 50
90.0
 51
180.0
  0
ARC
  5
CE
  8
DETAIL
  6
CONTINUOUS
 62
     5
 10
3.721648814001127
 20
-22.50161325851241
 30
0.0
 40
1.021648814001189
 50
180.0
 51
270.0
  0
LINE
  5
CF
  8
DETAIL
  6
CONTINUOUS
 62
     5
 10
20.734075309520449
 20
-27.02326207251372
 30
0.0
 11
3.6784025618508149
 21
-27.02326207251372
 31
0.0
  0
LINE
  5
D0
  8
DETAIL
  6
CONTINUOUS
 62
     5
 10
20.710836208158071
 20
-35.023262072513717
 30
0.0
 11
3.721648814001127
 21
-35.023262072513717
 31
0.0
  0
LINE
  5
D1
  8
DETAIL
  6
CONTINUOUS
 62
     5
 10
21.699999999999829
 20
-27.989186762993089
 30
0.0
 11
21.699999999999829
 21
-34.034098280671969
 31
0.0
  0
LINE
  5
D2
  8
DETAIL
  6
CONTINUOUS
 62
     5
 10
2.6999999999998181
 20
-34.001613258512421
 30
0.0
 11
2.6999999999998181
 21
-28.001664634364719
 31
0.0
  0
ARC
  5
D3
  8
DETAIL
  6
CONTINUOUS
 62
     5
 10
20.734075309520449
 20
-27.989186762993089
 30
0.0
 40
0.9659246904793155
 50
0.0
 51
90.0
  0
ARC
  5
D4
  8
DETAIL
  6
CONTINUOUS
 62
     5
 10
20.710836208158071
 20
-34.034098280671969
 30
0.0
 40
0.9891637918418432
 50
270.0
 51
0.0
  0
ARC
  5
D5
  8
DETAIL
  6
CONTINUOUS
 62
     5
 10
3.6784025618508149
 20
-28.001664634364719
 30
0.0
 40
0.9784025618507719
 50
90.0
 51
180.0
  0
ARC
  5
D6
  8
DETAIL
  6
CONTINUOUS
 62
     5
 10
3.721648814001127
 20
-34.001613258512421
 30
0.0
 40
1.021648814001189
 50
180.0
 51
270.0
  0
LINE
  5
D7
  8
DETAIL
  6
CONTINUOUS
 62
     5
 10
24.89999999999965
 20
-39.523262072513717
 30
0.0
 11
26.699999999999829
 21
-39.523262072513717
 31
0.0
  0
LINE
  5
D8
  8
DETAIL
  6
CONTINUOUS
 62
     5
 10
24.900000000000549
 20
-54.023262072513717
 30
0.0
 11
26.699999999999829
 21
-54.023262072513717
 31
0.0
  0
LINE
  5
D9
  8
DETAIL
  6
CONTINUOUS
 62
     5
 10
26.699999999999829
 20
-39.523262072513717
 30
0.0
 11
26.699999999999829
 21
-54.023262072513717
 31
0.0
  0
LINE
  5
DA
  8
DETAIL
  6
CONTINUOUS
 62
     5
 10
24.89999999999965
 20
-39.523262072513717
 30
0.0
 11
24.900000000000549
 21
-54.023262072513717
 31
0.0
  0
LINE
  5
DB
  8
DETAIL
  6
CONTINUOUS
 62
     5
 10
21.899999999999629
 20
-39.523262072513717
 30
0.0
 11
23.699999999999829
 21
-39.523262072513717
 31
0.0
  0
LINE
  5
DC
  8
DETAIL
  6
CONTINUOUS
 62
     5
 10
21.900000000000549
 20
-54.023262072513717
 30
0.0
 11
23.699999999999829
 21
-54.023262072513717
 31
0.0
  0
LINE
  5
DD
  8
DETAIL
  6
CONTINUOUS
 62
     5
 10
23.699999999999829
 20
-39.523262072513717
 30
0.0
 11
23.699999999999829
 21
-54.023262072513717
 31
0.0
  0
LINE
  5
DE
  8
DETAIL
  6
CONTINUOUS
 62
     5
 10
21.899999999999629
 20
-39.523262072513717
 30
0.0
 11
21.900000000000549
 21
-54.023262072513717
 31
0.0
  0
LINE
  5
DF
  8
DETAIL
  6
CONTINUOUS
 62
     5
 10
18.899999999999629
 20
-39.523262072513717
 30
0.0
 11
20.699999999999822
 21
-39.523262072513717
 31
0.0
  0
LINE
  5
E0
  8
DETAIL
  6
CONTINUOUS
 62
     5
 10
18.900000000000531
 20
-54.023262072513717
 30
0.0
 11
20.699999999999822
 21
-54.023262072513717
 31
0.0
  0
LINE
  5
E1
  8
DETAIL
  6
CONTINUOUS
 62
     5
 10
20.699999999999822
 20
-39.523262072513717
 30
0.0
 11
20.699999999999822
 21
-54.023262072513717
 31
0.0
  0
LINE
  5
E2
  8
DETAIL
  6
CONTINUOUS
 62
     5
 10
18.899999999999629
 20
-39.523262072513717
 30
0.0
 11
18.900000000000531
 21
-54.023262072513717
 31
0.0
  0
LINE
  5
E3
  8
DETAIL
  6
CONTINUOUS
 62
     5
 10
15.899999999999631
 20
-39.523262072513717
 30
0.0
 11
17.699999999999811
 21
-39.523262072513717
 31
0.0
  0
LINE
  5
E4
  8
DETAIL
  6
CONTINUOUS
 62
     5
 10
15.90000000000054
 20
-54.023262072513717
 30
0.0
 11
17.699999999999811
 21
-54.023262072513717
 31
0.0
  0
LINE
  5
E5
  8
DETAIL
  6
CONTINUOUS
 62
     5
 10
17.699999999999811
 20
-39.523262072513717
 30
0.0
 11
17.699999999999811
 21
-54.023262072513717
 31
0.0
  0
LINE
  5
E6
  8
DETAIL
  6
CONTINUOUS
 62
     5
 10
15.899999999999631
 20
-39.523262072513717
 30
0.0
 11
15.90000000000054
 21
-54.023262072513717
 31
0.0
  0
LINE
  5
E7
  8
DETAIL
  6
CONTINUOUS
 62
     5
 10
12.90000000000054
 20
-39.523262072513717
 30
0.0
 11
14.69999999999982
 21
-39.523262072513717
 31
0.0
  0
LINE
  5
E8
  8
DETAIL
  6
CONTINUOUS
 62
     5
 10
12.90000000000054
 20
-54.023262072513717
 30
0.0
 11
14.69999999999982
 21
-54.023262072513717
 31
0.0
  0
LINE
  5
E9
  8
DETAIL
  6
CONTINUOUS
 62
     5
 10
14.69999999999982
 20
-39.523262072513717
 30
0.0
 11
14.69999999999982
 21
-54.023262072513717
 31
0.0
  0
LINE
  5
EA
  8
DETAIL
  6
CONTINUOUS
 62
     5
 10
12.90000000000054
 20
-39.523262072513717
 30
0.0
 11
12.90000000000054
 21
-54.023262072513717
 31
0.0
  0
LINE
  5
EB
  8
DETAIL
  6
CONTINUOUS
 62
     5
 10
9.8999999999996344
 20
-39.523262072513717
 30
0.0
 11
11.69999999999982
 21
-39.523262072513717
 31
0.0
  0
LINE
  5
EC
  8
DETAIL
  6
CONTINUOUS
 62
     5
 10
9.9000000000005421
 20
-54.023262072513717
 30
0.0
 11
11.69999999999982
 21
-54.023262072513717
 31
0.0
  0
LINE
  5
ED
  8
DETAIL
  6
CONTINUOUS
 62
     5
 10
11.69999999999982
 20
-39.523262072513717
 30
0.0
 11
11.69999999999982
 21
-54.023262072513717
 31
0.0
  0
LINE
  5
EE
  8
DETAIL
  6
CONTINUOUS
 62
     5
 10
9.8999999999996344
 20
-39.523262072513717
 30
0.0
 11
9.9000000000005421
 21
-54.023262072513717
 31
0.0
  0
LINE
  5
EF
  8
DETAIL
  6
CONTINUOUS
 62
     5
 10
6.9000000000005439
 20
-39.523262072513717
 30
0.0
 11
8.6999999999998181
 21
-39.523262072513717
 31
0.0
  0
LINE
  5
F0
  8
DETAIL
  6
CONTINUOUS
 62
     5
 10
6.9000000000005439
 20
-54.023262072513717
 30
0.0
 11
8.6999999999998181
 21
-54.023262072513717
 31
0.0
  0
LINE
  5
F1
  8
DETAIL
  6
CONTINUOUS
 62
     5
 10
8.6999999999998181
 20
-39.523262072513717
 30
0.0
 11
8.6999999999998181
 21
-54.023262072513717
 31
0.0
  0
LINE
  5
F2
  8
DETAIL
  6
CONTINUOUS
 62
     5
 10
6.9000000000005439
 20
-39.523262072513717
 30
0.0
 11
6.9000000000005439
 21
-54.023262072513717
 31
0.0
  0
LINE
  5
F3
  8
DETAIL
  6
CONTINUOUS
 62
     5
 10
3.9000000000005439
 20
-39.523262072513717
 30
0.0
 11
5.6999999999998172
 21
-39.523262072513717
 31
0.0
  0
LINE
  5
F4
  8
DETAIL
  6
CONTINUOUS
 62
     5
 10
3.9000000000005439
 20
-54.023262072513717
 30
0.0
 11
5.6999999999998172
 21
-54.023262072513717
 31
0.0
  0
LINE
  5
F5
  8
DETAIL
  6
CONTINUOUS
 62
     5
 10
5.6999999999998172
 20
-39.523262072513717
 30
0.0
 11
5.6999999999998172
 21
-54.023262072513717
 31
0.0
  0
LINE
  5
F6
  8
DETAIL
  6
CONTINUOUS
 62
     5
 10
3.9000000000005439
 20
-39.523262072513717
 30
0.0
 11
3.9000000000005439
 21
-54.023262072513717
 31
0.0
  0
LINE
  5
FD
  8
BASIS
  6
DASHDOT
 62
     6
 10
-52.252199999999888
 20
-0.0000000000009095
 30
0.0
 11
52.252199999999888
 21
-0.0000000000009095
 31
0.0
  0
LINE
  5
FE
  8
BASIS
  6
DASHDOT
 62
     6
 10
0.0
 20
71.857499999999163
 30
0.0
 11
0.0
 21
-71.857499999999163
 31
0.0
  0
CIRCLE
  5
FF
  8
ARRANGE
  6
CONTINUOUS
 62
     1
 10
0.0
 20
0.0
 30
0.0
 40
15.0
  0
LINE
  5
100
  8
ARRANGE
  6
CONTINUOUS
 62
     1
 10
15.011205009398511
 20
-14.856705945097019
 30
0.0
 11
-15.011205009398511
 21
14.856705945097019
 31
0.0
  0
LINE
  5
101
  8
ARRANGE
  6
CONTINUOUS
 62
     1
 10
14.989128993150191
 20
14.87897843939572
 30
0.0
 11
-14.989128993150191
 21
-14.87897843939481
 31
0.0
  0
LINE
  5
102
  8
OUTLINE
  6
CONTINUOUS
 62
     3
 10
-31.98018322654843
 20
59.976737927486283
 30
0.0
 11
32.041969665924633
 21
59.976737927486283
 31
0.0
  0
ARC
  5
103
  8
OUTLINE
  6
CONTINUOUS
 62
     3
 10
-31.98018322654843
 20
56.956921154034703
 30
0.0
 40
3.019816773451764
 50
90.0
 51
180.0
  0
LINE
  5
104
  8
OUTLINE
  6
CONTINUOUS
 62
     3
 10
-35.0
 20
-56.98340811496837
 30
0.0
 11
-35.0
 21
56.956921154034703
 31
0.0
  0
ARC
  5
105
  8
OUTLINE
  6
CONTINUOUS
 62
     3
 10
-31.96014604245466
 20
-56.98340811496837
 30
0.0
 40
3.039853957545267
 50
180.0
 51
270.0
  0
LINE
  5
106
  8
OUTLINE
  6
CONTINUOUS
 62
     3
 10
31.968958559965358
 20
-60.02326207251371
 30
0.0
 11
-31.96014604245466
 21
-60.02326207251371
 31
0.0
  0
ARC
  5
107
  8
OUTLINE
  6
CONTINUOUS
 62
     3
 10
31.968958559965358
 20
-56.992220632479082
 30
0.0
 40
3.0310414400344752
 50
270.0
 51
0.0
  0
LINE
  5
108
  8
OUTLINE
  6
CONTINUOUS
 62
     3
 10
35.0
 20
57.018707593410902
 30
0.0
 11
35.0
 21
-56.992220632479082
 31
0.0
  0
ARC
  5
109
  8
OUTLINE
  6
CONTINUOUS
 62
     3
 10
32.041969665924633
 20
57.018707593410902
 30
0.0
 40
2.958030334075036
 50
0.0
 51
90.0
  0
LINE
  5
10A
  8
SIZE
  6
CONTINUOUS
 62
    30
 10
-35.0
 20
76.956921154034703
 30
0.0
 11
-35.0
 21
186.83427714579739
 31
0.0
  0
LINE
  5
10B
  8
SIZE
  6
CONTINUOUS
 62
    30
 10
35.0
 20
77.018707593410895
 30
0.0
 11
35.000000000000007
 21
186.83427714579739
 31
0.0
  0
LINE
  5
10C
  8
SIZE
  6
CONTINUOUS
 62
    30
 10
-35.0
 20
166.83427714579739
 30
0.0
 11
35.000000000000007
 21
166.83427714579739
 31
0.0
  0
LINE
  5
10D
  8
SIZE
  6
CONTINUOUS
 62
    30
 10
35.000000000000007
 20
166.83427714579739
 30
0.0
 11
192.42857142857139
 21
166.83427714579739
 31
0.0
  0
CIRCLE
  5
10E
  8
SIZE
  6
CONTINUOUS
 62
    30
 10
-35.0
 20
166.83427714579739
 30
0.0
 40
7.5
  0
CIRCLE
  5
10F
  8
SIZE
  6
CONTINUOUS
 62
    30
 10
35.000000000000007
 20
166.83427714579739
 30
0.0
 40
7.5
  0
TEXT
  5
110
  8
SIZE
  6
CONTINUOUS
 62
    30
 10
84.999999999999986
 20
186.83427714579739
 30
0.0
 40
60.0
  1
70
 41
0.9
 72
     1
 11
128.71428571428561
 21
186.83427714579739
 31
0.0
  0
POINT
  5
111
  8
DEFPOINTS
  6
CONTINUOUS
 62
     7
 10
-35.0
 20
56.956921154034703
 30
0.0
  0
POINT
  5
112
  8
DEFPOINTS
  6
CONTINUOUS
 62
     7
 10
35.0
 20
57.018707593410902
 30
0.0
  0
POINT
  5
113
  8
DEFPOINTS
  6
CONTINUOUS
 62
     7
 10
35.000000000000007
 20
166.83427714579739
 30
0.0
  0
POINT
  5
11C
  8
DEFPOINTS
  6
CONTINUOUS
 62
     7
 10
17.764705999999919
 20
-41.773262572513879
 30
0.0
  0
LINE
  5
11E
  8
SIZE
  6
CONTINUOUS
 62
    30
 10
-51.96014604245466
 20
-60.02326207251371
 30
0.0
 11
-167.76921804188891
 21
-60.023262072513681
 31
0.0
  0
LINE
  5
11F
  8
SIZE
  6
CONTINUOUS
 62
    30
 10
-51.980183226548419
 20
59.976737927486283
 30
0.0
 11
-167.76921804188891
 21
59.976737927486312
 31
0.0
  0
LINE
  5
120
  8
SIZE
  6
CONTINUOUS
 62
    30
 10
-147.76921804188891
 20
59.976737927486312
 30
0.0
 11
-147.76921804188891
 21
-60.023262072513681
 31
0.0
  0
LINE
  5
121
  8
SIZE
  6
CONTINUOUS
 62
    30
 10
-147.76921804188891
 20
-60.023262072513681
 30
0.0
 11
-147.76921804188899
 21
-258.59469064394227
 31
0.0
  0
CIRCLE
  5
122
  8
SIZE
  6
CONTINUOUS
 62
    30
 10
-147.76921804188891
 20
59.976737927486312
 30
0.0
 40
7.5
  0
CIRCLE
  5
123
  8
SIZE
  6
CONTINUOUS
 62
    30
 10
-147.76921804188891
 20
-60.023262072513681
 30
0.0
 40
7.5
  0
TEXT
  5
124
  8
SIZE
  6
CONTINUOUS
 62
    30
 10
-167.76921804188891
 20
-238.5946906439423
 30
0.0
 40
60.0
  1
120
 50
90.0
 41
0.9
 72
     1
 11
-167.76921804188891
 21
-174.30897635822799
 31
0.0
  0
POINT
  5
125
  8
DEFPOINTS
  6
CONTINUOUS
 62
     7
 10
-31.96014604245466
 20
-60.02326207251371
 30
0.0
  0
POINT
  5
126
  8
DEFPOINTS
  6
CONTINUOUS
 62
     7
 10
-31.98018322654843
 20
59.976737927486283
 30
0.0
  0
POINT
  5
127
  8
DEFPOINTS
  6
CONTINUOUS
 62
     7
 10
-147.76921804188891
 20
59.976737927486312
 30
0.0
  0
LINE
  5
128
  8
DETAIL
  6
CONTINUOUS
 62
     5
 10
-9.1186818797432352
 20
31.22560606448042
 30
0.0
 11
-11.4474219532476
 21
31.22560606448042
 31
0.0
  0
LINE
  5
129
  8
DETAIL
  6
CONTINUOUS
 62
     5
 10
-11.4474219532476
 20
31.22560606448042
 30
0.0
 11
-10.28337232652302
 21
33.240985131945308
 31
0.0
  0
LINE
  5
12A
  8
DETAIL
  6
CONTINUOUS
 62
     5
 10
-10.28337232652302
 20
33.240985131945308
 30
0.0
 11
-7.9531904078976359
 21
33.240985131945308
 31
0.0
  0
LINE
  5
12B
  8
DETAIL
  6
CONTINUOUS
 62
     5
 10
-7.9531904078976359
 20
33.240985131945308
 30
0.0
 11
-9.1186818797432352
 21
31.22560606448042
 31
0.0
  0
LINE
  5
12C
  8
DETAIL
  6
CONTINUOUS
 62
     5
 10
-6.7888203711463557
 20
31.22560606448042
 30
0.0
 11
-4.4584782475094471
 21
31.22560606448042
 31
0.0
  0
LINE
  5
12D
  8
DETAIL
  6
CONTINUOUS
 62
     5
 10
-4.4584782475094471
 20
31.22560606448042
 30
0.0
 11
-5.6238095143398814
 21
33.240985131945308
 31
0.0
  0
LINE
  5
12E
  8
DETAIL
  6
CONTINUOUS
 62
     5
 10
-5.6238095143398814
 20
33.240985131945308
 30
0.0
 11
-7.9530302028842907
 21
33.240985131945308
 31
0.0
  0
LINE
  5
12F
  8
DETAIL
  6
CONTINUOUS
 62
     5
 10
-7.9530302028842907
 20
33.240985131945308
 30
0.0
 11
-6.7888203711463557
 21
31.22560606448042
 31
0.0
  0
LINE
  5
130
  8
DETAIL
  6
CONTINUOUS
 62
     5
 10
-6.7888203711463557
 20
35.259568299677099
 30
0.0
 11
-7.9530302028842907
 21
37.27783105738127
 31
0.0
  0
LINE
  5
131
  8
DETAIL
  6
CONTINUOUS
 62
     5
 10
-7.9530302028842907
 20
37.27783105738127
 30
0.0
 11
-9.1186818797432352
 21
35.259568299677099
 31
0.0
  0
LINE
  5
132
  8
DETAIL
  6
CONTINUOUS
 62
     5
 10
-9.1186818797432352
 20
35.259568299677099
 30
0.0
 11
-7.9530302028842907
 21
33.240985131945308
 31
0.0
  0
LINE
  5
133
  8
DETAIL
  6
CONTINUOUS
 62
     5
 10
-7.9530302028842907
 20
33.240985131945308
 30
0.0
 11
-6.7888203711463557
 21
35.259568299677099
 31
0.0
  0
LINE
  5
134
  8
DETAIL
  6
CONTINUOUS
 62
     5
 10
-3.4128201256216921
 20
32.083343705751773
 30
0.0
 11
-2.4804269481455758
 21
32.083343705751773
 31
0.0
  0
LINE
  5
135
  8
DETAIL
  6
CONTINUOUS
 62
     5
 10
-2.4804269481455758
 20
32.083343705751773
 30
0.0
 11
-2.4804269481455758
 21
32.421696693866572
 31
0.0
  0
LINE
  5
136
  8
DETAIL
  6
CONTINUOUS
 62
     5
 10
-2.4804269481455758
 20
32.421696693866572
 30
0.0
 11
-3.4128201256216921
 21
32.421696693866572
 31
0.0
  0
LINE
  5
137
  8
DETAIL
  6
CONTINUOUS
 62
     5
 10
-3.4128201256216921
 20
32.421696693866572
 30
0.0
 11
-3.4128201256216921
 21
32.838550138505539
 31
0.0
  0
LINE
  5
138
  8
DETAIL
  6
CONTINUOUS
 62
     5
 10
-3.4128201256216921
 20
32.838550138505539
 30
0.0
 11
-2.362355853334519
 21
32.838550138505539
 31
0.0
  0
LINE
  5
139
  8
DETAIL
  6
CONTINUOUS
 62
     5
 10
-2.362355853334519
 20
32.838550138505539
 30
0.0
 11
-2.362355853334519
 21
33.176903126621262
 31
0.0
  0
LINE
  5
13A
  8
DETAIL
  6
CONTINUOUS
 62
     5
 10
-2.362355853334519
 20
33.176903126621262
 30
0.0
 11
-3.4128201256216921
 21
33.176903126621262
 31
0.0
  0
LINE
  5
13B
  8
DETAIL
  6
CONTINUOUS
 62
     5
 10
-3.4128201256216921
 20
33.176903126621262
 30
0.0
 11
-3.807885688448549
 21
33.176903126621262
 31
0.0
  0
LINE
  5
13C
  8
DETAIL
  6
CONTINUOUS
 62
     5
 10
-3.807885688448549
 20
33.176903126621262
 30
0.0
 11
-3.807885688448549
 21
32.838550138505539
 31
0.0
  0
LINE
  5
13D
  8
DETAIL
  6
CONTINUOUS
 62
     5
 10
-3.807885688448549
 20
32.838550138505539
 30
0.0
 11
-3.807885688448549
 21
31.564599872647712
 31
0.0
  0
LINE
  5
13E
  8
DETAIL
  6
CONTINUOUS
 62
     5
 10
-3.807885688448549
 20
31.564599872647712
 30
0.0
 11
-3.807885688448549
 21
31.22560606448042
 31
0.0
  0
LINE
  5
13F
  8
DETAIL
  6
CONTINUOUS
 62
     5
 10
-3.807885688448549
 20
31.22560606448042
 30
0.0
 11
-3.4128201256216921
 21
31.22560606448042
 31
0.0
  0
LINE
  5
140
  8
DETAIL
  6
CONTINUOUS
 62
     5
 10
-3.4128201256216921
 20
31.22560606448042
 30
0.0
 11
-2.3351210010705472
 21
31.22560606448042
 31
0.0
  0
LINE
  5
141
  8
DETAIL
  6
CONTINUOUS
 62
     5
 10
-2.3351210010705472
 20
31.22560606448042
 30
0.0
 11
-2.3351210010705472
 21
31.564599872647712
 31
0.0
  0
LINE
  5
142
  8
DETAIL
  6
CONTINUOUS
 62
     5
 10
-2.3351210010705472
 20
31.564599872647712
 30
0.0
 11
-3.4128201256216921
 21
31.564599872647712
 31
0.0
  0
LINE
  5
143
  8
DETAIL
  6
CONTINUOUS
 62
     5
 10
-3.4128201256216921
 20
31.564599872647712
 30
0.0
 11
-3.4128201256216921
 21
32.083343705751773
 31
0.0
  0
LINE
  5
144
  8
DETAIL
  6
CONTINUOUS
 62
     5
 10
-3.4395743628429041
 20
34.953576724251427
 30
0.0
 11
-3.0246433783659081
 21
33.501798893616979
 31
0.0
  0
LINE
  5
145
  8
DETAIL
  6
CONTINUOUS
 62
     5
 10
-3.0246433783659081
 20
33.501798893616979
 30
0.0
 11
-3.008462672020868
 21
33.501798893616979
 31
0.0
  0
LINE
  5
146
  8
DETAIL
  6
CONTINUOUS
 62
     5
 10
-3.008462672020868
 20
33.501798893616979
 30
0.0
 11
-2.662099433239745
 21
33.501798893616979
 31
0.0
  0
LINE
  5
147
  8
DETAIL
  6
CONTINUOUS
 62
     5
 10
-2.662099433239745
 20
33.501798893616979
 30
0.0
 11
-2.6452779068440559
 21
33.501798893616979
 31
0.0
  0
LINE
  5
148
  8
DETAIL
  6
CONTINUOUS
 62
     5
 10
-2.6452779068440559
 20
33.501798893616979
 30
0.0
 11
-2.23066733239102
 21
34.953576724251427
 31
0.0
  0
LINE
  5
149
  8
DETAIL
  6
CONTINUOUS
 62
     5
 10
-2.23066733239102
 20
34.953576724251427
 30
0.0
 11
-2.23066733239102
 21
33.501798893616979
 31
0.0
  0
LINE
  5
14A
  8
DETAIL
  6
CONTINUOUS
 62
     5
 10
-2.23066733239102
 20
33.501798893616979
 30
0.0
 11
-1.8634774418796951
 21
33.501798893616979
 31
0.0
  0
LINE
  5
14B
  8
DETAIL
  6
CONTINUOUS
 62
     5
 10
-1.8634774418796951
 20
33.501798893616979
 30
0.0
 11
-1.8634774418796951
 21
35.45341636578452
 31
0.0
  0
LINE
  5
14C
  8
DETAIL
  6
CONTINUOUS
 62
     5
 10
-1.8634774418796951
 20
35.45341636578452
 30
0.0
 11
-2.063893913533319
 21
35.45341636578452
 31
0.0
  0
LINE
  5
14D
  8
DETAIL
  6
CONTINUOUS
 62
     5
 10
-2.063893913533319
 20
35.45341636578452
 30
0.0
 11
-2.2367551228981011
 21
35.45341636578452
 31
0.0
  0
LINE
  5
14E
  8
DETAIL
  6
CONTINUOUS
 62
     5
 10
-2.2367551228981011
 20
35.45341636578452
 30
0.0
 11
-2.4270786787110401
 21
35.45341636578452
 31
0.0
  0
LINE
  5
14F
  8
DETAIL
  6
CONTINUOUS
 62
     5
 10
-2.4270786787110401
 20
35.45341636578452
 30
0.0
 11
-2.8352810526303069
 21
34.084304322019307
 31
0.0
  0
LINE
  5
150
  8
DETAIL
  6
CONTINUOUS
 62
     5
 10
-2.8352810526303069
 20
34.084304322019307
 30
0.0
 11
-3.24380383657717
 21
35.45341636578452
 31
0.0
  0
LINE
  5
151
  8
DETAIL
  6
CONTINUOUS
 62
     5
 10
-3.24380383657717
 20
35.45341636578452
 30
0.0
 11
-3.433486572337642
 21
35.45341636578452
 31
0.0
  0
LINE
  5
152
  8
DETAIL
  6
CONTINUOUS
 62
     5
 10
-3.433486572337642
 20
35.45341636578452
 30
0.0
 11
-3.6066681917282031
 21
35.45341636578452
 31
0.0
  0
LINE
  5
153
  8
DETAIL
  6
CONTINUOUS
 62
     5
 10
-3.6066681917282031
 20
35.45341636578452
 30
0.0
 11
-3.8077254834352061
 21
35.45341636578452
 31
0.0
  0
LINE
  5
154
  8
DETAIL
  6
CONTINUOUS
 62
     5
 10
-3.8077254834352061
 20
35.45341636578452
 30
0.0
 11
-3.8077254834352061
 21
33.501798893616979
 31
0.0
  0
LINE
  5
155
  8
DETAIL
  6
CONTINUOUS
 62
     5
 10
-3.8077254834352061
 20
33.501798893616979
 30
0.0
 11
-3.4395743628429041
 21
33.501798893616979
 31
0.0
  0
LINE
  5
156
  8
DETAIL
  6
CONTINUOUS
 62
     5
 10
-3.4395743628429041
 20
33.501798893616979
 30
0.0
 11
-3.4395743628429041
 21
34.953576724251427
 31
0.0
  0
LINE
  5
157
  8
DETAIL
  6
CONTINUOUS
 62
     5
 10
5.5456840137758254
 20
35.453736775810292
 30
0.0
 11
5.152220501080591
 21
35.453736775810292
 31
0.0
  0
LINE
  5
158
  8
DETAIL
  6
CONTINUOUS
 62
     5
 10
5.152220501080591
 20
35.453736775810292
 30
0.0
 11
5.152220501080591
 21
33.501798893616979
 31
0.0
  0
LINE
  5
159
  8
DETAIL
  6
CONTINUOUS
 62
     5
 10
5.152220501080591
 20
33.501798893616979
 30
0.0
 11
5.5456840137758254
 21
33.501798893616979
 31
0.0
  0
LINE
  5
15A
  8
DETAIL
  6
CONTINUOUS
 62
     5
 10
5.5456840137758254
 20
33.501798893616979
 30
0.0
 11
5.5456840137758254
 21
35.453736775810292
 31
0.0
  0
LINE
  5
15B
  8
DETAIL
  6
CONTINUOUS
 62
     5
 10
5.8654532203463532
 20
33.176903126621262
 30
0.0
 11
5.4723101176796254
 21
33.176903126621262
 31
0.0
  0
LINE
  5
15C
  8
DETAIL
  6
CONTINUOUS
 62
     5
 10
5.4723101176796254
 20
33.176903126621262
 30
0.0
 11
5.4723101176796254
 21
31.22560606448042
 31
0.0
  0
LINE
  5
15D
  8
DETAIL
  6
CONTINUOUS
 62
     5
 10
5.4723101176796254
 20
31.22560606448042
 30
0.0
 11
5.8654532203463532
 21
31.22560606448042
 31
0.0
  0
LINE
  5
15E
  8
DETAIL
  6
CONTINUOUS
 62
     5
 10
5.8654532203463532
 20
31.22560606448042
 30
0.0
 11
5.8654532203463532
 21
33.176903126621262
 31
0.0
  0
LINE
  5
15F
  8
DETAIL
  6
CONTINUOUS
 62
     5
 10
9.4325780467524964
 20
35.453736775810292
 30
0.0
 11
9.0394349440848583
 21
35.453736775810292
 31
0.0
  0
LINE
  5
160
  8
DETAIL
  6
CONTINUOUS
 62
     5
 10
9.0394349440848583
 20
35.453736775810292
 30
0.0
 11
9.0394349440848583
 21
33.501798893616979
 31
0.0
  0
LINE
  5
161
  8
DETAIL
  6
CONTINUOUS
 62
     5
 10
9.0394349440848583
 20
33.501798893616979
 30
0.0
 11
9.4325780467524964
 21
33.501798893616979
 31
0.0
  0
LINE
  5
162
  8
DETAIL
  6
CONTINUOUS
 62
     5
 10
9.4325780467524964
 20
33.501798893616979
 30
0.0
 11
9.4325780467524964
 21
35.453736775810292
 31
0.0
  0
LINE
  5
163
  8
DETAIL
  6
CONTINUOUS
 62
     5
 10
-1.3130130161389371
 20
35.453736775810292
 30
0.0
 11
-1.706476528834173
 21
35.453736775810292
 31
0.0
  0
LINE
  5
164
  8
DETAIL
  6
CONTINUOUS
 62
     5
 10
-1.706476528834173
 20
35.453736775810292
 30
0.0
 11
-1.706476528834173
 21
33.501798893616979
 31
0.0
  0
LINE
  5
165
  8
DETAIL
  6
CONTINUOUS
 62
     5
 10
-1.706476528834173
 20
33.501798893616979
 30
0.0
 11
-1.3130130161389371
 21
33.501798893616979
 31
0.0
  0
LINE
  5
166
  8
DETAIL
  6
CONTINUOUS
 62
     5
 10
-1.3130130161389371
 20
33.501798893616979
 30
0.0
 11
-1.3130130161389371
 21
35.453736775810292
 31
0.0
  0
LINE
  5
167
  8
DETAIL
  6
CONTINUOUS
 62
     5
 10
8.4915337985567021
 20
34.693403782631322
 30
0.0
 11
7.7110149737009124
 21
34.693403782631322
 31
0.0
  0
LINE
  5
168
  8
DETAIL
  6
CONTINUOUS
 62
     5
 10
7.7110149737009124
 20
34.693403782631322
 30
0.0
 11
7.7110149737009124
 21
35.453736775810292
 31
0.0
  0
LINE
  5
169
  8
DETAIL
  6
CONTINUOUS
 62
     5
 10
7.7110149737009124
 20
35.453736775810292
 30
0.0
 11
7.3246004815937331
 21
35.453736775810292
 31
0.0
  0
LINE
  5
16A
  8
DETAIL
  6
CONTINUOUS
 62
     5
 10
7.3246004815937331
 20
35.453736775810292
 30
0.0
 11
7.3246004815937331
 21
33.501798893616979
 31
0.0
  0
LINE
  5
16B
  8
DETAIL
  6
CONTINUOUS
 62
     5
 10
7.3246004815937331
 20
33.501798893616979
 30
0.0
 11
7.7110149737009124
 21
33.501798893616979
 31
0.0
  0
LINE
  5
16C
  8
DETAIL
  6
CONTINUOUS
 62
     5
 10
7.7110149737009124
 20
33.501798893616979
 30
0.0
 11
7.7110149737009124
 21
34.353769154410656
 31
0.0
  0
LINE
  5
16D
  8
DETAIL
  6
CONTINUOUS
 62
     5
 10
7.7110149737009124
 20
34.353769154410656
 30
0.0
 11
8.4915337985567021
 21
34.353769154410656
 31
0.0
  0
LINE
  5
16E
  8
DETAIL
  6
CONTINUOUS
 62
     5
 10
8.4915337985567021
 20
34.353769154410656
 30
0.0
 11
8.4915337985567021
 21
33.501798893616979
 31
0.0
  0
LINE
  5
16F
  8
DETAIL
  6
CONTINUOUS
 62
     5
 10
8.4915337985567021
 20
33.501798893616979
 30
0.0
 11
8.8773074706132302
 21
33.501798893616979
 31
0.0
  0
LINE
  5
170
  8
DETAIL
  6
CONTINUOUS
 62
     5
 10
8.8773074706132302
 20
33.501798893616979
 30
0.0
 11
8.8773074706132302
 21
35.453736775810292
 31
0.0
  0
LINE
  5
171
  8
DETAIL
  6
CONTINUOUS
 62
     5
 10
8.8773074706132302
 20
35.453736775810292
 30
0.0
 11
8.4915337985567021
 21
35.453736775810292
 31
0.0
  0
LINE
  5
172
  8
DETAIL
  6
CONTINUOUS
 62
     5
 10
8.4915337985567021
 20
35.453736775810292
 30
0.0
 11
8.4915337985567021
 21
34.693403782631322
 31
0.0
  0
LINE
  5
173
  8
DETAIL
  6
CONTINUOUS
 62
     5
 10
-0.7308279977642087
 20
33.501798893616979
 30
0.0
 11
-0.3296746444302698
 21
33.501798893616979
 31
0.0
  0
LINE
  5
174
  8
DETAIL
  6
CONTINUOUS
 62
     5
 10
-0.3296746444302698
 20
33.501798893616979
 30
0.0
 11
-0.3296746444302698
 21
35.116024607747931
 31
0.0
  0
LINE
  5
175
  8
DETAIL
  6
CONTINUOUS
 62
     5
 10
-0.3296746444302698
 20
35.116024607747931
 30
0.0
 11
0.1477362952382464
 21
35.116024607747931
 31
0.0
  0
LINE
  5
176
  8
DETAIL
  6
CONTINUOUS
 62
     5
 10
0.1477362952382464
 20
35.116024607747931
 30
0.0
 11
0.1477362952382464
 21
35.453736775810292
 31
0.0
  0
LINE
  5
177
  8
DETAIL
  6
CONTINUOUS
 62
     5
 10
0.1477362952382464
 20
35.453736775810292
 30
0.0
 11
-0.3296746444302698
 21
35.453736775810292
 31
0.0
  0
LINE
  5
178
  8
DETAIL
  6
CONTINUOUS
 62
     5
 10
-0.3296746444302698
 20
35.453736775810292
 30
0.0
 11
-0.7308279977642087
 21
35.453736775810292
 31
0.0
  0
LINE
  5
179
  8
DETAIL
  6
CONTINUOUS
 62
     5
 10
-0.7308279977642087
 20
35.453736775810292
 30
0.0
 11
-1.2090399625003541
 21
35.453736775810292
 31
0.0
  0
LINE
  5
17A
  8
DETAIL
  6
CONTINUOUS
 62
     5
 10
-1.2090399625003541
 20
35.453736775810292
 30
0.0
 11
-1.2090399625003541
 21
35.116024607747931
 31
0.0
  0
LINE
  5
17B
  8
DETAIL
  6
CONTINUOUS
 62
     5
 10
-1.2090399625003541
 20
35.116024607747931
 30
0.0
 11
-0.7308279977642087
 21
35.116024607747931
 31
0.0
  0
LINE
  5
17C
  8
DETAIL
  6
CONTINUOUS
 62
     5
 10
-0.7308279977642087
 20
35.116024607747931
 30
0.0
 11
-0.7308279977642087
 21
33.501798893616979
 31
0.0
  0
LINE
  5
17D
  8
DETAIL
  6
CONTINUOUS
 62
     5
 10
2.854239790131941
 20
31.22560606448042
 30
0.0
 11
3.2553931434667902
 21
31.22560606448042
 31
0.0
  0
LINE
  5
17E
  8
DETAIL
  6
CONTINUOUS
 62
     5
 10
3.2553931434667902
 20
31.22560606448042
 30
0.0
 11
3.2553931434667902
 21
32.838550138505539
 31
0.0
  0
LINE
  5
17F
  8
DETAIL
  6
CONTINUOUS
 62
     5
 10
3.2553931434667902
 20
32.838550138505539
 30
0.0
 11
3.731522443029462
 21
32.838550138505539
 31
0.0
  0
LINE
  5
180
  8
DETAIL
  6
CONTINUOUS
 62
     5
 10
3.731522443029462
 20
32.838550138505539
 30
0.0
 11
3.731522443029462
 21
33.176903126621262
 31
0.0
  0
LINE
  5
181
  8
DETAIL
  6
CONTINUOUS
 62
     5
 10
3.731522443029462
 20
33.176903126621262
 30
0.0
 11
3.2553931434667902
 21
33.176903126621262
 31
0.0
  0
LINE
  5
182
  8
DETAIL
  6
CONTINUOUS
 62
     5
 10
3.2553931434667902
 20
33.176903126621262
 30
0.0
 11
2.854239790131941
 21
33.176903126621262
 31
0.0
  0
LINE
  5
183
  8
DETAIL
  6
CONTINUOUS
 62
     5
 10
2.854239790131941
 20
33.176903126621262
 30
0.0
 11
2.3781104905701791
 21
33.176903126621262
 31
0.0
  0
LINE
  5
184
  8
DETAIL
  6
CONTINUOUS
 62
     5
 10
2.3781104905701791
 20
33.176903126621262
 30
0.0
 11
2.3781104905701791
 21
32.838550138505539
 31
0.0
  0
LINE
  5
185
  8
DETAIL
  6
CONTINUOUS
 62
     5
 10
2.3781104905701791
 20
32.838550138505539
 30
0.0
 11
2.854239790131941
 21
32.838550138505539
 31
0.0
  0
LINE
  5
186
  8
DETAIL
  6
CONTINUOUS
 62
     5
 10
2.854239790131941
 20
32.838550138505539
 30
0.0
 11
2.854239790131941
 21
31.22560606448042
 31
0.0
  0
POLYLINE
  5
187
  8
DETAIL
  6
CONTINUOUS
 62
     5
 66
     1
 10
0.0
 20
0.0
 30
0.0
  0
VERTEX
  5
4FD
  8
DETAIL
  6
CONTINUOUS
 62
     5
 10
2.5866974179016311
 20
33.446688369037481
 30
0.0
  0
VERTEX
  5
4FE
  8
DETAIL
  6
CONTINUOUS
 62
     5
 10
2.7871218297450882
 20
33.46068178652677
 30
0.0
  0
VERTEX
  5
4FF
  8
DETAIL
  6
CONTINUOUS
 62
     5
 10
2.9593258716053552
 20
33.502374323868672
 30
0.0
  0
VERTEX
  5
500
  8
DETAIL
  6
CONTINUOUS
 62
     5
 10
3.1023567206626521
 20
33.571334408374312
 30
0.0
  0
VERTEX
  5
501
  8
DETAIL
  6
CONTINUOUS
 62
     5
 10
3.2152615540972009
 20
33.667130467354731
 30
0.0
  0
VERTEX
  5
502
  8
DETAIL
  6
CONTINUOUS
 62
     5
 10
3.2970875490892242
 20
33.789330928121053
 30
0.0
  0
VERTEX
  5
503
  8
DETAIL
  6
CONTINUOUS
 62
     5
 10
3.3468818828189422
 20
33.937504217984333
 30
0.0
  0
VERTEX
  5
504
  8
DETAIL
  6
CONTINUOUS
 62
     5
 10
3.363691732466576
 20
34.111218764255682
 30
0.0
  0
SEQEND
  5
505
  8
DETAIL
  6
CONTINUOUS
 62
     5
  0
POLYLINE
  5
191
  8
DETAIL
  6
CONTINUOUS
 62
     5
 66
     1
 10
0.0
 20
0.0
 30
0.0
  0
VERTEX
  5
506
  8
DETAIL
  6
CONTINUOUS
 62
     5
 10
3.363691732466576
 20
34.111218764255682
 30
0.0
  0
VERTEX
  5
507
  8
DETAIL
  6
CONTINUOUS
 62
     5
 10
3.363691732466576
 20
34.185585651193108
 30
0.0
  0
VERTEX
  5
508
  8
DETAIL
  6
CONTINUOUS
 62
     5
 10
3.363691732466576
 20
34.377373938558073
 30
0.0
  0
VERTEX
  5
509
  8
DETAIL
  6
CONTINUOUS
 62
     5
 10
3.363691732466576
 20
34.639615066179502
 30
0.0
  0
VERTEX
  5
50A
  8
DETAIL
  6
CONTINUOUS
 62
     5
 10
3.363691732466576
 20
34.925340473886472
 30
0.0
  0
VERTEX
  5
50B
  8
DETAIL
  6
CONTINUOUS
 62
     5
 10
3.363691732466576
 20
35.187581601507908
 30
0.0
  0
VERTEX
  5
50C
  8
DETAIL
  6
CONTINUOUS
 62
     5
 10
3.363691732466576
 20
35.379369888872873
 30
0.0
  0
VERTEX
  5
50D
  8
DETAIL
  6
CONTINUOUS
 62
     5
 10
3.363691732466576
 20
35.453736775810292
 30
0.0
  0
SEQEND
  5
50E
  8
DETAIL
  6
CONTINUOUS
 62
     5
  0
POLYLINE
  5
19B
  8
DETAIL
  6
CONTINUOUS
 62
     5
 66
     1
 10
0.0
 20
0.0
 30
0.0
  0
VERTEX
  5
50F
  8
DETAIL
  6
CONTINUOUS
 62
     5
 10
3.363691732466576
 20
35.453736775810292
 30
0.0
  0
VERTEX
  5
510
  8
DETAIL
  6
CONTINUOUS
 62
     5
 10
3.3419496235170478
 20
35.453736775810277
 30
0.0
  0
VERTEX
  5
511
  8
DETAIL
  6
CONTINUOUS
 62
     5
 10
3.2858778688577388
 20
35.453736775810299
 30
0.0
  0
VERTEX
  5
512
  8
DETAIL
  6
CONTINUOUS
 62
     5
 10
3.20920832677256
 20
35.453736775810292
 30
0.0
  0
VERTEX
  5
513
  8
DETAIL
  6
CONTINUOUS
 62
     5
 10
3.125672855545425
 20
35.453736775810292
 30
0.0
  0
VERTEX
  5
514
  8
DETAIL
  6
CONTINUOUS
 62
     5
 10
3.0490033134602439
 20
35.453736775810292
 30
0.0
  0
VERTEX
  5
515
  8
DETAIL
  6
CONTINUOUS
 62
     5
 10
2.9929315588009362
 20
35.453736775810292
 30
0.0
  0
VERTEX
  5
516
  8
DETAIL
  6
CONTINUOUS
 62
     5
 10
2.971189449851408
 20
35.453736775810292
 30
0.0
  0
SEQEND
  5
517
  8
DETAIL
  6
CONTINUOUS
 62
     5
  0
POLYLINE
  5
1A5
  8
DETAIL
  6
CONTINUOUS
 62
     5
 66
     1
 10
0.0
 20
0.0
 30
0.0
  0
VERTEX
  5
518
  8
DETAIL
  6
CONTINUOUS
 62
     5
 10
2.971189449851408
 20
35.453736775810292
 30
0.0
  0
VERTEX
  5
519
  8
DETAIL
  6
CONTINUOUS
 62
     5
 10
2.971189449851408
 20
35.377435284892869
 30
0.0
  0
VERTEX
  5
51A
  8
DETAIL
  6
CONTINUOUS
 62
     5
 10
2.971189449851408
 20
35.180657755684841
 30
0.0
  0
VERTEX
  5
51B
  8
DETAIL
  6
CONTINUOUS
 62
     5
 10
2.971189449851408
 20
34.911594603502387
 30
0.0
  0
VERTEX
  5
51C
  8
DETAIL
  6
CONTINUOUS
 62
     5
 10
2.971189449851408
 20
34.618436243661833
 30
0.0
  0
VERTEX
  5
51D
  8
DETAIL
  6
CONTINUOUS
 62
     5
 10
2.971189449851408
 20
34.349373091479372
 30
0.0
  0
VERTEX
  5
51E
  8
DETAIL
  6
CONTINUOUS
 62
     5
 10
2.971189449851408
 20
34.15259556227133
 30
0.0
  0
VERTEX
  5
51F
  8
DETAIL
  6
CONTINUOUS
 62
     5
 10
2.971189449851408
 20
34.076294071353921
 30
0.0
  0
SEQEND
  5
520
  8
DETAIL
  6
CONTINUOUS
 62
     5
  0
POLYLINE
  5
1AF
  8
DETAIL
  6
CONTINUOUS
 62
     5
 66
     1
 10
0.0
 20
0.0
 30
0.0
  0
VERTEX
  5
521
  8
DETAIL
  6
CONTINUOUS
 62
     5
 10
2.971189449851408
 20
34.076294071353921
 30
0.0
  0
VERTEX
  5
522
  8
DETAIL
  6
CONTINUOUS
 62
     5
 10
2.9545486347085439
 20
33.979732742450132
 30
0.0
  0
VERTEX
  5
523
  8
DETAIL
  6
CONTINUOUS
 62
     5
 10
2.9058873231448299
 20
33.895152185261743
 30
0.0
  0
VERTEX
  5
524
  8
DETAIL
  6
CONTINUOUS
 62
     5
 10
2.827097215957568
 20
33.827996806961238
 30
0.0
  0
VERTEX
  5
525
  8
DETAIL
  6
CONTINUOUS
 62
     5
 10
2.7200700139440661
 20
33.783711014721121
 30
0.0
  0
VERTEX
  5
526
  8
DETAIL
  6
CONTINUOUS
 62
     5
 10
2.5866974179016311
 20
33.767739215713853
 30
0.0
  0
VERTEX
  5
527
  8
DETAIL
  6
CONTINUOUS
 62
     5
 10
2.433549115016175
 20
33.786110245000522
 30
0.0
  0
VERTEX
  5
528
  8
DETAIL
  6
CONTINUOUS
 62
     5
 10
2.3241252460035682
 20
33.835194497799463
 30
0.0
  0
VERTEX
  5
529
  8
DETAIL
  6
CONTINUOUS
 62
     5
 10
2.2528583662413801
 20
33.905948721519067
 30
0.0
  0
VERTEX
  5
52A
  8
DETAIL
  6
CONTINUOUS
 62
     5
 10
2.2141810311071799
 20
33.989329663567773
 30
0.0
  0
VERTEX
  5
52B
  8
DETAIL
  6
CONTINUOUS
 62
     5
 10
2.202525795978544
 20
34.076294071353921
 30
0.0
  0
SEQEND
  5
52C
  8
DETAIL
  6
CONTINUOUS
 62
     5
  0
POLYLINE
  5
1BC
  8
DETAIL
  6
CONTINUOUS
 62
     5
 66
     1
 10
0.0
 20
0.0
 30
0.0
  0
VERTEX
  5
52D
  8
DETAIL
  6
CONTINUOUS
 62
     5
 10
2.202525795978544
 20
34.076294071353921
 30
0.0
  0
VERTEX
  5
52E
  8
DETAIL
  6
CONTINUOUS
 62
     5
 10
2.202525795978544
 20
34.152595562271337
 30
0.0
  0
VERTEX
  5
52F
  8
DETAIL
  6
CONTINUOUS
 62
     5
 10
2.202525795978544
 20
34.3493730914794
 30
0.0
  0
VERTEX
  5
530
  8
DETAIL
  6
CONTINUOUS
 62
     5
 10
2.202525795978544
 20
34.61843624366184
 30
0.0
  0
VERTEX
  5
531
  8
DETAIL
  6
CONTINUOUS
 62
     5
 10
2.202525795978544
 20
34.911594603502387
 30
0.0
  0
VERTEX
  5
532
  8
DETAIL
  6
CONTINUOUS
 62
     5
 10
2.202525795978544
 20
35.180657755684827
 30
0.0
  0
VERTEX
  5
533
  8
DETAIL
  6
CONTINUOUS
 62
     5
 10
2.202525795978544
 20
35.37743528489289
 30
0.0
  0
VERTEX
  5
534
  8
DETAIL
  6
CONTINUOUS
 62
     5
 10
2.202525795978544
 20
35.453736775810292
 30
0.0
  0
SEQEND
  5
535
  8
DETAIL
  6
CONTINUOUS
 62
     5
  0
POLYLINE
  5
1C6
  8
DETAIL
  6
CONTINUOUS
 62
     5
 66
     1
 10
0.0
 20
0.0
 30
0.0
  0
VERTEX
  5
536
  8
DETAIL
  6
CONTINUOUS
 62
     5
 10
2.202525795978544
 20
35.453736775810292
 30
0.0
  0
VERTEX
  5
537
  8
DETAIL
  6
CONTINUOUS
 62
     5
 10
2.1811031629156838
 20
35.453736775810292
 30
0.0
  0
VERTEX
  5
538
  8
DETAIL
  6
CONTINUOUS
 62
     5
 10
2.125855319753573
 20
35.453736775810299
 30
0.0
  0
VERTEX
  5
539
  8
DETAIL
  6
CONTINUOUS
 62
     5
 10
2.0503123505319119
 20
35.453736775810299
 30
0.0
  0
VERTEX
  5
53A
  8
DETAIL
  6
CONTINUOUS
 62
     5
 10
1.9680043392904001
 20
35.453736775810292
 30
0.0
  0
VERTEX
  5
53B
  8
DETAIL
  6
CONTINUOUS
 62
     5
 10
1.8924613700687369
 20
35.453736775810292
 30
0.0
  0
VERTEX
  5
53C
  8
DETAIL
  6
CONTINUOUS
 62
     5
 10
1.837213526906627
 20
35.453736775810277
 30
0.0
  0
VERTEX
  5
53D
  8
DETAIL
  6
CONTINUOUS
 62
     5
 10
1.815790893843767
 20
35.453736775810292
 30
0.0
  0
SEQEND
  5
53E
  8
DETAIL
  6
CONTINUOUS
 62
     5
  0
POLYLINE
  5
1D0
  8
DETAIL
  6
CONTINUOUS
 62
     5
 66
     1
 10
0.0
 20
0.0
 30
0.0
  0
VERTEX
  5
53F
  8
DETAIL
  6
CONTINUOUS
 62
     5
 10
1.815790893843767
 20
35.453736775810292
 30
0.0
  0
VERTEX
  5
540
  8
DETAIL
  6
CONTINUOUS
 62
     5
 10
1.815790893843767
 20
35.379369888872873
 30
0.0
  0
VERTEX
  5
541
  8
DETAIL
  6
CONTINUOUS
 62
     5
 10
1.815790893843767
 20
35.187581601507908
 30
0.0
  0
VERTEX
  5
542
  8
DETAIL
  6
CONTINUOUS
 62
     5
 10
1.815790893843767
 20
34.925340473886472
 30
0.0
  0
VERTEX
  5
543
  8
DETAIL
  6
CONTINUOUS
 62
     5
 10
1.815790893843767
 20
34.639615066179523
 30
0.0
  0
VERTEX
  5
544
  8
DETAIL
  6
CONTINUOUS
 62
     5
 10
1.815790893843767
 20
34.377373938558051
 30
0.0
  0
VERTEX
  5
545
  8
DETAIL
  6
CONTINUOUS
 62
     5
 10
1.815790893843767
 20
34.185585651193108
 30
0.0
  0
VERTEX
  5
546
  8
DETAIL
  6
CONTINUOUS
 62
     5
 10
1.815790893843767
 20
34.111218764255682
 30
0.0
  0
SEQEND
  5
547
  8
DETAIL
  6
CONTINUOUS
 62
     5
  0
POLYLINE
  5
1DA
  8
DETAIL
  6
CONTINUOUS
 62
     5
 66
     1
 10
0.0
 20
0.0
 30
0.0
  0
VERTEX
  5
548
  8
DETAIL
  6
CONTINUOUS
 62
     5
 10
1.815790893843767
 20
34.111218764255682
 30
0.0
  0
VERTEX
  5
549
  8
DETAIL
  6
CONTINUOUS
 62
     5
 10
1.833373277287242
 20
33.926911070165502
 30
0.0
  0
VERTEX
  5
54A
  8
DETAIL
  6
CONTINUOUS
 62
     5
 10
1.884887362792192
 20
33.774618222817097
 30
0.0
  0
VERTEX
  5
54B
  8
DETAIL
  6
CONTINUOUS
 62
     5
 10
1.968483553120403
 20
33.653006270262971
 30
0.0
  0
VERTEX
  5
54C
  8
DETAIL
  6
CONTINUOUS
 62
     5
 10
2.0823122510336649
 20
33.560741260555467
 30
0.0
  0
VERTEX
  5
54D
  8
DETAIL
  6
CONTINUOUS
 62
     5
 10
2.2245238592937642
 20
33.496489241747092
 30
0.0
  0
VERTEX
  5
54E
  8
DETAIL
  6
CONTINUOUS
 62
     5
 10
2.3932687806624919
 20
33.458916261890288
 30
0.0
  0
VERTEX
  5
54F
  8
DETAIL
  6
CONTINUOUS
 62
     5
 10
2.5866974179016311
 20
33.446688369037481
 30
0.0
  0
SEQEND
  5
550
  8
DETAIL
  6
CONTINUOUS
 62
     5
  0
LINE
  5
1E4
  8
DETAIL
  6
CONTINUOUS
 62
     5
 10
-0.3851055790355531
 20
32.083343705751773
 30
0.0
 11
0.549210058598874
 21
32.083343705751773
 31
0.0
  0
LINE
  5
1E5
  8
DETAIL
  6
CONTINUOUS
 62
     5
 10
0.549210058598874
 20
32.083343705751773
 30
0.0
 11
0.549210058598874
 21
32.421696693866572
 31
0.0
  0
LINE
  5
1E6
  8
DETAIL
  6
CONTINUOUS
 62
     5
 10
0.549210058598874
 20
32.421696693866572
 30
0.0
 11
-0.3851055790355531
 21
32.421696693866572
 31
0.0
  0
LINE
  5
1E7
  8
DETAIL
  6
CONTINUOUS
 62
     5
 10
-0.3851055790355531
 20
32.421696693866572
 30
0.0
 11
-0.3851055790355531
 21
32.838550138505539
 31
0.0
  0
LINE
  5
1E8
  8
DETAIL
  6
CONTINUOUS
 62
     5
 10
-0.3851055790355531
 20
32.838550138505539
 30
0.0
 11
0.6648780782106769
 21
32.838550138505539
 31
0.0
  0
LINE
  5
1E9
  8
DETAIL
  6
CONTINUOUS
 62
     5
 10
0.6648780782106769
 20
32.838550138505539
 30
0.0
 11
0.6648780782106769
 21
33.176903126621262
 31
0.0
  0
LINE
  5
1EA
  8
DETAIL
  6
CONTINUOUS
 62
     5
 10
0.6648780782106769
 20
33.176903126621262
 30
0.0
 11
-0.3851055790355531
 21
33.176903126621262
 31
0.0
  0
LINE
  5
1EB
  8
DETAIL
  6
CONTINUOUS
 62
     5
 10
-0.3851055790355531
 20
33.176903126621262
 30
0.0
 11
-0.7801711418642299
 21
33.176903126621262
 31
0.0
  0
LINE
  5
1EC
  8
DETAIL
  6
CONTINUOUS
 62
     5
 10
-0.7801711418642299
 20
33.176903126621262
 30
0.0
 11
-0.7801711418642299
 21
32.838550138505539
 31
0.0
  0
LINE
  5
1ED
  8
DETAIL
  6
CONTINUOUS
 62
     5
 10
-0.7801711418642299
 20
32.838550138505539
 30
0.0
 11
-0.7801711418642299
 21
31.564599872647712
 31
0.0
  0
LINE
  5
1EE
  8
DETAIL
  6
CONTINUOUS
 62
     5
 10
-0.7801711418642299
 20
31.564599872647712
 30
0.0
 11
-0.7801711418642299
 21
31.22560606448042
 31
0.0
  0
LINE
  5
1EF
  8
DETAIL
  6
CONTINUOUS
 62
     5
 10
-0.7801711418642299
 20
31.22560606448042
 30
0.0
 11
-0.3851055790355531
 21
31.22560606448042
 31
0.0
  0
LINE
  5
1F0
  8
DETAIL
  6
CONTINUOUS
 62
     5
 10
-0.3851055790355531
 20
31.22560606448042
 30
0.0
 11
0.6927537505271176
 21
31.22560606448042
 31
0.0
  0
LINE
  5
1F1
  8
DETAIL
  6
CONTINUOUS
 62
     5
 10
0.6927537505271176
 20
31.22560606448042
 30
0.0
 11
0.6927537505271176
 21
31.564599872647712
 31
0.0
  0
LINE
  5
1F2
  8
DETAIL
  6
CONTINUOUS
 62
     5
 10
0.6927537505271176
 20
31.564599872647712
 30
0.0
 11
-0.3851055790355531
 21
31.564599872647712
 31
0.0
  0
LINE
  5
1F3
  8
DETAIL
  6
CONTINUOUS
 62
     5
 10
-0.3851055790355531
 20
31.564599872647712
 30
0.0
 11
-0.3851055790355531
 21
32.083343705751773
 31
0.0
  0
POLYLINE
  5
1F4
  8
DETAIL
  6
CONTINUOUS
 62
     5
 66
     1
 10
0.0
 20
0.0
 30
0.0
  0
VERTEX
  5
551
  8
DETAIL
  6
CONTINUOUS
 62
     5
 10
3.9083887777260311
 20
33.501798893616979
 30
0.0
  0
VERTEX
  5
552
  8
DETAIL
  6
CONTINUOUS
 62
     5
 10
3.9397684092547749
 20
33.501798893616957
 30
0.0
  0
VERTEX
  5
553
  8
DETAIL
  6
CONTINUOUS
 62
     5
 10
4.0206948274078531
 20
33.501798893616979
 30
0.0
  0
VERTEX
  5
554
  8
DETAIL
  6
CONTINUOUS
 62
     5
 10
4.1313493175355296
 20
33.501798893616979
 30
0.0
  0
VERTEX
  5
555
  8
DETAIL
  6
CONTINUOUS
 62
     5
 10
4.251913164988073
 20
33.501798893616979
 30
0.0
  0
VERTEX
  5
556
  8
DETAIL
  6
CONTINUOUS
 62
     5
 10
4.3625676551157513
 20
33.501798893616979
 30
0.0
  0
VERTEX
  5
557
  8
DETAIL
  6
CONTINUOUS
 62
     5
 10
4.4434940732688277
 20
33.501798893616979
 30
0.0
  0
VERTEX
  5
558
  8
DETAIL
  6
CONTINUOUS
 62
     5
 10
4.474873704797572
 20
33.501798893616979
 30
0.0
  0
SEQEND
  5
559
  8
DETAIL
  6
CONTINUOUS
 62
     5
  0
POLYLINE
  5
1FE
  8
DETAIL
  6
CONTINUOUS
 62
     5
 66
     1
 10
0.0
 20
0.0
 30
0.0
  0
VERTEX
  5
55A
  8
DETAIL
  6
CONTINUOUS
 62
     5
 10
4.474873704797572
 20
33.501798893616979
 30
0.0
  0
VERTEX
  5
55B
  8
DETAIL
  6
CONTINUOUS
 62
     5
 10
4.6767884137350766
 20
33.527206127088057
 30
0.0
  0
VERTEX
  5
55C
  8
DETAIL
  6
CONTINUOUS
 62
     5
 10
4.8396694915893157
 20
33.599090757381042
 30
0.0
  0
VERTEX
  5
55D
  8
DETAIL
  6
CONTINUOUS
 62
     5
 10
4.9601641678416337
 20
33.710947179315497
 30
0.0
  0
VERTEX
  5
55E
  8
DETAIL
  6
CONTINUOUS
 62
     5
 10
5.0349196719733724
 20
33.856269787711071
 30
0.0
  0
VERTEX
  5
55F
  8
DETAIL
  6
CONTINUOUS
 62
     5
 10
5.0605832334658771
 20
34.028552977387342
 30
0.0
  0
VERTEX
  5
560
  8
DETAIL
  6
CONTINUOUS
 62
     5
 10
5.0402820541790794
 20
34.172450401984648
 30
0.0
  0
VERTEX
  5
561
  8
DETAIL
  6
CONTINUOUS
 62
     5
 10
4.984607607953075
 20
34.301937065224287
 30
0.0
  0
VERTEX
  5
562
  8
DETAIL
  6
CONTINUOUS
 62
     5
 10
4.9014035322394562
 20
34.410676538419807
 30
0.0
  0
VERTEX
  5
563
  8
DETAIL
  6
CONTINUOUS
 62
     5
 10
4.7985134644898064
 20
34.492332392884776
 30
0.0
  0
VERTEX
  5
564
  8
DETAIL
  6
CONTINUOUS
 62
     5
 10
4.6837810421557151
 20
34.54056819993275
 30
0.0
  0
SEQEND
  5
565
  8
DETAIL
  6
CONTINUOUS
 62
     5
  0
POLYLINE
  5
20B
  8
DETAIL
  6
CONTINUOUS
 62
     5
 66
     1
 10
0.0
 20
0.0
 30
0.0
  0
VERTEX
  5
566
  8
DETAIL
  6
CONTINUOUS
 62
     5
 10
4.6837810421557151
 20
34.54056819993275
 30
0.0
  0
VERTEX
  5
567
  8
DETAIL
  6
CONTINUOUS
 62
     5
 10
4.7823212233842414
 20
34.581713973911171
 30
0.0
  0
VERTEX
  5
568
  8
DETAIL
  6
CONTINUOUS
 62
     5
 10
4.8674503225380974
 20
34.649958746301607
 30
0.0
  0
VERTEX
  5
569
  8
DETAIL
  6
CONTINUOUS
 62
     5
 10
4.9342929806522804
 20
34.740950067302322
 30
0.0
  0
VERTEX
  5
56A
  8
DETAIL
  6
CONTINUOUS
 62
     5
 10
4.9779738387617902
 20
34.850335487111501
 30
0.0
  0
VERTEX
  5
56B
  8
DETAIL
  6
CONTINUOUS
 62
     5
 10
4.9936175379016259
 20
34.973762555927351
 30
0.0
  0
VERTEX
  5
56C
  8
DETAIL
  6
CONTINUOUS
 62
     5
 10
4.968323088759897
 20
35.134167505095881
 30
0.0
  0
VERTEX
  5
56D
  8
DETAIL
  6
CONTINUOUS
 62
     5
 10
4.8932292316401771
 20
35.267012065414427
 30
0.0
  0
VERTEX
  5
56E
  8
DETAIL
  6
CONTINUOUS
 62
     5
 10
4.7695202020006748
 20
35.367651573137017
 30
0.0
  0
VERTEX
  5
56F
  8
DETAIL
  6
CONTINUOUS
 62
     5
 10
4.5983802352995911
 20
35.431441364517639
 30
0.0
  0
VERTEX
  5
570
  8
DETAIL
  6
CONTINUOUS
 62
     5
 10
4.3809935669951292
 20
35.453736775810292
 30
0.0
  0
SEQEND
  5
571
  8
DETAIL
  6
CONTINUOUS
 62
     5
  0
POLYLINE
  5
218
  8
DETAIL
  6
CONTINUOUS
 62
     5
 66
     1
 10
0.0
 20
0.0
 30
0.0
  0
VERTEX
  5
572
  8
DETAIL
  6
CONTINUOUS
 62
     5
 10
4.3809935669951292
 20
35.453736775810292
 30
0.0
  0
VERTEX
  5
573
  8
DETAIL
  6
CONTINUOUS
 62
     5
 10
4.3548142929539848
 20
35.453736775810292
 30
0.0
  0
VERTEX
  5
574
  8
DETAIL
  6
CONTINUOUS
 62
     5
 10
4.2872993230583987
 20
35.453736775810299
 30
0.0
  0
VERTEX
  5
575
  8
DETAIL
  6
CONTINUOUS
 62
     5
 10
4.1949829356501507
 20
35.453736775810299
 30
0.0
  0
VERTEX
  5
576
  8
DETAIL
  6
CONTINUOUS
 62
     5
 10
4.094399409071011
 20
35.453736775810292
 30
0.0
  0
VERTEX
  5
577
  8
DETAIL
  6
CONTINUOUS
 62
     5
 10
4.0020830216627612
 20
35.453736775810292
 30
0.0
  0
VERTEX
  5
578
  8
DETAIL
  6
CONTINUOUS
 62
     5
 10
3.9345680517671759
 20
35.453736775810277
 30
0.0
  0
VERTEX
  5
579
  8
DETAIL
  6
CONTINUOUS
 62
     5
 10
3.9083887777260311
 20
35.453736775810292
 30
0.0
  0
SEQEND
  5
57A
  8
DETAIL
  6
CONTINUOUS
 62
     5
  0
POLYLINE
  5
222
  8
DETAIL
  6
CONTINUOUS
 62
     5
 66
     1
 10
0.0
 20
0.0
 30
0.0
  0
VERTEX
  5
57B
  8
DETAIL
  6
CONTINUOUS
 62
     5
 10
3.9083887777260311
 20
35.453736775810292
 30
0.0
  0
VERTEX
  5
57C
  8
DETAIL
  6
CONTINUOUS
 62
     5
 10
3.8860254656636859
 20
35.453736775810292
 30
0.0
  0
VERTEX
  5
57D
  8
DETAIL
  6
CONTINUOUS
 62
     5
 10
3.8283516608713239
 20
35.453736775810299
 30
0.0
  0
VERTEX
  5
57E
  8
DETAIL
  6
CONTINUOUS
 62
     5
 10
3.7494915604409509
 20
35.453736775810299
 30
0.0
  0
VERTEX
  5
57F
  8
DETAIL
  6
CONTINUOUS
 62
     5
 10
3.663569361464575
 20
35.453736775810292
 30
0.0
  0
VERTEX
  5
580
  8
DETAIL
  6
CONTINUOUS
 62
     5
 10
3.5847092610342002
 20
35.453736775810292
 30
0.0
  0
VERTEX
  5
581
  8
DETAIL
  6
CONTINUOUS
 62
     5
 10
3.5270354562418378
 20
35.453736775810277
 30
0.0
  0
VERTEX
  5
582
  8
DETAIL
  6
CONTINUOUS
 62
     5
 10
3.504672144179493
 20
35.453736775810292
 30
0.0
  0
SEQEND
  5
583
  8
DETAIL
  6
CONTINUOUS
 62
     5
  0
POLYLINE
  5
22C
  8
DETAIL
  6
CONTINUOUS
 62
     5
 66
     1
 10
0.0
 20
0.0
 30
0.0
  0
VERTEX
  5
584
  8
DETAIL
  6
CONTINUOUS
 62
     5
 10
3.504672144179493
 20
35.453736775810292
 30
0.0
  0
VERTEX
  5
585
  8
DETAIL
  6
CONTINUOUS
 62
     5
 10
3.5045301548965302
 20
35.453736775810292
 30
0.0
  0
VERTEX
  5
586
  8
DETAIL
  6
CONTINUOUS
 62
     5
 10
3.504163972008886
 20
35.453736775810299
 30
0.0
  0
VERTEX
  5
587
  8
DETAIL
  6
CONTINUOUS
 62
     5
 10
3.503663272958434
 20
35.453736775810299
 30
0.0
  0
VERTEX
  5
588
  8
DETAIL
  6
CONTINUOUS
 62
     5
 10
3.5031177351870459
 20
35.453736775810292
 30
0.0
  0
VERTEX
  5
589
  8
DETAIL
  6
CONTINUOUS
 62
     5
 10
3.5026170361365931
 20
35.453736775810292
 30
0.0
  0
VERTEX
  5
58A
  8
DETAIL
  6
CONTINUOUS
 62
     5
 10
3.5022508532489498
 20
35.453736775810277
 30
0.0
  0
VERTEX
  5
58B
  8
DETAIL
  6
CONTINUOUS
 62
     5
 10
3.5021088639659861
 20
35.453736775810292
 30
0.0
  0
SEQEND
  5
58C
  8
DETAIL
  6
CONTINUOUS
 62
     5
  0
POLYLINE
  5
236
  8
DETAIL
  6
CONTINUOUS
 62
     5
 66
     1
 10
0.0
 20
0.0
 30
0.0
  0
VERTEX
  5
58D
  8
DETAIL
  6
CONTINUOUS
 62
     5
 10
3.5021088639659861
 20
35.453736775810292
 30
0.0
  0
VERTEX
  5
58E
  8
DETAIL
  6
CONTINUOUS
 62
     5
 10
3.5021088639659861
 20
35.345611936854972
 30
0.0
  0
VERTEX
  5
58F
  8
DETAIL
  6
CONTINUOUS
 62
     5
 10
3.5021088639659852
 20
35.066763667970207
 30
0.0
  0
VERTEX
  5
590
  8
DETAIL
  6
CONTINUOUS
 62
     5
 10
3.5021088639659861
 20
34.685481341127812
 30
0.0
  0
VERTEX
  5
591
  8
DETAIL
  6
CONTINUOUS
 62
     5
 10
3.5021088639659861
 20
34.27005432829948
 30
0.0
  0
VERTEX
  5
592
  8
DETAIL
  6
CONTINUOUS
 62
     5
 10
3.5021088639659852
 20
33.888772001457063
 30
0.0
  0
VERTEX
  5
593
  8
DETAIL
  6
CONTINUOUS
 62
     5
 10
3.5021088639659861
 20
33.609923732572291
 30
0.0
  0
VERTEX
  5
594
  8
DETAIL
  6
CONTINUOUS
 62
     5
 10
3.5021088639659861
 20
33.501798893616979
 30
0.0
  0
SEQEND
  5
595
  8
DETAIL
  6
CONTINUOUS
 62
     5
  0
POLYLINE
  5
240
  8
DETAIL
  6
CONTINUOUS
 62
     5
 66
     1
 10
0.0
 20
0.0
 30
0.0
  0
VERTEX
  5
596
  8
DETAIL
  6
CONTINUOUS
 62
     5
 10
3.5021088639659861
 20
33.501798893616979
 30
0.0
  0
VERTEX
  5
597
  8
DETAIL
  6
CONTINUOUS
 62
     5
 10
3.5022508532489498
 20
33.501798893616957
 30
0.0
  0
VERTEX
  5
598
  8
DETAIL
  6
CONTINUOUS
 62
     5
 10
3.5026170361365931
 20
33.501798893616979
 30
0.0
  0
VERTEX
  5
599
  8
DETAIL
  6
CONTINUOUS
 62
     5
 10
3.5031177351870459
 20
33.501798893616993
 30
0.0
  0
VERTEX
  5
59A
  8
DETAIL
  6
CONTINUOUS
 62
     5
 10
3.5036632729584332
 20
33.501798893616979
 30
0.0
  0
VERTEX
  5
59B
  8
DETAIL
  6
CONTINUOUS
 62
     5
 10
3.504163972008886
 20
33.501798893616979
 30
0.0
  0
VERTEX
  5
59C
  8
DETAIL
  6
CONTINUOUS
 62
     5
 10
3.5045301548965289
 20
33.501798893616957
 30
0.0
  0
VERTEX
  5
59D
  8
DETAIL
  6
CONTINUOUS
 62
     5
 10
3.504672144179493
 20
33.501798893616979
 30
0.0
  0
SEQEND
  5
59E
  8
DETAIL
  6
CONTINUOUS
 62
     5
  0
POLYLINE
  5
24A
  8
DETAIL
  6
CONTINUOUS
 62
     5
 66
     1
 10
0.0
 20
0.0
 30
0.0
  0
VERTEX
  5
59F
  8
DETAIL
  6
CONTINUOUS
 62
     5
 10
3.504672144179493
 20
33.501798893616979
 30
0.0
  0
VERTEX
  5
5A0
  8
DETAIL
  6
CONTINUOUS
 62
     5
 10
3.5270354562418369
 20
33.501798893616957
 30
0.0
  0
VERTEX
  5
5A1
  8
DETAIL
  6
CONTINUOUS
 62
     5
 10
3.5847092610342011
 20
33.501798893616979
 30
0.0
  0
VERTEX
  5
5A2
  8
DETAIL
  6
CONTINUOUS
 62
     5
 10
3.663569361464575
 20
33.501798893616993
 30
0.0
  0
VERTEX
  5
5A3
  8
DETAIL
  6
CONTINUOUS
 62
     5
 10
3.7494915604409509
 20
33.501798893616979
 30
0.0
  0
VERTEX
  5
5A4
  8
DETAIL
  6
CONTINUOUS
 62
     5
 10
3.8283516608713231
 20
33.501798893616979
 30
0.0
  0
VERTEX
  5
5A5
  8
DETAIL
  6
CONTINUOUS
 62
     5
 10
3.8860254656636859
 20
33.501798893616957
 30
0.0
  0
VERTEX
  5
5A6
  8
DETAIL
  6
CONTINUOUS
 62
     5
 10
3.9083887777260311
 20
33.501798893616979
 30
0.0
  0
SEQEND
  5
5A7
  8
DETAIL
  6
CONTINUOUS
 62
     5
  0
POLYLINE
  5
254
  8
DETAIL
  6
CONTINUOUS
 62
     5
 66
     1
 10
0.0
 20
0.0
 30
0.0
  0
VERTEX
  5
5A8
  8
DETAIL
  6
CONTINUOUS
 62
     5
 10
4.3527974846538191
 20
33.797537348189508
 30
0.0
  0
VERTEX
  5
5A9
  8
DETAIL
  6
CONTINUOUS
 62
     5
 10
4.3273459056876122
 20
33.797537348189508
 30
0.0
  0
VERTEX
  5
5AA
  8
DETAIL
  6
CONTINUOUS
 62
     5
 10
4.261707623090552
 20
33.797537348189508
 30
0.0
  0
VERTEX
  5
5AB
  8
DETAIL
  6
CONTINUOUS
 62
     5
 10
4.1719573183149796
 20
33.797537348189508
 30
0.0
  0
VERTEX
  5
5AC
  8
DETAIL
  6
CONTINUOUS
 62
     5
 10
4.0741696728132393
 20
33.797537348189508
 30
0.0
  0
VERTEX
  5
5AD
  8
DETAIL
  6
CONTINUOUS
 62
     5
 10
3.9844193680376669
 20
33.797537348189508
 30
0.0
  0
VERTEX
  5
5AE
  8
DETAIL
  6
CONTINUOUS
 62
     5
 10
3.918781085440608
 20
33.797537348189508
 30
0.0
  0
VERTEX
  5
5AF
  8
DETAIL
  6
CONTINUOUS
 62
     5
 10
3.8933295064743998
 20
33.797537348189508
 30
0.0
  0
SEQEND
  5
5B0
  8
DETAIL
  6
CONTINUOUS
 62
     5
  0
POLYLINE
  5
25E
  8
DETAIL
  6
CONTINUOUS
 62
     5
 66
     1
 10
0.0
 20
0.0
 30
0.0
  0
VERTEX
  5
5B1
  8
DETAIL
  6
CONTINUOUS
 62
     5
 10
3.8933295064743998
 20
33.797537348189508
 30
0.0
  0
VERTEX
  5
5B2
  8
DETAIL
  6
CONTINUOUS
 62
     5
 10
3.8933295064743998
 20
33.82893472837862
 30
0.0
  0
VERTEX
  5
5B3
  8
DETAIL
  6
CONTINUOUS
 62
     5
 10
3.8933295064744011
 20
33.909906919392661
 30
0.0
  0
VERTEX
  5
5B4
  8
DETAIL
  6
CONTINUOUS
 62
     5
 10
3.8933295064743998
 20
34.020623996901627
 30
0.0
  0
VERTEX
  5
5B5
  8
DETAIL
  6
CONTINUOUS
 62
     5
 10
3.8933295064744011
 20
34.141256036575612
 30
0.0
  0
VERTEX
  5
5B6
  8
DETAIL
  6
CONTINUOUS
 62
     5
 10
3.8933295064743998
 20
34.251973114084592
 30
0.0
  0
VERTEX
  5
5B7
  8
DETAIL
  6
CONTINUOUS
 62
     5
 10
3.8933295064744011
 20
34.332945305098633
 30
0.0
  0
VERTEX
  5
5B8
  8
DETAIL
  6
CONTINUOUS
 62
     5
 10
3.8933295064743998
 20
34.364342685287731
 30
0.0
  0
SEQEND
  5
5B9
  8
DETAIL
  6
CONTINUOUS
 62
     5
  0
POLYLINE
  5
268
  8
DETAIL
  6
CONTINUOUS
 62
     5
 66
     1
 10
0.0
 20
0.0
 30
0.0
  0
VERTEX
  5
5BA
  8
DETAIL
  6
CONTINUOUS
 62
     5
 10
3.8933295064743998
 20
34.364342685287731
 30
0.0
  0
VERTEX
  5
5BB
  8
DETAIL
  6
CONTINUOUS
 62
     5
 10
3.918497106874729
 20
34.364342685287731
 30
0.0
  0
VERTEX
  5
5BC
  8
DETAIL
  6
CONTINUOUS
 62
     5
 10
3.9834030236966318
 20
34.364342685287731
 30
0.0
  0
VERTEX
  5
5BD
  8
DETAIL
  6
CONTINUOUS
 62
     5
 10
4.0721519303714766
 20
34.364342685287731
 30
0.0
  0
VERTEX
  5
5BE
  8
DETAIL
  6
CONTINUOUS
 62
     5
 10
4.1688485003306361
 20
34.364342685287731
 30
0.0
  0
VERTEX
  5
5BF
  8
DETAIL
  6
CONTINUOUS
 62
     5
 10
4.2575974070054814
 20
34.364342685287731
 30
0.0
  0
VERTEX
  5
5C0
  8
DETAIL
  6
CONTINUOUS
 62
     5
 10
4.3225033238273829
 20
34.364342685287731
 30
0.0
  0
VERTEX
  5
5C1
  8
DETAIL
  6
CONTINUOUS
 62
     5
 10
4.3476709242277121
 20
34.364342685287731
 30
0.0
  0
SEQEND
  5
5C2
  8
DETAIL
  6
CONTINUOUS
 62
     5
  0
POLYLINE
  5
272
  8
DETAIL
  6
CONTINUOUS
 62
     5
 66
     1
 10
0.0
 20
0.0
 30
0.0
  0
VERTEX
  5
5C3
  8
DETAIL
  6
CONTINUOUS
 62
     5
 10
4.3476709242277121
 20
34.364342685287731
 30
0.0
  0
VERTEX
  5
5C4
  8
DETAIL
  6
CONTINUOUS
 62
     5
 10
4.4448807630250791
 20
34.352895075856772
 30
0.0
  0
VERTEX
  5
5C5
  8
DETAIL
  6
CONTINUOUS
 62
     5
 10
4.5296176803062247
 20
34.318593260046953
 30
0.0
  0
VERTEX
  5
5C6
  8
DETAIL
  6
CONTINUOUS
 62
     5
 10
4.5966372047552708
 20
34.261498756582988
 30
0.0
  0
VERTEX
  5
5C7
  8
DETAIL
  6
CONTINUOUS
 62
     5
 10
4.6406948650563411
 20
34.181673084189569
 30
0.0
  0
VERTEX
  5
5C8
  8
DETAIL
  6
CONTINUOUS
 62
     5
 10
4.6565461898935601
 20
34.079177761591389
 30
0.0
  0
VERTEX
  5
5C9
  8
DETAIL
  6
CONTINUOUS
 62
     5
 10
4.6419970114045341
 20
33.98861450838718
 30
0.0
  0
VERTEX
  5
5CA
  8
DETAIL
  6
CONTINUOUS
 62
     5
 10
4.6007487062168941
 20
33.911108604587213
 30
0.0
  0
VERTEX
  5
5CB
  8
DETAIL
  6
CONTINUOUS
 62
     5
 10
4.5364001197497918
 20
33.850720286049153
 30
0.0
  0
VERTEX
  5
5CC
  8
DETAIL
  6
CONTINUOUS
 62
     5
 10
4.4525500974223826
 20
33.811509788630701
 30
0.0
  0
VERTEX
  5
5CD
  8
DETAIL
  6
CONTINUOUS
 62
     5
 10
4.3527974846538191
 20
33.797537348189508
 30
0.0
  0
SEQEND
  5
5CE
  8
DETAIL
  6
CONTINUOUS
 62
     5
  0
POLYLINE
  5
27F
  8
DETAIL
  6
CONTINUOUS
 62
     5
 66
     1
 10
0.0
 20
0.0
 30
0.0
  0
VERTEX
  5
5CF
  8
DETAIL
  6
CONTINUOUS
 62
     5
 10
4.3816343870494148
 20
35.144220690091061
 30
0.0
  0
VERTEX
  5
5D0
  8
DETAIL
  6
CONTINUOUS
 62
     5
 10
4.4490691628928252
 20
35.13252956903964
 30
0.0
  0
VERTEX
  5
5D1
  8
DETAIL
  6
CONTINUOUS
 62
     5
 10
4.5120130718031284
 20
35.09990670176893
 30
0.0
  0
VERTEX
  5
5D2
  8
DETAIL
  6
CONTINUOUS
 62
     5
 10
4.5644372787193364
 20
35.050027832104362
 30
0.0
  0
VERTEX
  5
5D3
  8
DETAIL
  6
CONTINUOUS
 62
     5
 10
4.600312948580453
 20
34.986568703871257
 30
0.0
  0
VERTEX
  5
5D4
  8
DETAIL
  6
CONTINUOUS
 62
     5
 10
4.6136112463254886
 20
34.913205060895052
 30
0.0
  0
VERTEX
  5
5D5
  8
DETAIL
  6
CONTINUOUS
 62
     5
 10
4.6035862574124327
 20
34.84264820975276
 30
0.0
  0
VERTEX
  5
5D6
  8
DETAIL
  6
CONTINUOUS
 62
     5
 10
4.5733985063438949
 20
34.776151594467763
 30
0.0
  0
VERTEX
  5
5D7
  8
DETAIL
  6
CONTINUOUS
 62
     5
 10
4.5228788166258314
 20
34.720389996714651
 30
0.0
  0
VERTEX
  5
5D8
  8
DETAIL
  6
CONTINUOUS
 62
     5
 10
4.4518580117641884
 20
34.682038198168051
 30
0.0
  0
VERTEX
  5
5D9
  8
DETAIL
  6
CONTINUOUS
 62
     5
 10
4.3601669152649247
 20
34.66777098050261
 30
0.0
  0
SEQEND
  5
5DA
  8
DETAIL
  6
CONTINUOUS
 62
     5
  0
POLYLINE
  5
28C
  8
DETAIL
  6
CONTINUOUS
 62
     5
 66
     1
 10
0.0
 20
0.0
 30
0.0
  0
VERTEX
  5
5DB
  8
DETAIL
  6
CONTINUOUS
 62
     5
 10
4.3601669152649247
 20
34.66777098050261
 30
0.0
  0
VERTEX
  5
5DC
  8
DETAIL
  6
CONTINUOUS
 62
     5
 10
4.3343071171103471
 20
34.667770980502603
 30
0.0
  0
VERTEX
  5
5DD
  8
DETAIL
  6
CONTINUOUS
 62
     5
 10
4.2676160587117034
 20
34.66777098050261
 30
0.0
  0
VERTEX
  5
5DE
  8
DETAIL
  6
CONTINUOUS
 62
     5
 10
4.1764262441666151
 20
34.66777098050261
 30
0.0
  0
VERTEX
  5
5DF
  8
DETAIL
  6
CONTINUOUS
 62
     5
 10
4.0770701775727121
 20
34.66777098050261
 30
0.0
  0
VERTEX
  5
5E0
  8
DETAIL
  6
CONTINUOUS
 62
     5
 10
3.9858803630276229
 20
34.66777098050261
 30
0.0
  0
VERTEX
  5
5E1
  8
DETAIL
  6
CONTINUOUS
 62
     5
 10
3.9191893046289779
 20
34.66777098050261
 30
0.0
  0
VERTEX
  5
5E2
  8
DETAIL
  6
CONTINUOUS
 62
     5
 10
3.8933295064743998
 20
34.66777098050261
 30
0.0
  0
SEQEND
  5
5E3
  8
DETAIL
  6
CONTINUOUS
 62
     5
  0
POLYLINE
  5
296
  8
DETAIL
  6
CONTINUOUS
 62
     5
 66
     1
 10
0.0
 20
0.0
 30
0.0
  0
VERTEX
  5
5E4
  8
DETAIL
  6
CONTINUOUS
 62
     5
 10
3.8933295064743998
 20
34.66777098050261
 30
0.0
  0
VERTEX
  5
5E5
  8
DETAIL
  6
CONTINUOUS
 62
     5
 10
3.8933295064743998
 20
34.69416323846815
 30
0.0
  0
VERTEX
  5
5E6
  8
DETAIL
  6
CONTINUOUS
 62
     5
 10
3.8933295064744011
 20
34.762227482695081
 30
0.0
  0
VERTEX
  5
5E7
  8
DETAIL
  6
CONTINUOUS
 62
     5
 10
3.8933295064743998
 20
34.855294918678823
 30
0.0
  0
VERTEX
  5
5E8
  8
DETAIL
  6
CONTINUOUS
 62
     5
 10
3.8933295064744011
 20
34.956696751914848
 30
0.0
  0
VERTEX
  5
5E9
  8
DETAIL
  6
CONTINUOUS
 62
     5
 10
3.8933295064743998
 20
35.04976418789861
 30
0.0
  0
VERTEX
  5
5EA
  8
DETAIL
  6
CONTINUOUS
 62
     5
 10
3.8933295064744011
 20
35.117828432125521
 30
0.0
  0
VERTEX
  5
5EB
  8
DETAIL
  6
CONTINUOUS
 62
     5
 10
3.8933295064743998
 20
35.144220690091061
 30
0.0
  0
SEQEND
  5
5EC
  8
DETAIL
  6
CONTINUOUS
 62
     5
  0
POLYLINE
  5
2A0
  8
DETAIL
  6
CONTINUOUS
 62
     5
 66
     1
 10
0.0
 20
0.0
 30
0.0
  0
VERTEX
  5
5ED
  8
DETAIL
  6
CONTINUOUS
 62
     5
 10
3.8933295064743998
 20
35.144220690091061
 30
0.0
  0
VERTEX
  5
5EE
  8
DETAIL
  6
CONTINUOUS
 62
     5
 10
3.9203784648736
 20
35.144220690091068
 30
0.0
  0
VERTEX
  5
5EF
  8
DETAIL
  6
CONTINUOUS
 62
     5
 10
3.9901363049557448
 20
35.144220690091061
 30
0.0
  0
VERTEX
  5
5F0
  8
DETAIL
  6
CONTINUOUS
 62
     5
 10
4.0855194740476577
 20
35.144220690091068
 30
0.0
  0
VERTEX
  5
5F1
  8
DETAIL
  6
CONTINUOUS
 62
     5
 10
4.1894444194761586
 20
35.144220690091061
 30
0.0
  0
VERTEX
  5
5F2
  8
DETAIL
  6
CONTINUOUS
 62
     5
 10
4.2848275885680724
 20
35.144220690091061
 30
0.0
  0
VERTEX
  5
5F3
  8
DETAIL
  6
CONTINUOUS
 62
     5
 10
4.354585428650215
 20
35.144220690091061
 30
0.0
  0
VERTEX
  5
5F4
  8
DETAIL
  6
CONTINUOUS
 62
     5
 10
4.3816343870494148
 20
35.144220690091061
 30
0.0
  0
SEQEND
  5
5F5
  8
DETAIL
  6
CONTINUOUS
 62
     5
  0
POLYLINE
  5
2AA
  8
DETAIL
  6
CONTINUOUS
 62
     5
 66
     1
 10
0.0
 20
0.0
 30
0.0
  0
VERTEX
  5
5F6
  8
DETAIL
  6
CONTINUOUS
 62
     5
 10
5.009958449260921
 20
32.161203342220702
 30
0.0
  0
VERTEX
  5
5F7
  8
DETAIL
  6
CONTINUOUS
 62
     5
 10
5.1097700174737994
 20
32.204171608431309
 30
0.0
  0
VERTEX
  5
5F8
  8
DETAIL
  6
CONTINUOUS
 62
     5
 10
5.2034912319012117
 20
32.271870402136948
 30
0.0
  0
VERTEX
  5
5F9
  8
DETAIL
  6
CONTINUOUS
 62
     5
 10
5.2818789040948753
 20
32.365345541664638
 30
0.0
  0
VERTEX
  5
5FA
  8
DETAIL
  6
CONTINUOUS
 62
     5
 10
5.3356898456064883
 20
32.485642845341452
 30
0.0
  0
VERTEX
  5
5FB
  8
DETAIL
  6
CONTINUOUS
 62
     5
 10
5.3556808679877559
 20
32.633808131494341
 30
0.0
  0
VERTEX
  5
5FC
  8
DETAIL
  6
CONTINUOUS
 62
     5
 10
5.328035890890634
 20
32.824241908356811
 30
0.0
  0
VERTEX
  5
5FD
  8
DETAIL
  6
CONTINUOUS
 62
     5
 10
5.2474079117909547
 20
32.97642641788152
 30
0.0
  0
VERTEX
  5
5FE
  8
DETAIL
  6
CONTINUOUS
 62
     5
 10
5.1172573589762598
 20
33.088023948514113
 30
0.0
  0
VERTEX
  5
5FF
  8
DETAIL
  6
CONTINUOUS
 62
     5
 10
4.9410446607340841
 20
33.156696788700188
 30
0.0
  0
VERTEX
  5
600
  8
DETAIL
  6
CONTINUOUS
 62
     5
 10
4.722230245351966
 20
33.180107226885411
 30
0.0
  0
SEQEND
  5
601
  8
DETAIL
  6
CONTINUOUS
 62
     5
  0
POLYLINE
  5
2B7
  8
DETAIL
  6
CONTINUOUS
 62
     5
 66
     1
 10
0.0
 20
0.0
 30
0.0
  0
VERTEX
  5
602
  8
DETAIL
  6
CONTINUOUS
 62
     5
 10
4.722230245351966
 20
33.180107226885411
 30
0.0
  0
VERTEX
  5
603
  8
DETAIL
  6
CONTINUOUS
 62
     5
 10
4.6944890891984166
 20
33.180107226885411
 30
0.0
  0
VERTEX
  5
604
  8
DETAIL
  6
CONTINUOUS
 62
     5
 10
4.6229461075392679
 20
33.180107226885411
 30
0.0
  0
VERTEX
  5
605
  8
DETAIL
  6
CONTINUOUS
 62
     5
 10
4.5251220305767594
 20
33.180107226885411
 30
0.0
  0
VERTEX
  5
606
  8
DETAIL
  6
CONTINUOUS
 62
     5
 10
4.4185375885131268
 20
33.180107226885411
 30
0.0
  0
VERTEX
  5
607
  8
DETAIL
  6
CONTINUOUS
 62
     5
 10
4.3207135115506148
 20
33.180107226885411
 30
0.0
  0
VERTEX
  5
608
  8
DETAIL
  6
CONTINUOUS
 62
     5
 10
4.249170529891467
 20
33.180107226885411
 30
0.0
  0
VERTEX
  5
609
  8
DETAIL
  6
CONTINUOUS
 62
     5
 10
4.2214293737379203
 20
33.180107226885411
 30
0.0
  0
SEQEND
  5
60A
  8
DETAIL
  6
CONTINUOUS
 62
     5
  0
POLYLINE
  5
2C1
  8
DETAIL
  6
CONTINUOUS
 62
     5
 66
     1
 10
0.0
 20
0.0
 30
0.0
  0
VERTEX
  5
60B
  8
DETAIL
  6
CONTINUOUS
 62
     5
 10
4.2214293737379203
 20
33.180107226885411
 30
0.0
  0
VERTEX
  5
60C
  8
DETAIL
  6
CONTINUOUS
 62
     5
 10
4.1998470027317243
 20
33.180107226885411
 30
0.0
  0
VERTEX
  5
60D
  8
DETAIL
  6
CONTINUOUS
 62
     5
 10
4.1441872038210148
 20
33.180107226885411
 30
0.0
  0
VERTEX
  5
60E
  8
DETAIL
  6
CONTINUOUS
 62
     5
 10
4.0680809481675952
 20
33.180107226885411
 30
0.0
  0
VERTEX
  5
60F
  8
DETAIL
  6
CONTINUOUS
 62
     5
 10
3.9851592069332709
 20
33.180107226885411
 30
0.0
  0
VERTEX
  5
610
  8
DETAIL
  6
CONTINUOUS
 62
     5
 10
3.9090529512798491
 20
33.180107226885411
 30
0.0
  0
VERTEX
  5
611
  8
DETAIL
  6
CONTINUOUS
 62
     5
 10
3.85339315236914
 20
33.180107226885411
 30
0.0
  0
VERTEX
  5
612
  8
DETAIL
  6
CONTINUOUS
 62
     5
 10
3.831810781362945
 20
33.180107226885411
 30
0.0
  0
SEQEND
  5
613
  8
DETAIL
  6
CONTINUOUS
 62
     5
  0
POLYLINE
  5
2CB
  8
DETAIL
  6
CONTINUOUS
 62
     5
 66
     1
 10
0.0
 20
0.0
 30
0.0
  0
VERTEX
  5
614
  8
DETAIL
  6
CONTINUOUS
 62
     5
 10
3.831810781362945
 20
33.180107226885411
 30
0.0
  0
VERTEX
  5
615
  8
DETAIL
  6
CONTINUOUS
 62
     5
 10
3.831615546098921
 20
33.180107226885411
 30
0.0
  0
VERTEX
  5
616
  8
DETAIL
  6
CONTINUOUS
 62
     5
 10
3.83111204462854
 20
33.180107226885411
 30
0.0
  0
VERTEX
  5
617
  8
DETAIL
  6
CONTINUOUS
 62
     5
 10
3.8304235834343472
 20
33.180107226885411
 30
0.0
  0
VERTEX
  5
618
  8
DETAIL
  6
CONTINUOUS
 62
     5
 10
3.8296734689988812
 20
33.180107226885411
 30
0.0
  0
VERTEX
  5
619
  8
DETAIL
  6
CONTINUOUS
 62
     5
 10
3.8289850078046861
 20
33.180107226885411
 30
0.0
  0
VERTEX
  5
61A
  8
DETAIL
  6
CONTINUOUS
 62
     5
 10
3.8284815063343061
 20
33.180107226885411
 30
0.0
  0
VERTEX
  5
61B
  8
DETAIL
  6
CONTINUOUS
 62
     5
 10
3.8282862710702812
 20
33.180107226885411
 30
0.0
  0
SEQEND
  5
61C
  8
DETAIL
  6
CONTINUOUS
 62
     5
  0
POLYLINE
  5
2D5
  8
DETAIL
  6
CONTINUOUS
 62
     5
 66
     1
 10
0.0
 20
0.0
 30
0.0
  0
VERTEX
  5
61D
  8
DETAIL
  6
CONTINUOUS
 62
     5
 10
3.8282862710702812
 20
33.180107226885411
 30
0.0
  0
VERTEX
  5
61E
  8
DETAIL
  6
CONTINUOUS
 62
     5
 10
3.8282862710702821
 20
33.072000136590383
 30
0.0
  0
VERTEX
  5
61F
  8
DETAIL
  6
CONTINUOUS
 62
     5
 10
3.8282862710702812
 20
32.793197640566298
 30
0.0
  0
VERTEX
  5
620
  8
DETAIL
  6
CONTINUOUS
 62
     5
 10
3.8282862710702821
 20
32.411977901104841
 30
0.0
  0
VERTEX
  5
621
  8
DETAIL
  6
CONTINUOUS
 62
     5
 10
3.8282862710702812
 20
31.99661908049756
 30
0.0
  0
VERTEX
  5
622
  8
DETAIL
  6
CONTINUOUS
 62
     5
 10
3.8282862710702812
 20
31.615399341036081
 30
0.0
  0
VERTEX
  5
623
  8
DETAIL
  6
CONTINUOUS
 62
     5
 10
3.8282862710702812
 20
31.336596845012021
 30
0.0
  0
VERTEX
  5
624
  8
DETAIL
  6
CONTINUOUS
 62
     5
 10
3.8282862710702812
 20
31.228489754716971
 30
0.0
  0
SEQEND
  5
625
  8
DETAIL
  6
CONTINUOUS
 62
     5
  0
POLYLINE
  5
2DF
  8
DETAIL
  6
CONTINUOUS
 62
     5
 66
     1
 10
0.0
 20
0.0
 30
0.0
  0
VERTEX
  5
626
  8
DETAIL
  6
CONTINUOUS
 62
     5
 10
3.8282862710702812
 20
31.228489754716971
 30
0.0
  0
VERTEX
  5
627
  8
DETAIL
  6
CONTINUOUS
 62
     5
 10
3.8500638773405012
 20
31.228489754716971
 30
0.0
  0
VERTEX
  5
628
  8
DETAIL
  6
CONTINUOUS
 62
     5
 10
3.9062271777215911
 20
31.228489754716971
 30
0.0
  0
VERTEX
  5
629
  8
DETAIL
  6
CONTINUOUS
 62
     5
 10
3.9830218945692071
 20
31.228489754716978
 30
0.0
  0
VERTEX
  5
62A
  8
DETAIL
  6
CONTINUOUS
 62
     5
 10
4.0666937502389953
 20
31.228489754716971
 30
0.0
  0
VERTEX
  5
62B
  8
DETAIL
  6
CONTINUOUS
 62
     5
 10
4.143488467086609
 20
31.228489754716971
 30
0.0
  0
VERTEX
  5
62C
  8
DETAIL
  6
CONTINUOUS
 62
     5
 10
4.1996517674677003
 20
31.228489754716971
 30
0.0
  0
VERTEX
  5
62D
  8
DETAIL
  6
CONTINUOUS
 62
     5
 10
4.2214293737379203
 20
31.228489754716971
 30
0.0
  0
SEQEND
  5
62E
  8
DETAIL
  6
CONTINUOUS
 62
     5
  0
POLYLINE
  5
2E9
  8
DETAIL
  6
CONTINUOUS
 62
     5
 66
     1
 10
0.0
 20
0.0
 30
0.0
  0
VERTEX
  5
62F
  8
DETAIL
  6
CONTINUOUS
 62
     5
 10
4.2214293737379203
 20
31.228489754716971
 30
0.0
  0
VERTEX
  5
630
  8
DETAIL
  6
CONTINUOUS
 62
     5
 10
4.2214293737379203
 20
31.271015544956231
 30
0.0
  0
VERTEX
  5
631
  8
DETAIL
  6
CONTINUOUS
 62
     5
 10
4.2214293737379203
 20
31.380687319783771
 30
0.0
  0
VERTEX
  5
632
  8
DETAIL
  6
CONTINUOUS
 62
     5
 10
4.2214293737379203
 20
31.530646685364282
 30
0.0
  0
VERTEX
  5
633
  8
DETAIL
  6
CONTINUOUS
 62
     5
 10
4.2214293737379203
 20
31.694035247862448
 30
0.0
  0
VERTEX
  5
634
  8
DETAIL
  6
CONTINUOUS
 62
     5
 10
4.2214293737379194
 20
31.84399461344297
 30
0.0
  0
VERTEX
  5
635
  8
DETAIL
  6
CONTINUOUS
 62
     5
 10
4.2214293737379203
 20
31.95366638827052
 30
0.0
  0
VERTEX
  5
636
  8
DETAIL
  6
CONTINUOUS
 62
     5
 10
4.2214293737379203
 20
31.996192178509769
 30
0.0
  0
SEQEND
  5
637
  8
DETAIL
  6
CONTINUOUS
 62
     5
  0
POLYLINE
  5
2F3
  8
DETAIL
  6
CONTINUOUS
 62
     5
 66
     1
 10
0.0
 20
0.0
 30
0.0
  0
VERTEX
  5
638
  8
DETAIL
  6
CONTINUOUS
 62
     5
 10
4.2214293737379203
 20
31.996192178509769
 30
0.0
  0
VERTEX
  5
639
  8
DETAIL
  6
CONTINUOUS
 62
     5
 10
4.2402961997079789
 20
31.996192178509769
 30
0.0
  0
VERTEX
  5
63A
  8
DETAIL
  6
CONTINUOUS
 62
     5
 10
4.2889527508939294
 20
31.996192178509769
 30
0.0
  0
VERTEX
  5
63B
  8
DETAIL
  6
CONTINUOUS
 62
     5
 10
4.3554831372094114
 20
31.996192178509769
 30
0.0
  0
VERTEX
  5
63C
  8
DETAIL
  6
CONTINUOUS
 62
     5
 10
4.4279714685680682
 20
31.996192178509769
 30
0.0
  0
VERTEX
  5
63D
  8
DETAIL
  6
CONTINUOUS
 62
     5
 10
4.4945018548835476
 20
31.996192178509769
 30
0.0
  0
VERTEX
  5
63E
  8
DETAIL
  6
CONTINUOUS
 62
     5
 10
4.5431584060694972
 20
31.996192178509769
 30
0.0
  0
VERTEX
  5
63F
  8
DETAIL
  6
CONTINUOUS
 62
     5
 10
4.5620252320395593
 20
31.996192178509769
 30
0.0
  0
SEQEND
  5
640
  8
DETAIL
  6
CONTINUOUS
 62
     5
  0
POLYLINE
  5
2FD
  8
DETAIL
  6
CONTINUOUS
 62
     5
 66
     1
 10
0.0
 20
0.0
 30
0.0
  0
VERTEX
  5
641
  8
DETAIL
  6
CONTINUOUS
 62
     5
 10
4.5620252320395593
 20
31.996192178509769
 30
0.0
  0
VERTEX
  5
642
  8
DETAIL
  6
CONTINUOUS
 62
     5
 10
4.6432253532181633
 20
31.990018447122129
 30
0.0
  0
VERTEX
  5
643
  8
DETAIL
  6
CONTINUOUS
 62
     5
 10
4.7134343829295604
 20
31.972304349935921
 30
0.0
  0
VERTEX
  5
644
  8
DETAIL
  6
CONTINUOUS
 62
     5
 10
4.7729213534993651
 20
31.94426053241617
 30
0.0
  0
VERTEX
  5
645
  8
DETAIL
  6
CONTINUOUS
 62
     5
 10
4.8219552972531901
 20
31.907097640027889
 30
0.0
  0
VERTEX
  5
646
  8
DETAIL
  6
CONTINUOUS
 62
     5
 10
4.860805246516656
 20
31.86202631823614
 30
0.0
  0
VERTEX
  5
647
  8
DETAIL
  6
CONTINUOUS
 62
     5
 10
4.8897402336153757
 20
31.810257212505931
 30
0.0
  0
VERTEX
  5
648
  8
DETAIL
  6
CONTINUOUS
 62
     5
 10
4.9090292908749671
 20
31.753000968302331
 30
0.0
  0
SEQEND
  5
649
  8
DETAIL
  6
CONTINUOUS
 62
     5
  0
POLYLINE
  5
307
  8
DETAIL
  6
CONTINUOUS
 62
     5
 66
     1
 10
0.0
 20
0.0
 30
0.0
  0
VERTEX
  5
64A
  8
DETAIL
  6
CONTINUOUS
 62
     5
 10
4.9090292908749671
 20
31.753000968302331
 30
0.0
  0
VERTEX
  5
64B
  8
DETAIL
  6
CONTINUOUS
 62
     5
 10
4.9220166395627842
 20
31.682969425194582
 30
0.0
  0
VERTEX
  5
64C
  8
DETAIL
  6
CONTINUOUS
 62
     5
 10
4.9310469711289686
 20
31.60658759823561
 30
0.0
  0
VERTEX
  5
64D
  8
DETAIL
  6
CONTINUOUS
 62
     5
 10
4.937773713407676
 20
31.52668593168384
 30
0.0
  0
VERTEX
  5
64E
  8
DETAIL
  6
CONTINUOUS
 62
     5
 10
4.9438502942330436
 20
31.446094869797669
 30
0.0
  0
VERTEX
  5
64F
  8
DETAIL
  6
CONTINUOUS
 62
     5
 10
4.9509301414392306
 20
31.367644856835518
 30
0.0
  0
VERTEX
  5
650
  8
DETAIL
  6
CONTINUOUS
 62
     5
 10
4.9606666828603796
 20
31.29416633705581
 30
0.0
  0
VERTEX
  5
651
  8
DETAIL
  6
CONTINUOUS
 62
     5
 10
4.9747133463306437
 20
31.228489754716971
 30
0.0
  0
SEQEND
  5
652
  8
DETAIL
  6
CONTINUOUS
 62
     5
  0
POLYLINE
  5
311
  8
DETAIL
  6
CONTINUOUS
 62
     5
 66
     1
 10
0.0
 20
0.0
 30
0.0
  0
VERTEX
  5
653
  8
DETAIL
  6
CONTINUOUS
 62
     5
 10
4.9747133463306437
 20
31.228489754716971
 30
0.0
  0
VERTEX
  5
654
  8
DETAIL
  6
CONTINUOUS
 62
     5
 10
4.9966684392045186
 20
31.228489754716971
 30
0.0
  0
VERTEX
  5
655
  8
DETAIL
  6
CONTINUOUS
 62
     5
 10
5.0532894681950351
 20
31.228489754716971
 30
0.0
  0
VERTEX
  5
656
  8
DETAIL
  6
CONTINUOUS
 62
     5
 10
5.1307100588555361
 20
31.228489754716978
 30
0.0
  0
VERTEX
  5
657
  8
DETAIL
  6
CONTINUOUS
 62
     5
 10
5.2150638367393674
 20
31.228489754716971
 30
0.0
  0
VERTEX
  5
658
  8
DETAIL
  6
CONTINUOUS
 62
     5
 10
5.2924844273998657
 20
31.228489754716971
 30
0.0
  0
VERTEX
  5
659
  8
DETAIL
  6
CONTINUOUS
 62
     5
 10
5.349105456390383
 20
31.228489754716971
 30
0.0
  0
VERTEX
  5
65A
  8
DETAIL
  6
CONTINUOUS
 62
     5
 10
5.3710605492642571
 20
31.228489754716971
 30
0.0
  0
SEQEND
  5
65B
  8
DETAIL
  6
CONTINUOUS
 62
     5
  0
POLYLINE
  5
31B
  8
DETAIL
  6
CONTINUOUS
 62
     5
 66
     1
 10
0.0
 20
0.0
 30
0.0
  0
VERTEX
  5
65C
  8
DETAIL
  6
CONTINUOUS
 62
     5
 10
5.3710605492642571
 20
31.228489754716971
 30
0.0
  0
VERTEX
  5
65D
  8
DETAIL
  6
CONTINUOUS
 62
     5
 10
5.3556565803463236
 20
31.295174274136478
 30
0.0
  0
VERTEX
  5
65E
  8
DETAIL
  6
CONTINUOUS
 62
     5
 10
5.3421078135065789
 20
31.366919964180269
 30
0.0
  0
VERTEX
  5
65F
  8
DETAIL
  6
CONTINUOUS
 62
     5
 10
5.3303862245444487
 20
31.442000534092731
 30
0.0
  0
VERTEX
  5
660
  8
DETAIL
  6
CONTINUOUS
 62
     5
 10
5.3204637892593682
 20
31.518689693118208
 30
0.0
  0
VERTEX
  5
661
  8
DETAIL
  6
CONTINUOUS
 62
     5
 10
5.3123124834507651
 20
31.595261150501109
 30
0.0
  0
VERTEX
  5
662
  8
DETAIL
  6
CONTINUOUS
 62
     5
 10
5.305904282918072
 20
31.66998861548581
 30
0.0
  0
VERTEX
  5
663
  8
DETAIL
  6
CONTINUOUS
 62
     5
 10
5.3012111634607191
 20
31.74114579731668
 30
0.0
  0
SEQEND
  5
664
  8
DETAIL
  6
CONTINUOUS
 62
     5
  0
POLYLINE
  5
325
  8
DETAIL
  6
CONTINUOUS
 62
     5
 66
     1
 10
0.0
 20
0.0
 30
0.0
  0
VERTEX
  5
665
  8
DETAIL
  6
CONTINUOUS
 62
     5
 10
5.3012111634607191
 20
31.74114579731668
 30
0.0
  0
VERTEX
  5
666
  8
DETAIL
  6
CONTINUOUS
 62
     5
 10
5.287767954442752
 20
31.844535480514239
 30
0.0
  0
VERTEX
  5
667
  8
DETAIL
  6
CONTINUOUS
 62
     5
 10
5.2612654679548658
 20
31.930438062550341
 30
0.0
  0
VERTEX
  5
668
  8
DETAIL
  6
CONTINUOUS
 62
     5
 10
5.2239064061626097
 20
32.000669511622469
 30
0.0
  0
VERTEX
  5
669
  8
DETAIL
  6
CONTINUOUS
 62
     5
 10
5.1778934712315348
 20
32.057045795928083
 30
0.0
  0
VERTEX
  5
66A
  8
DETAIL
  6
CONTINUOUS
 62
     5
 10
5.1254293653271947
 20
32.10138288366467
 30
0.0
  0
VERTEX
  5
66B
  8
DETAIL
  6
CONTINUOUS
 62
     5
 10
5.0687167906151389
 20
32.135496743029712
 30
0.0
  0
VERTEX
  5
66C
  8
DETAIL
  6
CONTINUOUS
 62
     5
 10
5.009958449260921
 20
32.161203342220702
 30
0.0
  0
SEQEND
  5
66D
  8
DETAIL
  6
CONTINUOUS
 62
     5
  0
POLYLINE
  5
32F
  8
DETAIL
  6
CONTINUOUS
 62
     5
 66
     1
 10
0.0
 20
0.0
 30
0.0
  0
VERTEX
  5
66E
  8
DETAIL
  6
CONTINUOUS
 62
     5
 10
4.2214293737379203
 20
32.311155234681777
 30
0.0
  0
VERTEX
  5
66F
  8
DETAIL
  6
CONTINUOUS
 62
     5
 10
4.2214293737379203
 20
32.340529267589027
 30
0.0
  0
VERTEX
  5
670
  8
DETAIL
  6
CONTINUOUS
 62
     5
 10
4.2214293737379203
 20
32.416283352455039
 30
0.0
  0
VERTEX
  5
671
  8
DETAIL
  6
CONTINUOUS
 62
     5
 10
4.2214293737379203
 20
32.519865468496327
 30
0.0
  0
VERTEX
  5
672
  8
DETAIL
  6
CONTINUOUS
 62
     5
 10
4.2214293737379203
 20
32.632723594929367
 30
0.0
  0
VERTEX
  5
673
  8
DETAIL
  6
CONTINUOUS
 62
     5
 10
4.2214293737379203
 20
32.736305710970647
 30
0.0
  0
VERTEX
  5
674
  8
DETAIL
  6
CONTINUOUS
 62
     5
 10
4.2214293737379203
 20
32.812059795836667
 30
0.0
  0
VERTEX
  5
675
  8
DETAIL
  6
CONTINUOUS
 62
     5
 10
4.2214293737379203
 20
32.841433828743909
 30
0.0
  0
SEQEND
  5
676
  8
DETAIL
  6
CONTINUOUS
 62
     5
  0
POLYLINE
  5
339
  8
DETAIL
  6
CONTINUOUS
 62
     5
 66
     1
 10
0.0
 20
0.0
 30
0.0
  0
VERTEX
  5
677
  8
DETAIL
  6
CONTINUOUS
 62
     5
 10
4.2214293737379203
 20
32.841433828743909
 30
0.0
  0
VERTEX
  5
678
  8
DETAIL
  6
CONTINUOUS
 62
     5
 10
4.248070112948696
 20
32.841433828743902
 30
0.0
  0
VERTEX
  5
679
  8
DETAIL
  6
CONTINUOUS
 62
     5
 10
4.3167751772291272
 20
32.841433828743909
 30
0.0
  0
VERTEX
  5
67A
  8
DETAIL
  6
CONTINUOUS
 62
     5
 10
4.4107188365513439
 20
32.841433828743909
 30
0.0
  0
VERTEX
  5
67B
  8
DETAIL
  6
CONTINUOUS
 62
     5
 10
4.5130753608874921
 20
32.841433828743909
 30
0.0
  0
VERTEX
  5
67C
  8
DETAIL
  6
CONTINUOUS
 62
     5
 10
4.6070190202097114
 20
32.841433828743909
 30
0.0
  0
VERTEX
  5
67D
  8
DETAIL
  6
CONTINUOUS
 62
     5
 10
4.6757240844901391
 20
32.841433828743909
 30
0.0
  0
VERTEX
  5
67E
  8
DETAIL
  6
CONTINUOUS
 62
     5
 10
4.7023648237009184
 20
32.841433828743909
 30
0.0
  0
SEQEND
  5
67F
  8
DETAIL
  6
CONTINUOUS
 62
     5
  0
POLYLINE
  5
343
  8
DETAIL
  6
CONTINUOUS
 62
     5
 66
     1
 10
0.0
 20
0.0
 30
0.0
  0
VERTEX
  5
680
  8
DETAIL
  6
CONTINUOUS
 62
     5
 10
4.7023648237009184
 20
32.841433828743909
 30
0.0
  0
VERTEX
  5
681
  8
DETAIL
  6
CONTINUOUS
 62
     5
 10
4.7918309929747327
 20
32.82840980198177
 30
0.0
  0
VERTEX
  5
682
  8
DETAIL
  6
CONTINUOUS
 62
     5
 10
4.8658867216080806
 20
32.791685686370442
 30
0.0
  0
VERTEX
  5
683
  8
DETAIL
  6
CONTINUOUS
 62
     5
 10
4.9219636028275549
 20
32.734783428922491
 30
0.0
  0
VERTEX
  5
684
  8
DETAIL
  6
CONTINUOUS
 62
     5
 10
4.9574932298597396
 20
32.661224976650473
 30
0.0
  0
VERTEX
  5
685
  8
DETAIL
  6
CONTINUOUS
 62
     5
 10
4.9699071959312251
 20
32.57453227656697
 30
0.0
  0
VERTEX
  5
686
  8
DETAIL
  6
CONTINUOUS
 62
     5
 10
4.9587620535651507
 20
32.505923518385039
 30
0.0
  0
VERTEX
  5
687
  8
DETAIL
  6
CONTINUOUS
 62
     5
 10
4.9262699135853447
 20
32.435453818769282
 30
0.0
  0
VERTEX
  5
688
  8
DETAIL
  6
CONTINUOUS
 62
     5
 10
4.873845706669452
 20
32.372950794055967
 30
0.0
  0
VERTEX
  5
689
  8
DETAIL
  6
CONTINUOUS
 62
     5
 10
4.8029043634951076
 20
32.328242060581381
 30
0.0
  0
VERTEX
  5
68A
  8
DETAIL
  6
CONTINUOUS
 62
     5
 10
4.71486081473995
 20
32.311155234681777
 30
0.0
  0
SEQEND
  5
68B
  8
DETAIL
  6
CONTINUOUS
 62
     5
  0
POLYLINE
  5
350
  8
DETAIL
  6
CONTINUOUS
 62
     5
 66
     1
 10
0.0
 20
0.0
 30
0.0
  0
VERTEX
  5
68C
  8
DETAIL
  6
CONTINUOUS
 62
     5
 10
4.71486081473995
 20
32.311155234681777
 30
0.0
  0
VERTEX
  5
68D
  8
DETAIL
  6
CONTINUOUS
 62
     5
 10
4.6875278777748228
 20
32.311155234681799
 30
0.0
  0
VERTEX
  5
68E
  8
DETAIL
  6
CONTINUOUS
 62
     5
 10
4.61703767191739
 20
32.311155234681799
 30
0.0
  0
VERTEX
  5
68F
  8
DETAIL
  6
CONTINUOUS
 62
     5
 10
4.5206531047245742
 20
32.311155234681799
 30
0.0
  0
VERTEX
  5
690
  8
DETAIL
  6
CONTINUOUS
 62
     5
 10
4.4156370837532961
 20
32.311155234681777
 30
0.0
  0
VERTEX
  5
691
  8
DETAIL
  6
CONTINUOUS
 62
     5
 10
4.3192525165604794
 20
32.311155234681777
 30
0.0
  0
VERTEX
  5
692
  8
DETAIL
  6
CONTINUOUS
 62
     5
 10
4.2487623107030474
 20
32.311155234681777
 30
0.0
  0
VERTEX
  5
693
  8
DETAIL
  6
CONTINUOUS
 62
     5
 10
4.2214293737379203
 20
32.311155234681777
 30
0.0
  0
SEQEND
  5
694
  8
DETAIL
  6
CONTINUOUS
 62
     5
  0
LINE
  5
35A
  8
DETAIL
  6
CONTINUOUS
 62
     5
 10
-1.8131730676996081
 20
33.176903126621262
 30
0.0
 11
-2.2077580154873431
 21
33.176903126621262
 31
0.0
  0
LINE
  5
35B
  8
DETAIL
  6
CONTINUOUS
 62
     5
 10
-2.2077580154873431
 20
33.176903126621262
 30
0.0
 11
-2.2077580154873431
 21
31.564599872647712
 31
0.0
  0
LINE
  5
35C
  8
DETAIL
  6
CONTINUOUS
 62
     5
 10
-2.2077580154873431
 20
31.564599872647712
 30
0.0
 11
-2.2077580154873431
 21
31.22560606448042
 31
0.0
  0
LINE
  5
35D
  8
DETAIL
  6
CONTINUOUS
 62
     5
 10
-2.2077580154873431
 20
31.22560606448042
 30
0.0
 11
-1.8131730676996081
 21
31.22560606448042
 31
0.0
  0
LINE
  5
35E
  8
DETAIL
  6
CONTINUOUS
 62
     5
 10
-1.8131730676996081
 20
31.22560606448042
 30
0.0
 11
-0.8926350612100575
 21
31.22560606448042
 31
0.0
  0
LINE
  5
35F
  8
DETAIL
  6
CONTINUOUS
 62
     5
 10
-0.8926350612100575
 20
31.22560606448042
 30
0.0
 11
-0.8926350612100575
 21
31.564599872647712
 31
0.0
  0
LINE
  5
360
  8
DETAIL
  6
CONTINUOUS
 62
     5
 10
-0.8926350612100575
 20
31.564599872647712
 30
0.0
 11
-1.8131730676996081
 21
31.564599872647712
 31
0.0
  0
LINE
  5
361
  8
DETAIL
  6
CONTINUOUS
 62
     5
 10
-1.8131730676996081
 20
31.564599872647712
 30
0.0
 11
-1.8131730676996081
 21
33.176903126621262
 31
0.0
  0
POLYLINE
  5
362
  8
DETAIL
  6
CONTINUOUS
 62
     5
 66
     1
 10
0.0
 20
0.0
 30
0.0
  0
VERTEX
  5
695
  8
DETAIL
  6
CONTINUOUS
 62
     5
 10
0.8068197200054783
 20
34.326213892120002
 30
0.0
  0
VERTEX
  5
696
  8
DETAIL
  6
CONTINUOUS
 62
     5
 10
1.0040302683943421
 20
34.286163805511073
 30
0.0
  0
VERTEX
  5
697
  8
DETAIL
  6
CONTINUOUS
 62
     5
 10
1.1543116129479649
 20
34.235655255620173
 30
0.0
  0
VERTEX
  5
698
  8
DETAIL
  6
CONTINUOUS
 62
     5
 10
1.254450611332657
 20
34.165355954052892
 30
0.0
  0
VERTEX
  5
699
  8
DETAIL
  6
CONTINUOUS
 62
     5
 10
1.301234121214728
 20
34.06593361241486
 30
0.0
  0
VERTEX
  5
69A
  8
DETAIL
  6
CONTINUOUS
 62
     5
 10
1.2953335890039051
 20
33.966471310672489
 30
0.0
  0
VERTEX
  5
69B
  8
DETAIL
  6
CONTINUOUS
 62
     5
 10
1.2473858400492841
 20
33.886444640708042
 30
0.0
  0
VERTEX
  5
69C
  8
DETAIL
  6
CONTINUOUS
 62
     5
 10
1.157745994248407
 20
33.822688441481148
 30
0.0
  0
VERTEX
  5
69D
  8
DETAIL
  6
CONTINUOUS
 62
     5
 10
1.025847026483625
 20
33.783613585570812
 30
0.0
  0
VERTEX
  5
69E
  8
DETAIL
  6
CONTINUOUS
 62
     5
 10
0.8559458544915241
 20
33.77800867062156
 30
0.0
  0
VERTEX
  5
69F
  8
DETAIL
  6
CONTINUOUS
 62
     5
 10
0.7087201452942282
 20
33.814119770245362
 30
0.0
  0
VERTEX
  5
6A0
  8
DETAIL
  6
CONTINUOUS
 62
     5
 10
0.602973898524178
 20
33.886008579724411
 30
0.0
  0
VERTEX
  5
6A1
  8
DETAIL
  6
CONTINUOUS
 62
     5
 10
0.5391796351125896
 20
33.984957087874228
 30
0.0
  0
VERTEX
  5
6A2
  8
DETAIL
  6
CONTINUOUS
 62
     5
 10
0.5178098759906789
 20
34.102247283510231
 30
0.0
  0
SEQEND
  5
6A3
  8
DETAIL
  6
CONTINUOUS
 62
     5
  0
POLYLINE
  5
372
  8
DETAIL
  6
CONTINUOUS
 62
     5
 66
     1
 10
0.0
 20
0.0
 30
0.0
  0
VERTEX
  5
6A4
  8
DETAIL
  6
CONTINUOUS
 62
     5
 10
0.5178098759906789
 20
34.102247283510231
 30
0.0
  0
VERTEX
  5
6A5
  8
DETAIL
  6
CONTINUOUS
 62
     5
 10
0.4967954621161898
 20
34.102247283510223
 30
0.0
  0
VERTEX
  5
6A6
  8
DETAIL
  6
CONTINUOUS
 62
     5
 10
0.4426003947556657
 20
34.102247283510231
 30
0.0
  0
VERTEX
  5
6A7
  8
DETAIL
  6
CONTINUOUS
 62
     5
 10
0.3684969353035203
 20
34.102247283510231
 30
0.0
  0
VERTEX
  5
6A8
  8
DETAIL
  6
CONTINUOUS
 62
     5
 10
0.2877573451541678
 20
34.102247283510231
 30
0.0
  0
VERTEX
  5
6A9
  8
DETAIL
  6
CONTINUOUS
 62
     5
 10
0.2136538857020222
 20
34.102247283510231
 30
0.0
  0
VERTEX
  5
6AA
  8
DETAIL
  6
CONTINUOUS
 62
     5
 10
0.159458818341498
 20
34.102247283510231
 30
0.0
  0
VERTEX
  5
6AB
  8
DETAIL
  6
CONTINUOUS
 62
     5
 10
0.138444404467009
 20
34.102247283510231
 30
0.0
  0
SEQEND
  5
6AC
  8
DETAIL
  6
CONTINUOUS
 62
     5
  0
POLYLINE
  5
37C
  8
DETAIL
  6
CONTINUOUS
 62
     5
 66
     1
 10
0.0
 20
0.0
 30
0.0
  0
VERTEX
  5
6AD
  8
DETAIL
  6
CONTINUOUS
 62
     5
 10
0.138444404467009
 20
34.102247283510231
 30
0.0
  0
VERTEX
  5
6AE
  8
DETAIL
  6
CONTINUOUS
 62
     5
 10
0.1751238417661336
 20
33.875013280163287
 30
0.0
  0
VERTEX
  5
6AF
  8
DETAIL
  6
CONTINUOUS
 62
     5
 10
0.2918246987960032
 20
33.677863109448211
 30
0.0
  0
VERTEX
  5
6B0
  8
DETAIL
  6
CONTINUOUS
 62
     5
 10
0.4985407932553614
 20
33.531564066299488
 30
0.0
  0
VERTEX
  5
6B1
  8
DETAIL
  6
CONTINUOUS
 62
     5
 10
0.8052659428429517
 20
33.456883445651627
 30
0.0
  0
VERTEX
  5
6B2
  8
DETAIL
  6
CONTINUOUS
 62
     5
 10
1.1617175035088201
 20
33.47119105860645
 30
0.0
  0
VERTEX
  5
6B3
  8
DETAIL
  6
CONTINUOUS
 62
     5
 10
1.428126117184688
 20
33.566011571396317
 30
0.0
  0
VERTEX
  5
6B4
  8
DETAIL
  6
CONTINUOUS
 62
     5
 10
1.6045903715705889
 20
33.722677198756259
 30
0.0
  0
VERTEX
  5
6B5
  8
DETAIL
  6
CONTINUOUS
 62
     5
 10
1.6965442573773839
 20
33.922641494129572
 30
0.0
  0
VERTEX
  5
6B6
  8
DETAIL
  6
CONTINUOUS
 62
     5
 10
1.7100061453690361
 20
34.140028394610368
 30
0.0
  0
VERTEX
  5
6B7
  8
DETAIL
  6
CONTINUOUS
 62
     5
 10
1.6573909396585591
 20
34.323071190407077
 30
0.0
  0
VERTEX
  5
6B8
  8
DETAIL
  6
CONTINUOUS
 62
     5
 10
1.54454506589362
 20
34.468792707973073
 30
0.0
  0
VERTEX
  5
6B9
  8
DETAIL
  6
CONTINUOUS
 62
     5
 10
1.3748234226874181
 20
34.576460539864406
 30
0.0
  0
VERTEX
  5
6BA
  8
DETAIL
  6
CONTINUOUS
 62
     5
 10
1.1515809086531581
 20
34.645342278637152
 30
0.0
  0
SEQEND
  5
6BB
  8
DETAIL
  6
CONTINUOUS
 62
     5
  0
POLYLINE
  5
38C
  8
DETAIL
  6
CONTINUOUS
 62
     5
 66
     1
 10
0.0
 20
0.0
 30
0.0
  0
VERTEX
  5
6BC
  8
DETAIL
  6
CONTINUOUS
 62
     5
 10
1.1515809086531581
 20
34.645342278637152
 30
0.0
  0
VERTEX
  5
6BD
  8
DETAIL
  6
CONTINUOUS
 62
     5
 10
0.9309490727632315
 20
34.686565792226652
 30
0.0
  0
VERTEX
  5
6BE
  8
DETAIL
  6
CONTINUOUS
 62
     5
 10
0.7545215700055548
 20
34.729829021169728
 30
0.0
  0
VERTEX
  5
6BF
  8
DETAIL
  6
CONTINUOUS
 62
     5
 10
0.6317960711006783
 20
34.79426906318821
 30
0.0
  0
VERTEX
  5
6C0
  8
DETAIL
  6
CONTINUOUS
 62
     5
 10
0.5722702467691537
 20
34.899023016003888
 30
0.0
  0
VERTEX
  5
6C1
  8
DETAIL
  6
CONTINUOUS
 62
     5
 10
0.5776445890045747
 20
35.011369388475607
 30
0.0
  0
VERTEX
  5
6C2
  8
DETAIL
  6
CONTINUOUS
 62
     5
 10
0.6255240849358073
 20
35.091344868670831
 30
0.0
  0
VERTEX
  5
6C3
  8
DETAIL
  6
CONTINUOUS
 62
     5
 10
0.7095671828160275
 20
35.148214075321157
 30
0.0
  0
VERTEX
  5
6C4
  8
DETAIL
  6
CONTINUOUS
 62
     5
 10
0.8251195514709895
 20
35.179968794468309
 30
0.0
  0
VERTEX
  5
6C5
  8
DETAIL
  6
CONTINUOUS
 62
     5
 10
0.9675679865480773
 20
35.184231691636292
 30
0.0
  0
VERTEX
  5
6C6
  8
DETAIL
  6
CONTINUOUS
 62
     5
 10
1.097022971050795
 20
35.155589047845332
 30
0.0
  0
VERTEX
  5
6C7
  8
DETAIL
  6
CONTINUOUS
 62
     5
 10
1.1927084596573549
 20
35.094909484906303
 30
0.0
  0
VERTEX
  5
6C8
  8
DETAIL
  6
CONTINUOUS
 62
     5
 10
1.252025587244797
 20
35.004886372128126
 30
0.0
  0
VERTEX
  5
6C9
  8
DETAIL
  6
CONTINUOUS
 62
     5
 10
1.272375488690157
 20
34.888213078819717
 30
0.0
  0
SEQEND
  5
6CA
  8
DETAIL
  6
CONTINUOUS
 62
     5
  0
POLYLINE
  5
39C
  8
DETAIL
  6
CONTINUOUS
 62
     5
 66
     1
 10
0.0
 20
0.0
 30
0.0
  0
VERTEX
  5
6CB
  8
DETAIL
  6
CONTINUOUS
 62
     5
 10
1.272375488690157
 20
34.888213078819717
 30
0.0
  0
VERTEX
  5
6CC
  8
DETAIL
  6
CONTINUOUS
 62
     5
 10
1.293478645866398
 20
34.888213078819717
 30
0.0
  0
VERTEX
  5
6CD
  8
DETAIL
  6
CONTINUOUS
 62
     5
 10
1.3479025775314399
 20
34.888213078819717
 30
0.0
  0
VERTEX
  5
6CE
  8
DETAIL
  6
CONTINUOUS
 62
     5
 10
1.422318973889763
 20
34.888213078819717
 30
0.0
  0
VERTEX
  5
6CF
  8
DETAIL
  6
CONTINUOUS
 62
     5
 10
1.5033995251458461
 20
34.888213078819717
 30
0.0
  0
VERTEX
  5
6D0
  8
DETAIL
  6
CONTINUOUS
 62
     5
 10
1.5778159215041681
 20
34.888213078819717
 30
0.0
  0
VERTEX
  5
6D1
  8
DETAIL
  6
CONTINUOUS
 62
     5
 10
1.6322398531692111
 20
34.888213078819717
 30
0.0
  0
VERTEX
  5
6D2
  8
DETAIL
  6
CONTINUOUS
 62
     5
 10
1.6533430103454521
 20
34.888213078819717
 30
0.0
  0
SEQEND
  5
6D3
  8
DETAIL
  6
CONTINUOUS
 62
     5
  0
POLYLINE
  5
3A6
  8
DETAIL
  6
CONTINUOUS
 62
     5
 66
     1
 10
0.0
 20
0.0
 30
0.0
  0
VERTEX
  5
6D4
  8
DETAIL
  6
CONTINUOUS
 62
     5
 10
1.6533430103454521
 20
34.888213078819717
 30
0.0
  0
VERTEX
  5
6D5
  8
DETAIL
  6
CONTINUOUS
 62
     5
 10
1.6155570865321149
 20
35.099075544451601
 30
0.0
  0
VERTEX
  5
6D6
  8
DETAIL
  6
CONTINUOUS
 62
     5
 10
1.4995059457831359
 20
35.288509185845832
 30
0.0
  0
VERTEX
  5
6D7
  8
DETAIL
  6
CONTINUOUS
 62
     5
 10
1.3011495341350661
 20
35.432628069920177
 30
0.0
  0
VERTEX
  5
6D8
  8
DETAIL
  6
CONTINUOUS
 62
     5
 10
1.016447797624449
 20
35.507546263592452
 30
0.0
  0
VERTEX
  5
6D9
  8
DETAIL
  6
CONTINUOUS
 62
     5
 10
0.7370940063459792
 20
35.4984794036219
 30
0.0
  0
VERTEX
  5
6DA
  8
DETAIL
  6
CONTINUOUS
 62
     5
 10
0.5046924615904204
 20
35.423076875995129
 30
0.0
  0
VERTEX
  5
6DB
  8
DETAIL
  6
CONTINUOUS
 62
     5
 10
0.3150619364745195
 20
35.28507320030814
 30
0.0
  0
VERTEX
  5
6DC
  8
DETAIL
  6
CONTINUOUS
 62
     5
 10
0.1968135733940055
 20
35.086405712379879
 30
0.0
  0
VERTEX
  5
6DD
  8
DETAIL
  6
CONTINUOUS
 62
     5
 10
0.1759727752033895
 20
34.84879579107448
 30
0.0
  0
VERTEX
  5
6DE
  8
DETAIL
  6
CONTINUOUS
 62
     5
 10
0.2372666153536179
 20
34.657903897583267
 30
0.0
  0
VERTEX
  5
6DF
  8
DETAIL
  6
CONTINUOUS
 62
     5
 10
0.3668712314852351
 20
34.506892770701931
 30
0.0
  0
VERTEX
  5
6E0
  8
DETAIL
  6
CONTINUOUS
 62
     5
 10
0.5587383556764528
 20
34.396187679268223
 30
0.0
  0
VERTEX
  5
6E1
  8
DETAIL
  6
CONTINUOUS
 62
     5
 10
0.8068197200054783
 20
34.326213892120002
 30
0.0
  0
SEQEND
  5
6E2
  8
DETAIL
  6
CONTINUOUS
 62
     5
  0
POLYLINE
  5
3B6
  8
DETAIL
  6
CONTINUOUS
 62
     5
 66
     1
 10
0.0
 20
0.0
 30
0.0
  0
VERTEX
  5
6E3
  8
DETAIL
  6
CONTINUOUS
 62
     5
 10
6.308259877141607
 20
34.326213892120002
 30
0.0
  0
VERTEX
  5
6E4
  8
DETAIL
  6
CONTINUOUS
 62
     5
 10
6.5052971678557157
 20
34.286163805511073
 30
0.0
  0
VERTEX
  5
6E5
  8
DETAIL
  6
CONTINUOUS
 62
     5
 10
6.655184744966717
 20
34.235655255620173
 30
0.0
  0
VERTEX
  5
6E6
  8
DETAIL
  6
CONTINUOUS
 62
     5
 10
6.7548984745133751
 20
34.165355954052892
 30
0.0
  0
VERTEX
  5
6E7
  8
DETAIL
  6
CONTINUOUS
 62
     5
 10
6.8014142225344631
 20
34.06593361241486
 30
0.0
  0
VERTEX
  5
6E8
  8
DETAIL
  6
CONTINUOUS
 62
     5
 10
6.7955749430369403
 20
33.966471310672489
 30
0.0
  0
VERTEX
  5
6E9
  8
DETAIL
  6
CONTINUOUS
 62
     5
 10
6.747985522455167
 20
33.886444640708042
 30
0.0
  0
VERTEX
  5
6EA
  8
DETAIL
  6
CONTINUOUS
 62
     5
 10
6.6588378859577713
 20
33.822688441481148
 30
0.0
  0
VERTEX
  5
6EB
  8
DETAIL
  6
CONTINUOUS
 62
     5
 10
6.527399626101281
 20
33.783613585570812
 30
0.0
  0
VERTEX
  5
6EC
  8
DETAIL
  6
CONTINUOUS
 62
     5
 10
6.3576164385023342
 20
33.77800867062156
 30
0.0
  0
VERTEX
  5
6ED
  8
DETAIL
  6
CONTINUOUS
 62
     5
 10
6.2099772734891951
 20
33.814119770245362
 30
0.0
  0
VERTEX
  5
6EE
  8
DETAIL
  6
CONTINUOUS
 62
     5
 10
6.1037309420658419
 20
33.886008579724411
 30
0.0
  0
VERTEX
  5
6EF
  8
DETAIL
  6
CONTINUOUS
 62
     5
 10
6.0395153474897123
 20
33.984957087874228
 30
0.0
  0
VERTEX
  5
6F0
  8
DETAIL
  6
CONTINUOUS
 62
     5
 10
6.0179683930182364
 20
34.102247283510231
 30
0.0
  0
SEQEND
  5
6F1
  8
DETAIL
  6
CONTINUOUS
 62
     5
  0
POLYLINE
  5
3C6
  8
DETAIL
  6
CONTINUOUS
 62
     5
 66
     1
 10
0.0
 20
0.0
 30
0.0
  0
VERTEX
  5
6F2
  8
DETAIL
  6
CONTINUOUS
 62
     5
 10
6.0179683930182364
 20
34.102247283510231
 30
0.0
  0
VERTEX
  5
6F3
  8
DETAIL
  6
CONTINUOUS
 62
     5
 10
5.9970249737853276
 20
34.102247283510223
 30
0.0
  0
VERTEX
  5
6F4
  8
DETAIL
  6
CONTINUOUS
 62
     5
 10
5.9430129978688884
 20
34.102247283510231
 30
0.0
  0
VERTEX
  5
6F5
  8
DETAIL
  6
CONTINUOUS
 62
     5
 10
5.8691598879423221
 20
34.102247283510231
 30
0.0
  0
VERTEX
  5
6F6
  8
DETAIL
  6
CONTINUOUS
 62
     5
 10
5.788693066679051
 20
34.102247283510231
 30
0.0
  0
VERTEX
  5
6F7
  8
DETAIL
  6
CONTINUOUS
 62
     5
 10
5.7148399567524883
 20
34.102247283510231
 30
0.0
  0
VERTEX
  5
6F8
  8
DETAIL
  6
CONTINUOUS
 62
     5
 10
5.6608279808360438
 20
34.102247283510231
 30
0.0
  0
VERTEX
  5
6F9
  8
DETAIL
  6
CONTINUOUS
 62
     5
 10
5.6398845616031377
 20
34.102247283510231
 30
0.0
  0
SEQEND
  5
6FA
  8
DETAIL
  6
CONTINUOUS
 62
     5
  0
POLYLINE
  5
3D0
  8
DETAIL
  6
CONTINUOUS
 62
     5
 66
     1
 10
0.0
 20
0.0
 30
0.0
  0
VERTEX
  5
6FB
  8
DETAIL
  6
CONTINUOUS
 62
     5
 10
5.6398845616031377
 20
34.102247283510231
 30
0.0
  0
VERTEX
  5
6FC
  8
DETAIL
  6
CONTINUOUS
 62
     5
 10
5.6767569449491617
 20
33.875013280163287
 30
0.0
  0
VERTEX
  5
6FD
  8
DETAIL
  6
CONTINUOUS
 62
     5
 10
5.7937846289563621
 20
33.677863109448211
 30
0.0
  0
VERTEX
  5
6FE
  8
DETAIL
  6
CONTINUOUS
 62
     5
 10
6.0005834145784291
 20
33.531564066299488
 30
0.0
  0
VERTEX
  5
6FF
  8
DETAIL
  6
CONTINUOUS
 62
     5
 10
6.306769102769052
 20
33.456883445651627
 30
0.0
  0
VERTEX
  5
700
  8
DETAIL
  6
CONTINUOUS
 62
     5
 10
6.662393314285727
 20
33.47119105860645
 30
0.0
  0
VERTEX
  5
701
  8
DETAIL
  6
CONTINUOUS
 62
     5
 10
6.9285801056355236
 20
33.566011571396317
 30
0.0
  0
VERTEX
  5
702
  8
DETAIL
  6
CONTINUOUS
 62
     5
 10
7.1051454269982868
 20
33.722677198756259
 30
0.0
  0
VERTEX
  5
703
  8
DETAIL
  6
CONTINUOUS
 62
     5
 10
7.1972870086193401
 20
33.922641494129572
 30
0.0
  0
VERTEX
  5
704
  8
DETAIL
  6
CONTINUOUS
 62
     5
 10
7.2108167121150064
 20
34.140028394610368
 30
0.0
  0
VERTEX
  5
705
  8
DETAIL
  6
CONTINUOUS
 62
     5
 10
7.1583629510562572
 20
34.323071190407077
 30
0.0
  0
VERTEX
  5
706
  8
DETAIL
  6
CONTINUOUS
 62
     5
 10
7.0458517796178572
 20
34.468792707973073
 30
0.0
  0
VERTEX
  5
707
  8
DETAIL
  6
CONTINUOUS
 62
     5
 10
6.8766144703661629
 20
34.576460539864406
 30
0.0
  0
VERTEX
  5
708
  8
DETAIL
  6
CONTINUOUS
 62
     5
 10
6.6539822958675341
 20
34.645342278637152
 30
0.0
  0
SEQEND
  5
709
  8
DETAIL
  6
CONTINUOUS
 62
     5
  0
POLYLINE
  5
3E0
  8
DETAIL
  6
CONTINUOUS
 62
     5
 66
     1
 10
0.0
 20
0.0
 30
0.0
  0
VERTEX
  5
70A
  8
DETAIL
  6
CONTINUOUS
 62
     5
 10
6.6539822958675341
 20
34.645342278637152
 30
0.0
  0
VERTEX
  5
70B
  8
DETAIL
  6
CONTINUOUS
 62
     5
 10
6.4328700636986307
 20
34.686565792226652
 30
0.0
  0
VERTEX
  5
70C
  8
DETAIL
  6
CONTINUOUS
 62
     5
 10
6.2562535525688947
 20
34.729829021169728
 30
0.0
  0
VERTEX
  5
70D
  8
DETAIL
  6
CONTINUOUS
 62
     5
 10
6.1335123029663468
 20
34.79426906318821
 30
0.0
  0
VERTEX
  5
70E
  8
DETAIL
  6
CONTINUOUS
 62
     5
 10
6.0740258553790012
 20
34.899023016003888
 30
0.0
  0
VERTEX
  5
70F
  8
DETAIL
  6
CONTINUOUS
 62
     5
 10
6.0794051561673372
 20
35.011369388475607
 30
0.0
  0
VERTEX
  5
710
  8
DETAIL
  6
CONTINUOUS
 62
     5
 10
6.1272846520983766
 20
35.091344868670831
 30
0.0
  0
VERTEX
  5
711
  8
DETAIL
  6
CONTINUOUS
 62
     5
 10
6.2113277499784481
 20
35.148214075321157
 30
0.0
  0
VERTEX
  5
712
  8
DETAIL
  6
CONTINUOUS
 62
     5
 10
6.3268801186335084
 20
35.179968794468309
 30
0.0
  0
VERTEX
  5
713
  8
DETAIL
  6
CONTINUOUS
 62
     5
 10
6.4692547587754641
 20
35.184231691636292
 30
0.0
  0
VERTEX
  5
714
  8
DETAIL
  6
CONTINUOUS
 62
     5
 10
6.5984971088590472
 20
35.155589047845332
 30
0.0
  0
VERTEX
  5
715
  8
DETAIL
  6
CONTINUOUS
 62
     5
 10
6.6940014644414809
 20
35.094909484906303
 30
0.0
  0
VERTEX
  5
716
  8
DETAIL
  6
CONTINUOUS
 62
     5
 10
6.7531925864467128
 20
35.004886372128126
 30
0.0
  0
VERTEX
  5
717
  8
DETAIL
  6
CONTINUOUS
 62
     5
 10
6.7734952357986913
 20
34.888213078819717
 30
0.0
  0
SEQEND
  5
718
  8
DETAIL
  6
CONTINUOUS
 62
     5
  0
POLYLINE
  5
3F0
  8
DETAIL
  6
CONTINUOUS
 62
     5
 66
     1
 10
0.0
 20
0.0
 30
0.0
  0
VERTEX
  5
719
  8
DETAIL
  6
CONTINUOUS
 62
     5
 10
6.7734952357986913
 20
34.888213078819717
 30
0.0
  0
VERTEX
  5
71A
  8
DETAIL
  6
CONTINUOUS
 62
     5
 10
6.7945983929750318
 20
34.888213078819717
 30
0.0
  0
VERTEX
  5
71B
  8
DETAIL
  6
CONTINUOUS
 62
     5
 10
6.849022324640333
 20
34.888213078819717
 30
0.0
  0
VERTEX
  5
71C
  8
DETAIL
  6
CONTINUOUS
 62
     5
 10
6.9234387209990116
 20
34.888213078819717
 30
0.0
  0
VERTEX
  5
71D
  8
DETAIL
  6
CONTINUOUS
 62
     5
 10
7.0045192722554814
 20
34.888213078819717
 30
0.0
  0
VERTEX
  5
71E
  8
DETAIL
  6
CONTINUOUS
 62
     5
 10
7.0789356686141591
 20
34.888213078819717
 30
0.0
  0
VERTEX
  5
71F
  8
DETAIL
  6
CONTINUOUS
 62
     5
 10
7.1333596002794604
 20
34.888213078819717
 30
0.0
  0
VERTEX
  5
720
  8
DETAIL
  6
CONTINUOUS
 62
     5
 10
7.1544627574558017
 20
34.888213078819717
 30
0.0
  0
SEQEND
  5
721
  8
DETAIL
  6
CONTINUOUS
 62
     5
  0
POLYLINE
  5
3FA
  8
DETAIL
  6
CONTINUOUS
 62
     5
 66
     1
 10
0.0
 20
0.0
 30
0.0
  0
VERTEX
  5
722
  8
DETAIL
  6
CONTINUOUS
 62
     5
 10
7.1544627574558017
 20
34.888213078819717
 30
0.0
  0
VERTEX
  5
723
  8
DETAIL
  6
CONTINUOUS
 62
     5
 10
7.1164838875953196
 20
35.099075544451601
 30
0.0
  0
VERTEX
  5
724
  8
DETAIL
  6
CONTINUOUS
 62
     5
 10
7.0001059198684521
 20
35.288509185845832
 30
0.0
  0
VERTEX
  5
725
  8
DETAIL
  6
CONTINUOUS
 62
     5
 10
6.80166681705707
 20
35.432628069920177
 30
0.0
  0
VERTEX
  5
726
  8
DETAIL
  6
CONTINUOUS
 62
     5
 10
6.5175045419430404
 20
35.507546263592452
 30
0.0
  0
VERTEX
  5
727
  8
DETAIL
  6
CONTINUOUS
 62
     5
 10
6.2386566689084884
 20
35.4984794036219
 30
0.0
  0
VERTEX
  5
728
  8
DETAIL
  6
CONTINUOUS
 62
     5
 10
6.0067670218286082
 20
35.423076875995129
 30
0.0
  0
VERTEX
  5
729
  8
DETAIL
  6
CONTINUOUS
 62
     5
 10
5.8177901506680749
 20
35.28507320030814
 30
0.0
  0
VERTEX
  5
72A
  8
DETAIL
  6
CONTINUOUS
 62
     5
 10
5.7000536852635291
 20
35.086405712379879
 30
0.0
  0
VERTEX
  5
72B
  8
DETAIL
  6
CONTINUOUS
 62
     5
 10
5.6793345174608882
 20
34.84879579107448
 30
0.0
  0
VERTEX
  5
72C
  8
DETAIL
  6
CONTINUOUS
 62
     5
 10
5.740573230169109
 20
34.657903897583267
 30
0.0
  0
VERTEX
  5
72D
  8
DETAIL
  6
CONTINUOUS
 62
     5
 10
5.8699337104861273
 20
34.506892770701931
 30
0.0
  0
VERTEX
  5
72E
  8
DETAIL
  6
CONTINUOUS
 62
     5
 10
6.0612259342107047
 20
34.396187679268223
 30
0.0
  0
VERTEX
  5
72F
  8
DETAIL
  6
CONTINUOUS
 62
     5
 10
6.308259877141607
 20
34.326213892120002
 30
0.0
  0
SEQEND
  5
730
  8
DETAIL
  6
CONTINUOUS
 62
     5
  0
POLYLINE
  5
40A
  8
DETAIL
  6
CONTINUOUS
 62
     5
 66
     1
 10
0.0
 20
0.0
 30
0.0
  0
VERTEX
  5
731
  8
DETAIL
  6
CONTINUOUS
 62
     5
 10
1.581571164381784
 20
31.527111899533342
 30
0.0
  0
VERTEX
  5
732
  8
DETAIL
  6
CONTINUOUS
 62
     5
 10
1.383580956455102
 20
31.573674899647148
 30
0.0
  0
VERTEX
  5
733
  8
DETAIL
  6
CONTINUOUS
 62
     5
 10
1.2315276584081489
 20
31.700999602284011
 30
0.0
  0
VERTEX
  5
734
  8
DETAIL
  6
CONTINUOUS
 62
     5
 10
1.1294749502510171
 20
31.890539560887049
 30
0.0
  0
VERTEX
  5
735
  8
DETAIL
  6
CONTINUOUS
 62
     5
 10
1.0814865119937991
 20
32.12374832889941
 30
0.0
  0
VERTEX
  5
736
  8
DETAIL
  6
CONTINUOUS
 62
     5
 10
1.090839655479197
 20
32.374712800107829
 30
0.0
  0
VERTEX
  5
737
  8
DETAIL
  6
CONTINUOUS
 62
     5
 10
1.155935976568776
 20
32.596552189488271
 30
0.0
  0
VERTEX
  5
738
  8
DETAIL
  6
CONTINUOUS
 62
     5
 10
1.2740570215092271
 20
32.768083850373721
 30
0.0
  0
VERTEX
  5
739
  8
DETAIL
  6
CONTINUOUS
 62
     5
 10
1.4425566730849111
 20
32.870855840393133
 30
0.0
  0
VERTEX
  5
73A
  8
DETAIL
  6
CONTINUOUS
 62
     5
 10
1.635010219086235
 20
32.889428392273309
 30
0.0
  0
VERTEX
  5
73B
  8
DETAIL
  6
CONTINUOUS
 62
     5
 10
1.7720741031424969
 20
32.852586197764431
 30
0.0
  0
VERTEX
  5
73C
  8
DETAIL
  6
CONTINUOUS
 62
     5
 10
1.8767388020031011
 20
32.779170883165953
 30
0.0
  0
VERTEX
  5
73D
  8
DETAIL
  6
CONTINUOUS
 62
     5
 10
1.9521938319551619
 20
32.677994963848292
 30
0.0
  0
VERTEX
  5
73E
  8
DETAIL
  6
CONTINUOUS
 62
     5
 10
2.0016287092857961
 20
32.557870955181897
 30
0.0
  0
SEQEND
  5
73F
  8
DETAIL
  6
CONTINUOUS
 62
     5
  0
POLYLINE
  5
41A
  8
DETAIL
  6
CONTINUOUS
 62
     5
 66
     1
 10
0.0
 20
0.0
 30
0.0
  0
VERTEX
  5
740
  8
DETAIL
  6
CONTINUOUS
 62
     5
 10
2.0016287092857961
 20
32.557870955181897
 30
0.0
  0
VERTEX
  5
741
  8
DETAIL
  6
CONTINUOUS
 62
     5
 10
2.024240502593377
 20
32.557870955181897
 30
0.0
  0
VERTEX
  5
742
  8
DETAIL
  6
CONTINUOUS
 62
     5
 10
2.0825551274392469
 20
32.557870955181897
 30
0.0
  0
VERTEX
  5
743
  8
DETAIL
  6
CONTINUOUS
 62
     5
 10
2.1622914512080889
 20
32.557870955181912
 30
0.0
  0
VERTEX
  5
744
  8
DETAIL
  6
CONTINUOUS
 62
     5
 10
2.2491683412845882
 20
32.557870955181897
 30
0.0
  0
VERTEX
  5
745
  8
DETAIL
  6
CONTINUOUS
 62
     5
 10
2.3289046650534289
 20
32.55787095518189
 30
0.0
  0
VERTEX
  5
746
  8
DETAIL
  6
CONTINUOUS
 62
     5
 10
2.3872192898992992
 20
32.557870955181897
 30
0.0
  0
VERTEX
  5
747
  8
DETAIL
  6
CONTINUOUS
 62
     5
 10
2.4098310832068801
 20
32.557870955181897
 30
0.0
  0
SEQEND
  5
748
  8
DETAIL
  6
CONTINUOUS
 62
     5
  0
POLYLINE
  5
424
  8
DETAIL
  6
CONTINUOUS
 62
     5
 66
     1
 10
0.0
 20
0.0
 30
0.0
  0
VERTEX
  5
749
  8
DETAIL
  6
CONTINUOUS
 62
     5
 10
2.4098310832068801
 20
32.557870955181897
 30
0.0
  0
VERTEX
  5
74A
  8
DETAIL
  6
CONTINUOUS
 62
     5
 10
2.3177682710249581
 20
32.823420777560052
 30
0.0
  0
VERTEX
  5
74B
  8
DETAIL
  6
CONTINUOUS
 62
     5
 10
2.1433700948141441
 20
33.034000254745017
 30
0.0
  0
VERTEX
  5
74C
  8
DETAIL
  6
CONTINUOUS
 62
     5
 10
1.8922537428534549
 20
33.172727783459429
 30
0.0
  0
VERTEX
  5
74D
  8
DETAIL
  6
CONTINUOUS
 62
     5
 10
1.570036403421909
 20
33.222721760425877
 30
0.0
  0
VERTEX
  5
74E
  8
DETAIL
  6
CONTINUOUS
 62
     5
 10
1.1783852099417511
 20
33.14266431143016
 30
0.0
  0
VERTEX
  5
74F
  8
DETAIL
  6
CONTINUOUS
 62
     5
 10
0.8978161675661338
 20
32.924219769373181
 30
0.0
  0
VERTEX
  5
750
  8
DETAIL
  6
CONTINUOUS
 62
     5
 10
0.7289901219752722
 20
32.599979841650111
 30
0.0
  0
VERTEX
  5
751
  8
DETAIL
  6
CONTINUOUS
 62
     5
 10
0.6725679188493814
 20
32.20253623565624
 30
0.0
  0
VERTEX
  5
752
  8
DETAIL
  6
CONTINUOUS
 62
     5
 10
0.7306572553948741
 20
31.805968750828789
 30
0.0
  0
VERTEX
  5
753
  8
DETAIL
  6
CONTINUOUS
 62
     5
 10
0.9022618566850724
 20
31.482094290791789
 30
0.0
  0
VERTEX
  5
754
  8
DETAIL
  6
CONTINUOUS
 62
     5
 10
1.183386610200557
 20
31.263714832020838
 30
0.0
  0
VERTEX
  5
755
  8
DETAIL
  6
CONTINUOUS
 62
     5
 10
1.570036403421909
 20
31.183632350991498
 30
0.0
  0
VERTEX
  5
756
  8
DETAIL
  6
CONTINUOUS
 62
     5
 10
1.891848223913398
 20
31.232329668631511
 30
0.0
  0
VERTEX
  5
757
  8
DETAIL
  6
CONTINUOUS
 62
     5
 10
2.146133631293424
 20
31.37087196029939
 30
0.0
  0
VERTEX
  5
758
  8
DETAIL
  6
CONTINUOUS
 62
     5
 10
2.3230400172435282
 20
31.58793473411691
 30
0.0
  0
VERTEX
  5
759
  8
DETAIL
  6
CONTINUOUS
 62
     5
 10
2.4127147734452592
 20
31.872193498205888
 30
0.0
  0
SEQEND
  5
75A
  8
DETAIL
  6
CONTINUOUS
 62
     5
  0
POLYLINE
  5
437
  8
DETAIL
  6
CONTINUOUS
 62
     5
 66
     1
 10
0.0
 20
0.0
 30
0.0
  0
VERTEX
  5
75B
  8
DETAIL
  6
CONTINUOUS
 62
     5
 10
2.4127147734452592
 20
31.872193498205888
 30
0.0
  0
VERTEX
  5
75C
  8
DETAIL
  6
CONTINUOUS
 62
     5
 10
2.3899432421944429
 20
31.872193498205888
 30
0.0
  0
VERTEX
  5
75D
  8
DETAIL
  6
CONTINUOUS
 62
     5
 10
2.3312166616002341
 20
31.872193498205888
 30
0.0
  0
VERTEX
  5
75E
  8
DETAIL
  6
CONTINUOUS
 62
     5
 10
2.250917051399989
 20
31.872193498205888
 30
0.0
  0
VERTEX
  5
75F
  8
DETAIL
  6
CONTINUOUS
 62
     5
 10
2.1634264313310649
 20
31.872193498205888
 30
0.0
  0
VERTEX
  5
760
  8
DETAIL
  6
CONTINUOUS
 62
     5
 10
2.0831268211308198
 20
31.872193498205888
 30
0.0
  0
VERTEX
  5
761
  8
DETAIL
  6
CONTINUOUS
 62
     5
 10
2.0244002405366111
 20
31.872193498205888
 30
0.0
  0
VERTEX
  5
762
  8
DETAIL
  6
CONTINUOUS
 62
     5
 10
2.0016287092857961
 20
31.872193498205888
 30
0.0
  0
SEQEND
  5
763
  8
DETAIL
  6
CONTINUOUS
 62
     5
  0
POLYLINE
  5
441
  8
DETAIL
  6
CONTINUOUS
 62
     5
 66
     1
 10
0.0
 20
0.0
 30
0.0
  0
VERTEX
  5
764
  8
DETAIL
  6
CONTINUOUS
 62
     5
 10
2.0016287092857961
 20
31.872193498205888
 30
0.0
  0
VERTEX
  5
765
  8
DETAIL
  6
CONTINUOUS
 62
     5
 10
1.973753036969204
 20
31.79123438515213
 30
0.0
  0
VERTEX
  5
766
  8
DETAIL
  6
CONTINUOUS
 62
     5
 10
1.9361473622116001
 20
31.71788664497593
 30
0.0
  0
VERTEX
  5
767
  8
DETAIL
  6
CONTINUOUS
 62
     5
 10
1.888223176800798
 20
31.65391580231374
 30
0.0
  0
VERTEX
  5
768
  8
DETAIL
  6
CONTINUOUS
 62
     5
 10
1.8293919725246031
 20
31.60108738180195
 30
0.0
  0
VERTEX
  5
769
  8
DETAIL
  6
CONTINUOUS
 62
     5
 10
1.7590652411708301
 20
31.56116690807702
 30
0.0
  0
VERTEX
  5
76A
  8
DETAIL
  6
CONTINUOUS
 62
     5
 10
1.6766544745272851
 20
31.53591990577533
 30
0.0
  0
VERTEX
  5
76B
  8
DETAIL
  6
CONTINUOUS
 62
     5
 10
1.581571164381784
 20
31.527111899533342
 30
0.0
  0
SEQEND
  5
76C
  8
DETAIL
  6
CONTINUOUS
 62
     5
  0
POLYLINE
  5
44B
  8
DETAIL
  6
CONTINUOUS
 62
     5
 66
     1
 10
0.0
 20
0.0
 30
0.0
  0
VERTEX
  5
76D
  8
DETAIL
  6
CONTINUOUS
 62
     5
 10
6.8683366036802891
 20
31.527111899533342
 30
0.0
  0
VERTEX
  5
76E
  8
DETAIL
  6
CONTINUOUS
 62
     5
 10
6.6710000497080806
 20
31.573674899647148
 30
0.0
  0
VERTEX
  5
76F
  8
DETAIL
  6
CONTINUOUS
 62
     5
 10
6.5195295274766414
 20
31.700999602284011
 30
0.0
  0
VERTEX
  5
770
  8
DETAIL
  6
CONTINUOUS
 62
     5
 10
6.4179178388559341
 20
31.890539560887049
 30
0.0
  0
VERTEX
  5
771
  8
DETAIL
  6
CONTINUOUS
 62
     5
 10
6.3701577857159286
 20
32.12374832889941
 30
0.0
  0
VERTEX
  5
772
  8
DETAIL
  6
CONTINUOUS
 62
     5
 10
6.3794628020694466
 20
32.374712800107829
 30
0.0
  0
VERTEX
  5
773
  8
DETAIL
  6
CONTINUOUS
 62
     5
 10
6.4442519845535591
 20
32.596552189488271
 30
0.0
  0
VERTEX
  5
774
  8
DETAIL
  6
CONTINUOUS
 62
     5
 10
6.5618768825159526
 20
32.768083850373721
 30
0.0
  0
VERTEX
  5
775
  8
DETAIL
  6
CONTINUOUS
 62
     5
 10
6.7297622568807061
 20
32.870855840393133
 30
0.0
  0
VERTEX
  5
776
  8
DETAIL
  6
CONTINUOUS
 62
     5
 10
6.9221450705819212
 20
32.889428392273309
 30
0.0
  0
VERTEX
  5
777
  8
DETAIL
  6
CONTINUOUS
 62
     5
 10
7.0596854132438223
 20
32.852586197764431
 30
0.0
  0
VERTEX
  5
778
  8
DETAIL
  6
CONTINUOUS
 62
     5
 10
7.1645588088490229
 20
32.779170883165953
 30
0.0
  0
VERTEX
  5
779
  8
DETAIL
  6
CONTINUOUS
 62
     5
 10
7.2408289374075503
 20
32.677994963848292
 30
0.0
  0
VERTEX
  5
77A
  8
DETAIL
  6
CONTINUOUS
 62
     5
 10
7.2925594789294328
 20
32.557870955181897
 30
0.0
  0
SEQEND
  5
77B
  8
DETAIL
  6
CONTINUOUS
 62
     5
  0
POLYLINE
  5
45B
  8
DETAIL
  6
CONTINUOUS
 62
     5
 66
     1
 10
0.0
 20
0.0
 30
0.0
  0
VERTEX
  5
77C
  8
DETAIL
  6
CONTINUOUS
 62
     5
 10
7.2925594789294328
 20
32.557870955181897
 30
0.0
  0
VERTEX
  5
77D
  8
DETAIL
  6
CONTINUOUS
 62
     5
 10
7.3151890208972832
 20
32.557870955181897
 30
0.0
  0
VERTEX
  5
77E
  8
DETAIL
  6
CONTINUOUS
 62
     5
 10
7.3735494186038499
 20
32.557870955181897
 30
0.0
  0
VERTEX
  5
77F
  8
DETAIL
  6
CONTINUOUS
 62
     5
 10
7.4533483297536414
 20
32.557870955181912
 30
0.0
  0
VERTEX
  5
780
  8
DETAIL
  6
CONTINUOUS
 62
     5
 10
7.5402934120511791
 20
32.557870955181897
 30
0.0
  0
VERTEX
  5
781
  8
DETAIL
  6
CONTINUOUS
 62
     5
 10
7.6200923232009687
 20
32.55787095518189
 30
0.0
  0
VERTEX
  5
782
  8
DETAIL
  6
CONTINUOUS
 62
     5
 10
7.6784527209075364
 20
32.557870955181897
 30
0.0
  0
VERTEX
  5
783
  8
DETAIL
  6
CONTINUOUS
 62
     5
 10
7.7010822628753859
 20
32.557870955181897
 30
0.0
  0
SEQEND
  5
784
  8
DETAIL
  6
CONTINUOUS
 62
     5
  0
POLYLINE
  5
465
  8
DETAIL
  6
CONTINUOUS
 62
     5
 66
     1
 10
0.0
 20
0.0
 30
0.0
  0
VERTEX
  5
785
  8
DETAIL
  6
CONTINUOUS
 62
     5
 10
7.7010822628753859
 20
32.557870955181897
 30
0.0
  0
VERTEX
  5
786
  8
DETAIL
  6
CONTINUOUS
 62
     5
 10
7.6086539830074704
 20
32.823420777560052
 30
0.0
  0
VERTEX
  5
787
  8
DETAIL
  6
CONTINUOUS
 62
     5
 10
7.4338603006707444
 20
33.034000254745017
 30
0.0
  0
VERTEX
  5
788
  8
DETAIL
  6
CONTINUOUS
 62
     5
 10
7.1819279044242839
 20
33.172727783459429
 30
0.0
  0
VERTEX
  5
789
  8
DETAIL
  6
CONTINUOUS
 62
     5
 10
6.8580834828271691
 20
33.222721760425877
 30
0.0
  0
VERTEX
  5
78A
  8
DETAIL
  6
CONTINUOUS
 62
     5
 10
6.4662470522994226
 20
33.14266431143016
 30
0.0
  0
VERTEX
  5
78B
  8
DETAIL
  6
CONTINUOUS
 62
     5
 10
6.1855828881969037
 20
32.924219769373181
 30
0.0
  0
VERTEX
  5
78C
  8
DETAIL
  6
CONTINUOUS
 62
     5
 10
6.0167217977594873
 20
32.599979841650111
 30
0.0
  0
VERTEX
  5
78D
  8
DETAIL
  6
CONTINUOUS
 62
     5
 10
5.9602945882270433
 20
32.20253623565624
 30
0.0
  0
VERTEX
  5
78E
  8
DETAIL
  6
CONTINUOUS
 62
     5
 10
6.0184339888392202
 20
31.805968750828789
 30
0.0
  0
VERTEX
  5
78F
  8
DETAIL
  6
CONTINUOUS
 62
     5
 10
6.1901487310761922
 20
31.482094290791789
 30
0.0
  0
VERTEX
  5
790
  8
DETAIL
  6
CONTINUOUS
 62
     5
 10
6.4713836255386212
 20
31.263714832020838
 30
0.0
  0
VERTEX
  5
791
  8
DETAIL
  6
CONTINUOUS
 62
     5
 10
6.8580834828271691
 20
31.183632350991498
 30
0.0
  0
VERTEX
  5
792
  8
DETAIL
  6
CONTINUOUS
 62
     5
 10
7.181567443144913
 20
31.232329668631511
 30
0.0
  0
VERTEX
  5
793
  8
DETAIL
  6
CONTINUOUS
 62
     5
 10
7.4365036833913791
 20
31.37087196029939
 30
0.0
  0
VERTEX
  5
794
  8
DETAIL
  6
CONTINUOUS
 62
     5
 10
7.6137004409280697
 20
31.58793473411691
 30
0.0
  0
VERTEX
  5
795
  8
DETAIL
  6
CONTINUOUS
 62
     5
 10
7.7039659531164943
 20
31.872193498205888
 30
0.0
  0
SEQEND
  5
796
  8
DETAIL
  6
CONTINUOUS
 62
     5
  0
POLYLINE
  5
478
  8
DETAIL
  6
CONTINUOUS
 62
     5
 66
     1
 10
0.0
 20
0.0
 30
0.0
  0
VERTEX
  5
797
  8
DETAIL
  6
CONTINUOUS
 62
     5
 10
7.7039659531164943
 20
31.872193498205888
 30
0.0
  0
VERTEX
  5
798
  8
DETAIL
  6
CONTINUOUS
 62
     5
 10
7.6811766732052567
 20
31.872193498205888
 30
0.0
  0
VERTEX
  5
799
  8
DETAIL
  6
CONTINUOUS
 62
     5
 10
7.622404319749962
 20
31.872193498205888
 30
0.0
  0
VERTEX
  5
79A
  8
DETAIL
  6
CONTINUOUS
 62
     5
 10
7.5420421221682332
 20
31.872193498205888
 30
0.0
  0
VERTEX
  5
79B
  8
DETAIL
  6
CONTINUOUS
 62
     5
 10
7.4544833098776939
 20
31.872193498205888
 30
0.0
  0
VERTEX
  5
79C
  8
DETAIL
  6
CONTINUOUS
 62
     5
 10
7.3741211122959633
 20
31.872193498205888
 30
0.0
  0
VERTEX
  5
79D
  8
DETAIL
  6
CONTINUOUS
 62
     5
 10
7.3153487588406678
 20
31.872193498205888
 30
0.0
  0
VERTEX
  5
79E
  8
DETAIL
  6
CONTINUOUS
 62
     5
 10
7.2925594789294328
 20
31.872193498205888
 30
0.0
  0
SEQEND
  5
79F
  8
DETAIL
  6
CONTINUOUS
 62
     5
  0
POLYLINE
  5
482
  8
DETAIL
  6
CONTINUOUS
 62
     5
 66
     1
 10
0.0
 20
0.0
 30
0.0
  0
VERTEX
  5
7A0
  8
DETAIL
  6
CONTINUOUS
 62
     5
 10
7.2925594789294328
 20
31.872193498205888
 30
0.0
  0
VERTEX
  5
7A1
  8
DETAIL
  6
CONTINUOUS
 62
     5
 10
7.2629733962377632
 20
31.79123438515213
 30
0.0
  0
VERTEX
  5
7A2
  8
DETAIL
  6
CONTINUOUS
 62
     5
 10
7.224262633837462
 20
31.71788664497593
 30
0.0
  0
VERTEX
  5
7A3
  8
DETAIL
  6
CONTINUOUS
 62
     5
 10
7.1756985625134977
 20
31.65391580231374
 30
0.0
  0
VERTEX
  5
7A4
  8
DETAIL
  6
CONTINUOUS
 62
     5
 10
7.1165525530508331
 20
31.60108738180195
 30
0.0
  0
VERTEX
  5
7A5
  8
DETAIL
  6
CONTINUOUS
 62
     5
 10
7.0460959762344331
 20
31.56116690807702
 30
0.0
  0
VERTEX
  5
7A6
  8
DETAIL
  6
CONTINUOUS
 62
     5
 10
6.9636002028492632
 20
31.53591990577533
 30
0.0
  0
VERTEX
  5
7A7
  8
DETAIL
  6
CONTINUOUS
 62
     5
 10
6.8683366036802891
 20
31.527111899533342
 30
0.0
  0
SEQEND
  5
7A8
  8
DETAIL
  6
CONTINUOUS
 62
     5
  0
ARC
  5
49C
  8
DETAIL
  6
CONTINUOUS
 62
     5
 10
-21.199999999999829
 20
-4.5232620725137176
 30
0.0
 40
0.5
 50
90.0
 51
180.0
  0
ARC
  5
49F
  8
DETAIL
  6
CONTINUOUS
 62
     5
 10
-21.199999999999829
 20
-23.02326207251372
 30
0.0
 40
0.5
 50
180.0
 51
270.0
  0
ARC
  5
4A0
  8
DETAIL
  6
CONTINUOUS
 62
     5
 10
-3.1999999999998172
 20
-4.5232620725137149
 30
0.0
 40
0.5
 50
0.0
 51
90.0
  0
ARC
  5
4A1
  8
DETAIL
  6
CONTINUOUS
 62
     5
 10
-3.1999999999998181
 20
-23.02326207251372
 30
0.0
 40
0.5
 50
270.0
 51
0.0
  0
ENDSEC
  0
EOF
