  0
SECTION
  2
HEADER
  9
$ACADVER
  1
AC1009
  9
$INSBASE
 10
0.0
 20
0.0
 30
0.0
  9
$EXTMIN
 10
-338.999492766321
 20
-276.48406696921671
 30
-0.0015258207003583
  9
$EXTMAX
 10
408.41249315664749
 20
375.2638224465627
 30
0.0000000349246037
  9
$LIMMIN
 10
-4267.1522210604817
 20
-2696.0832101984129
  9
$LIMMAX
 10
7190.7174225864646
 20
5141.155363923066
  9
$ORTHOMODE
 70
     0
  9
$REGENMODE
 70
     1
  9
$FILLMODE
 70
     1
  9
$QTEXTMODE
 70
     0
  9
$MIRRTEXT
 70
     0
  9
$DRAGMODE
 70
     2
  9
$LTSCALE
 40
20.0
  9
$OSMODE
 70
   431
  9
$ATTMODE
 70
     1
  9
$TEXTSIZE
 40
64.0
  9
$TRACEWID
 40
0.05
  9
$TEXTSTYLE
  7
STANDARD_MODELNAME
  9
$CLAYER
  8
SYMBOLLINE
  9
$CELTYPE
  6
CONTINUOUS
  9
$CECOLOR
 62
     7
  9
$DIMSCALE
 40
1.0
  9
$DIMASZ
 40
30.0
  9
$DIMEXO
 40
20.0
  9
$DIMDLI
 40
80.0
  9
$DIMRND
 40
0.0
  9
$DIMDLE
 40
0.0
  9
$DIMEXE
 40
20.0
  9
$DIMTP
 40
0.0
  9
$DIMTM
 40
0.0
  9
$DIMTXT
 40
60.0
  9
$DIMCEN
 40
0.09
  9
$DIMTSZ
 40
0.0
  9
$DIMTOL
 70
     0
  9
$DIMLIM
 70
     0
  9
$DIMTIH
 70
     0
  9
$DIMTOH
 70
     0
  9
$DIMSE1
 70
     0
  9
$DIMSE2
 70
     0
  9
$DIMTAD
 70
     1
  9
$DIMZIN
 70
     8
  9
$DIMBLK
  1
SMALL
  9
$DIMASO
 70
     1
  9
$DIMSHO
 70
     0
  9
$DIMPOST
  1

  9
$DIMAPOST
  1

  9
$DIMALT
 70
     0
  9
$DIMALTD
 70
     2
  9
$DIMALTF
 40
25.399999999999999
  9
$DIMLFAC
 40
1.0
  9
$DIMTOFL
 70
     1
  9
$DIMTVP
 40
0.0
  9
$DIMTIX
 70
     0
  9
$DIMSOXD
 70
     0
  9
$DIMSAH
 70
     0
  9
$DIMBLK1
  1

  9
$DIMBLK2
  1

  9
$DIMSTYLE
  2
STANDARD
  9
$DIMCLRD
 70
     0
  9
$DIMCLRE
 70
     0
  9
$DIMCLRT
 70
     0
  9
$DIMTFAC
 40
1.0
  9
$DIMGAP
 40
0.09
  9
$LUNITS
 70
     2
  9
$LUPREC
 70
     4
  9
$SKETCHINC
 40
0.1
  9
$FILLETRAD
 40
0.0
  9
$AUNITS
 70
     1
  9
$AUPREC
 70
     3
  9
$MENU
  1
ACAD
  9
$ELEVATION
 40
0.0
  9
$PELEVATION
 40
0.0
  9
$THICKNESS
 40
0.0
  9
$LIMCHECK
 70
     0
  9
$BLIPMODE
 70
     0
  9
$CHAMFERA
 40
0.0
  9
$CHAMFERB
 40
0.0
  9
$SKPOLY
 70
     0
  9
$TDCREATE
 40
2450330.4399309959
  9
$TDUPDATE
 40
2456791.4546377198
  9
$TDINDWG
 40
4.0648796644000003
  9
$TDUSRTIMER
 40
4.0648791318999997
  9
$USRTIMER
 70
     1
  9
$ANGBASE
 50
0.0
  9
$ANGDIR
 70
     0
  9
$PDMODE
 70
     3
  9
$PDSIZE
 40
-2.0
  9
$PLINEWID
 40
0.0
  9
$COORDS
 70
     1
  9
$SPLFRAME
 70
     0
  9
$SPLINETYPE
 70
     6
  9
$SPLINESEGS
 70
     8
  9
$ATTDIA
 70
     0
  9
$ATTREQ
 70
     1
  9
$HANDLING
 70
     1
  9
$HANDSEED
  5
112
  9
$SURFTAB1
 70
     6
  9
$SURFTAB2
 70
     6
  9
$SURFTYPE
 70
     6
  9
$SURFU
 70
     6
  9
$SURFV
 70
     6
  9
$UCSNAME
  2

  9
$UCSORG
 10
0.0
 20
0.0
 30
0.0
  9
$UCSXDIR
 10
1.0
 20
0.0
 30
0.0
  9
$UCSYDIR
 10
0.0
 20
1.0
 30
0.0
  9
$PUCSNAME
  2

  9
$PUCSORG
 10
0.0
 20
0.0
 30
0.0
  9
$PUCSXDIR
 10
1.0
 20
0.0
 30
0.0
  9
$PUCSYDIR
 10
0.0
 20
1.0
 30
0.0
  9
$USERI1
 70
     0
  9
$USERI2
 70
     0
  9
$USERI3
 70
     0
  9
$USERI4
 70
     0
  9
$USERI5
 70
     0
  9
$USERR1
 40
20.0
  9
$USERR2
 40
0.0
  9
$USERR3
 40
0.0
  9
$USERR4
 40
0.0
  9
$USERR5
 40
0.0
  9
$WORLDVIEW
 70
     1
  9
$SHADEDGE
 70
     3
  9
$SHADEDIF
 70
    70
  9
$TILEMODE
 70
     1
  9
$MAXACTVP
 70
    64
  9
$PLIMCHECK
 70
     0
  9
$PEXTMIN
 10
1.0000000000000000E+020
 20
1.0000000000000000E+020
 30
1.0000000000000000E+020
  9
$PEXTMAX
 10
-1.0000000000000000E+020
 20
-1.0000000000000000E+020
 30
-1.0000000000000000E+020
  9
$PLIMMIN
 10
0.0
 20
0.0
  9
$PLIMMAX
 10
12.0
 20
9.0
  9
$UNITMODE
 70
     0
  9
$VISRETAIN
 70
     1
  9
$PLINEGEN
 70
     0
  9
$PSLTSCALE
 70
     1
  0
ENDSEC
  0
SECTION
  2
TABLES
  0
TABLE
  2
VPORT
 70
     1
  0
VPORT
  2
*ACTIVE
 70
     0
 10
0.0
 20
0.0
 11
1.0
 21
1.0
 12
-1779.6039747342029
 22
-3141.4514586515661
 13
0.0
 23
0.0
 14
50.0
 24
50.0
 15
100.0
 25
100.0
 16
-10.147175584733301
 26
-23.68337525775587
 36
853.52693352516758
 17
1814.456648411372
 27
3192.6849485089092
 37
-1.7180471651868561
 40
656.7061515889518
 41
1.5540025412960601
 42
50.0
 43
0.0
 44
0.0
 50
0.0
 51
336.79777160775751
 71
     0
 72
  1000
 73
     1
 74
     0
 75
     0
 76
     0
 77
     0
 78
     0
  0
ENDTAB
  0
TABLE
  2
LTYPE
 70
     2
  0
LTYPE
  2
CONTINUOUS
 70
     0
  3
実線
 72
    65
 73
     0
 40
0.0
  0
LTYPE
  2
DASHDOT
 70
     0
  3
____ _ ____ _ ____ _ ____ _ ____ _ ____ _ ____
 72
    65
 73
     4
 40
5.5
 49
4.0
 49
-0.6
 49
0.3
 49
-0.6
  0
ENDTAB
  0
TABLE
  2
LAYER
 70
    12
  0
LAYER
  2
0
 70
     0
 62
     7
  6
CONTINUOUS
  0
LAYER
  2
DETAIL
 70
     0
 62
     5
  6
CONTINUOUS
  0
LAYER
  2
OUTLINE
 70
     0
 62
     3
  6
CONTINUOUS
  0
LAYER
  2
BASIS
 70
     0
 62
     6
  6
DASHDOT
  0
LAYER
  2
SIZE
 70
     0
 62
    30
  6
CONTINUOUS
  0
LAYER
  2
NOTE
 70
     0
 62
     4
  6
CONTINUOUS
  0
LAYER
  2
ARRANGE
 70
     0
 62
     1
  6
CONTINUOUS
  0
LAYER
  2
FIX
 70
     0
 62
    11
  6
CONTINUOUS
  0
LAYER
  2
SERVICESPACE
 70
     0
 62
     2
  6
DASHDOT
  0
LAYER
  2
ETC
 70
     0
 62
    61
  6
CONTINUOUS
  0
LAYER
  2
SYMBOLLINE
 70
     0
 62
    15
  6
CONTINUOUS
  0
LAYER
  2
DEFPOINTS
 70
     0
 62
     7
  6
CONTINUOUS
  0
ENDTAB
  0
TABLE
  2
STYLE
 70
     3
  0
STYLE
  2
STANDARD
 70
     0
 40
0.0
 41
0.9
 50
0.0
 71
     0
 42
64.0
  3
SIMPLEX
  4
BIGFONT
  0
STYLE
  2
ANNOTATIVE
 70
     0
 40
0.0
 41
1.0
 50
0.0
 71
     0
 42
0.2
  3
txt
  4

  0
STYLE
  2
STANDARD_MODELNAME
 70
     0
 40
80.0
 41
0.8
 50
0.0
 71
     0
 42
64.0
  3
MONOTXT.shx
  4
BIGFONT.shx
  0
ENDTAB
  0
TABLE
  2
VIEW
 70
     1
  0
VIEW
  2
ALL
 70
     0
 40
9000.0
 10
241.50664699999999
 20
0.0
 41
12483.01
 11
0.0
 21
0.0
 31
1.0
 12
0.0
 22
0.0
 32
0.0
 42
50.0
 43
0.0
 44
0.0
 50
0.0
 71
     0
  0
ENDTAB
  0
TABLE
  2
UCS
 70
     0
  0
ENDTAB
  0
TABLE
  2
APPID
 70
     3
  0
APPID
  2
ACAD
 70
     0
  0
APPID
  2
ACADANNOTATIVE
 70
     0
  0
APPID
  2
ACAD_MLEADERVER
 70
     0
  0
ENDTAB
  0
TABLE
  2
DIMSTYLE
 70
     2
  0
DIMSTYLE
  2
STANDARD
 70
     0
  3

  4

  5

  6

  7

 40
1.0
 41
0.18
 42
0.0625
 43
0.38
 44
0.18
 45
0.0
 46
0.0
 47
0.0
 48
0.0
140
0.18
141
0.09
142
0.0
143
25.399999999999999
144
1.0
145
0.0
146
1.0
147
0.09
 71
     0
 72
     0
 73
     1
 74
     1
 75
     0
 76
     0
 77
     0
 78
     0
170
     0
171
     2
172
     0
173
     0
174
     0
175
     0
176
     0
177
     0
178
     0
  0
DIMSTYLE
  2
ANNOTATIVE
 70
     0
  3

  4

  5

  6

  7

 40
1.0
 41
0.18
 42
0.0625
 43
0.38
 44
0.18
 45
0.0
 46
0.0
 47
0.0
 48
0.0
140
0.18
141
0.09
142
0.0
143
25.399999999999999
144
1.0
145
0.0
146
1.0
147
0.09
 71
     0
 72
     0
 73
     1
 74
     1
 75
     0
 76
     0
 77
     0
 78
     0
170
     0
171
     2
172
     0
173
     0
174
     0
175
     0
176
     0
177
     0
178
     0
  0
ENDTAB
  0
ENDSEC
  0
SECTION
  2
BLOCKS
  0
BLOCK
  8
0
  2
$MODEL_SPACE
 70
     0
 10
0.0
 20
0.0
 30
0.0
  3
$MODEL_SPACE
  1

  0
ENDBLK
  5
76
  8
0
  0
BLOCK
 67
     1
  8
0
  2
$PAPER_SPACE
 70
     0
 10
0.0
 20
0.0
 30
0.0
  3
$PAPER_SPACE
  1

  0
ENDBLK
  5
72
 67
     1
  8
0
  0
BLOCK
  8
0
  2
_SMALL
 70
     0
 10
0.0
 20
0.0
 30
0.0
  3
_SMALL
  1

  0
CIRCLE
  5
8C
  8
0
  6
CONTINUOUS
 62
     7
 10
0.0
 20
0.0
 30
0.0
 40
0.25
  0
ENDBLK
  5
8D
  8
0
  0
ENDSEC
  0
SECTION
  2
ENTITIES
  0
TEXT
  5
8E
  8
ETC
  6
CONTINUOUS
 62
    61
 10
-338.50051539026839
 20
295.01403510027558
 30
0.0
 40
80.0
  1
PAC-YT52CR_4
 50
0.0000029998804485
 41
0.8
  7
STANDARD_MODELNAME
  0
LINE
  5
8F
  8
DETAIL
  6
CONTINUOUS
 62
     5
 10
0.0
 20
59.963494447019912
 30
0.0
 11
-14.5
 21
59.963494447019912
 31
0.0
  0
LINE
  5
90
  8
DETAIL
  6
CONTINUOUS
 62
     5
 10
-14.5
 20
-60.036505552980081
 30
0.0
 11
0.0
 21
-60.036505552980081
 31
0.0
  0
LINE
  5
91
  8
DETAIL
  6
CONTINUOUS
 62
     5
 10
-14.5
 20
-60.036505552980081
 30
0.0
 11
-14.5
 21
59.963494447019912
 31
0.0
  0
LINE
  5
92
  8
DETAIL
  6
CONTINUOUS
 62
     5
 10
0.0
 20
59.963494447019912
 30
0.0
 11
0.0
 21
-60.036505552980081
 31
0.0
  0
LINE
  5
93
  8
NOTE
  6
CONTINUOUS
 62
     4
 10
-17.764705999999919
 20
41.726737427486093
 30
0.0
 11
17.764705999999919
 21
41.726737427486093
 31
0.0
  0
CIRCLE
  5
94
  8
FIX
  6
CONTINUOUS
 62
    11
 10
0.0
 20
41.726737927486283
 30
0.0
 40
12.42149793872491
  0
LINE
  5
95
  8
NOTE
  6
CONTINUOUS
 62
     4
 10
-17.764705999999919
 20
-41.773262572513879
 30
0.0
 11
17.764705999999919
 21
-41.773262572513879
 31
0.0
  0
CIRCLE
  5
96
  8
FIX
  6
CONTINUOUS
 62
    11
 10
0.0
 20
-41.77326207251371
 30
0.0
 40
12.42149793872491
  0
LINE
  5
97
  8
BASIS
  6
DASHDOT
 62
     6
 10
-37.671409498681911
 20
-0.0000000000009095
 30
0.0
 11
22.4254367989688
 21
-0.0000000000009095
 31
0.0
  0
CIRCLE
  5
98
  8
ARRANGE
  6
CONTINUOUS
 62
     1
 10
0.0
 20
0.0
 30
0.0
 40
15.0
  0
LINE
  5
99
  8
ARRANGE
  6
CONTINUOUS
 62
     1
 10
15.011205009398511
 20
-14.856705945097019
 30
0.0
 11
-15.011205009398511
 21
14.856705945097019
 31
0.0
  0
LINE
  5
9A
  8
ARRANGE
  6
CONTINUOUS
 62
     1
 10
14.989128993150191
 20
14.87897843939572
 30
0.0
 11
-14.989128993150191
 21
-14.87897843939481
 31
0.0
  0
LINE
  5
9B
  8
OUTLINE
  6
CONTINUOUS
 62
     3
 10
-14.5
 20
-60.036505552980081
 30
0.0
 11
-14.5
 21
59.963494447019912
 31
0.0
  0
LINE
  5
9C
  8
OUTLINE
  6
CONTINUOUS
 62
     3
 10
0.0
 20
59.963494447019912
 30
0.0
 11
-14.5
 21
59.963494447019912
 31
0.0
  0
LINE
  5
9D
  8
OUTLINE
  6
CONTINUOUS
 62
     3
 10
0.0
 20
59.963494447019912
 30
0.0
 11
0.0
 21
-60.036505552980081
 31
0.0
  0
LINE
  5
9E
  8
OUTLINE
  6
CONTINUOUS
 62
     3
 10
-14.5
 20
-60.036505552980081
 30
0.0
 11
0.0
 21
-60.036505552980081
 31
0.0
  0
LINE
  5
9F
  8
SIZE
  6
CONTINUOUS
 62
    30
 10
-14.5
 20
79.963494447019912
 30
0.0
 11
-14.499999999999989
 21
186.8210336653309
 31
0.0
  0
LINE
  5
A0
  8
SIZE
  6
CONTINUOUS
 62
    30
 10
0.0000000000000012
 20
79.963494447019912
 30
0.0
 11
0.0000000000000078
 21
186.8210336653309
 31
0.0
  0
LINE
  5
A1
  8
SIZE
  6
CONTINUOUS
 62
    30
 10
-14.499999999999989
 20
166.82103366533099
 30
0.0
 11
-44.499999999999993
 21
166.82103366533099
 31
0.0
  0
LINE
  5
A2
  8
SIZE
  6
CONTINUOUS
 62
    30
 10
0.0000000000000065
 20
166.82103366533099
 30
0.0
 11
254.28571428571431
 21
166.82103366533099
 31
0.0
  0
LINE
  5
A3
  8
SIZE
  6
CONTINUOUS
 62
    30
 10
-14.499999999999989
 20
166.82103366533099
 30
0.0
 11
0.0000000000000065
 21
166.82103366533099
 31
0.0
  0
CIRCLE
  5
A4
  8
SIZE
  6
CONTINUOUS
 62
    30
 10
-14.499999999999989
 20
166.82103366533099
 30
0.0
 40
7.5
  0
CIRCLE
  5
A5
  8
SIZE
  6
CONTINUOUS
 62
    30
 10
0.0000000000000065
 20
166.82103366533099
 30
0.0
 40
7.5
  0
TEXT
  5
A6
  8
SIZE
  6
CONTINUOUS
 62
    30
 10
80.0
 20
186.8210336653309
 30
0.0
 40
60.0
  1
14.5
 41
0.9
 72
     1
 11
157.14285714285711
 21
186.8210336653309
 31
0.0
  0
POINT
  5
A7
  8
DEFPOINTS
  6
CONTINUOUS
 62
     7
 10
-14.5
 20
59.963494447019912
 30
0.0
  0
POINT
  5
A8
  8
DEFPOINTS
  6
CONTINUOUS
 62
     7
 10
0.0
 20
59.963494447019912
 30
0.0
  0
POINT
  5
A9
  8
DEFPOINTS
  6
CONTINUOUS
 62
     7
 10
0.0000000000000065
 20
166.82103366533099
 30
0.0
  0
LINE
  5
AA
  8
SIZE
  6
CONTINUOUS
 62
    30
 10
-34.5
 20
59.963494447019919
 30
0.0
 11
-157.43412833917591
 21
59.96349444701994
 31
0.0
  0
LINE
  5
AB
  8
SIZE
  6
CONTINUOUS
 62
    30
 10
-34.5
 20
-60.036505552980081
 30
0.0
 11
-157.43412833917591
 21
-60.036505552980053
 31
0.0
  0
LINE
  5
AC
  8
SIZE
  6
CONTINUOUS
 62
    30
 10
-137.43412833917591
 20
59.96349444701994
 30
0.0
 11
-137.43412833917591
 21
-60.036505552980053
 31
0.0
  0
LINE
  5
AD
  8
SIZE
  6
CONTINUOUS
 62
    30
 10
-137.43412833917591
 20
-60.036505552980053
 30
0.0
 11
-137.43412833917591
 21
-258.60793412440859
 31
0.0
  0
CIRCLE
  5
AE
  8
SIZE
  6
CONTINUOUS
 62
    30
 10
-137.43412833917591
 20
59.96349444701994
 30
0.0
 40
7.5
  0
CIRCLE
  5
AF
  8
SIZE
  6
CONTINUOUS
 62
    30
 10
-137.43412833917591
 20
-60.036505552980053
 30
0.0
 40
7.5
  0
TEXT
  5
B0
  8
SIZE
  6
CONTINUOUS
 62
    30
 10
-157.43412833917591
 20
-238.60793412440859
 30
0.0
 40
60.0
  1
120
 50
90.0
 41
0.9
 72
     1
 11
-157.43412833917591
 21
-174.32221983869431
 31
0.0
  0
POINT
  5
B1
  8
DEFPOINTS
  6
CONTINUOUS
 62
     7
 10
-14.5
 20
59.963494447019912
 30
0.0
  0
POINT
  5
B2
  8
DEFPOINTS
  6
CONTINUOUS
 62
     7
 10
-14.5
 20
-60.036505552980081
 30
0.0
  0
POINT
  5
B3
  8
DEFPOINTS
  6
CONTINUOUS
 62
     7
 10
-137.43412833917591
 20
-60.036505552980053
 30
0.0
  0
LINE
  5
B4
  8
SIZE
  6
CONTINUOUS
 62
    30
 10
37.764705999999933
 20
41.726737427486093
 30
0.0
 11
183.2665648736747
 21
41.726737427486071
 31
0.0
  0
LINE
  5
B5
  8
SIZE
  6
CONTINUOUS
 62
    30
 10
37.76470599999994
 20
-41.773262572513879
 30
0.0
 11
183.2665648736747
 21
-41.773262572513929
 31
0.0
  0
LINE
  5
B6
  8
SIZE
  6
CONTINUOUS
 62
    30
 10
163.2665648736747
 20
41.726737427486079
 30
0.0
 11
163.2665648736747
 21
-41.773262572513921
 31
0.0
  0
LINE
  5
B7
  8
SIZE
  6
CONTINUOUS
 62
    30
 10
163.2665648736747
 20
-41.773262572513921
 30
0.0
 11
163.2665648736747
 21
-276.3446911439425
 31
0.0
  0
CIRCLE
  5
B8
  8
SIZE
  6
CONTINUOUS
 62
    30
 10
163.2665648736747
 20
41.726737427486079
 30
0.0
 40
7.5
  0
CIRCLE
  5
B9
  8
SIZE
  6
CONTINUOUS
 62
    30
 10
163.2665648736747
 20
-41.773262572513921
 30
0.0
 40
7.5
  0
TEXT
  5
BA
  8
SIZE
  6
CONTINUOUS
 62
    30
 10
143.26656487367461
 20
-256.3446911439425
 30
0.0
 40
60.0
  1
83.5
 50
90.0
 41
0.9
 72
     1
 11
143.26656487367461
 21
-174.05897685822819
 31
0.0
  0
POINT
  5
BB
  8
DEFPOINTS
  6
CONTINUOUS
 62
     7
 10
17.764705999999919
 20
41.726737427486093
 30
0.0
  0
POINT
  5
BC
  8
DEFPOINTS
  6
CONTINUOUS
 62
     7
 10
17.764705999999919
 20
-41.773262572513879
 30
0.0
  0
POINT
  5
BD
  8
DEFPOINTS
  6
CONTINUOUS
 62
     7
 10
163.2665648736747
 20
-41.773262572513921
 30
0.0
  0
LINE
  5
D8
  8
NOTE
  6
CONTINUOUS
 62
     4
 10
0.0
 20
23.962031427486171
 30
0.0
 11
0.0
 21
59.491443427486033
 31
0.0
  0
LINE
  5
DE
  8
NOTE
  6
CONTINUOUS
 62
     4
 10
0.0
 20
-59.537968072513642
 30
0.0
 11
0.0
 21
-24.00855607251378
 31
0.0
  0
ENDSEC
  0
EOF
