  0
SECTION
  2
HEADER
  9
$ACADVER
  1
AC1009
  9
$INSBASE
 10
0.0
 20
0.0
 30
0.0
  9
$EXTMIN
 10
-986.75655879311296
 20
-532.99768942192895
 30
-0.0015258207003583
  9
$EXTMAX
 10
1286.949404569503
 20
2676.1132844466588
 30
0.0000000349246037
  9
$LIMMIN
 10
-4267.1522210604817
 20
-2696.083210198412
  9
$LIMMAX
 10
7190.7174225864646
 20
5141.155363923066
  9
$ORTHOMODE
 70
     0
  9
$REGENMODE
 70
     1
  9
$FILLMODE
 70
     1
  9
$QTEXTMODE
 70
     0
  9
$MIRRTEXT
 70
     0
  9
$DRAGMODE
 70
     2
  9
$LTSCALE
 40
20.0
  9
$OSMODE
 70
   431
  9
$ATTMODE
 70
     1
  9
$TEXTSIZE
 40
361.62496667750372
  9
$TRACEWID
 40
0.05
  9
$TEXTSTYLE
  7
NOTE
  9
$CLAYER
  8
SYMBOLLINE
  9
$CELTYPE
  6
CONTINUOUS
  9
$CECOLOR
 62
     7
  9
$DIMSCALE
 40
1.0
  9
$DIMASZ
 40
30.0
  9
$DIMEXO
 40
20.0
  9
$DIMDLI
 40
80.0
  9
$DIMRND
 40
0.0
  9
$DIMDLE
 40
0.0
  9
$DIMEXE
 40
20.0
  9
$DIMTP
 40
0.0
  9
$DIMTM
 40
0.0
  9
$DIMTXT
 40
60.0
  9
$DIMCEN
 40
0.09
  9
$DIMTSZ
 40
0.0
  9
$DIMTOL
 70
     0
  9
$DIMLIM
 70
     0
  9
$DIMTIH
 70
     0
  9
$DIMTOH
 70
     0
  9
$DIMSE1
 70
     0
  9
$DIMSE2
 70
     0
  9
$DIMTAD
 70
     1
  9
$DIMZIN
 70
     8
  9
$DIMBLK
  1
SMALL
  9
$DIMASO
 70
     1
  9
$DIMSHO
 70
     0
  9
$DIMPOST
  1

  9
$DIMAPOST
  1

  9
$DIMALT
 70
     0
  9
$DIMALTD
 70
     2
  9
$DIMALTF
 40
25.399999999999999
  9
$DIMLFAC
 40
1.0
  9
$DIMTOFL
 70
     1
  9
$DIMTVP
 40
0.0
  9
$DIMTIX
 70
     0
  9
$DIMSOXD
 70
     0
  9
$DIMSAH
 70
     0
  9
$DIMBLK1
  1

  9
$DIMBLK2
  1

  9
$DIMSTYLE
  2
STANDARD
  9
$DIMCLRD
 70
     0
  9
$DIMCLRE
 70
     0
  9
$DIMCLRT
 70
     0
  9
$DIMTFAC
 40
1.0
  9
$DIMGAP
 40
0.09
  9
$LUNITS
 70
     2
  9
$LUPREC
 70
     4
  9
$SKETCHINC
 40
0.1
  9
$FILLETRAD
 40
30.0
  9
$AUNITS
 70
     1
  9
$AUPREC
 70
     3
  9
$MENU
  1
ACAD
  9
$ELEVATION
 40
0.0
  9
$PELEVATION
 40
0.0
  9
$THICKNESS
 40
0.0
  9
$LIMCHECK
 70
     0
  9
$BLIPMODE
 70
     0
  9
$CHAMFERA
 40
0.0
  9
$CHAMFERB
 40
0.0
  9
$SKPOLY
 70
     0
  9
$TDCREATE
 40
2450330.4399309959
  9
$TDUPDATE
 40
2455184.44889485
  9
$TDINDWG
 40
4.6025070832999999
  9
$TDUSRTIMER
 40
4.6025063542
  9
$USRTIMER
 70
     1
  9
$ANGBASE
 50
0.0
  9
$ANGDIR
 70
     0
  9
$PDMODE
 70
     3
  9
$PDSIZE
 40
-2.0
  9
$PLINEWID
 40
0.0
  9
$COORDS
 70
     0
  9
$SPLFRAME
 70
     0
  9
$SPLINETYPE
 70
     6
  9
$SPLINESEGS
 70
     8
  9
$ATTDIA
 70
     0
  9
$ATTREQ
 70
     1
  9
$HANDLING
 70
     1
  9
$HANDSEED
  5
2A6
  9
$SURFTAB1
 70
     6
  9
$SURFTAB2
 70
     6
  9
$SURFTYPE
 70
     6
  9
$SURFU
 70
     6
  9
$SURFV
 70
     6
  9
$UCSNAME
  2

  9
$UCSORG
 10
0.0
 20
0.0
 30
0.0
  9
$UCSXDIR
 10
1.0
 20
0.0
 30
0.0
  9
$UCSYDIR
 10
0.0
 20
1.0
 30
0.0
  9
$PUCSNAME
  2

  9
$PUCSORG
 10
0.0
 20
0.0
 30
0.0
  9
$PUCSXDIR
 10
1.0
 20
0.0
 30
0.0
  9
$PUCSYDIR
 10
0.0
 20
1.0
 30
0.0
  9
$USERI1
 70
     0
  9
$USERI2
 70
     0
  9
$USERI3
 70
     0
  9
$USERI4
 70
     0
  9
$USERI5
 70
     0
  9
$USERR1
 40
20.0
  9
$USERR2
 40
0.0
  9
$USERR3
 40
0.0
  9
$USERR4
 40
0.0
  9
$USERR5
 40
0.0
  9
$WORLDVIEW
 70
     1
  9
$SHADEDGE
 70
     3
  9
$SHADEDIF
 70
    70
  9
$TILEMODE
 70
     1
  9
$MAXACTVP
 70
    64
  9
$PLIMCHECK
 70
     0
  9
$PEXTMIN
 10
1.0000000000000000E+020
 20
1.0000000000000000E+020
 30
1.0000000000000000E+020
  9
$PEXTMAX
 10
-1.0000000000000000E+020
 20
-1.0000000000000000E+020
 30
-1.0000000000000000E+020
  9
$PLIMMIN
 10
0.0
 20
0.0
  9
$PLIMMAX
 10
12.0
 20
9.0
  9
$UNITMODE
 70
     0
  9
$VISRETAIN
 70
     1
  9
$PLINEGEN
 70
     0
  9
$PSLTSCALE
 70
     1
  0
ENDSEC
  0
SECTION
  2
TABLES
  0
TABLE
  2
VPORT
 70
     1
  0
VPORT
  2
*ACTIVE
 70
     0
 10
0.0
 20
0.0
 11
1.0
 21
1.0
 12
1461.7826007629919
 22
1222.536076862327
 13
0.0
 23
0.0
 14
50.0
 24
50.0
 15
100.0
 25
100.0
 16
0.0
 26
0.0
 36
1.0
 17
0.0
 27
0.0
 37
0.0
 40
7896.6866543297328
 41
1.548101265822784
 42
50.0
 43
0.0
 44
0.0
 50
0.0
 51
0.0
 71
     0
 72
  1000
 73
     1
 74
     0
 75
     0
 76
     0
 77
     0
 78
     0
  0
ENDTAB
  0
TABLE
  2
LTYPE
 70
     3
  0
LTYPE
  2
CONTINUOUS
 70
     0
  3
実線
 72
    65
 73
     0
 40
0.0
  0
LTYPE
  2
DASHDOT
 70
     0
  3
____ _ ____ _ ____ _ ____ _ ____ _ ____ _ ____
 72
    65
 73
     4
 40
5.5
 49
4.0
 49
-0.6
 49
0.3
 49
-0.6
  0
ENDTAB
  0
TABLE
  2
LAYER
 70
    12
  0
LAYER
  2
0
 70
     0
 62
    -7
  6
CONTINUOUS
  0
LAYER
  2
NOTE
 70
     0
 62
     4
  6
CONTINUOUS
  0
LAYER
  2
OUTLINE
 70
     0
 62
     3
  6
CONTINUOUS
  0
LAYER
  2
DETAIL
 70
     0
 62
     5
  6
CONTINUOUS
  0
LAYER
  2
BASIS
 70
     0
 62
     6
  6
DASHDOT
  0
LAYER
  2
SIZE
 70
     0
 62
    30
  6
CONTINUOUS
  0
LAYER
  2
ARRANGE
 70
     0
 62
     1
  6
CONTINUOUS
  0
LAYER
  2
FIX
 70
     0
 62
    11
  6
CONTINUOUS
  0
LAYER
  2
SERVICESPACE
 70
     0
 62
     2
  6
DASHDOT
  0
LAYER
  2
ETC
 70
     0
 62
    61
  6
CONTINUOUS
  0
LAYER
  2
SYMBOLLINE
 70
     0
 62
    15
  6
CONTINUOUS
  0
LAYER
  2
DEFPOINTS
 70
     0
 62
     7
  6
CONTINUOUS
  0
ENDTAB
  0
TABLE
  2
STYLE
 70
     4
  0
STYLE
  2
STANDARD
 70
     0
 40
0.0
 41
0.9
 50
0.0
 71
     0
 42
64.0
  3
SIMPLEX
  4
BIGFONT
  0
STYLE
  2
ANNOTATIVE
 70
     0
 40
0.0
 41
1.0
 50
0.0
 71
     0
 42
0.2
  3
txt
  4

  0
STYLE
  2
NOTE
 70
     0
 40
0.0
 41
0.7
 50
0.0
 71
     0
 42
361.62496667750372
  3
SIMPLEX.shx
  4
BIGFONT.shx
  0
STYLE
  2
STANDARD1
 70
     0
 40
0.0
 41
1.0
 50
0.0
 71
     0
 42
64.0
  3
MONOTXT
  4
BIGFONT
  0
ENDTAB
  0
TABLE
  2
VIEW
 70
     6
  0
VIEW
  2
ALL
 70
     0
 40
9000.0
 10
241.50664699999999
 20
0.0
 41
12483.01
 11
0.0
 21
0.0
 31
1.0
 12
0.0
 22
0.0
 32
0.0
 42
50.0
 43
0.0
 44
0.0
 50
0.0
 71
     0
  0
ENDTAB
  0
TABLE
  2
UCS
 70
     0
  0
ENDTAB
  0
TABLE
  2
APPID
 70
     3
  0
APPID
  2
ACAD
 70
     0
  0
APPID
  2
ACADANNOTATIVE
 70
     0
  0
APPID
  2
ACAD_MLEADERVER
 70
     0
  0
ENDTAB
  0
TABLE
  2
DIMSTYLE
 70
     3
  0
DIMSTYLE
  2
STANDARD
 70
     0
  3

  4

  5

  6

  7

 40
1.0
 41
0.18
 42
0.0625
 43
0.38
 44
0.18
 45
0.0
 46
0.0
 47
0.0
 48
0.0
140
0.18
141
0.09
142
0.0
143
25.399999999999999
144
1.0
145
0.0
146
1.0
147
0.09
 71
     0
 72
     0
 73
     1
 74
     1
 75
     0
 76
     0
 77
     0
 78
     0
170
     0
171
     2
172
     0
173
     0
174
     0
175
     0
176
     0
177
     0
178
     0
  0
DIMSTYLE
  2
ANNOTATIVE
 70
     0
  3

  4

  5

  6

  7

 40
1.0
 41
0.18
 42
0.0625
 43
0.38
 44
0.18
 45
0.0
 46
0.0
 47
0.0
 48
0.0
140
0.18
141
0.09
142
0.0
143
25.399999999999999
144
1.0
145
0.0
146
1.0
147
0.09
 71
     0
 72
     0
 73
     1
 74
     1
 75
     0
 76
     0
 77
     0
 78
     0
170
     0
171
     2
172
     0
173
     0
174
     0
175
     0
176
     0
177
     0
178
     0
  0
ENDTAB
  0
ENDSEC
  0
SECTION
  2
BLOCKS
  0
BLOCK
  8
0
  2
$MODEL_SPACE
 70
     0
 10
0.0
 20
0.0
 30
0.0
  3
$MODEL_SPACE
  1

  0
ENDBLK
  5
76
  8
0
  0
BLOCK
 67
     1
  8
0
  2
$PAPER_SPACE
 70
     0
 10
0.0
 20
0.0
 30
0.0
  3
$PAPER_SPACE
  1

  0
ENDBLK
  5
72
 67
     1
  8
0
  0
BLOCK
  8
0
  2
_SMALL
 70
     0
 10
0.0
 20
0.0
 30
0.0
  3
_SMALL
  1

  0
CIRCLE
  5
8D
  8
0
  6
CONTINUOUS
 62
     7
 10
0.0
 20
0.0
 30
0.0
 40
0.25
  0
ENDBLK
  5
8E
  8
0
  0
ENDSEC
  0
SECTION
  2
ENTITIES
  0
LINE
  5
8F
  8
DETAIL
  6
CONTINUOUS
 62
     5
 10
-299.99997212731603
 20
107.6999696637847
 30
0.0
 11
-299.99997212731603
 21
1887.999924198986
 31
0.0
  0
LINE
  5
90
  8
DETAIL
  6
CONTINUOUS
 62
     5
 10
300.0000278726838
 20
107.6999696637847
 30
0.0
 11
300.0000278726838
 21
1887.999924198986
 31
0.0
  0
LINE
  5
91
  8
SIZE
  6
CONTINUOUS
 62
    30
 10
-23.072144023670258
 20
159.99996832816359
 30
0.0
 11
-697.18320872637014
 21
159.99996832816379
 31
0.0
  0
LINE
  5
92
  8
SIZE
  6
CONTINUOUS
 62
    30
 10
-300.0
 20
-0.0000275857857815
 30
0.0
 11
-697.18320872637014
 21
-0.000027585785669
 31
0.0
  0
LINE
  5
93
  8
SIZE
  6
CONTINUOUS
 62
    30
 10
-677.18320872637014
 20
159.99996832816379
 30
0.0
 11
-677.18320872637014
 21
-0.0000275857856747
 31
0.0
  0
CIRCLE
  5
94
  8
SIZE
  6
CONTINUOUS
 62
    30
 10
-677.18320872637014
 20
159.99996832816379
 30
0.0
 40
7.5
  0
CIRCLE
  5
95
  8
SIZE
  6
CONTINUOUS
 62
    30
 10
-677.18320872637014
 20
-0.0000275857856747
 30
0.0
 40
7.5
  0
TEXT
  5
96
  8
SIZE
  6
CONTINUOUS
 62
    30
 10
-697.18320872637014
 20
15.7142560854747
 30
0.0
 40
60.0
  1
160
 50
90.0
 41
0.9
 72
     1
 11
-697.18320872637014
 21
79.999970371188979
 31
0.0
  0
POINT
  5
97
  8
DEFPOINTS
  6
CONTINUOUS
 62
     7
 10
-3.0721440236702602
 20
159.99996832816359
 30
0.0
  0
POINT
  5
98
  8
DEFPOINTS
  6
CONTINUOUS
 62
     7
 10
-280.0
 20
-0.0000275857857872
 30
0.0
  0
POINT
  5
99
  8
DEFPOINTS
  6
CONTINUOUS
 62
     7
 10
-677.18320872637014
 20
-0.0000275857856747
 30
0.0
  0
LINE
  5
9A
  8
SIZE
  6
CONTINUOUS
 62
    30
 10
-145.99996073749381
 20
512.99995982409337
 30
0.0
 11
-145.99996073749381
 21
615.81134982855087
 31
0.0
  0
LINE
  5
9B
  8
SIZE
  6
CONTINUOUS
 62
    30
 10
300.0000278726838
 20
127.6999696637847
 30
0.0
 11
300.00002787268397
 21
615.81134982855087
 31
0.0
  0
LINE
  5
9C
  8
SIZE
  6
CONTINUOUS
 62
    30
 10
-145.99996073749381
 20
595.81134982855065
 30
0.0
 11
300.00002787268397
 21
595.81134982855065
 31
0.0
  0
CIRCLE
  5
9D
  8
SIZE
  6
CONTINUOUS
 62
    30
 10
-145.99996073749381
 20
595.81134982855065
 30
0.0
 40
7.5
  0
CIRCLE
  5
9E
  8
SIZE
  6
CONTINUOUS
 62
    30
 10
300.00002787268397
 20
595.81134982855065
 30
0.0
 40
7.5
  0
TEXT
  5
9F
  8
SIZE
  6
CONTINUOUS
 62
    30
 10
8.8571764247378422
 20
615.81134982855076
 30
0.0
 40
60.0
  1
446
 41
0.9
 72
     1
 11
77.000033567594983
 21
615.81134982855076
 31
0.0
  0
POINT
  5
A0
  8
DEFPOINTS
  6
CONTINUOUS
 62
     7
 10
-145.99996073749381
 20
492.99995982409359
 30
0.0
  0
POINT
  5
A1
  8
DEFPOINTS
  6
CONTINUOUS
 62
     7
 10
300.0000278726838
 20
107.6999696637847
 30
0.0
  0
POINT
  5
A2
  8
DEFPOINTS
  6
CONTINUOUS
 62
     7
 10
300.00002787268397
 20
595.81134982855065
 30
0.0
  0
LINE
  5
A3
  8
SIZE
  6
CONTINUOUS
 62
    30
 10
30.0000347678615
 20
106.92778953663191
 30
0.0
 11
30.000034767861489
 21
-157.56941643560481
 31
0.0
  0
LINE
  5
A4
  8
SIZE
  6
CONTINUOUS
 62
    30
 10
90.000033235608527
 20
106.92778953663191
 30
0.0
 11
90.000033235608484
 21
-157.56941643560481
 31
0.0
  0
LINE
  5
A5
  8
SIZE
  6
CONTINUOUS
 62
    30
 10
90.000033235608484
 20
-137.56941643560481
 30
0.0
 11
30.000034767861489
 21
-137.56941643560481
 31
0.0
  0
LINE
  5
A6
  8
SIZE
  6
CONTINUOUS
 62
    30
 10
30.000034767861489
 20
-137.56941643560481
 30
0.0
 11
-127.4285774162403
 21
-137.56941643560481
 31
0.0
  0
CIRCLE
  5
A7
  8
SIZE
  6
CONTINUOUS
 62
    30
 10
90.000033235608484
 20
-137.56941643560481
 30
0.0
 40
7.5
  0
CIRCLE
  5
A8
  8
SIZE
  6
CONTINUOUS
 62
    30
 10
30.000034767861489
 20
-137.56941643560481
 30
0.0
 40
7.5
  0
TEXT
  5
A9
  8
SIZE
  6
CONTINUOUS
 62
    30
 10
-107.4285774162403
 20
-117.56941643560479
 30
0.0
 40
60.0
  1
60
 41
0.9
 72
     1
 11
-63.7142917019546
 21
-117.56941643560479
 31
0.0
  0
POINT
  5
AA
  8
DEFPOINTS
  6
CONTINUOUS
 62
     7
 10
30.0000347678615
 20
126.92778953663191
 30
0.0
  0
POINT
  5
AB
  8
DEFPOINTS
  6
CONTINUOUS
 62
     7
 10
90.000033235608527
 20
126.92778953663191
 30
0.0
  0
POINT
  5
AC
  8
DEFPOINTS
  6
CONTINUOUS
 62
     7
 10
90.000033235608484
 20
-137.56941643560481
 30
0.0
  0
LINE
  5
AD
  8
DETAIL
  6
CONTINUOUS
 62
     5
 10
280.0
 20
73.799970529520337
 30
0.0
 11
-280.0
 21
73.799970529520337
 31
0.0
  0
LINE
  5
AE
  8
DETAIL
  6
CONTINUOUS
 62
     5
 10
280.0
 20
-0.0000275857857872
 30
0.0
 11
-280.0
 21
-0.0000275857857872
 31
0.0
  0
LINE
  5
AF
  8
DETAIL
  6
CONTINUOUS
 62
     5
 10
-179.9842870055198
 20
73.799970529520337
 30
0.0
 11
-179.9842870055198
 21
-0.0000275857857872
 31
0.0
  0
LINE
  5
B0
  8
DETAIL
  6
CONTINUOUS
 62
     5
 10
-280.0
 20
-0.0000275857857872
 30
0.0
 11
-280.0
 21
107.6999696637847
 31
0.0
  0
LINE
  5
B1
  8
SIZE
  6
CONTINUOUS
 62
    30
 10
-300.0
 20
-0.0000275857857815
 30
0.0
 11
-811.94424910241844
 21
-0.0000275857856365
 31
0.0
  0
LINE
  5
B2
  8
SIZE
  6
CONTINUOUS
 62
    30
 10
-189.9999601245799
 20
468.99996043702032
 30
0.0
 11
-811.94424910241821
 21
468.99996043702032
 31
0.0
  0
LINE
  5
B3
  8
SIZE
  6
CONTINUOUS
 62
    30
 10
-791.94424910241821
 20
-0.0000275857856422
 30
0.0
 11
-791.94424910241821
 21
468.99996043702032
 31
0.0
  0
CIRCLE
  5
B4
  8
SIZE
  6
CONTINUOUS
 62
    30
 10
-791.94424910241821
 20
-0.0000275857856422
 30
0.0
 40
7.5
  0
CIRCLE
  5
B5
  8
SIZE
  6
CONTINUOUS
 62
    30
 10
-791.94424910241821
 20
468.99996043702032
 30
0.0
 40
7.5
  0
TEXT
  5
B6
  8
SIZE
  6
CONTINUOUS
 62
    30
 10
-811.94424910241821
 20
166.35707665875401
 30
0.0
 40
60.0
  1
469
 50
90.0
 41
0.9
 72
     1
 11
-811.94424910241821
 21
234.49993380161121
 31
0.0
  0
POINT
  5
B7
  8
DEFPOINTS
  6
CONTINUOUS
 62
     7
 10
-280.0
 20
-0.0000275857857872
 30
0.0
  0
POINT
  5
B8
  8
DEFPOINTS
  6
CONTINUOUS
 62
     7
 10
-169.9999601245799
 20
468.99996043702032
 30
0.0
  0
POINT
  5
B9
  8
DEFPOINTS
  6
CONTINUOUS
 62
     7
 10
-791.94424910241821
 20
468.99996043702032
 30
0.0
  0
LINE
  5
BA
  8
DETAIL
  6
CONTINUOUS
 62
     5
 10
-164.79996791868231
 20
-0.0000275857857872
 30
0.0
 11
-164.79996791868231
 21
73.799970529520337
 31
0.0
  0
LINE
  5
BB
  8
DETAIL
  6
CONTINUOUS
 62
     5
 10
-134.79996868480879
 20
-0.0000275857857872
 30
0.0
 11
-134.79996868480879
 21
73.799970529520337
 31
0.0
  0
LINE
  5
BC
  8
DETAIL
  6
CONTINUOUS
 62
     5
 10
-219.98428598400091
 20
73.799970529520337
 30
0.0
 11
-219.98428598400091
 21
33.199971566343962
 31
0.0
  0
LINE
  5
BD
  8
DETAIL
  6
CONTINUOUS
 62
     5
 10
-179.9842870055198
 20
33.199971566343962
 30
0.0
 11
-219.98428598400091
 21
33.199971566343962
 31
0.0
  0
CIRCLE
  5
BE
  8
DETAIL
  6
CONTINUOUS
 62
     5
 10
-145.99996073749381
 20
468.99996043702032
 30
0.0
 40
18.999999514783401
  0
CIRCLE
  5
BF
  8
DETAIL
  6
CONTINUOUS
 62
     5
 10
-145.99996073749381
 20
468.99996043702032
 30
0.0
 40
14.99999961693427
  0
CIRCLE
  5
C0
  8
DETAIL
  6
CONTINUOUS
 62
     5
 10
-145.99996073749381
 20
468.99996043702032
 30
0.0
 40
22.499999425401011
  0
LINE
  5
C1
  8
DETAIL
  6
CONTINUOUS
 62
     5
 10
180.00002327591571
 20
73.799970529520337
 30
0.0
 11
180.00002327591571
 21
-0.0000275857857872
 31
0.0
  0
LINE
  5
C2
  8
DETAIL
  6
CONTINUOUS
 62
     5
 10
280.0
 20
-0.0000275857857872
 30
0.0
 11
280.0
 21
107.6999696637847
 31
0.0
  0
CIRCLE
  5
C3
  8
DETAIL
  6
CONTINUOUS
 62
     5
 10
1.000035508459403
 20
31.99997159700413
 30
0.0
 40
18.99999951478318
  0
LINE
  5
C4
  8
NOTE
  6
CONTINUOUS
 62
     4
 10
1.000035508459403
 20
55.999970984077457
 30
0.0
 11
1.000035508459403
 21
7.9999722099053212
 31
0.0
  0
LINE
  5
C5
  8
SIZE
  6
CONTINUOUS
 62
    30
 10
213.00003009446391
 20
233.07214660893601
 30
0.0
 11
213.00003009446391
 21
343.1944418270993
 31
0.0
  0
LINE
  5
C6
  8
SIZE
  6
CONTINUOUS
 62
    30
 10
300.0000278726838
 20
127.6999696637847
 30
0.0
 11
300.0000278726838
 21
343.1944418270993
 31
0.0
  0
LINE
  5
C7
  8
SIZE
  6
CONTINUOUS
 62
    30
 10
213.00003009446391
 20
323.1944418270993
 30
0.0
 11
300.0000278726838
 21
323.1944418270993
 31
0.0
  0
LINE
  5
C8
  8
SIZE
  6
CONTINUOUS
 62
    30
 10
300.0000278726838
 20
323.1944418270993
 30
0.0
 11
457.4285993012553
 21
323.1944418270993
 31
0.0
  0
CIRCLE
  5
C9
  8
SIZE
  6
CONTINUOUS
 62
    30
 10
213.00003009446391
 20
323.1944418270993
 30
0.0
 40
7.5
  0
CIRCLE
  5
CA
  8
SIZE
  6
CONTINUOUS
 62
    30
 10
300.0000278726838
 20
323.1944418270993
 30
0.0
 40
7.5
  0
TEXT
  5
CB
  8
SIZE
  6
CONTINUOUS
 62
    30
 10
350.0000278726838
 20
343.1944418270993
 30
0.0
 40
60.0
  1
87
 41
0.9
 72
     1
 11
393.71431358696958
 21
343.1944418270993
 31
0.0
  0
POINT
  5
CC
  8
DEFPOINTS
  6
CONTINUOUS
 62
     7
 10
213.00003009446391
 20
213.07214660893601
 30
0.0
  0
POINT
  5
CD
  8
DEFPOINTS
  6
CONTINUOUS
 62
     7
 10
300.0000278726838
 20
107.6999696637847
 30
0.0
  0
POINT
  5
CE
  8
DEFPOINTS
  6
CONTINUOUS
 62
     7
 10
300.0000278726838
 20
323.1944418270993
 30
0.0
  0
LINE
  5
CF
  8
SIZE
  6
CONTINUOUS
 62
    30
 10
300.0000278726838
 20
87.699969663784728
 30
0.0
 11
300.0000278726838
 21
-363.6559659653451
 31
0.0
  0
LINE
  5
D0
  8
SIZE
  6
CONTINUOUS
 62
    30
 10
0.9999947529358894
 20
-12.00005866561899
 30
0.0
 11
0.9999947529358678
 21
-363.6559659653451
 31
0.0
  0
LINE
  5
D1
  8
SIZE
  6
CONTINUOUS
 62
    30
 10
300.0000278726838
 20
-343.65596596534499
 30
0.0
 11
0.9999947529358689
 21
-343.65596596534499
 31
0.0
  0
CIRCLE
  5
D2
  8
SIZE
  6
CONTINUOUS
 62
    30
 10
300.0000278726838
 20
-343.65596596534499
 30
0.0
 40
7.5
  0
CIRCLE
  5
D3
  8
SIZE
  6
CONTINUOUS
 62
    30
 10
0.9999947529358689
 20
-343.65596596534499
 30
0.0
 40
7.5
  0
TEXT
  5
D4
  8
SIZE
  6
CONTINUOUS
 62
    30
 10
82.357132917959149
 20
-323.65596596534488
 30
0.0
 40
60.0
  1
299
 41
0.9
 72
     1
 11
150.49999006081629
 21
-323.65596596534488
 31
0.0
  0
POINT
  5
D5
  8
DEFPOINTS
  6
CONTINUOUS
 62
     7
 10
300.0000278726838
 20
107.6999696637847
 30
0.0
  0
POINT
  5
D6
  8
DEFPOINTS
  6
CONTINUOUS
 62
     7
 10
0.9999947529358904
 20
7.9999413343810062
 30
0.0
  0
POINT
  5
D7
  8
DEFPOINTS
  6
CONTINUOUS
 62
     7
 10
0.9999947529358689
 20
-343.65596596534499
 30
0.0
  0
LINE
  5
D8
  8
SIZE
  6
CONTINUOUS
 62
    30
 10
266.07220888599568
 20
179.99996781740421
 30
0.0
 11
773.99594768843144
 21
179.9999678174041
 31
0.0
  0
LINE
  5
D9
  8
SIZE
  6
CONTINUOUS
 62
    30
 10
300.0
 20
-0.0000275857857929
 30
0.0
 11
773.99594768843144
 21
-0.0000275857859271
 31
0.0
  0
LINE
  5
DA
  8
SIZE
  6
CONTINUOUS
 62
    30
 10
753.99594768843144
 20
179.9999678174041
 30
0.0
 11
753.99594768843144
 21
-0.0000275857859215
 31
0.0
  0
CIRCLE
  5
DB
  8
SIZE
  6
CONTINUOUS
 62
    30
 10
753.99594768843144
 20
179.9999678174041
 30
0.0
 40
7.5
  0
CIRCLE
  5
DC
  8
SIZE
  6
CONTINUOUS
 62
    30
 10
753.99594768843144
 20
-0.0000275857859215
 30
0.0
 40
7.5
  0
TEXT
  5
DD
  8
SIZE
  6
CONTINUOUS
 62
    30
 10
733.99594768843144
 20
15.97974881000226
 30
0.0
 40
60.0
  1
180
 50
90.0
 41
0.9
 72
     1
 11
733.99594768843144
 21
80.265463095716555
 31
0.0
  0
POINT
  5
DE
  8
DEFPOINTS
  6
CONTINUOUS
 62
     7
 10
246.07220888599559
 20
179.99996781740421
 30
0.0
  0
POINT
  5
DF
  8
DEFPOINTS
  6
CONTINUOUS
 62
     7
 10
280.0
 20
-0.0000275857857872
 30
0.0
  0
POINT
  5
E0
  8
DEFPOINTS
  6
CONTINUOUS
 62
     7
 10
753.99594768843144
 20
-0.0000275857859215
 30
0.0
  0
LINE
  5
E1
  8
SIZE
  6
CONTINUOUS
 62
    30
 10
150.0000317033427
 20
106.92778953663191
 30
0.0
 11
150.0000317033427
 21
-157.56941643560481
 31
0.0
  0
LINE
  5
E2
  8
SIZE
  6
CONTINUOUS
 62
    30
 10
300.0000278726838
 20
87.699969663784728
 30
0.0
 11
300.0000278726838
 21
-157.56941643560481
 31
0.0
  0
LINE
  5
E3
  8
SIZE
  6
CONTINUOUS
 62
    30
 10
150.0000317033427
 20
-137.56941643560481
 30
0.0
 11
300.0000278726838
 21
-137.56941643560481
 31
0.0
  0
LINE
  5
E4
  8
SIZE
  6
CONTINUOUS
 62
    30
 10
300.0000278726838
 20
-137.56941643560481
 30
0.0
 11
498.57145644411293
 21
-137.56941643560481
 31
0.0
  0
CIRCLE
  5
E5
  8
SIZE
  6
CONTINUOUS
 62
    30
 10
150.0000317033427
 20
-137.56941643560481
 30
0.0
 40
7.5
  0
CIRCLE
  5
E6
  8
SIZE
  6
CONTINUOUS
 62
    30
 10
300.0000278726838
 20
-137.56941643560481
 30
0.0
 40
7.5
  0
TEXT
  5
E7
  8
SIZE
  6
CONTINUOUS
 62
    30
 10
350.0000278726842
 20
-117.56941643560479
 30
0.0
 40
60.0
  1
150
 41
0.9
 72
     1
 11
414.28574215839848
 21
-117.56941643560479
 31
0.0
  0
POINT
  5
E8
  8
DEFPOINTS
  6
CONTINUOUS
 62
     7
 10
150.0000317033427
 20
126.92778953663191
 30
0.0
  0
POINT
  5
E9
  8
DEFPOINTS
  6
CONTINUOUS
 62
     7
 10
300.0000278726838
 20
107.6999696637847
 30
0.0
  0
POINT
  5
EA
  8
DEFPOINTS
  6
CONTINUOUS
 62
     7
 10
300.0000278726838
 20
-137.56941643560481
 30
0.0
  0
LINE
  5
EB
  8
SIZE
  6
CONTINUOUS
 62
    30
 10
90.000033235608527
 20
106.92778953663191
 30
0.0
 11
90.000033235608484
 21
-157.56941643560481
 31
0.0
  0
LINE
  5
EC
  8
SIZE
  6
CONTINUOUS
 62
    30
 10
150.0000317033427
 20
106.92778953663191
 30
0.0
 11
150.0000317033427
 21
-157.56941643560481
 31
0.0
  0
LINE
  5
ED
  8
SIZE
  6
CONTINUOUS
 62
    30
 10
90.000033235608484
 20
-137.56941643560481
 30
0.0
 11
150.0000317033427
 21
-137.56941643560481
 31
0.0
  0
LINE
  5
EE
  8
SIZE
  6
CONTINUOUS
 62
    30
 10
120.0000324694755
 20
-137.56941643560481
 30
0.0
 11
101.6989128645218
 21
-241.51017549894661
 31
0.0
  0
LINE
  5
EF
  8
SIZE
  6
CONTINUOUS
 62
    30
 10
101.6989128645218
 20
-241.51017549894661
 30
0.0
 11
229.1274842930932
 21
-241.51017549894661
 31
0.0
  0
TEXT
  5
F0
  8
SIZE
  6
CONTINUOUS
 62
    30
 10
121.6989128645218
 20
-221.51017549894661
 30
0.0
 40
60.0
  1
60
 41
0.9
 72
     1
 11
165.41319857880751
 21
-221.51017549894661
 31
0.0
  0
CIRCLE
  5
F1
  8
SIZE
  6
CONTINUOUS
 62
    30
 10
90.000033235608484
 20
-137.56941643560481
 30
0.0
 40
7.5
  0
CIRCLE
  5
F2
  8
SIZE
  6
CONTINUOUS
 62
    30
 10
150.0000317033427
 20
-137.56941643560481
 30
0.0
 40
7.5
  0
POINT
  5
F3
  8
DEFPOINTS
  6
CONTINUOUS
 62
     7
 10
90.000033235608527
 20
126.92778953663191
 30
0.0
  0
POINT
  5
F4
  8
DEFPOINTS
  6
CONTINUOUS
 62
     7
 10
150.0000317033427
 20
126.92778953663191
 30
0.0
  0
POINT
  5
F5
  8
DEFPOINTS
  6
CONTINUOUS
 62
     7
 10
150.0000317033427
 20
-137.56941643560481
 30
0.0
  0
CIRCLE
  5
F6
  8
DETAIL
  6
CONTINUOUS
 62
     5
 10
1.000035508459403
 20
31.99997159700413
 30
0.0
 40
14.999999616934071
  0
LINE
  5
F7
  8
DETAIL
  6
CONTINUOUS
 62
     5
 10
165.2000236538733
 20
-0.0000275857857872
 30
0.0
 11
165.2000236538733
 21
73.799970529520337
 31
0.0
  0
LINE
  5
F8
  8
DETAIL
  6
CONTINUOUS
 62
     5
 10
135.20002441999981
 20
-0.0000275857857872
 30
0.0
 11
135.20002441999981
 21
73.799970529520337
 31
0.0
  0
LINE
  5
F9
  8
SIZE
  6
CONTINUOUS
 62
    30
 10
266.07220888599562
 20
249.99996602975779
 30
0.0
 11
773.99594768843144
 21
249.99996602975759
 31
0.0
  0
LINE
  5
FA
  8
SIZE
  6
CONTINUOUS
 62
    30
 10
266.07220888599568
 20
179.99996781740421
 30
0.0
 11
773.99594768843144
 21
179.9999678174041
 31
0.0
  0
LINE
  5
FB
  8
SIZE
  6
CONTINUOUS
 62
    30
 10
753.99594768843144
 20
179.9999678174041
 30
0.0
 11
753.99594768843144
 21
249.99996602975759
 31
0.0
  0
LINE
  5
FC
  8
SIZE
  6
CONTINUOUS
 62
    30
 10
753.99594768843144
 20
249.99996602975759
 30
0.0
 11
753.99594768843156
 21
407.4285374583315
 31
0.0
  0
CIRCLE
  5
FD
  8
SIZE
  6
CONTINUOUS
 62
    30
 10
753.99594768843144
 20
179.9999678174041
 30
0.0
 40
7.5
  0
CIRCLE
  5
FE
  8
SIZE
  6
CONTINUOUS
 62
    30
 10
753.99594768843144
 20
249.99996602975759
 30
0.0
 40
7.5
  0
TEXT
  5
FF
  8
SIZE
  6
CONTINUOUS
 62
    30
 10
733.99594768843144
 20
299.99996602976017
 30
0.0
 40
60.0
  1
70
 50
90.0
 41
0.9
 72
     1
 11
733.99594768843144
 21
343.7142517440459
 31
0.0
  0
POINT
  5
100
  8
DEFPOINTS
  6
CONTINUOUS
 62
     7
 10
246.07220888599559
 20
249.99996602975779
 30
0.0
  0
POINT
  5
101
  8
DEFPOINTS
  6
CONTINUOUS
 62
     7
 10
246.07220888599559
 20
179.99996781740421
 30
0.0
  0
POINT
  5
102
  8
DEFPOINTS
  6
CONTINUOUS
 62
     7
 10
753.99594768843144
 20
179.9999678174041
 30
0.0
  0
CIRCLE
  5
103
  8
DETAIL
  6
CONTINUOUS
 62
     5
 10
150.0000317033427
 20
159.99996832816359
 30
0.0
 40
29.499999246637071
  0
LINE
  5
104
  8
NOTE
  6
CONTINUOUS
 62
     4
 10
246.07220888599559
 20
179.99996781740421
 30
0.0
 11
179.92785130293211
 21
179.99996781740421
 31
0.0
  0
CIRCLE
  5
105
  8
DETAIL
  6
CONTINUOUS
 62
     5
 10
30.0000347678615
 20
159.99996832816359
 30
0.0
 40
26.999999310481421
  0
LINE
  5
106
  8
NOTE
  6
CONTINUOUS
 62
     4
 10
25.000034895558201
 20
31.99997159700413
 30
0.0
 11
-22.999963878626659
 21
31.99997159700413
 31
0.0
  0
CIRCLE
  5
107
  8
DETAIL
  6
CONTINUOUS
 62
     5
 10
90.000033235608527
 20
159.99996832816359
 30
0.0
 40
29.499999246637071
  0
CIRCLE
  5
108
  8
DETAIL
  6
CONTINUOUS
 62
     5
 10
213.00003009446391
 20
179.99996781740421
 30
0.0
 40
31.499999195561621
  0
LINE
  5
109
  8
DETAIL
  6
CONTINUOUS
 62
     5
 10
-299.99997212731603
 20
107.6999696637847
 30
0.0
 11
300.0000278726838
 21
107.6999696637847
 31
0.0
  0
LINE
  5
10A
  8
DETAIL
  6
CONTINUOUS
 62
     5
 10
220.0000222544094
 20
73.799970529520337
 30
0.0
 11
220.0000222544094
 21
33.199971566343962
 31
0.0
  0
LINE
  5
10B
  8
DETAIL
  6
CONTINUOUS
 62
     5
 10
180.00002327591571
 20
33.199971566343962
 30
0.0
 11
220.0000222544094
 21
33.199971566343962
 31
0.0
  0
CIRCLE
  5
10C
  8
DETAIL
  6
CONTINUOUS
 62
     5
 10
213.00003009446391
 20
249.99996602975779
 30
0.0
 40
26.999999310481421
  0
LINE
  5
10D
  8
DETAIL
  6
CONTINUOUS
 62
     5
 10
-271.99997212731608
 20
1897.999972465273
 30
0.0
 11
38.000027872683852
 21
1897.999972465273
 31
0.0
  0
LINE
  5
10E
  8
DETAIL
  6
CONTINUOUS
 62
     5
 10
-271.99997212731608
 20
1899.9999724141881
 30
0.0
 11
38.000027872683852
 21
1899.9999724141881
 31
0.0
  0
LINE
  5
10F
  8
DETAIL
  6
CONTINUOUS
 62
     5
 10
-299.99997212731603
 20
1887.999924198986
 30
0.0
 11
300.0000278726838
 21
1887.999924198986
 31
0.0
  0
LINE
  5
110
  8
DETAIL
  6
CONTINUOUS
 62
     5
 10
-255.99997212731611
 20
1887.999924198986
 30
0.0
 11
-255.99997212731611
 21
1897.999972465273
 31
0.0
  0
LINE
  5
111
  8
DETAIL
  6
CONTINUOUS
 62
     5
 10
-251.99997212731611
 20
1897.999972465273
 30
0.0
 11
-251.99997212731611
 21
1899.9999724141881
 31
0.0
  0
LINE
  5
112
  8
DETAIL
  6
CONTINUOUS
 62
     5
 10
-271.99997212731608
 20
1897.999972465273
 30
0.0
 11
-271.99997212731608
 21
1899.9999724141881
 31
0.0
  0
LINE
  5
113
  8
DETAIL
  6
CONTINUOUS
 62
     5
 10
22.000027872683859
 20
1887.999924198986
 30
0.0
 11
22.000027872683859
 21
1897.999972465273
 31
0.0
  0
LINE
  5
114
  8
DETAIL
  6
CONTINUOUS
 62
     5
 10
18.000027872683852
 20
1897.999972465273
 30
0.0
 11
18.000027872683852
 21
1899.9999724141881
 31
0.0
  0
LINE
  5
115
  8
DETAIL
  6
CONTINUOUS
 62
     5
 10
38.000027872683852
 20
1897.999972465273
 30
0.0
 11
38.000027872683852
 21
1899.9999724141881
 31
0.0
  0
LINE
  5
116
  8
SIZE
  6
CONTINUOUS
 62
    30
 10
-299.99997212731603
 20
1907.999924198986
 30
0.0
 11
-299.99997212731603
 21
2615.5912960747642
 31
0.0
  0
LINE
  5
117
  8
SIZE
  6
CONTINUOUS
 62
    30
 10
300.0000278726838
 20
1907.999924198986
 30
0.0
 11
300.00002787268397
 21
2615.5912960747642
 31
0.0
  0
LINE
  5
118
  8
SIZE
  6
CONTINUOUS
 62
    30
 10
-299.99997212731603
 20
2595.5912960747642
 30
0.0
 11
300.00002787268397
 21
2595.5912960747642
 31
0.0
  0
CIRCLE
  5
119
  8
SIZE
  6
CONTINUOUS
 62
    30
 10
-299.99997212731603
 20
2595.5912960747642
 30
0.0
 40
7.5
  0
CIRCLE
  5
11A
  8
SIZE
  6
CONTINUOUS
 62
    30
 10
300.00002787268397
 20
2595.5912960747642
 30
0.0
 40
7.5
  0
TEXT
  5
11B
  8
SIZE
  6
CONTINUOUS
 62
    30
 10
-69.428543555887515
 20
2615.5912960747642
 30
0.0
 40
60.0
  1
600
 41
0.9
 72
     1
 11
0.0000278726839156
 21
2615.5912960747642
 31
0.0
  0
POINT
  5
11C
  8
DEFPOINTS
  6
CONTINUOUS
 62
     7
 10
-299.99997212731603
 20
1887.999924198986
 30
0.0
  0
POINT
  5
11D
  8
DEFPOINTS
  6
CONTINUOUS
 62
     7
 10
300.0000278726838
 20
1887.999924198986
 30
0.0
  0
POINT
  5
11E
  8
DEFPOINTS
  6
CONTINUOUS
 62
     7
 10
300.00002787268397
 20
2595.5912960747642
 30
0.0
  0
LINE
  5
11F
  8
NOTE
  6
CONTINUOUS
 62
     4
 10
-145.99996073749381
 20
492.99995982409359
 30
0.0
 11
-145.99996073749381
 21
444.9999610499213
 31
0.0
  0
LINE
  5
120
  8
NOTE
  6
CONTINUOUS
 62
     4
 10
-121.9999613503951
 20
468.99996043702032
 30
0.0
 11
-169.9999601245799
 21
468.99996043702032
 31
0.0
  0
LINE
  5
121
  8
NOTE
  6
CONTINUOUS
 62
     4
 10
213.00003009446391
 20
213.07214660893601
 30
0.0
 11
213.00003009446391
 21
146.92778902587241
 31
0.0
  0
LINE
  5
122
  8
NOTE
  6
CONTINUOUS
 62
     4
 10
246.07220888599559
 20
249.99996602975779
 30
0.0
 11
179.92785130293211
 21
249.99996602975779
 31
0.0
  0
LINE
  5
123
  8
NOTE
  6
CONTINUOUS
 62
     4
 10
213.00003009446391
 20
283.07214482128961
 30
0.0
 11
213.00003009446391
 21
216.92778723822599
 31
0.0
  0
LINE
  5
124
  8
NOTE
  6
CONTINUOUS
 62
     4
 10
183.0722104948745
 20
159.99996832816359
 30
0.0
 11
116.9278529118109
 21
159.99996832816359
 31
0.0
  0
LINE
  5
125
  8
NOTE
  6
CONTINUOUS
 62
     4
 10
150.0000317033427
 20
193.0721471196955
 30
0.0
 11
150.0000317033427
 21
126.92778953663191
 31
0.0
  0
LINE
  5
126
  8
NOTE
  6
CONTINUOUS
 62
     4
 10
123.0722120271402
 20
159.99996832816359
 30
0.0
 11
56.927854444076729
 21
159.99996832816359
 31
0.0
  0
LINE
  5
127
  8
NOTE
  6
CONTINUOUS
 62
     4
 10
90.000033235608527
 20
193.0721471196955
 30
0.0
 11
90.000033235608527
 21
126.92778953663191
 31
0.0
  0
LINE
  5
128
  8
NOTE
  6
CONTINUOUS
 62
     4
 10
63.072213559393269
 20
159.99996832816359
 30
0.0
 11
-3.0721440236702602
 21
159.99996832816359
 31
0.0
  0
LINE
  5
129
  8
NOTE
  6
CONTINUOUS
 62
     4
 10
30.0000347678615
 20
193.0721471196955
 30
0.0
 11
30.0000347678615
 21
126.92778953663191
 31
0.0
  0
LINE
  5
12A
  8
SIZE
  6
CONTINUOUS
 62
    30
 10
-300.0
 20
-0.0000275857857815
 30
0.0
 11
-926.70522634276858
 21
-0.000027585785604
 31
0.0
  0
LINE
  5
12B
  8
SIZE
  6
CONTINUOUS
 62
    30
 10
-291.99997212731603
 20
1899.9999724141881
 30
0.0
 11
-926.70522634276836
 21
1899.999972414189
 31
0.0
  0
LINE
  5
12C
  8
SIZE
  6
CONTINUOUS
 62
    30
 10
-906.70522634276904
 20
-0.0000275857856097
 30
0.0
 11
-906.70522634276836
 21
1899.999972414189
 31
0.0
  0
CIRCLE
  5
12D
  8
SIZE
  6
CONTINUOUS
 62
    30
 10
-906.70522634276904
 20
-0.0000275857856097
 30
0.0
 40
7.5
  0
CIRCLE
  5
12E
  8
SIZE
  6
CONTINUOUS
 62
    30
 10
-906.70522634276836
 20
1899.999972414189
 30
0.0
 40
7.5
  0
TEXT
  5
12F
  8
SIZE
  6
CONTINUOUS
 62
    30
 10
-926.70522634276858
 20
859.99997241420135
 30
0.0
 40
60.0
  1
1900
 50
90.0
 41
0.9
 72
     1
 11
-926.70522634276858
 21
949.99997241420135
 31
0.0
  0
POINT
  5
130
  8
DEFPOINTS
  6
CONTINUOUS
 62
     7
 10
-280.0
 20
-0.0000275857857872
 30
0.0
  0
POINT
  5
131
  8
DEFPOINTS
  6
CONTINUOUS
 62
     7
 10
-271.99997212731608
 20
1899.9999724141881
 30
0.0
  0
POINT
  5
132
  8
DEFPOINTS
  6
CONTINUOUS
 62
     7
 10
-906.70522634276836
 20
1899.999972414189
 30
0.0
  0
LINE
  5
133
  8
NOTE
  6
CONTINUOUS
 62
     4
 10
-247.99997212731611
 20
22.999971826855258
 30
0.0
 11
-247.99997212731611
 21
-23.000026998399541
 31
0.0
  0
LINE
  5
134
  8
NOTE
  6
CONTINUOUS
 62
     4
 10
-247.99997212731611
 20
22.999971826855258
 30
0.0
 11
-247.99997212731611
 21
-23.000026998399541
 31
0.0
  0
LINE
  5
135
  8
NOTE
  6
CONTINUOUS
 62
     4
 10
-224.9999727146878
 20
-0.0000275857857872
 30
0.0
 11
-270.99997153995707
 21
-0.0000275857857872
 31
0.0
  0
LINE
  5
136
  8
NOTE
  6
CONTINUOUS
 62
     4
 10
-224.9999727146878
 20
-0.0000275857857872
 30
0.0
 11
-270.99997153995707
 21
-0.0000275857857872
 31
0.0
  0
CIRCLE
  5
137
  8
FIX
  6
CONTINUOUS
 62
    11
 10
-247.99997212731611
 20
-0.0000275857857872
 30
0.0
 40
14.99999961693427
  0
LINE
  5
138
  8
NOTE
  6
CONTINUOUS
 62
     4
 10
252.0000278726838
 20
22.999971826855258
 30
0.0
 11
252.0000278726838
 21
-23.000026998399541
 31
0.0
  0
LINE
  5
139
  8
NOTE
  6
CONTINUOUS
 62
     4
 10
275.000027285312
 20
-0.0000275857857872
 30
0.0
 11
229.00002846004281
 21
-0.0000275857857872
 31
0.0
  0
CIRCLE
  5
13A
  8
FIX
  6
CONTINUOUS
 62
    11
 10
252.0000278726838
 20
-0.0000275857857872
 30
0.0
 40
14.99999961693427
  0
LINE
  5
13B
  8
SIZE
  6
CONTINUOUS
 62
    30
 10
252.0000278726838
 20
-43.000026998399527
 30
0.0
 11
252.0000278726838
 21
-477.54479522961827
 31
0.0
  0
LINE
  5
13C
  8
SIZE
  6
CONTINUOUS
 62
    30
 10
300.0000278726838
 20
87.699969663784728
 30
0.0
 11
300.0000278726838
 21
-477.54479522961827
 31
0.0
  0
LINE
  5
13D
  8
SIZE
  6
CONTINUOUS
 62
    30
 10
252.0000278726838
 20
-457.54479522961822
 30
0.0
 11
300.0000278726838
 21
-457.54479522961822
 31
0.0
  0
LINE
  5
13E
  8
SIZE
  6
CONTINUOUS
 62
    30
 10
300.0000278726838
 20
-457.54479522961822
 30
0.0
 11
457.42859930125508
 21
-457.54479522961822
 31
0.0
  0
CIRCLE
  5
13F
  8
SIZE
  6
CONTINUOUS
 62
    30
 10
252.0000278726838
 20
-457.54479522961822
 30
0.0
 40
7.5
  0
CIRCLE
  5
140
  8
SIZE
  6
CONTINUOUS
 62
    30
 10
300.0000278726838
 20
-457.54479522961822
 30
0.0
 40
7.5
  0
TEXT
  5
141
  8
SIZE
  6
CONTINUOUS
 62
    30
 10
350.0000278726838
 20
-437.54479522961822
 30
0.0
 40
60.0
  1
48
 41
0.9
 72
     1
 11
393.71431358696952
 21
-437.54479522961822
 31
0.0
  0
POINT
  5
142
  8
DEFPOINTS
  6
CONTINUOUS
 62
     7
 10
252.0000278726838
 20
-23.000026998399541
 30
0.0
  0
POINT
  5
143
  8
DEFPOINTS
  6
CONTINUOUS
 62
     7
 10
300.0000278726838
 20
107.6999696637847
 30
0.0
  0
POINT
  5
144
  8
DEFPOINTS
  6
CONTINUOUS
 62
     7
 10
300.0000278726838
 20
-457.54479522961822
 30
0.0
  0
LINE
  5
145
  8
SIZE
  6
CONTINUOUS
 62
    30
 10
252.0000278726838
 20
-43.000026998399527
 30
0.0
 11
252.0000278726838
 21
-477.54479522961827
 31
0.0
  0
LINE
  5
146
  8
SIZE
  6
CONTINUOUS
 62
    30
 10
-247.99997212731611
 20
-43.000026998399527
 30
0.0
 11
-247.99997212731611
 21
-477.54479522961827
 31
0.0
  0
LINE
  5
147
  8
SIZE
  6
CONTINUOUS
 62
    30
 10
252.0000278726838
 20
-457.54479522961822
 30
0.0
 11
-247.99997212731611
 21
-457.54479522961822
 31
0.0
  0
CIRCLE
  5
148
  8
SIZE
  6
CONTINUOUS
 62
    30
 10
252.0000278726838
 20
-457.54479522961822
 30
0.0
 40
7.5
  0
CIRCLE
  5
149
  8
SIZE
  6
CONTINUOUS
 62
    30
 10
-247.99997212731611
 20
-457.54479522961822
 30
0.0
 40
7.5
  0
TEXT
  5
14A
  8
SIZE
  6
CONTINUOUS
 62
    30
 10
-67.4285435558876
 20
-437.54479522961822
 30
0.0
 40
60.0
  1
500
 41
0.9
 72
     1
 11
2.0000278726838299
 21
-437.54479522961822
 31
0.0
  0
POINT
  5
14B
  8
DEFPOINTS
  6
CONTINUOUS
 62
     7
 10
252.0000278726838
 20
-23.000026998399541
 30
0.0
  0
POINT
  5
14C
  8
DEFPOINTS
  6
CONTINUOUS
 62
     7
 10
-247.99997212731611
 20
-23.000026998399541
 30
0.0
  0
POINT
  5
14D
  8
DEFPOINTS
  6
CONTINUOUS
 62
     7
 10
-247.99997212731611
 20
-457.54479522961822
 30
0.0
  0
TEXT
  5
14E
  8
SIZE
  6
CONTINUOUS
 62
    30
 10
-147.36241607473491
 20
-532.95214801052884
 30
0.0
 40
60.0
  1
(据付ピッチ)
 50
0.0000025044165917
 41
0.7031250221965211
  7
STANDARD1
  0
LINE
  5
14F
  8
NOTE
  6
CONTINUOUS
 62
     4
 10
-261.9999721273079
 20
1905.3143498587519
 30
0.0
 11
-261.9999721273079
 21
1894.685594969618
 31
0.0
  0
LINE
  5
150
  8
NOTE
  6
CONTINUOUS
 62
     4
 10
-267.4560663037509
 20
1899.9999724141881
 30
0.0
 11
-256.54387795088132
 21
1899.9999724141881
 31
0.0
  0
LINE
  5
151
  8
NOTE
  6
CONTINUOUS
 62
     4
 10
-236.9999721273079
 20
1905.3143498587519
 30
0.0
 11
-236.9999721273079
 21
1894.685594969618
 31
0.0
  0
LINE
  5
152
  8
NOTE
  6
CONTINUOUS
 62
     4
 10
-242.4560663037509
 20
1899.9999724141881
 30
0.0
 11
-231.5438779508813
 21
1899.9999724141881
 31
0.0
  0
LINE
  5
153
  8
NOTE
  6
CONTINUOUS
 62
     4
 10
-116.9999721273079
 20
1905.3143498587519
 30
0.0
 11
-116.9999721273079
 21
1894.685594969618
 31
0.0
  0
LINE
  5
154
  8
NOTE
  6
CONTINUOUS
 62
     4
 10
-122.4560663037509
 20
1899.9999724141881
 30
0.0
 11
-111.5438779508813
 21
1899.9999724141881
 31
0.0
  0
LINE
  5
155
  8
NOTE
  6
CONTINUOUS
 62
     4
 10
3.0000278726920442
 20
1905.3143498587519
 30
0.0
 11
3.0000278726920442
 21
1894.685594969618
 31
0.0
  0
LINE
  5
156
  8
NOTE
  6
CONTINUOUS
 62
     4
 10
-2.456066303750958
 20
1899.9999724141881
 30
0.0
 11
8.4561220491186742
 21
1899.9999724141881
 31
0.0
  0
LINE
  5
157
  8
NOTE
  6
CONTINUOUS
 62
     4
 10
28.000027872692041
 20
1905.3143498587519
 30
0.0
 11
28.000027872692041
 21
1894.685594969618
 31
0.0
  0
LINE
  5
158
  8
NOTE
  6
CONTINUOUS
 62
     4
 10
22.543933696249042
 20
1899.9999724141881
 30
0.0
 11
33.456122049118669
 21
1899.9999724141881
 31
0.0
  0
LINE
  5
159
  8
BASIS
  6
DASHDOT
 62
     6
 10
0.0
 20
1934.459117755197
 30
0.0
 11
0.0
 21
-61.874388962702362
 31
0.0
  0
CIRCLE
  5
15A
  8
ARRANGE
  6
CONTINUOUS
 62
     1
 10
0.0000278726838587
 20
-0.0000275858112531
 30
0.0
 40
50.0
  0
LINE
  5
15B
  8
ARRANGE
  6
CONTINUOUS
 62
     1
 10
50.037377904012821
 20
-49.522380736136462
 30
0.0
 11
-50.037322158645097
 21
49.522325564513963
 31
0.0
  0
LINE
  5
15C
  8
ARRANGE
  6
CONTINUOUS
 62
     1
 10
49.963791183185087
 20
49.596567212174492
 30
0.0
 11
-49.963735437817377
 21
-49.596622383793367
 31
0.0
  0
LINE
  5
15D
  8
BASIS
  6
DASHDOT
 62
     6
 10
-116.9999721273161
 20
1812.2080312240589
 30
0.0
 11
-116.9999721273161
 21
1924.2062934784281
 31
0.0
  0
LINE
  5
15E
  8
SIZE
  6
CONTINUOUS
 62
    30
 10
-271.99997212731608
 20
1919.9999724141881
 30
0.0
 11
-271.99997212731603
 21
2410.2950849497988
 31
0.0
  0
LINE
  5
15F
  8
SIZE
  6
CONTINUOUS
 62
    30
 10
-299.99997212731603
 20
1907.999924198986
 30
0.0
 11
-299.99997212731603
 21
2410.2950849497988
 31
0.0
  0
LINE
  5
160
  8
SIZE
  6
CONTINUOUS
 62
    30
 10
-271.99997212731603
 20
2390.2950849497988
 30
0.0
 11
-241.999972127316
 21
2390.2950849497988
 31
0.0
  0
LINE
  5
161
  8
SIZE
  6
CONTINUOUS
 62
    30
 10
-299.99997212731603
 20
2390.2950849497988
 30
0.0
 11
-487.42854355588742
 21
2390.2950849497988
 31
0.0
  0
LINE
  5
162
  8
SIZE
  6
CONTINUOUS
 62
    30
 10
-271.99997212731603
 20
2390.2950849497988
 30
0.0
 11
-299.99997212731603
 21
2390.2950849497988
 31
0.0
  0
CIRCLE
  5
163
  8
SIZE
  6
CONTINUOUS
 62
    30
 10
-271.99997212731603
 20
2390.2950849497988
 30
0.0
 40
7.5
  0
CIRCLE
  5
164
  8
SIZE
  6
CONTINUOUS
 62
    30
 10
-299.99997212731603
 20
2390.2950849497988
 30
0.0
 40
7.5
  0
TEXT
  5
165
  8
SIZE
  6
CONTINUOUS
 62
    30
 10
-467.42854355588742
 20
2410.2950849497988
 30
0.0
 40
60.0
  1
28
 41
0.9
 72
     1
 11
-423.71425784160158
 21
2410.2950849497988
 31
0.0
  0
POINT
  5
166
  8
DEFPOINTS
  6
CONTINUOUS
 62
     7
 10
-271.99997212731608
 20
1899.9999724141881
 30
0.0
  0
POINT
  5
167
  8
DEFPOINTS
  6
CONTINUOUS
 62
     7
 10
-299.99997212731603
 20
1887.999924198986
 30
0.0
  0
POINT
  5
168
  8
DEFPOINTS
  6
CONTINUOUS
 62
     7
 10
-299.99997212731603
 20
2390.2950849497988
 30
0.0
  0
LINE
  5
169
  8
NOTE
  6
CONTINUOUS
 62
     4
 10
-178.21898486866209
 20
2031.3863427453141
 30
0.0
 11
-228.27460222128039
 21
1981.434795671651
 31
0.0
  0
LINE
  5
16A
  8
NOTE
  6
CONTINUOUS
 62
     4
 10
-128.1633675160418
 20
1981.434795671651
 30
0.0
 11
-178.21898486866209
 21
2031.3863427453141
 31
0.0
  0
LINE
  5
16B
  8
NOTE
  6
CONTINUOUS
 62
     4
 10
-178.21898486866209
 20
2031.3863427453141
 30
0.0
 11
-228.27460222128039
 21
1981.434795671651
 31
0.0
  0
LINE
  5
16C
  8
NOTE
  6
CONTINUOUS
 62
     4
 10
-128.1633675160418
 20
1981.434795671651
 30
0.0
 11
-178.21898486866209
 21
2031.3863427453141
 31
0.0
  0
LINE
  5
16D
  8
NOTE
  6
CONTINUOUS
 62
     4
 10
-203.2467935449703
 20
1940.703451200746
 30
0.0
 11
-153.191176192352
 21
1940.703451200746
 31
0.0
  0
LINE
  5
16E
  8
NOTE
  6
CONTINUOUS
 62
     4
 10
-203.2467935449703
 20
1940.703451200746
 30
0.0
 11
-153.191176192352
 21
1940.703451200746
 31
0.0
  0
LINE
  5
16F
  8
NOTE
  6
CONTINUOUS
 62
     4
 10
-203.2467935449703
 20
1981.434795671651
 30
0.0
 11
-228.27460222128039
 21
1981.434795671651
 31
0.0
  0
LINE
  5
170
  8
NOTE
  6
CONTINUOUS
 62
     4
 10
-203.2467935449703
 20
1981.434795671651
 30
0.0
 11
-228.27460222128039
 21
1981.434795671651
 31
0.0
  0
LINE
  5
171
  8
NOTE
  6
CONTINUOUS
 62
     4
 10
-203.2467935449703
 20
1981.434795671651
 30
0.0
 11
-203.2467935449703
 21
1940.703451200746
 31
0.0
  0
LINE
  5
172
  8
NOTE
  6
CONTINUOUS
 62
     4
 10
-203.2467935449703
 20
1981.434795671651
 30
0.0
 11
-203.2467935449703
 21
1940.703451200746
 31
0.0
  0
LINE
  5
173
  8
NOTE
  6
CONTINUOUS
 62
     4
 10
-128.1633675160418
 20
1981.434795671651
 30
0.0
 11
-153.191176192352
 21
1981.434795671651
 31
0.0
  0
LINE
  5
174
  8
NOTE
  6
CONTINUOUS
 62
     4
 10
-153.191176192352
 20
1981.434795671651
 30
0.0
 11
-153.191176192352
 21
1940.703451200746
 31
0.0
  0
LINE
  5
175
  8
NOTE
  6
CONTINUOUS
 62
     4
 10
-128.1633675160418
 20
1981.434795671651
 30
0.0
 11
-153.191176192352
 21
1981.434795671651
 31
0.0
  0
LINE
  5
176
  8
NOTE
  6
CONTINUOUS
 62
     4
 10
-153.191176192352
 20
1981.434795671651
 30
0.0
 11
-153.191176192352
 21
1940.703451200746
 31
0.0
  0
LINE
  5
177
  8
SIZE
  6
CONTINUOUS
 62
    30
 10
-271.99997212731608
 20
1919.9999724141881
 30
0.0
 11
-271.99997212731603
 21
2410.2950849497988
 31
0.0
  0
LINE
  5
178
  8
SIZE
  6
CONTINUOUS
 62
    30
 10
38.000027872683852
 20
1919.9999724141881
 30
0.0
 11
38.00002787268388
 21
2410.2950849497988
 31
0.0
  0
LINE
  5
179
  8
SIZE
  6
CONTINUOUS
 62
    30
 10
-271.99997212731603
 20
2390.2950849497988
 30
0.0
 11
38.00002787268388
 21
2390.2950849497988
 31
0.0
  0
CIRCLE
  5
17A
  8
SIZE
  6
CONTINUOUS
 62
    30
 10
-271.99997212731603
 20
2390.2950849497988
 30
0.0
 40
7.5
  0
CIRCLE
  5
17B
  8
SIZE
  6
CONTINUOUS
 62
    30
 10
38.00002787268388
 20
2390.2950849497988
 30
0.0
 40
7.5
  0
TEXT
  5
17C
  8
SIZE
  6
CONTINUOUS
 62
    30
 10
-181.28568641303019
 20
2410.2950849497988
 30
0.0
 40
60.0
  1
310
 41
0.9
 72
     1
 11
-116.999972127316
 21
2410.2950849497988
 31
0.0
  0
POINT
  5
17D
  8
DEFPOINTS
  6
CONTINUOUS
 62
     7
 10
-271.99997212731608
 20
1899.9999724141881
 30
0.0
  0
POINT
  5
17E
  8
DEFPOINTS
  6
CONTINUOUS
 62
     7
 10
38.000027872683852
 20
1899.9999724141881
 30
0.0
  0
POINT
  5
17F
  8
DEFPOINTS
  6
CONTINUOUS
 62
     7
 10
38.00002787268388
 20
2390.2950849497988
 30
0.0
  0
LINE
  5
180
  8
SIZE
  6
CONTINUOUS
 62
    30
 10
-116.9999721273079
 20
1925.3143498587519
 30
0.0
 11
-116.9999721273079
 21
2069.554795474663
 31
0.0
  0
LINE
  5
181
  8
SIZE
  6
CONTINUOUS
 62
    30
 10
3.0000278726920442
 20
1925.3143498587519
 30
0.0
 11
3.0000278726920531
 21
2069.554795474663
 31
0.0
  0
LINE
  5
182
  8
SIZE
  6
CONTINUOUS
 62
    30
 10
-116.9999721273079
 20
2049.554795474663
 30
0.0
 11
3.0000278726920522
 21
2049.554795474663
 31
0.0
  0
LINE
  5
183
  8
SIZE
  6
CONTINUOUS
 62
    30
 10
-56.999972127307942
 20
2049.554795474663
 30
0.0
 11
41.135910621909701
 21
2144.651754412143
 31
0.0
  0
LINE
  5
184
  8
SIZE
  6
CONTINUOUS
 62
    30
 10
41.135910621909701
 20
2144.651754412143
 30
0.0
 11
209.7073391933383
 21
2144.651754412143
 31
0.0
  0
TEXT
  5
185
  8
SIZE
  6
CONTINUOUS
 62
    30
 10
61.135910621909709
 20
2164.651754412143
 30
0.0
 40
60.0
  1
120
 41
0.9
 72
     1
 11
125.42162490762399
 21
2164.651754412143
 31
0.0
  0
CIRCLE
  5
186
  8
SIZE
  6
CONTINUOUS
 62
    30
 10
-116.9999721273079
 20
2049.554795474663
 30
0.0
 40
7.5
  0
CIRCLE
  5
187
  8
SIZE
  6
CONTINUOUS
 62
    30
 10
3.0000278726920522
 20
2049.554795474663
 30
0.0
 40
7.5
  0
POINT
  5
188
  8
DEFPOINTS
  6
CONTINUOUS
 62
     7
 10
-116.9999721273079
 20
1905.3143498587519
 30
0.0
  0
POINT
  5
189
  8
DEFPOINTS
  6
CONTINUOUS
 62
     7
 10
3.0000278726920442
 20
1905.3143498587519
 30
0.0
  0
POINT
  5
18A
  8
DEFPOINTS
  6
CONTINUOUS
 62
     7
 10
3.0000278726920522
 20
2049.554795474663
 30
0.0
  0
LINE
  5
18B
  8
SIZE
  6
CONTINUOUS
 62
    30
 10
-116.9999721273079
 20
1925.3143498587519
 30
0.0
 11
-116.9999721273079
 21
2069.554795474663
 31
0.0
  0
LINE
  5
18C
  8
SIZE
  6
CONTINUOUS
 62
    30
 10
-236.9999721273079
 20
1925.3143498587519
 30
0.0
 11
-236.9999721273079
 21
2069.554795474663
 31
0.0
  0
LINE
  5
18D
  8
SIZE
  6
CONTINUOUS
 62
    30
 10
-116.9999721273079
 20
2049.554795474663
 30
0.0
 11
-236.9999721273079
 21
2049.554795474663
 31
0.0
  0
LINE
  5
18E
  8
SIZE
  6
CONTINUOUS
 62
    30
 10
-176.9999721273079
 20
2049.554795474663
 30
0.0
 11
-304.71984941815748
 21
2146.288615648602
 31
0.0
  0
LINE
  5
18F
  8
SIZE
  6
CONTINUOUS
 62
    30
 10
-304.71984941815748
 20
2146.288615648602
 30
0.0
 11
-473.29127798958598
 21
2146.288615648602
 31
0.0
  0
TEXT
  5
190
  8
SIZE
  6
CONTINUOUS
 62
    30
 10
-453.29127798958609
 20
2166.2886156486038
 30
0.0
 40
60.0
  1
120
 41
0.9
 72
     1
 11
-389.00556370387181
 21
2166.2886156486038
 31
0.0
  0
CIRCLE
  5
191
  8
SIZE
  6
CONTINUOUS
 62
    30
 10
-116.9999721273079
 20
2049.554795474663
 30
0.0
 40
7.5
  0
CIRCLE
  5
192
  8
SIZE
  6
CONTINUOUS
 62
    30
 10
-236.9999721273079
 20
2049.554795474663
 30
0.0
 40
7.5
  0
POINT
  5
193
  8
DEFPOINTS
  6
CONTINUOUS
 62
     7
 10
-116.9999721273079
 20
1905.3143498587519
 30
0.0
  0
POINT
  5
194
  8
DEFPOINTS
  6
CONTINUOUS
 62
     7
 10
-236.9999721273079
 20
1905.3143498587519
 30
0.0
  0
POINT
  5
195
  8
DEFPOINTS
  6
CONTINUOUS
 62
     7
 10
-236.9999721273079
 20
2049.554795474663
 30
0.0
  0
LINE
  5
196
  8
SIZE
  6
CONTINUOUS
 62
    30
 10
-236.9999721273079
 20
1925.3143498587519
 30
0.0
 11
-236.9999721273079
 21
2069.554795474663
 31
0.0
  0
LINE
  5
197
  8
SIZE
  6
CONTINUOUS
 62
    30
 10
-251.99997212731611
 20
1919.9999724141881
 30
0.0
 11
-251.99997212731611
 21
2069.554795474663
 31
0.0
  0
LINE
  5
198
  8
SIZE
  6
CONTINUOUS
 62
    30
 10
-236.9999721273079
 20
2049.554795474663
 30
0.0
 11
-206.9999721273079
 21
2049.554795474663
 31
0.0
  0
LINE
  5
199
  8
SIZE
  6
CONTINUOUS
 62
    30
 10
-251.99997212731611
 20
2049.554795474663
 30
0.0
 11
-429.14282927017308
 21
2049.554795474663
 31
0.0
  0
LINE
  5
19A
  8
SIZE
  6
CONTINUOUS
 62
    30
 10
-236.9999721273079
 20
2049.554795474663
 30
0.0
 11
-251.99997212731611
 21
2049.554795474663
 31
0.0
  0
CIRCLE
  5
19B
  8
SIZE
  6
CONTINUOUS
 62
    30
 10
-236.9999721273079
 20
2049.554795474663
 30
0.0
 40
7.5
  0
CIRCLE
  5
19C
  8
SIZE
  6
CONTINUOUS
 62
    30
 10
-251.99997212731611
 20
2049.554795474663
 30
0.0
 40
7.5
  0
TEXT
  5
19D
  8
SIZE
  6
CONTINUOUS
 62
    30
 10
-409.14282927017308
 20
2069.554795474663
 30
0.0
 40
60.0
  1
15
 41
0.9
 72
     1
 11
-370.5714006987447
 21
2069.554795474663
 31
0.0
  0
POINT
  5
19E
  8
DEFPOINTS
  6
CONTINUOUS
 62
     7
 10
-236.9999721273079
 20
1905.3143498587519
 30
0.0
  0
POINT
  5
19F
  8
DEFPOINTS
  6
CONTINUOUS
 62
     7
 10
-251.99997212731611
 20
1899.9999724141881
 30
0.0
  0
POINT
  5
1A0
  8
DEFPOINTS
  6
CONTINUOUS
 62
     7
 10
-251.99997212731611
 20
2049.554795474663
 30
0.0
  0
LINE
  5
1A1
  8
SIZE
  6
CONTINUOUS
 62
    30
 10
3.0000278726920442
 20
1925.3143498587519
 30
0.0
 11
3.0000278726920531
 21
2069.554795474663
 31
0.0
  0
LINE
  5
1A2
  8
SIZE
  6
CONTINUOUS
 62
    30
 10
18.000027872683852
 20
1919.9999724141881
 30
0.0
 11
18.000027872683859
 21
2069.554795474663
 31
0.0
  0
LINE
  5
1A3
  8
SIZE
  6
CONTINUOUS
 62
    30
 10
3.0000278726920522
 20
2049.554795474663
 30
0.0
 11
-26.999972127307942
 21
2049.554795474663
 31
0.0
  0
LINE
  5
1A4
  8
SIZE
  6
CONTINUOUS
 62
    30
 10
18.000027872683859
 20
2049.554795474663
 30
0.0
 11
195.14288501554091
 21
2049.554795474663
 31
0.0
  0
LINE
  5
1A5
  8
SIZE
  6
CONTINUOUS
 62
    30
 10
3.0000278726920522
 20
2049.554795474663
 30
0.0
 11
18.000027872683859
 21
2049.554795474663
 31
0.0
  0
CIRCLE
  5
1A6
  8
SIZE
  6
CONTINUOUS
 62
    30
 10
3.0000278726920522
 20
2049.554795474663
 30
0.0
 40
7.5
  0
CIRCLE
  5
1A7
  8
SIZE
  6
CONTINUOUS
 62
    30
 10
18.000027872683859
 20
2049.554795474663
 30
0.0
 40
7.5
  0
TEXT
  5
1A8
  8
SIZE
  6
CONTINUOUS
 62
    30
 10
98.000027872683845
 20
2069.554795474663
 30
0.0
 40
60.0
  1
15
 41
0.9
 72
     1
 11
136.57145644411241
 21
2069.554795474663
 31
0.0
  0
POINT
  5
1A9
  8
DEFPOINTS
  6
CONTINUOUS
 62
     7
 10
3.0000278726920442
 20
1905.3143498587519
 30
0.0
  0
POINT
  5
1AA
  8
DEFPOINTS
  6
CONTINUOUS
 62
     7
 10
18.000027872683852
 20
1899.9999724141881
 30
0.0
  0
POINT
  5
1AB
  8
DEFPOINTS
  6
CONTINUOUS
 62
     7
 10
18.000027872683859
 20
2049.554795474663
 30
0.0
  0
LINE
  5
1AC
  8
SIZE
  6
CONTINUOUS
 62
    30
 10
-251.99997212731611
 20
1919.9999724141881
 30
0.0
 11
-251.99997212731611
 21
2309.8227519587649
 31
0.0
  0
LINE
  5
1AD
  8
SIZE
  6
CONTINUOUS
 62
    30
 10
18.000027872683852
 20
1919.9999724141881
 30
0.0
 11
18.00002787268388
 21
2309.8227519587649
 31
0.0
  0
LINE
  5
1AE
  8
SIZE
  6
CONTINUOUS
 62
    30
 10
-251.99997212731611
 20
2289.8227519587649
 30
0.0
 11
18.00002787268388
 21
2289.8227519587649
 31
0.0
  0
CIRCLE
  5
1AF
  8
SIZE
  6
CONTINUOUS
 62
    30
 10
-251.99997212731611
 20
2289.8227519587649
 30
0.0
 40
7.5
  0
CIRCLE
  5
1B0
  8
SIZE
  6
CONTINUOUS
 62
    30
 10
18.00002787268388
 20
2289.8227519587649
 30
0.0
 40
7.5
  0
TEXT
  5
1B1
  8
SIZE
  6
CONTINUOUS
 62
    30
 10
-186.4285435558875
 20
2309.8227519587649
 30
0.0
 40
60.0
  1
270
 41
0.9
 72
     1
 11
-116.999972127316
 21
2309.8227519587649
 31
0.0
  0
POINT
  5
1B2
  8
DEFPOINTS
  6
CONTINUOUS
 62
     7
 10
-251.99997212731611
 20
1899.9999724141881
 30
0.0
  0
POINT
  5
1B3
  8
DEFPOINTS
  6
CONTINUOUS
 62
     7
 10
18.000027872683852
 20
1899.9999724141881
 30
0.0
  0
POINT
  5
1B4
  8
DEFPOINTS
  6
CONTINUOUS
 62
     7
 10
18.00002787268388
 20
2289.8227519587649
 30
0.0
  0
TEXT
  5
1B5
  8
SIZE
  6
CONTINUOUS
 62
    30
 10
-249.11006380130041
 20
2224.1327533221229
 30
0.0
 40
60.0
  1
(ダクト内寸)
 50
0.000002504416579
 41
0.6
  7
STANDARD1
  0
TEXT
  5
1B6
  8
NOTE
  6
CONTINUOUS
 62
     4
 10
354.0289880545169
 20
1028.03544295609
 30
0.0
 40
60.0
  1
空気吸込
 50
0.0000025044165917
 41
0.7031250221965211
  7
STANDARD1
  0
LINE
  5
1B7
  8
NOTE
  6
CONTINUOUS
 62
     4
 10
388.34298781143661
 20
936.34892711110081
 30
0.0
 11
438.29453488509893
 21
886.29330975848234
 31
0.0
  0
LINE
  5
1B8
  8
NOTE
  6
CONTINUOUS
 62
     4
 10
438.29453488509893
 20
986.40454446372109
 30
0.0
 11
388.34298781143661
 21
936.34892711110081
 31
0.0
  0
LINE
  5
1B9
  8
NOTE
  6
CONTINUOUS
 62
     4
 10
388.34298781143661
 20
936.34892711110081
 30
0.0
 11
438.29453488509893
 21
886.29330975848234
 31
0.0
  0
LINE
  5
1BA
  8
NOTE
  6
CONTINUOUS
 62
     4
 10
438.29453488509893
 20
986.40454446372109
 30
0.0
 11
388.34298781143661
 21
936.34892711110081
 31
0.0
  0
LINE
  5
1BB
  8
NOTE
  6
CONTINUOUS
 62
     4
 10
479.02587935600411
 20
911.32111843479265
 30
0.0
 11
479.02587935600411
 21
961.37673578741101
 31
0.0
  0
LINE
  5
1BC
  8
NOTE
  6
CONTINUOUS
 62
     4
 10
479.02587935600411
 20
911.32111843479265
 30
0.0
 11
479.02587935600411
 21
961.37673578741101
 31
0.0
  0
LINE
  5
1BD
  8
NOTE
  6
CONTINUOUS
 62
     4
 10
438.29453488509893
 20
911.32111843479265
 30
0.0
 11
438.29453488509893
 21
886.29330975848234
 31
0.0
  0
LINE
  5
1BE
  8
NOTE
  6
CONTINUOUS
 62
     4
 10
438.29453488509893
 20
911.32111843479265
 30
0.0
 11
438.29453488509893
 21
886.29330975848234
 31
0.0
  0
LINE
  5
1BF
  8
NOTE
  6
CONTINUOUS
 62
     4
 10
438.29453488509893
 20
911.32111843479265
 30
0.0
 11
479.02587935600411
 21
911.32111843479265
 31
0.0
  0
LINE
  5
1C0
  8
NOTE
  6
CONTINUOUS
 62
     4
 10
438.29453488509893
 20
911.32111843479265
 30
0.0
 11
479.02587935600411
 21
911.32111843479265
 31
0.0
  0
LINE
  5
1C1
  8
NOTE
  6
CONTINUOUS
 62
     4
 10
438.29453488509893
 20
986.40454446372109
 30
0.0
 11
438.29453488509893
 21
961.37673578741101
 31
0.0
  0
LINE
  5
1C2
  8
NOTE
  6
CONTINUOUS
 62
     4
 10
438.29453488509893
 20
961.37673578741101
 30
0.0
 11
479.02587935600411
 21
961.37673578741101
 31
0.0
  0
LINE
  5
1C3
  8
NOTE
  6
CONTINUOUS
 62
     4
 10
438.29453488509893
 20
986.40454446372109
 30
0.0
 11
438.29453488509893
 21
961.37673578741101
 31
0.0
  0
LINE
  5
1C4
  8
NOTE
  6
CONTINUOUS
 62
     4
 10
438.29453488509893
 20
961.37673578741101
 30
0.0
 11
479.02587935600411
 21
961.37673578741101
 31
0.0
  0
LINE
  5
1C5
  8
NOTE
  6
CONTINUOUS
 62
     4
 10
388.34298781143661
 20
1181.458913165608
 30
0.0
 11
438.29453488509893
 21
1131.403295812989
 31
0.0
  0
LINE
  5
1C6
  8
NOTE
  6
CONTINUOUS
 62
     4
 10
438.29453488509893
 20
1231.514530518228
 30
0.0
 11
388.34298781143661
 21
1181.458913165608
 31
0.0
  0
LINE
  5
1C7
  8
NOTE
  6
CONTINUOUS
 62
     4
 10
388.34298781143661
 20
1181.458913165608
 30
0.0
 11
438.29453488509893
 21
1131.403295812989
 31
0.0
  0
LINE
  5
1C8
  8
NOTE
  6
CONTINUOUS
 62
     4
 10
438.29453488509893
 20
1231.514530518228
 30
0.0
 11
388.34298781143661
 21
1181.458913165608
 31
0.0
  0
LINE
  5
1C9
  8
NOTE
  6
CONTINUOUS
 62
     4
 10
479.02587935600411
 20
1156.4311044893
 30
0.0
 11
479.02587935600411
 21
1206.4867218419181
 31
0.0
  0
LINE
  5
1CA
  8
NOTE
  6
CONTINUOUS
 62
     4
 10
479.02587935600411
 20
1156.4311044893
 30
0.0
 11
479.02587935600411
 21
1206.4867218419181
 31
0.0
  0
LINE
  5
1CB
  8
NOTE
  6
CONTINUOUS
 62
     4
 10
438.29453488509893
 20
1156.4311044893
 30
0.0
 11
438.29453488509893
 21
1131.403295812989
 31
0.0
  0
LINE
  5
1CC
  8
NOTE
  6
CONTINUOUS
 62
     4
 10
438.29453488509893
 20
1156.4311044893
 30
0.0
 11
438.29453488509893
 21
1131.403295812989
 31
0.0
  0
LINE
  5
1CD
  8
NOTE
  6
CONTINUOUS
 62
     4
 10
438.29453488509893
 20
1156.4311044893
 30
0.0
 11
479.02587935600411
 21
1156.4311044893
 31
0.0
  0
LINE
  5
1CE
  8
NOTE
  6
CONTINUOUS
 62
     4
 10
438.29453488509893
 20
1156.4311044893
 30
0.0
 11
479.02587935600411
 21
1156.4311044893
 31
0.0
  0
LINE
  5
1CF
  8
NOTE
  6
CONTINUOUS
 62
     4
 10
438.29453488509893
 20
1231.514530518228
 30
0.0
 11
438.29453488509893
 21
1206.4867218419181
 31
0.0
  0
LINE
  5
1D0
  8
NOTE
  6
CONTINUOUS
 62
     4
 10
438.29453488509893
 20
1206.4867218419181
 30
0.0
 11
479.02587935600411
 21
1206.4867218419181
 31
0.0
  0
LINE
  5
1D1
  8
NOTE
  6
CONTINUOUS
 62
     4
 10
438.29453488509893
 20
1231.514530518228
 30
0.0
 11
438.29453488509893
 21
1206.4867218419181
 31
0.0
  0
LINE
  5
1D2
  8
NOTE
  6
CONTINUOUS
 62
     4
 10
438.29453488509893
 20
1206.4867218419181
 30
0.0
 11
479.02587935600411
 21
1206.4867218419181
 31
0.0
  0
LINE
  5
1D3
  8
SIZE
  6
CONTINUOUS
 62
    30
 10
38.000027872683852
 20
1919.9999724141881
 30
0.0
 11
38.000027872683901
 21
2513.2301030449498
 31
0.0
  0
LINE
  5
1D4
  8
SIZE
  6
CONTINUOUS
 62
    30
 10
-299.99997212731603
 20
1907.999924198986
 30
0.0
 11
-299.99997212731603
 21
2513.2301030449498
 31
0.0
  0
LINE
  5
1D5
  8
SIZE
  6
CONTINUOUS
 62
    30
 10
38.000027872683901
 20
2493.2301030449498
 30
0.0
 11
-299.99997212731603
 21
2493.2301030449498
 31
0.0
  0
CIRCLE
  5
1D6
  8
SIZE
  6
CONTINUOUS
 62
    30
 10
38.000027872683901
 20
2493.2301030449498
 30
0.0
 40
7.5
  0
CIRCLE
  5
1D7
  8
SIZE
  6
CONTINUOUS
 62
    30
 10
-299.99997212731603
 20
2493.2301030449498
 30
0.0
 40
7.5
  0
TEXT
  5
1D8
  8
SIZE
  6
CONTINUOUS
 62
    30
 10
-200.4285435558875
 20
2513.2301030449512
 30
0.0
 40
60.0
  1
338
 41
0.9
 72
     1
 11
-130.999972127316
 21
2513.2301030449512
 31
0.0
  0
POINT
  5
1D9
  8
DEFPOINTS
  6
CONTINUOUS
 62
     7
 10
38.000027872683852
 20
1899.9999724141881
 30
0.0
  0
POINT
  5
1DA
  8
DEFPOINTS
  6
CONTINUOUS
 62
     7
 10
-299.99997212731603
 20
1887.999924198986
 30
0.0
  0
POINT
  5
1DB
  8
DEFPOINTS
  6
CONTINUOUS
 62
     7
 10
-299.99997212731603
 20
2493.2301030449498
 30
0.0
  0
TEXT
  5
1DC
  8
NOTE
  6
CONTINUOUS
 62
     4
 10
-503.18121118512852
 20
1954.699650745725
 30
0.0
 40
60.0
  1
5-%%C3
 50
0.0000025044165917
 41
0.7
  7
STANDARD1
  0
LINE
  5
1DD
  8
NOTE
  6
CONTINUOUS
 62
     4
 10
-344.79844941158808
 20
1938.873119970739
 30
0.0
 11
-510.1512820865118
 21
1938.873119970739
 31
0.0
  0
LINE
  5
1DE
  8
NOTE
  6
CONTINUOUS
 62
     4
 10
-344.79844941158808
 20
1938.873119970739
 30
0.0
 11
-261.99997212731608
 21
1899.9999724141881
 31
0.0
  0
TEXT
  5
1DF
  8
NOTE
  6
CONTINUOUS
 62
     4
 10
-623.33692586978304
 20
-205.40703305973159
 30
0.0
 40
60.0
  1
D2 RC3/4
 50
0.0000025044165917
 41
0.7
  7
STANDARD1
  0
LINE
  5
1E0
  8
NOTE
  6
CONTINUOUS
 62
     4
 10
-309.92433183161933
 20
-219.0843694834914
 30
0.0
 11
-633.00868636779785
 21
-219.0843694834914
 31
0.0
  0
LINE
  5
1E1
  8
NOTE
  6
CONTINUOUS
 62
     4
 10
-309.92433183161933
 20
-219.0843694834914
 30
0.0
 11
1.0000355084657711
 21
31.99997159700413
 31
0.0
  0
LINE
  5
1E2
  8
SIZE
  6
CONTINUOUS
 62
    30
 10
45.000034895558201
 20
31.999971597004109
 30
0.0
 11
642.11587393830257
 21
31.999971597003931
 31
0.0
  0
LINE
  5
1E3
  8
SIZE
  6
CONTINUOUS
 62
    30
 10
300.0
 20
-0.0000275857857929
 30
0.0
 11
642.11587393830257
 21
-0.0000275857858898
 31
0.0
  0
LINE
  5
1E4
  8
SIZE
  6
CONTINUOUS
 62
    30
 10
622.11587393830246
 20
31.999971597003949
 30
0.0
 11
622.11587393830246
 21
61.999971597003942
 31
0.0
  0
LINE
  5
1E5
  8
SIZE
  6
CONTINUOUS
 62
    30
 10
622.11587393830246
 20
-0.0000275857858841
 30
0.0
 11
622.11587393830246
 21
-187.4285990143573
 31
0.0
  0
LINE
  5
1E6
  8
SIZE
  6
CONTINUOUS
 62
    30
 10
622.11587393830246
 20
31.999971597003949
 30
0.0
 11
622.11587393830246
 21
-0.0000275857858841
 31
0.0
  0
CIRCLE
  5
1E7
  8
SIZE
  6
CONTINUOUS
 62
    30
 10
622.11587393830246
 20
31.999971597003949
 30
0.0
 40
7.5
  0
CIRCLE
  5
1E8
  8
SIZE
  6
CONTINUOUS
 62
    30
 10
622.11587393830246
 20
-0.0000275857858841
 30
0.0
 40
7.5
  0
TEXT
  5
1E9
  8
SIZE
  6
CONTINUOUS
 62
    30
 10
602.11587393830246
 20
-167.4285990143571
 30
0.0
 40
60.0
  1
32
 50
90.0
 41
0.9
 72
     1
 11
602.11587393830246
 21
-123.7143133000714
 31
0.0
  0
POINT
  5
1EA
  8
DEFPOINTS
  6
CONTINUOUS
 62
     7
 10
25.000034895558201
 20
31.99997159700413
 30
0.0
  0
POINT
  5
1EB
  8
DEFPOINTS
  6
CONTINUOUS
 62
     7
 10
280.0
 20
-0.0000275857857872
 30
0.0
  0
POINT
  5
1EC
  8
DEFPOINTS
  6
CONTINUOUS
 62
     7
 10
622.11587393830246
 20
-0.0000275857858841
 30
0.0
  0
TEXT
  5
1ED
  8
NOTE
  6
CONTINUOUS
 62
     4
 10
-621.04435580324935
 20
-96.424269430415933
 30
0.0
 40
60.0
  1
AH 4-%%C16
 50
0.0000025044165917
 41
0.7
  7
STANDARD1
  0
LINE
  5
1EE
  8
NOTE
  6
CONTINUOUS
 62
     4
 10
-307.8567490351233
 20
-112.2508002054021
 30
0.0
 11
-628.01442670463246
 21
-112.2508002054021
 31
0.0
  0
LINE
  5
1EF
  8
NOTE
  6
CONTINUOUS
 62
     4
 10
-247.99997212731611
 20
-0.0000275857730543
 30
0.0
 11
-307.8567490351233
 21
-112.2508002054021
 31
0.0
  0
TEXT
  5
1F0
  8
NOTE
  6
CONTINUOUS
 62
     4
 10
-559.7226670664495
 20
552.16484552429006
 30
0.0
 40
60.0
  1
D1 RC1
 50
0.0000025044165917
 41
0.7
  7
STANDARD1
  0
LINE
  5
1F1
  8
NOTE
  6
CONTINUOUS
 62
     4
 10
-332.85305740217512
 20
538.48750910053025
 30
0.0
 11
-571.86227594473519
 21
538.48750910053025
 31
0.0
  0
LINE
  5
1F2
  8
NOTE
  6
CONTINUOUS
 62
     4
 10
-332.85305740217512
 20
538.48750910053025
 30
0.0
 11
-145.99996073749381
 21
468.99996043702032
 31
0.0
  0
TEXT
  5
1F3
  8
NOTE
  6
CONTINUOUS
 62
     4
 10
354.59237383228998
 20
475.27156462792271
 30
0.0
 40
60.0
  1
RG %%C19.05
 50
0.0000025044165917
 41
0.7
  7
STANDARD1
  0
LINE
  5
1F4
  8
NOTE
  6
CONTINUOUS
 62
     4
 10
776.04943191289931
 20
461.59422820416302
 30
0.0
 11
344.92061333427489
 21
461.59422820416302
 31
0.0
  0
TEXT
  5
1F5
  8
NOTE
  6
CONTINUOUS
 62
     4
 10
353.0613944023516
 20
549.15268232258825
 30
0.0
 40
60.0
  1
冷媒配管穴（ガス）
 50
0.0000025044165917
 41
0.7
  7
STANDARD1
  0
TEXT
  5
1F6
  8
NOTE
  6
CONTINUOUS
 62
     4
 10
355.7830129001303
 20
656.93660481993516
 30
0.0
 40
60.0
  1
RL %%C12.7
 50
0.0000025044165917
 41
0.7
  7
STANDARD1
  0
LINE
  5
1F7
  8
NOTE
  6
CONTINUOUS
 62
     4
 10
727.15210649009521
 20
643.25926839617534
 30
0.0
 11
346.11125240211538
 21
643.25926839617534
 31
0.0
  0
TEXT
  5
1F8
  8
NOTE
  6
CONTINUOUS
 62
     4
 10
354.4151192429872
 20
730.13005283440873
 30
0.0
 40
60.0
  1
冷媒配管穴（液）
 50
0.0000025044165917
 41
0.7
  7
STANDARD1
  0
LINE
  5
1F9
  8
NOTE
  6
CONTINUOUS
 62
     4
 10
344.92061333427489
 20
461.59422820416302
 30
0.0
 11
213.00003009446391
 21
179.99996781740421
 31
0.0
  0
LINE
  5
1FA
  8
NOTE
  6
CONTINUOUS
 62
     4
 10
346.11125240211538
 20
643.25926839617534
 30
0.0
 11
213.00003009446391
 21
249.99996602975779
 31
0.0
  0
TEXT
  5
1FB
  8
NOTE
  6
CONTINUOUS
 62
     4
 10
344.86644917948252
 20
89.032871009803543
 30
0.0
 40
60.0
  1
EL %%C38
 50
0.0000025044165917
 41
0.7
  7
STANDARD1
  0
LINE
  5
1FC
  8
NOTE
  6
CONTINUOUS
 62
     4
 10
571.23051381899108
 20
75.355534586043873
 30
0.0
 11
335.19468868146771
 21
75.355534586043873
 31
0.0
  0
LINE
  5
1FD
  8
NOTE
  6
CONTINUOUS
 62
     4
 10
335.19468868146771
 20
75.355534586043873
 30
0.0
 11
150.0000317033427
 21
159.99996832816359
 31
0.0
  0
TEXT
  5
1FE
  8
NOTE
  6
CONTINUOUS
 62
     4
 10
-585.4270520972367
 20
386.60302005380407
 30
0.0
 40
60.0
  1
CL2 %%C38
 50
0.0000025044165917
 41
0.7
  7
STANDARD1
  0
LINE
  5
1FF
  8
NOTE
  6
CONTINUOUS
 62
     4
 10
-314.1198614664699
 20
372.92568363004438
 30
0.0
 11
-595.09881259525162
 21
372.92568363004438
 31
0.0
  0
TEXT
  5
200
  8
NOTE
  6
CONTINUOUS
 62
     4
 10
-591.01743858106965
 20
277.41765676877878
 30
0.0
 40
60.0
  1
CL1 %%C29
 50
0.0000025044165917
 41
0.7
  7
STANDARD1
  0
LINE
  5
201
  8
NOTE
  6
CONTINUOUS
 62
     4
 10
-319.7102479503028
 20
263.7403203450192
 30
0.0
 11
-600.68919907908435
 21
263.7403203450192
 31
0.0
  0
LINE
  5
202
  8
NOTE
  6
CONTINUOUS
 62
     4
 10
-319.7102479503028
 20
263.7403203450192
 30
0.0
 11
30.0000347678615
 21
159.99996832816359
 31
0.0
  0
LINE
  5
203
  8
NOTE
  6
CONTINUOUS
 62
     4
 10
-314.1198614664699
 20
372.92568363004438
 30
0.0
 11
90.000033235608527
 21
159.99996832816359
 31
0.0
  0
LINE
  5
204
  8
NOTE
  6
CONTINUOUS
 62
     4
 10
-261.999972127327
 20
1899.999972414183
 30
0.0
 11
-287.89497809622111
 21
1922.6229327832871
 31
0.0
  0
LINE
  5
205
  8
NOTE
  6
CONTINUOUS
 62
     4
 10
-261.999972127327
 20
1899.999972414183
 30
0.0
 11
-295.73718540887421
 21
1906.6445273266449
 31
0.0
  0
LINE
  5
206
  8
NOTE
  6
CONTINUOUS
 62
     4
 10
-145.99996073752479
 20
468.99996043700747
 30
0.0
 11
-173.7996203430848
 21
489.2367733235821
 31
0.0
  0
LINE
  5
207
  8
NOTE
  6
CONTINUOUS
 62
     4
 10
-145.99996073752479
 20
468.99996043700747
 30
0.0
 11
-180.193578668588
 21
472.62572418744242
 31
0.0
  0
LINE
  5
208
  8
NOTE
  6
CONTINUOUS
 62
     4
 10
30.00003476784331
 20
159.99996832816359
 30
0.0
 11
1.0162302408061801
 21
178.50101546419839
 31
0.0
  0
LINE
  5
209
  8
NOTE
  6
CONTINUOUS
 62
     4
 10
30.00003476784331
 20
159.99996832816359
 30
0.0
 11
-4.3511998411813684
 21
161.53044238057711
 31
0.0
  0
LINE
  5
20A
  8
NOTE
  6
CONTINUOUS
 62
     4
 10
90.000033235559371
 20
159.99996832818721
 30
0.0
 11
65.149910010744861
 21
183.76593234614461
 31
0.0
  0
LINE
  5
20B
  8
NOTE
  6
CONTINUOUS
 62
     4
 10
90.000033235559371
 20
159.99996832818721
 30
0.0
 11
56.596213107901363
 21
168.1568348140697
 31
0.0
  0
LINE
  5
20C
  8
NOTE
  6
CONTINUOUS
 62
     4
 10
150.00003170334909
 20
159.99996832814
 30
0.0
 11
176.5220033757787
 21
138.1153918278284
 31
0.0
  0
LINE
  5
20D
  8
NOTE
  6
CONTINUOUS
 62
     4
 10
150.00003170334909
 20
159.99996832814
 30
0.0
 11
183.91102126317941
 21
154.30835545809691
 31
0.0
  0
LINE
  5
20E
  8
NOTE
  6
CONTINUOUS
 62
     4
 10
213.00003009446479
 20
179.9999678174315
 30
0.0
 11
235.7123189681715
 21
205.8166601715763
 31
0.0
  0
LINE
  5
20F
  8
NOTE
  6
CONTINUOUS
 62
     4
 10
213.00003009446479
 20
179.9999678174315
 30
0.0
 11
219.76110256890749
 21
213.71402377314161
 31
0.0
  0
LINE
  5
210
  8
NOTE
  6
CONTINUOUS
 62
     4
 10
213.00003009444021
 20
249.99996602978871
 30
0.0
 11
232.39337313050049
 21
278.39447105940559
 31
0.0
  0
LINE
  5
211
  8
NOTE
  6
CONTINUOUS
 62
     4
 10
213.00003009444021
 20
249.99996602978871
 30
0.0
 11
215.597904813615
 21
284.28700026917602
 31
0.0
  0
LINE
  5
212
  8
OUTLINE
  6
CONTINUOUS
 62
     3
 10
-299.99997212731603
 20
1887.999924198986
 30
0.0
 11
300.0000278726838
 21
1887.999924198986
 31
0.0
  0
LINE
  5
213
  8
OUTLINE
  6
CONTINUOUS
 62
     3
 10
300.0000278726838
 20
1887.999924198986
 30
0.0
 11
300.0000278726838
 21
107.6999696637847
 31
0.0
  0
LINE
  5
214
  8
OUTLINE
  6
CONTINUOUS
 62
     3
 10
300.0000278726838
 20
107.6999696637847
 30
0.0
 11
-299.99997212731603
 21
107.6999696637847
 31
0.0
  0
LINE
  5
215
  8
OUTLINE
  6
CONTINUOUS
 62
     3
 10
-299.99997212731603
 20
107.6999696637847
 30
0.0
 11
-299.99997212731603
 21
1887.999924198986
 31
0.0
  0
LINE
  5
216
  8
OUTLINE
  6
CONTINUOUS
 62
     3
 10
-255.99997212731611
 20
1887.999924198986
 30
0.0
 11
-255.99997212731611
 21
1897.999972465273
 31
0.0
  0
LINE
  5
217
  8
OUTLINE
  6
CONTINUOUS
 62
     3
 10
-255.99997212731611
 20
1897.999972465273
 30
0.0
 11
-271.99997212731608
 21
1897.999972465273
 31
0.0
  0
LINE
  5
218
  8
OUTLINE
  6
CONTINUOUS
 62
     3
 10
-271.99997212731608
 20
1897.999972465273
 30
0.0
 11
-271.99997212731608
 21
1899.9999724141881
 31
0.0
  0
LINE
  5
219
  8
OUTLINE
  6
CONTINUOUS
 62
     3
 10
-271.99997212731608
 20
1899.9999724141881
 30
0.0
 11
38.000027872683852
 21
1899.9999724141881
 31
0.0
  0
LINE
  5
21A
  8
OUTLINE
  6
CONTINUOUS
 62
     3
 10
38.000027872683852
 20
1899.9999724141881
 30
0.0
 11
38.000027872683852
 21
1897.999972465273
 31
0.0
  0
LINE
  5
21B
  8
OUTLINE
  6
CONTINUOUS
 62
     3
 10
38.000027872683852
 20
1897.999972465273
 30
0.0
 11
22.000027872683859
 21
1897.999972465271
 31
0.0
  0
LINE
  5
21C
  8
OUTLINE
  6
CONTINUOUS
 62
     3
 10
22.000027872683859
 20
1897.999972465271
 30
0.0
 11
22.000027872683859
 21
1887.999924198986
 31
0.0
  0
LINE
  5
21D
  8
OUTLINE
  6
CONTINUOUS
 62
     3
 10
280.0
 20
107.6999696637847
 30
0.0
 11
280.0
 21
-0.0000275857857872
 31
0.0
  0
LINE
  5
21E
  8
OUTLINE
  6
CONTINUOUS
 62
     3
 10
280.0
 20
-0.0000275857857872
 30
0.0
 11
-280.0
 21
-0.0000275857857872
 31
0.0
  0
LINE
  5
21F
  8
OUTLINE
  6
CONTINUOUS
 62
     3
 10
-280.0
 20
-0.0000275857857872
 30
0.0
 11
-280.0
 21
107.6999696637847
 31
0.0
  0
LINE
  5
220
  8
NOTE
  6
CONTINUOUS
 62
     4
 10
-247.99997212703781
 20
-0.000027586164137
 30
0.0
 11
-271.49524950158769
 21
-25.106234210905519
 31
0.0
  0
LINE
  5
221
  8
NOTE
  6
CONTINUOUS
 62
     4
 10
-247.99997212703781
 20
-0.000027586164137
 30
0.0
 11
-255.79437540204341
 21
-33.490279116664382
 31
0.0
  0
LINE
  5
222
  8
NOTE
  6
CONTINUOUS
 62
     4
 10
1.000035508459403
 20
31.99997159699139
 30
0.0
 11
-30.167371208994151
 21
17.4761143786052
 31
0.0
  0
LINE
  5
223
  8
NOTE
  6
CONTINUOUS
 62
     4
 10
1.000035508459403
 20
31.99997159699139
 30
0.0
 11
-18.729801459422561
 21
3.838238638767292
 31
0.0
  0
TEXT
  5
224
  8
ETC
  6
CONTINUOUS
 62
    61
 10
385.1136706811867
 20
2308.327471079901
 30
0.0
 40
70.0
  1
PADY-P200NMT-E_5
 50
0.0000029998804485
 41
0.8
  0
LINE
  5
225
  8
SIZE
  6
CONTINUOUS
 62
    30
 10
-251.99997212731611
 20
1919.9999724141881
 30
0.0
 11
-251.99997212731611
 21
2309.8227519587649
 31
0.0
  0
LINE
  5
226
  8
SIZE
  6
CONTINUOUS
 62
    30
 10
-261.9999721273079
 20
1925.3143498587519
 30
0.0
 11
-261.9999721273079
 21
2309.8227519587649
 31
0.0
  0
LINE
  5
227
  8
SIZE
  6
CONTINUOUS
 62
    30
 10
-251.99997212731611
 20
2289.8227519587649
 30
0.0
 11
-221.99997212731611
 21
2289.8227519587649
 31
0.0
  0
LINE
  5
228
  8
SIZE
  6
CONTINUOUS
 62
    30
 10
-261.9999721273079
 20
2289.8227519587649
 30
0.0
 11
-439.1428292701649
 21
2289.8227519587649
 31
0.0
  0
LINE
  5
229
  8
SIZE
  6
CONTINUOUS
 62
    30
 10
-251.99997212731611
 20
2289.8227519587649
 30
0.0
 11
-261.9999721273079
 21
2289.8227519587649
 31
0.0
  0
CIRCLE
  5
22A
  8
SIZE
  6
CONTINUOUS
 62
    30
 10
-251.99997212731611
 20
2289.8227519587649
 30
0.0
 40
7.5
  0
CIRCLE
  5
22B
  8
SIZE
  6
CONTINUOUS
 62
    30
 10
-261.9999721273079
 20
2289.8227519587649
 30
0.0
 40
7.5
  0
TEXT
  5
22C
  8
SIZE
  6
CONTINUOUS
 62
    30
 10
-419.14282927016501
 20
2309.8227519587649
 30
0.0
 40
60.0
  1
10
 41
0.9
 72
     1
 11
-380.57140069873651
 21
2309.8227519587649
 31
0.0
  0
POINT
  5
22D
  8
DEFPOINTS
  6
CONTINUOUS
 62
     7
 10
-251.99997212731611
 20
1899.9999724141881
 30
0.0
  0
POINT
  5
22E
  8
DEFPOINTS
  6
CONTINUOUS
 62
     7
 10
-261.9999721273079
 20
1905.3143498587519
 30
0.0
  0
POINT
  5
22F
  8
DEFPOINTS
  6
CONTINUOUS
 62
     7
 10
-261.9999721273079
 20
2289.8227519587649
 30
0.0
  0
LINE
  5
230
  8
SIZE
  6
CONTINUOUS
 62
    30
 10
18.000027872683852
 20
1919.9999724141881
 30
0.0
 11
18.00002787268388
 21
2309.8227519587649
 31
0.0
  0
LINE
  5
231
  8
SIZE
  6
CONTINUOUS
 62
    30
 10
28.000027872692041
 20
1925.3143498587519
 30
0.0
 11
28.000027872692069
 21
2309.8227519587649
 31
0.0
  0
LINE
  5
232
  8
SIZE
  6
CONTINUOUS
 62
    30
 10
18.00002787268388
 20
2289.8227519587649
 30
0.0
 11
-11.9999721273161
 21
2289.8227519587649
 31
0.0
  0
LINE
  5
233
  8
SIZE
  6
CONTINUOUS
 62
    30
 10
28.000027872692069
 20
2289.8227519587649
 30
0.0
 11
205.14288501554921
 21
2289.8227519587649
 31
0.0
  0
LINE
  5
234
  8
SIZE
  6
CONTINUOUS
 62
    30
 10
18.00002787268388
 20
2289.8227519587649
 30
0.0
 11
28.000027872692069
 21
2289.8227519587649
 31
0.0
  0
CIRCLE
  5
235
  8
SIZE
  6
CONTINUOUS
 62
    30
 10
18.00002787268388
 20
2289.8227519587649
 30
0.0
 40
7.5
  0
CIRCLE
  5
236
  8
SIZE
  6
CONTINUOUS
 62
    30
 10
28.000027872692069
 20
2289.8227519587649
 30
0.0
 40
7.5
  0
TEXT
  5
237
  8
SIZE
  6
CONTINUOUS
 62
    30
 10
108.000027872692
 20
2309.8227519587649
 30
0.0
 40
60.0
  1
10
 41
0.9
 72
     1
 11
146.5714564441206
 21
2309.8227519587649
 31
0.0
  0
POINT
  5
238
  8
DEFPOINTS
  6
CONTINUOUS
 62
     7
 10
18.000027872683852
 20
1899.9999724141881
 30
0.0
  0
POINT
  5
239
  8
DEFPOINTS
  6
CONTINUOUS
 62
     7
 10
28.000027872692041
 20
1905.3143498587519
 30
0.0
  0
POINT
  5
23A
  8
DEFPOINTS
  6
CONTINUOUS
 62
     7
 10
28.000027872692069
 20
2289.8227519587649
 30
0.0
  0
TEXT
  5
23B
  8
NOTE
  6
CONTINUOUS
 62
     4
 10
-105.70264483212659
 20
1977.1087878069441
 30
0.0
 40
60.0
  1
空気
 50
359.99999749558327
 41
0.7031250221965211
  7
STANDARD1
  0
TEXT
  5
23C
  8
NOTE
  6
CONTINUOUS
 62
     4
 10
-102.03206197617691
 20
1911.2027432478239
 30
0.0
 40
60.0
  1
吹出
 50
359.99999749558327
 41
0.7031250221965211
  7
STANDARD1
  0
CIRCLE
  5
23D
  8
DETAIL
  6
CONTINUOUS
 62
     5
 10
30.0000347678615
 20
159.99996832816359
 30
0.0
 40
14.5
  0
CIRCLE
  5
23E
  8
DETAIL
  6
CONTINUOUS
 62
     5
 10
90.000033235608527
 20
159.9999683281404
 30
0.0
 40
19.0
  0
CIRCLE
  5
23F
  8
DETAIL
  6
CONTINUOUS
 62
     5
 10
150.00003170320809
 20
159.99996832816359
 30
0.0
 40
19.0
  0
CIRCLE
  5
240
  8
DETAIL
  6
CONTINUOUS
 62
     5
 10
213.0000300944902
 20
179.9999678174604
 30
0.0
 40
9.5250000000000004
  0
CIRCLE
  5
241
  8
DETAIL
  6
CONTINUOUS
 62
     5
 10
213.0000300944302
 20
249.99996602965891
 30
0.0
 40
6.3499999999999979
  0
ENDSEC
  0
EOF
