  0
SECTION
  2
HEADER
  9
$ACADVER
  1
AC1009
  9
$INSBASE
 10
0.0
 20
0.0
 30
0.0
  9
$EXTMIN
 10
-1357.4029771404271
 20
-909.09808224886717
 30
-0.0000000349181948
  9
$EXTMAX
 10
1708.297455615269
 20
2578.052132739791
 30
0.0000000814935746
  9
$LIMMIN
 10
-4267.1522210604817
 20
-2696.0832101984129
  9
$LIMMAX
 10
7190.7174225864646
 20
5141.155363923066
  9
$ORTHOMODE
 70
     1
  9
$REGENMODE
 70
     1
  9
$FILLMODE
 70
     1
  9
$QTEXTMODE
 70
     0
  9
$MIRRTEXT
 70
     0
  9
$DRAGMODE
 70
     2
  9
$LTSCALE
 40
20.0
  9
$OSMODE
 70
   431
  9
$ATTMODE
 70
     1
  9
$TEXTSIZE
 40
64.0
  9
$TRACEWID
 40
0.05
  9
$TEXTSTYLE
  7
STANDARD_MODELNAME
  9
$CLAYER
  8
SYMBOLLINE
  9
$CELTYPE
  6
CONTINUOUS
  9
$CECOLOR
 62
     7
  9
$DIMSCALE
 40
1.0
  9
$DIMASZ
 40
30.0
  9
$DIMEXO
 40
20.0
  9
$DIMDLI
 40
80.0
  9
$DIMRND
 40
0.0
  9
$DIMDLE
 40
0.0
  9
$DIMEXE
 40
20.0
  9
$DIMTP
 40
0.0
  9
$DIMTM
 40
0.0
  9
$DIMTXT
 40
60.0
  9
$DIMCEN
 40
0.09
  9
$DIMTSZ
 40
0.0
  9
$DIMTOL
 70
     0
  9
$DIMLIM
 70
     0
  9
$DIMTIH
 70
     0
  9
$DIMTOH
 70
     0
  9
$DIMSE1
 70
     0
  9
$DIMSE2
 70
     0
  9
$DIMTAD
 70
     1
  9
$DIMZIN
 70
     8
  9
$DIMBLK
  1
SMALL
  9
$DIMASO
 70
     1
  9
$DIMSHO
 70
     0
  9
$DIMPOST
  1

  9
$DIMAPOST
  1

  9
$DIMALT
 70
     0
  9
$DIMALTD
 70
     2
  9
$DIMALTF
 40
25.399999999999999
  9
$DIMLFAC
 40
1.0
  9
$DIMTOFL
 70
     1
  9
$DIMTVP
 40
0.0
  9
$DIMTIX
 70
     0
  9
$DIMSOXD
 70
     0
  9
$DIMSAH
 70
     0
  9
$DIMBLK1
  1

  9
$DIMBLK2
  1

  9
$DIMSTYLE
  2
STANDARD
  9
$DIMCLRD
 70
     0
  9
$DIMCLRE
 70
     0
  9
$DIMCLRT
 70
     0
  9
$DIMTFAC
 40
1.0
  9
$DIMGAP
 40
0.09
  9
$LUNITS
 70
     2
  9
$LUPREC
 70
     4
  9
$SKETCHINC
 40
0.1
  9
$FILLETRAD
 40
30.0
  9
$AUNITS
 70
     1
  9
$AUPREC
 70
     3
  9
$MENU
  1
ACAD
  9
$ELEVATION
 40
0.0
  9
$PELEVATION
 40
0.0
  9
$THICKNESS
 40
0.0
  9
$LIMCHECK
 70
     0
  9
$BLIPMODE
 70
     0
  9
$CHAMFERA
 40
0.0
  9
$CHAMFERB
 40
0.0
  9
$SKPOLY
 70
     0
  9
$TDCREATE
 40
2450330.4399309959
  9
$TDUPDATE
 40
2456451.727198496
  9
$TDINDWG
 40
3.7932814815000002
  9
$TDUSRTIMER
 40
3.7932813079000001
  9
$USRTIMER
 70
     1
  9
$ANGBASE
 50
0.0
  9
$ANGDIR
 70
     0
  9
$PDMODE
 70
     3
  9
$PDSIZE
 40
-2.0
  9
$PLINEWID
 40
0.0
  9
$COORDS
 70
     1
  9
$SPLFRAME
 70
     0
  9
$SPLINETYPE
 70
     6
  9
$SPLINESEGS
 70
     8
  9
$ATTDIA
 70
     0
  9
$ATTREQ
 70
     1
  9
$HANDLING
 70
     1
  9
$HANDSEED
  5
3C8
  9
$SURFTAB1
 70
     6
  9
$SURFTAB2
 70
     6
  9
$SURFTYPE
 70
     6
  9
$SURFU
 70
     6
  9
$SURFV
 70
     6
  9
$UCSNAME
  2

  9
$UCSORG
 10
0.0
 20
0.0
 30
0.0
  9
$UCSXDIR
 10
1.0
 20
0.0
 30
0.0
  9
$UCSYDIR
 10
0.0
 20
1.0
 30
0.0
  9
$PUCSNAME
  2

  9
$PUCSORG
 10
0.0
 20
0.0
 30
0.0
  9
$PUCSXDIR
 10
1.0
 20
0.0
 30
0.0
  9
$PUCSYDIR
 10
0.0
 20
1.0
 30
0.0
  9
$USERI1
 70
     0
  9
$USERI2
 70
     0
  9
$USERI3
 70
     0
  9
$USERI4
 70
     0
  9
$USERI5
 70
     0
  9
$USERR1
 40
20.0
  9
$USERR2
 40
0.0
  9
$USERR3
 40
0.0
  9
$USERR4
 40
0.0
  9
$USERR5
 40
0.0
  9
$WORLDVIEW
 70
     1
  9
$SHADEDGE
 70
     3
  9
$SHADEDIF
 70
    70
  9
$TILEMODE
 70
     1
  9
$MAXACTVP
 70
    64
  9
$PLIMCHECK
 70
     0
  9
$PEXTMIN
 10
1.0000000000000000E+020
 20
1.0000000000000000E+020
 30
1.0000000000000000E+020
  9
$PEXTMAX
 10
-1.0000000000000000E+020
 20
-1.0000000000000000E+020
 30
-1.0000000000000000E+020
  9
$PLIMMIN
 10
0.0
 20
0.0
  9
$PLIMMAX
 10
12.0
 20
9.0
  9
$UNITMODE
 70
     0
  9
$VISRETAIN
 70
     1
  9
$PLINEGEN
 70
     0
  9
$PSLTSCALE
 70
     1
  0
ENDSEC
  0
SECTION
  2
TABLES
  0
TABLE
  2
VPORT
 70
     1
  0
VPORT
  2
*ACTIVE
 70
     0
 10
0.0
 20
0.0
 11
1.0
 21
1.0
 12
175.44723923742089
 22
834.47702524546185
 13
0.0
 23
0.0
 14
50.0
 24
50.0
 15
100.0
 25
100.0
 16
0.0
 26
0.0
 36
1.0
 17
0.0
 27
0.0
 37
0.0
 40
3513.668467574124
 41
1.552030456852791
 42
50.0
 43
0.0
 44
0.0
 50
0.0
 51
0.0
 71
     0
 72
  1000
 73
     1
 74
     0
 75
     0
 76
     0
 77
     0
 78
     0
  0
ENDTAB
  0
TABLE
  2
LTYPE
 70
     3
  0
LTYPE
  2
CONTINUOUS
 70
     0
  3
実線
 72
    65
 73
     0
 40
0.0
  0
LTYPE
  2
DASHDOT
 70
     0
  3
____ _ ____ _ ____ _ ____ _ ____ _ ____ _ ____
 72
    65
 73
     4
 40
5.5
 49
4.0
 49
-0.6
 49
0.3
 49
-0.6
  0
ENDTAB
  0
TABLE
  2
LAYER
 70
    12
  0
LAYER
  2
0
 70
     0
 62
     7
  6
CONTINUOUS
  0
LAYER
  2
SIZE
 70
     0
 62
    30
  6
CONTINUOUS
  0
LAYER
  2
OUTLINE
 70
     0
 62
     3
  6
CONTINUOUS
  0
LAYER
  2
DETAIL
 70
     0
 62
     5
  6
CONTINUOUS
  0
LAYER
  2
BASIS
 70
     0
 62
     6
  6
DASHDOT
  0
LAYER
  2
NOTE
 70
     0
 62
     4
  6
CONTINUOUS
  0
LAYER
  2
ARRANGE
 70
     0
 62
     1
  6
CONTINUOUS
  0
LAYER
  2
FIX
 70
     0
 62
    11
  6
CONTINUOUS
  0
LAYER
  2
SERVICESPACE
 70
     0
 62
     2
  6
DASHDOT
  0
LAYER
  2
ETC
 70
     0
 62
    61
  6
CONTINUOUS
  0
LAYER
  2
SYMBOLLINE
 70
     0
 62
    15
  6
CONTINUOUS
  0
LAYER
  2
DEFPOINTS
 70
     0
 62
     7
  6
CONTINUOUS
  0
ENDTAB
  0
TABLE
  2
STYLE
 70
     5
  0
STYLE
  2
STANDARD
 70
     0
 40
0.0
 41
0.9
 50
0.0
 71
     0
 42
64.0
  3
SIMPLEX
  4
BIGFONT
  0
STYLE
  2
ANNOTATIVE
 70
     0
 40
0.0
 41
1.0
 50
0.0
 71
     0
 42
0.2
  3
txt
  4

  0
STYLE
  2
STANDARD_MODELNAME
 70
     0
 40
80.0
 41
0.8
 50
0.0
 71
     0
 42
64.0
  3
MONOTXT.shx
  4
BIGFONT.shx
  0
STYLE
  2
STANDARD1
 70
     0
 40
60.0
 41
0.7
 50
0.0
 71
     0
 42
64.0
  3
MONOTXT.shx
  4
BIGFONT.shx
  0
STYLE
  2
NOTE
 70
     0
 40
0.0
 41
0.7
 50
0.0
 71
     0
 42
361.62496667750372
  3
SIMPLEX.shx
  4
BIGFONT.shx
  0
ENDTAB
  0
TABLE
  2
VIEW
 70
     1
  0
VIEW
  2
ALL
 70
     0
 40
9000.0
 10
241.50664699999999
 20
0.0
 41
12483.01
 11
0.0
 21
0.0
 31
1.0
 12
0.0
 22
0.0
 32
0.0
 42
50.0
 43
0.0
 44
0.0
 50
0.0
 71
     0
  0
ENDTAB
  0
TABLE
  2
UCS
 70
     0
  0
ENDTAB
  0
TABLE
  2
APPID
 70
     4
  0
APPID
  2
ACAD
 70
     0
  0
APPID
  2
ACADANNOTATIVE
 70
     0
  0
APPID
  2
ACAD_MLEADERVER
 70
     0
  0
APPID
  2
ACAD_EXEMPT_FROM_CAD_STANDARDS
 70
     0
  0
ENDTAB
  0
TABLE
  2
DIMSTYLE
 70
     3
  0
DIMSTYLE
  2
STANDARD
 70
     0
  3

  4

  5

  6

  7

 40
1.0
 41
0.18
 42
0.0625
 43
0.38
 44
0.18
 45
0.0
 46
0.0
 47
0.0
 48
0.0
140
0.18
141
0.09
142
0.0
143
25.399999999999999
144
1.0
145
0.0
146
1.0
147
0.09
 71
     0
 72
     0
 73
     1
 74
     1
 75
     0
 76
     0
 77
     0
 78
     0
170
     0
171
     2
172
     0
173
     0
174
     0
175
     0
176
     0
177
     0
178
     0
  0
DIMSTYLE
  2
ANNOTATIVE
 70
     0
  3

  4

  5

  6

  7

 40
1.0
 41
0.18
 42
0.0625
 43
0.38
 44
0.18
 45
0.0
 46
0.0
 47
0.0
 48
0.0
140
0.18
141
0.09
142
0.0
143
25.399999999999999
144
1.0
145
0.0
146
1.0
147
0.09
 71
     0
 72
     0
 73
     1
 74
     1
 75
     0
 76
     0
 77
     0
 78
     0
170
     0
171
     2
172
     0
173
     0
174
     0
175
     0
176
     0
177
     0
178
     0
  0
ENDTAB
  0
ENDSEC
  0
SECTION
  2
BLOCKS
  0
BLOCK
  8
0
  2
$MODEL_SPACE
 70
     0
 10
0.0
 20
0.0
 30
0.0
  3
$MODEL_SPACE
  1

  0
ENDBLK
  5
76
  8
0
  0
BLOCK
 67
     1
  8
0
  2
$PAPER_SPACE
 70
     0
 10
0.0
 20
0.0
 30
0.0
  3
$PAPER_SPACE
  1

  0
ENDBLK
  5
72
 67
     1
  8
0
  0
BLOCK
  8
0
  2
_SMALL
 70
     0
 10
0.0
 20
0.0
 30
0.0
  3
_SMALL
  1

  0
CIRCLE
  5
8D
  8
0
  6
CONTINUOUS
 62
     7
 10
0.0
 20
0.0
 30
0.0
 40
0.25
  0
ENDBLK
  5
8E
  8
0
  0
ENDSEC
  0
SECTION
  2
ENTITIES
  0
LINE
  5
8F
  8
DETAIL
  6
CONTINUOUS
 62
     5
 10
-349.99999999999977
 20
1900.0
 30
0.0
 11
-349.99999999999977
 21
1434.9999999999991
 31
0.0
  0
LINE
  5
90
  8
DETAIL
  6
CONTINUOUS
 62
     5
 10
-349.99999999999977
 20
1434.9999999999991
 30
0.0
 11
349.99999999999977
 21
1434.9999999999991
 31
0.0
  0
LINE
  5
91
  8
DETAIL
  6
CONTINUOUS
 62
     5
 10
-349.99999999999977
 20
1900.0
 30
0.0
 11
349.99999999999977
 21
1900.0
 31
0.0
  0
LINE
  5
92
  8
DETAIL
  6
CONTINUOUS
 62
     5
 10
349.99999999999977
 20
1434.9999999999991
 30
0.0
 11
349.99999999999977
 21
1900.0
 31
0.0
  0
LINE
  5
93
  8
DETAIL
  6
CONTINUOUS
 62
     5
 10
-17.441480322580929
 20
19.200000000000259
 30
0.0
 11
-13.12859474582104
 21
19.200000000000259
 31
0.0
  0
LINE
  5
94
  8
DETAIL
  6
CONTINUOUS
 62
     5
 10
-17.46397200000024
 20
73.799999999999699
 30
0.0
 11
-17.44098600000029
 21
18.0
 31
0.0
  0
LINE
  5
95
  8
DETAIL
  6
CONTINUOUS
 62
     5
 10
16.463972999999669
 20
73.799999999999699
 30
0.0
 11
16.44770074063408
 21
34.298039128085342
 31
0.0
  0
LINE
  5
96
  8
DETAIL
  6
CONTINUOUS
 62
     5
 10
-17.44098600000029
 20
18.0
 30
0.0
 11
-12.04159457879207
 21
18.0
 31
0.0
  0
LINE
  5
97
  8
NOTE
  6
CONTINUOUS
 62
     4
 10
333.66666700000019
 20
160.0
 30
0.0
 11
266.33333400000021
 21
160.0
 31
0.0
  0
LINE
  5
98
  8
NOTE
  6
CONTINUOUS
 62
     4
 10
299.99999999999972
 20
193.6666669999999
 30
0.0
 11
299.99999999999972
 21
126.33333399999979
 31
0.0
  0
LINE
  5
99
  8
NOTE
  6
CONTINUOUS
 62
     4
 10
307.66666700000019
 20
220.0
 30
0.0
 11
232.33333400000009
 21
220.0
 31
0.0
  0
LINE
  5
9A
  8
NOTE
  6
CONTINUOUS
 62
     4
 10
269.99999999999972
 20
257.66666700000002
 30
0.0
 11
269.99999999999972
 21
182.33333399999989
 31
0.0
  0
LINE
  5
9B
  8
NOTE
  6
CONTINUOUS
 62
     4
 10
333.66666700000019
 20
285.0
 30
0.0
 11
266.33333400000021
 21
285.0
 31
0.0
  0
LINE
  5
9C
  8
NOTE
  6
CONTINUOUS
 62
     4
 10
299.99999999999972
 20
318.66666700000002
 30
0.0
 11
299.99999999999972
 21
251.33333399999989
 31
0.0
  0
LINE
  5
9D
  8
NOTE
  6
CONTINUOUS
 62
     4
 10
307.66666700000019
 20
345.0
 30
0.0
 11
232.33333400000009
 21
345.0
 31
0.0
  0
LINE
  5
9E
  8
NOTE
  6
CONTINUOUS
 62
     4
 10
269.99999999999972
 20
382.66666700000002
 30
0.0
 11
269.99999999999972
 21
307.33333399999992
 31
0.0
  0
LINE
  5
9F
  8
NOTE
  6
CONTINUOUS
 62
     4
 10
332.16666700000019
 20
859.99999999999955
 30
0.0
 11
256.83333400000009
 21
859.99999999999955
 31
0.0
  0
LINE
  5
A0
  8
NOTE
  6
CONTINUOUS
 62
     4
 10
335.30485636358191
 20
939.99999999999955
 30
0.0
 11
253.69514463641801
 21
939.99999999999955
 31
0.0
  0
LINE
  5
A1
  8
NOTE
  6
CONTINUOUS
 62
     4
 10
330.00055636046432
 20
1019.999999999999
 30
0.0
 11
258.99944463953562
 21
1019.999999999999
 31
0.0
  0
LINE
  5
A2
  8
NOTE
  6
CONTINUOUS
 62
     4
 10
294.50000000000028
 20
1053.5892981995421
 30
0.0
 11
294.50000000000028
 21
986.41070075582616
 31
0.0
  0
LINE
  5
A3
  8
DETAIL
  6
CONTINUOUS
 62
     5
 10
336.7999999999999
 20
112.0
 30
0.0
 11
336.7999999999999
 21
110.0
 31
0.0
  0
LINE
  5
A4
  8
DETAIL
  6
CONTINUOUS
 62
     5
 10
426.79999999999978
 20
110.000837
 30
0.0
 11
426.79999999999978
 21
112.0
 31
0.0
  0
LINE
  5
A5
  8
DETAIL
  6
CONTINUOUS
 62
     5
 10
433.19999999999987
 20
77.0
 30
0.0
 11
429.49999999999977
 21
77.0
 31
0.0
  0
LINE
  5
A6
  8
DETAIL
  6
CONTINUOUS
 62
     5
 10
429.99999999999977
 20
73.799999999999699
 30
0.0
 11
429.49999999999977
 21
73.799999999999699
 31
0.0
  0
LINE
  5
A7
  8
DETAIL
  6
CONTINUOUS
 62
     5
 10
-433.19999999999987
 20
77.0
 30
0.0
 11
-429.49999999999977
 21
77.0
 31
0.0
  0
LINE
  5
A8
  8
DETAIL
  6
CONTINUOUS
 62
     5
 10
-429.99999999999977
 20
73.799999999999699
 30
0.0
 11
-429.49999999999977
 21
73.799999999999699
 31
0.0
  0
ARC
  5
A9
  8
DETAIL
  6
CONTINUOUS
 62
     5
 10
-433.19999999999987
 20
106.7999999999997
 30
0.0
 40
3.2000000000000002
 50
0.0
 51
90.0
  0
ARC
  5
AA
  8
DETAIL
  6
CONTINUOUS
 62
     5
 10
-429.99999999999977
 20
77.0
 30
0.0
 40
3.2000000000000002
 50
180.0
 51
270.0
  0
LINE
  5
AB
  8
DETAIL
  6
CONTINUOUS
 62
     5
 10
-433.19999999999987
 20
110.0
 30
0.0
 11
-449.99999999999977
 21
110.0
 31
0.0
  0
LINE
  5
AC
  8
DETAIL
  6
CONTINUOUS
 62
     5
 10
-433.19999999999987
 20
106.7999999999997
 30
0.0
 11
-449.99999999999977
 21
106.7999999999997
 31
0.0
  0
LINE
  5
AD
  8
DETAIL
  6
CONTINUOUS
 62
     5
 10
-429.99999999999977
 20
77.0
 30
0.0
 11
-429.99999999999977
 21
106.7999999999997
 31
0.0
  0
LINE
  5
AE
  8
DETAIL
  6
CONTINUOUS
 62
     5
 10
-433.19999999999987
 20
77.0
 30
0.0
 11
-433.19999999999987
 21
106.7999999999997
 31
0.0
  0
LINE
  5
AF
  8
DETAIL
  6
CONTINUOUS
 62
     5
 10
-449.99999999999977
 20
110.0
 30
0.0
 11
-449.99999999999977
 21
106.7999999999997
 31
0.0
  0
LINE
  5
B0
  8
DETAIL
  6
CONTINUOUS
 62
     5
 10
-433.19999999999987
 20
82.0
 30
0.0
 11
-429.99999999999977
 21
82.0
 31
0.0
  0
LINE
  5
B1
  8
DETAIL
  6
CONTINUOUS
 62
     5
 10
-444.99999999999972
 20
110.0
 30
0.0
 11
-444.99999999999972
 21
106.7999999999997
 31
0.0
  0
ARC
  5
B2
  8
DETAIL
  6
CONTINUOUS
 62
     5
 10
433.19999999999987
 20
106.7999999999997
 30
0.0
 40
3.2000000000000002
 50
90.0
 51
180.0
  0
ARC
  5
B3
  8
DETAIL
  6
CONTINUOUS
 62
     5
 10
429.99999999999977
 20
77.0
 30
0.0
 40
3.2000000000000002
 50
270.0
 51
0.0
  0
LINE
  5
B4
  8
DETAIL
  6
CONTINUOUS
 62
     5
 10
433.19999999999987
 20
110.0
 30
0.0
 11
449.99999999999977
 21
110.0
 31
0.0
  0
LINE
  5
B5
  8
DETAIL
  6
CONTINUOUS
 62
     5
 10
433.19999999999987
 20
106.7999999999997
 30
0.0
 11
449.99999999999977
 21
106.7999999999997
 31
0.0
  0
LINE
  5
B6
  8
DETAIL
  6
CONTINUOUS
 62
     5
 10
429.99999999999977
 20
77.0
 30
0.0
 11
429.99999999999977
 21
106.7999999999997
 31
0.0
  0
LINE
  5
B7
  8
DETAIL
  6
CONTINUOUS
 62
     5
 10
433.19999999999987
 20
77.0
 30
0.0
 11
433.19999999999987
 21
106.7999999999997
 31
0.0
  0
LINE
  5
B8
  8
DETAIL
  6
CONTINUOUS
 62
     5
 10
449.99999999999977
 20
110.0
 30
0.0
 11
449.99999999999977
 21
106.7999999999997
 31
0.0
  0
LINE
  5
B9
  8
DETAIL
  6
CONTINUOUS
 62
     5
 10
433.19999999999987
 20
82.0
 30
0.0
 11
429.99999999999977
 21
82.0
 31
0.0
  0
LINE
  5
BA
  8
DETAIL
  6
CONTINUOUS
 62
     5
 10
444.99999999999972
 20
110.0
 30
0.0
 11
444.99999999999972
 21
106.7999999999997
 31
0.0
  0
LINE
  5
BB
  8
DETAIL
  6
CONTINUOUS
 62
     5
 10
-336.60000000000008
 20
110.0
 30
0.0
 11
-336.60000000000008
 21
112.0
 31
0.0
  0
LINE
  5
BC
  8
DETAIL
  6
CONTINUOUS
 62
     5
 10
-426.60000000000002
 20
112.0
 30
0.0
 11
-426.60000000000002
 21
110.0
 31
0.0
  0
CIRCLE
  5
BD
  8
DETAIL
  6
CONTINUOUS
 62
     5
 10
0.0000000000002274
 20
30.0
 30
0.0
 40
17.0
  0
CIRCLE
  5
BE
  8
DETAIL
  6
CONTINUOUS
 62
     5
 10
0.0000000000002274
 20
30.0
 30
0.0
 40
15.0
  0
CIRCLE
  5
BF
  8
DETAIL
  6
CONTINUOUS
 62
     5
 10
0.0000000000002274
 20
30.0
 30
0.0
 40
14.0
  0
CIRCLE
  5
C0
  8
DETAIL
  6
CONTINUOUS
 62
     5
 10
0.0000000000002274
 20
30.0
 30
0.0
 40
12.0
  0
ARC
  5
C1
  8
DETAIL
  6
CONTINUOUS
 62
     5
 10
-386.99999999999977
 20
56.20000000000028
 30
0.0
 40
8.5
 50
121.5692969999786
 51
238.4307030000214
  0
ARC
  5
C2
  8
DETAIL
  6
CONTINUOUS
 62
     5
 10
386.99999999999977
 20
56.20000000000028
 30
0.0
 40
8.5
 50
301.56929699997858
 51
58.430703000021367
  0
ARC
  5
C3
  8
DETAIL
  6
CONTINUOUS
 62
     5
 10
386.99999999999977
 20
56.20000000000028
 30
0.0
 40
8.5
 50
121.5692969999786
 51
238.4307030000214
  0
LINE
  5
C4
  8
DETAIL
  6
CONTINUOUS
 62
     5
 10
439.4999999999996
 20
63.79999999999972
 30
0.0
 11
439.4999999999996
 21
0.0
 31
0.0
  0
LINE
  5
C5
  8
DETAIL
  6
CONTINUOUS
 62
     5
 10
429.49999999999977
 20
0.0
 30
0.0
 11
429.49999999999977
 21
3.2000000000002711
 31
0.0
  0
LINE
  5
C6
  8
DETAIL
  6
CONTINUOUS
 62
     5
 10
429.49999999999977
 20
110.0
 30
0.0
 11
429.49999999999977
 21
73.799999999999699
 31
0.0
  0
LINE
  5
C7
  8
DETAIL
  6
CONTINUOUS
 62
     5
 10
439.4999999999996
 20
63.79999999999972
 30
0.0
 11
429.49999999999977
 21
73.799999999999699
 31
0.0
  0
LINE
  5
C8
  8
DETAIL
  6
CONTINUOUS
 62
     5
 10
-439.4999999999996
 20
0.0
 30
0.0
 11
439.4999999999996
 21
0.0
 31
0.0
  0
LINE
  5
C9
  8
DETAIL
  6
CONTINUOUS
 62
     5
 10
-439.4999999999996
 20
3.2000000000002711
 30
0.0
 11
439.4999999999996
 21
3.2000000000002711
 31
0.0
  0
LINE
  5
CA
  8
DETAIL
  6
CONTINUOUS
 62
     5
 10
-429.49999999999977
 20
73.799999999999699
 30
0.0
 11
-429.49999999999977
 21
73.799999999999699
 31
0.0
  0
LINE
  5
CB
  8
DETAIL
  6
CONTINUOUS
 62
     5
 10
-429.49999999999977
 20
73.799999999999699
 30
0.0
 11
429.49999999999977
 21
73.799999999999699
 31
0.0
  0
LINE
  5
CC
  8
DETAIL
  6
CONTINUOUS
 62
     5
 10
-429.49999999999977
 20
106.7999999999997
 30
0.0
 11
429.49999999999977
 21
106.7999999999997
 31
0.0
  0
LINE
  5
CD
  8
DETAIL
  6
CONTINUOUS
 62
     5
 10
-429.49999999999977
 20
110.0
 30
0.0
 11
429.49999999999977
 21
110.0
 31
0.0
  0
LINE
  5
CE
  8
DETAIL
  6
CONTINUOUS
 62
     5
 10
-429.49999999999977
 20
73.799999999999699
 30
0.0
 11
-439.4999999999996
 21
63.79999999999972
 31
0.0
  0
LINE
  5
CF
  8
DETAIL
  6
CONTINUOUS
 62
     5
 10
-429.49999999999977
 20
110.0
 30
0.0
 11
-429.49999999999977
 21
73.799999999999699
 31
0.0
  0
LINE
  5
D0
  8
DETAIL
  6
CONTINUOUS
 62
     5
 10
-429.49999999999977
 20
0.0
 30
0.0
 11
-429.49999999999977
 21
3.2000000000002711
 31
0.0
  0
LINE
  5
D1
  8
DETAIL
  6
CONTINUOUS
 62
     5
 10
-439.4999999999996
 20
0.0
 30
0.0
 11
-439.4999999999996
 21
63.79999999999972
 31
0.0
  0
ARC
  5
D2
  8
DETAIL
  6
CONTINUOUS
 62
     5
 10
-386.99999999999977
 20
56.20000000000028
 30
0.0
 40
8.5
 50
301.56929699997858
 51
58.430703000021367
  0
CIRCLE
  5
D3
  8
DETAIL
  6
CONTINUOUS
 62
     5
 10
294.69999999999999
 20
939.99999999999955
 30
0.0
 40
30.0
  0
CIRCLE
  5
D4
  8
DETAIL
  6
CONTINUOUS
 62
     5
 10
294.69999999999999
 20
859.99999999999955
 30
0.0
 40
30.0
  0
CIRCLE
  5
D5
  8
DETAIL
  6
CONTINUOUS
 62
     5
 10
294.69999999999999
 20
1019.999999999999
 30
0.0
 40
30.0
  0
LINE
  5
D6
  8
DETAIL
  6
CONTINUOUS
 62
     5
 10
-449.99999999999977
 20
1978.799999999999
 30
0.0
 11
-449.99999999999977
 21
113.2000000000003
 31
0.0
  0
LINE
  5
D7
  8
DETAIL
  6
CONTINUOUS
 62
     5
 10
449.99999999999977
 20
1978.799999999999
 30
0.0
 11
449.99999999999977
 21
113.2000000000003
 31
0.0
  0
LINE
  5
D8
  8
DETAIL
  6
CONTINUOUS
 62
     5
 10
-171.7999999999999
 20
1980.0
 30
0.0
 11
-448.79999999999978
 21
1980.0
 31
0.0
  0
ARC
  5
D9
  8
DETAIL
  6
CONTINUOUS
 62
     5
 10
-74.999999999999787
 20
226.5
 30
0.0
 40
25.0
 50
180.0
 51
0.0
  0
LINE
  5
DA
  8
DETAIL
  6
CONTINUOUS
 62
     5
 10
-448.79999999999978
 20
1978.799999999999
 30
0.0
 11
-449.99999999999977
 21
1978.799999999999
 31
0.0
  0
LINE
  5
DB
  8
DETAIL
  6
CONTINUOUS
 62
     5
 10
-448.79999999999978
 20
1980.0
 30
0.0
 11
-448.79999999999978
 21
1978.799999999999
 31
0.0
  0
LINE
  5
DC
  8
DETAIL
  6
CONTINUOUS
 62
     5
 10
-448.79999999999978
 20
113.2000000000003
 30
0.0
 11
-449.99999999999977
 21
113.2000000000003
 31
0.0
  0
LINE
  5
DD
  8
DETAIL
  6
CONTINUOUS
 62
     5
 10
-448.79999999999978
 20
112.0
 30
0.0
 11
-448.79999999999978
 21
113.2000000000003
 31
0.0
  0
LINE
  5
DE
  8
DETAIL
  6
CONTINUOUS
 62
     5
 10
-334.7999999999999
 20
112.0
 30
0.0
 11
-334.7999999999999
 21
110.0
 31
0.0
  0
LINE
  5
DF
  8
DETAIL
  6
CONTINUOUS
 62
     5
 10
-448.79999999999978
 20
112.0
 30
0.0
 11
448.79999999999978
 21
112.0
 31
0.0
  0
LINE
  5
E0
  8
DETAIL
  6
CONTINUOUS
 62
     5
 10
334.7999999999999
 20
112.0
 30
0.0
 11
334.7999999999999
 21
110.0
 31
0.0
  0
LINE
  5
E1
  8
DETAIL
  6
CONTINUOUS
 62
     5
 10
448.79999999999978
 20
112.0
 30
0.0
 11
448.79999999999978
 21
113.2000000000003
 31
0.0
  0
LINE
  5
E2
  8
DETAIL
  6
CONTINUOUS
 62
     5
 10
449.99999999999977
 20
113.2000000000003
 30
0.0
 11
448.79999999999978
 21
113.2000000000003
 31
0.0
  0
LINE
  5
E3
  8
DETAIL
  6
CONTINUOUS
 62
     5
 10
449.99999999999977
 20
1978.799999999999
 30
0.0
 11
448.79999999999978
 21
1978.799999999999
 31
0.0
  0
LINE
  5
E4
  8
DETAIL
  6
CONTINUOUS
 62
     5
 10
448.79999999999978
 20
1980.0
 30
0.0
 11
448.79999999999978
 21
1978.799999999999
 31
0.0
  0
ARC
  5
E5
  8
DETAIL
  6
CONTINUOUS
 62
     5
 10
425.90000000000032
 20
112.3008370000002
 30
0.0
 40
2.299999999999998
 50
187.51574800002089
 51
270.0
  0
LINE
  5
E6
  8
DETAIL
  6
CONTINUOUS
 62
     5
 10
35.000000000000227
 20
424.0
 30
0.0
 11
32.000000000000227
 21
427.0
 31
0.0
  0
LINE
  5
E7
  8
DETAIL
  6
CONTINUOUS
 62
     5
 10
35.000000000000227
 20
210.0
 30
0.0
 11
35.000000000000227
 21
424.0
 31
0.0
  0
LINE
  5
E8
  8
DETAIL
  6
CONTINUOUS
 62
     5
 10
32.000000000000227
 20
207.0
 30
0.0
 11
35.000000000000227
 21
210.0
 31
0.0
  0
LINE
  5
E9
  8
DETAIL
  6
CONTINUOUS
 62
     5
 10
-46.999999999999773
 20
207.0
 30
0.0
 11
32.000000000000227
 21
207.0
 31
0.0
  0
LINE
  5
EA
  8
DETAIL
  6
CONTINUOUS
 62
     5
 10
-49.999999999999773
 20
210.0
 30
0.0
 11
-46.999999999999773
 21
207.0
 31
0.0
  0
LINE
  5
EB
  8
DETAIL
  6
CONTINUOUS
 62
     5
 10
-49.999999999999773
 20
210.0
 30
0.0
 11
-49.999999999999773
 21
227.0
 31
0.0
  0
ARC
  5
EC
  8
DETAIL
  6
CONTINUOUS
 62
     5
 10
-74.999999999999787
 20
227.0
 30
0.0
 40
25.0
 50
0.0
 51
180.0
  0
LINE
  5
ED
  8
DETAIL
  6
CONTINUOUS
 62
     5
 10
-99.999999999999787
 20
210.0
 30
0.0
 11
-99.999999999999787
 21
227.0
 31
0.0
  0
LINE
  5
EE
  8
DETAIL
  6
CONTINUOUS
 62
     5
 10
-102.9999999999998
 20
207.0
 30
0.0
 11
-99.999999999999787
 21
210.0
 31
0.0
  0
LINE
  5
EF
  8
DETAIL
  6
CONTINUOUS
 62
     5
 10
-301.99999999999972
 20
207.0
 30
0.0
 11
-102.9999999999998
 21
207.0
 31
0.0
  0
LINE
  5
F0
  8
DETAIL
  6
CONTINUOUS
 62
     5
 10
-304.99999999999972
 20
210.0
 30
0.0
 11
-301.99999999999972
 21
207.0
 31
0.0
  0
LINE
  5
F1
  8
DETAIL
  6
CONTINUOUS
 62
     5
 10
-304.99999999999972
 20
424.0
 30
0.0
 11
-304.99999999999972
 21
210.0
 31
0.0
  0
LINE
  5
F2
  8
DETAIL
  6
CONTINUOUS
 62
     5
 10
-301.99999999999972
 20
427.0
 30
0.0
 11
-304.99999999999972
 21
424.0
 31
0.0
  0
LINE
  5
F3
  8
DETAIL
  6
CONTINUOUS
 62
     5
 10
32.000000000000227
 20
427.0
 30
0.0
 11
-301.99999999999972
 21
427.0
 31
0.0
  0
ARC
  5
F4
  8
DETAIL
  6
CONTINUOUS
 62
     5
 10
446.89993899999848
 20
268.25
 30
0.0
 40
7.2500000000003109
 50
295.31500530463939
 51
0.0
  0
LINE
  5
F5
  8
DETAIL
  6
CONTINUOUS
 62
     5
 10
454.14993899999962
 20
282.5
 30
0.0
 11
454.14993899999962
 21
268.25
 31
0.0
  0
LINE
  5
F6
  8
DETAIL
  6
CONTINUOUS
 62
     5
 10
449.99993899999998
 20
347.5
 30
0.0
 11
456.39987799999989
 21
347.5
 31
0.0
  0
LINE
  5
F7
  8
DETAIL
  6
CONTINUOUS
 62
     5
 10
454.14993899999962
 20
361.75
 30
0.0
 11
454.14993899999962
 21
347.5
 31
0.0
  0
ARC
  5
F8
  8
DETAIL
  6
CONTINUOUS
 62
     5
 10
446.91677656225488
 20
361.75487409128618
 30
0.0
 40
7.2331640799561621
 50
359.96139104855422
 51
64.769425979668966
  0
LINE
  5
F9
  8
DETAIL
  6
CONTINUOUS
 62
     5
 10
456.39993899999962
 20
282.5
 30
0.0
 11
456.39993899999962
 21
347.5
 31
0.0
  0
LINE
  5
FA
  8
DETAIL
  6
CONTINUOUS
 62
     5
 10
456.39993899999962
 20
282.5
 30
0.0
 11
449.99993899999998
 21
282.5
 31
0.0
  0
LINE
  5
FB
  8
DETAIL
  6
CONTINUOUS
 62
     5
 10
456.39973299999991
 20
302.0
 30
0.0
 11
449.99993899999998
 21
302.0
 31
0.0
  0
LINE
  5
FC
  8
DETAIL
  6
CONTINUOUS
 62
     5
 10
449.99993899999998
 20
302.5
 30
0.0
 11
456.39973299999991
 21
302.5
 31
0.0
  0
LINE
  5
FD
  8
DETAIL
  6
CONTINUOUS
 62
     5
 10
456.39973299999991
 20
328.0
 30
0.0
 11
449.99993899999998
 21
328.0
 31
0.0
  0
LINE
  5
FE
  8
DETAIL
  6
CONTINUOUS
 62
     5
 10
449.99993899999998
 20
327.5
 30
0.0
 11
456.39973299999991
 21
327.5
 31
0.0
  0
ARC
  5
FF
  8
DETAIL
  6
CONTINUOUS
 62
     5
 10
446.91692098400893
 20
1118.2451017600149
 30
0.0
 40
7.2330806745362519
 50
295.22962068397959
 51
0.0388006870390952
  0
LINE
  5
100
  8
DETAIL
  6
CONTINUOUS
 62
     5
 10
454.15000000000032
 20
1132.4999999999991
 30
0.0
 11
454.15000000000032
 21
1118.2499999999991
 31
0.0
  0
LINE
  5
101
  8
DETAIL
  6
CONTINUOUS
 62
     5
 10
449.99999999999977
 20
1197.4999999999991
 30
0.0
 11
456.39993899999962
 21
1197.4999999999991
 31
0.0
  0
LINE
  5
102
  8
DETAIL
  6
CONTINUOUS
 62
     5
 10
454.15000000000032
 20
1211.7499999999991
 30
0.0
 11
454.15000000000032
 21
1197.4999999999991
 31
0.0
  0
ARC
  5
103
  8
DETAIL
  6
CONTINUOUS
 62
     5
 10
446.91692098400841
 20
1211.7548982399851
 30
0.0
 40
7.2330806745352216
 50
359.96119931293492
 51
64.770379316020382
  0
LINE
  5
104
  8
DETAIL
  6
CONTINUOUS
 62
     5
 10
456.40000000000032
 20
1132.4999999999991
 30
0.0
 11
456.40000000000032
 21
1197.4999999999991
 31
0.0
  0
LINE
  5
105
  8
DETAIL
  6
CONTINUOUS
 62
     5
 10
456.40000000000032
 20
1132.4999999999991
 30
0.0
 11
449.99999999999977
 21
1132.4999999999991
 31
0.0
  0
LINE
  5
106
  8
DETAIL
  6
CONTINUOUS
 62
     5
 10
456.3997939999997
 20
1151.9999999999991
 30
0.0
 11
449.99999999999977
 21
1151.9999999999991
 31
0.0
  0
LINE
  5
107
  8
DETAIL
  6
CONTINUOUS
 62
     5
 10
449.99999999999977
 20
1152.4999999999991
 30
0.0
 11
456.3997939999997
 21
1152.4999999999991
 31
0.0
  0
LINE
  5
108
  8
DETAIL
  6
CONTINUOUS
 62
     5
 10
456.3997939999997
 20
1177.9999999999991
 30
0.0
 11
449.99999999999977
 21
1177.9999999999991
 31
0.0
  0
LINE
  5
109
  8
DETAIL
  6
CONTINUOUS
 62
     5
 10
449.99999999999977
 20
1177.4999999999991
 30
0.0
 11
456.3997939999997
 21
1177.4999999999991
 31
0.0
  0
ARC
  5
10A
  8
DETAIL
  6
CONTINUOUS
 62
     5
 10
446.9167765622571
 20
1368.245125908712
 30
0.0
 40
7.2331640799540651
 50
295.23057402031918
 51
0.0386089514457526
  0
LINE
  5
10B
  8
DETAIL
  6
CONTINUOUS
 62
     5
 10
454.14993899999962
 20
1382.4999999999991
 30
0.0
 11
454.14993899999962
 21
1368.2499999999991
 31
0.0
  0
LINE
  5
10C
  8
DETAIL
  6
CONTINUOUS
 62
     5
 10
449.99993899999998
 20
1447.4999999999991
 30
0.0
 11
456.39987799999989
 21
1447.4999999999991
 31
0.0
  0
LINE
  5
10D
  8
DETAIL
  6
CONTINUOUS
 62
     5
 10
454.14993899999962
 20
1461.7499999999991
 30
0.0
 11
454.14993899999962
 21
1447.4999999999991
 31
0.0
  0
ARC
  5
10E
  8
DETAIL
  6
CONTINUOUS
 62
     5
 10
446.91677656225647
 20
1461.754874091286
 30
0.0
 40
7.2331640799543431
 50
359.96139104855422
 51
64.769425979668966
  0
LINE
  5
10F
  8
DETAIL
  6
CONTINUOUS
 62
     5
 10
456.39993899999962
 20
1382.4999999999991
 30
0.0
 11
456.39993899999962
 21
1447.4999999999991
 31
0.0
  0
LINE
  5
110
  8
DETAIL
  6
CONTINUOUS
 62
     5
 10
456.39993899999962
 20
1382.4999999999991
 30
0.0
 11
449.99993899999998
 21
1382.4999999999991
 31
0.0
  0
LINE
  5
111
  8
DETAIL
  6
CONTINUOUS
 62
     5
 10
456.39973299999991
 20
1401.9999999999991
 30
0.0
 11
449.99993899999998
 21
1401.9999999999991
 31
0.0
  0
LINE
  5
112
  8
DETAIL
  6
CONTINUOUS
 62
     5
 10
449.99993899999998
 20
1402.4999999999991
 30
0.0
 11
456.39973299999991
 21
1402.4999999999991
 31
0.0
  0
LINE
  5
113
  8
DETAIL
  6
CONTINUOUS
 62
     5
 10
456.39973299999991
 20
1427.9999999999991
 30
0.0
 11
449.99993899999998
 21
1427.9999999999991
 31
0.0
  0
LINE
  5
114
  8
DETAIL
  6
CONTINUOUS
 62
     5
 10
449.99993899999998
 20
1427.4999999999991
 30
0.0
 11
456.39973299999991
 21
1427.4999999999991
 31
0.0
  0
LINE
  5
115
  8
DETAIL
  6
CONTINUOUS
 62
     5
 10
456.3997939999997
 20
1871.9999999999991
 30
0.0
 11
449.99999999999977
 21
1871.9999999999991
 31
0.0
  0
LINE
  5
116
  8
DETAIL
  6
CONTINUOUS
 62
     5
 10
449.99999999999977
 20
1872.4999999999991
 30
0.0
 11
456.3997939999997
 21
1872.4999999999991
 31
0.0
  0
LINE
  5
117
  8
DETAIL
  6
CONTINUOUS
 62
     5
 10
456.3997939999997
 20
1897.9999999999991
 30
0.0
 11
449.99999999999977
 21
1897.9999999999991
 31
0.0
  0
LINE
  5
118
  8
DETAIL
  6
CONTINUOUS
 62
     5
 10
449.99999999999977
 20
1897.4999999999991
 30
0.0
 11
456.3997939999997
 21
1897.4999999999991
 31
0.0
  0
ARC
  5
119
  8
DETAIL
  6
CONTINUOUS
 62
     5
 10
446.91692098400802
 20
1838.2451017600149
 30
0.0
 40
7.2330806745358194
 50
295.22962068397959
 51
0.0388006870390952
  0
LINE
  5
11A
  8
DETAIL
  6
CONTINUOUS
 62
     5
 10
454.15000000000032
 20
1852.4999999999991
 30
0.0
 11
454.15000000000032
 21
1838.25
 31
0.0
  0
LINE
  5
11B
  8
DETAIL
  6
CONTINUOUS
 62
     5
 10
456.40000000000032
 20
1852.4999999999991
 30
0.0
 11
449.99999999999977
 21
1852.4999999999991
 31
0.0
  0
LINE
  5
11C
  8
DETAIL
  6
CONTINUOUS
 62
     5
 10
456.40000000000032
 20
1852.4999999999991
 30
0.0
 11
456.40000000000032
 21
1917.5
 31
0.0
  0
LINE
  5
11D
  8
DETAIL
  6
CONTINUOUS
 62
     5
 10
449.99999999999977
 20
1917.5
 30
0.0
 11
456.39993899999962
 21
1917.5
 31
0.0
  0
LINE
  5
11E
  8
DETAIL
  6
CONTINUOUS
 62
     5
 10
454.15000000000032
 20
1931.7499999999991
 30
0.0
 11
454.15000000000032
 21
1917.5
 31
0.0
  0
ARC
  5
11F
  8
DETAIL
  6
CONTINUOUS
 62
     5
 10
446.9169209840075
 20
1931.754898239984
 30
0.0
 40
7.233080674536132
 50
359.96119931293492
 51
64.770379316008601
  0
LINE
  5
120
  8
DETAIL
  6
CONTINUOUS
 62
     5
 10
338.2000000000001
 20
1982.3
 30
0.0
 11
338.2000000000001
 21
1980.0
 31
0.0
  0
LINE
  5
121
  8
DETAIL
  6
CONTINUOUS
 62
     5
 10
48.200000000000031
 20
1982.3
 30
0.0
 11
48.200000000000031
 21
1980.0
 31
0.0
  0
LINE
  5
122
  8
DETAIL
  6
CONTINUOUS
 62
     5
 10
338.2000000000001
 20
1982.3
 30
0.0
 11
118.2
 21
1982.3
 31
0.0
  0
LINE
  5
123
  8
DETAIL
  6
CONTINUOUS
 62
     5
 10
48.200000000000031
 20
1982.3
 30
0.0
 11
-171.7999999999999
 21
1982.3
 31
0.0
  0
LINE
  5
124
  8
DETAIL
  6
CONTINUOUS
 62
     5
 10
333.2000000000001
 20
1982.3
 30
0.0
 11
333.2000000000001
 21
1980.0
 31
0.0
  0
LINE
  5
125
  8
DETAIL
  6
CONTINUOUS
 62
     5
 10
43.200000000000031
 20
1982.3
 30
0.0
 11
43.200000000000031
 21
1980.0
 31
0.0
  0
LINE
  5
126
  8
DETAIL
  6
CONTINUOUS
 62
     5
 10
118.2
 20
1980.0
 30
0.0
 11
118.2
 21
1982.3
 31
0.0
  0
LINE
  5
127
  8
DETAIL
  6
CONTINUOUS
 62
     5
 10
-171.7999999999999
 20
1980.0
 30
0.0
 11
-171.7999999999999
 21
1982.3
 31
0.0
  0
LINE
  5
128
  8
DETAIL
  6
CONTINUOUS
 62
     5
 10
123.2
 20
1982.3
 30
0.0
 11
123.2
 21
1980.0
 31
0.0
  0
LINE
  5
129
  8
DETAIL
  6
CONTINUOUS
 62
     5
 10
-166.7999999999999
 20
1982.3
 30
0.0
 11
-166.7999999999999
 21
1980.0
 31
0.0
  0
LINE
  5
12A
  8
DETAIL
  6
CONTINUOUS
 62
     5
 10
350.49999999999977
 20
70.0
 30
0.0
 11
310.49999999999972
 21
70.0
 31
0.0
  0
LINE
  5
12B
  8
DETAIL
  6
CONTINUOUS
 62
     5
 10
-310.49999999999972
 20
3.2000000000002711
 30
0.0
 11
-430.49999999999972
 21
3.2000000000002711
 31
0.0
  0
LINE
  5
12C
  8
DETAIL
  6
CONTINUOUS
 62
     5
 10
-420.49999999999972
 20
6.4000000000000892
 30
0.0
 11
-420.49999999999972
 21
3.2000000000002711
 31
0.0
  0
LINE
  5
12D
  8
DETAIL
  6
CONTINUOUS
 62
     5
 10
-310.49999999999972
 20
6.4000000000000892
 30
0.0
 11
-430.49999999999972
 21
6.4000000000000892
 31
0.0
  0
LINE
  5
12E
  8
DETAIL
  6
CONTINUOUS
 62
     5
 10
-430.49999999999972
 20
3.2000000000002711
 30
0.0
 11
-430.49999999999972
 21
60.0
 31
0.0
  0
LINE
  5
12F
  8
DETAIL
  6
CONTINUOUS
 62
     5
 10
-415.49999999999972
 20
70.0
 30
0.0
 11
-415.49999999999972
 21
73.200000000000273
 31
0.0
  0
LINE
  5
130
  8
DETAIL
  6
CONTINUOUS
 62
     5
 10
-420.49999999999972
 20
70.0
 30
0.0
 11
-350.49999999999977
 21
70.0
 31
0.0
  0
LINE
  5
131
  8
DETAIL
  6
CONTINUOUS
 62
     5
 10
-420.49999999999972
 20
70.0
 30
0.0
 11
-430.49999999999972
 21
60.0
 31
0.0
  0
LINE
  5
132
  8
DETAIL
  6
CONTINUOUS
 62
     5
 10
-389.49999999999977
 20
48.70000000000028
 30
0.0
 11
-384.49999999999977
 21
48.70000000000028
 31
0.0
  0
ARC
  5
133
  8
DETAIL
  6
CONTINUOUS
 62
     5
 10
-389.49999999999977
 20
56.20000000000028
 30
0.0
 40
7.5
 50
90.0
 51
270.0
  0
LINE
  5
134
  8
DETAIL
  6
CONTINUOUS
 62
     5
 10
-389.49999999999977
 20
63.70000000000028
 30
0.0
 11
-384.49999999999977
 21
63.70000000000028
 31
0.0
  0
ARC
  5
135
  8
DETAIL
  6
CONTINUOUS
 62
     5
 10
-384.49999999999977
 20
56.20000000000028
 30
0.0
 40
7.5
 50
270.0
 51
90.0
  0
LINE
  5
136
  8
DETAIL
  6
CONTINUOUS
 62
     5
 10
-415.49999999999972
 20
73.200000000000273
 30
0.0
 11
-310.49999999999972
 21
73.200000000000273
 31
0.0
  0
LINE
  5
137
  8
DETAIL
  6
CONTINUOUS
 62
     5
 10
-310.49999999999972
 20
55.200000000000273
 30
0.0
 11
-310.49999999999972
 21
73.200000000000273
 31
0.0
  0
LINE
  5
138
  8
DETAIL
  6
CONTINUOUS
 62
     5
 10
-350.49999999999977
 20
55.200000000000273
 30
0.0
 11
-350.49999999999977
 21
73.200000000000273
 31
0.0
  0
LINE
  5
139
  8
DETAIL
  6
CONTINUOUS
 62
     5
 10
-350.49999999999977
 20
55.200000000000273
 30
0.0
 11
-310.49999999999972
 21
55.200000000000273
 31
0.0
  0
LINE
  5
13A
  8
DETAIL
  6
CONTINUOUS
 62
     5
 10
-310.49999999999972
 20
3.2000000000002711
 30
0.0
 11
-310.49999999999972
 21
55.200000000000273
 31
0.0
  0
LINE
  5
13B
  8
DETAIL
  6
CONTINUOUS
 62
     5
 10
310.49999999999972
 20
55.200000000000273
 30
0.0
 11
310.49999999999972
 21
73.200000000000273
 31
0.0
  0
LINE
  5
13C
  8
DETAIL
  6
CONTINUOUS
 62
     5
 10
350.49999999999977
 20
55.200000000000273
 30
0.0
 11
310.49999999999972
 21
55.200000000000273
 31
0.0
  0
LINE
  5
13D
  8
DETAIL
  6
CONTINUOUS
 62
     5
 10
310.49999999999972
 20
3.2000000000002711
 30
0.0
 11
310.49999999999972
 21
55.200000000000273
 31
0.0
  0
LINE
  5
13E
  8
DETAIL
  6
CONTINUOUS
 62
     5
 10
350.49999999999977
 20
55.200000000000273
 30
0.0
 11
350.49999999999977
 21
73.200000000000273
 31
0.0
  0
LINE
  5
13F
  8
DETAIL
  6
CONTINUOUS
 62
     5
 10
415.49999999999972
 20
73.200000000000273
 30
0.0
 11
310.49999999999972
 21
73.200000000000273
 31
0.0
  0
LINE
  5
140
  8
DETAIL
  6
CONTINUOUS
 62
     5
 10
420.49999999999972
 20
70.0
 30
0.0
 11
350.49999999999977
 21
70.0
 31
0.0
  0
LINE
  5
141
  8
DETAIL
  6
CONTINUOUS
 62
     5
 10
415.49999999999972
 20
70.0
 30
0.0
 11
415.49999999999972
 21
73.200000000000273
 31
0.0
  0
LINE
  5
142
  8
DETAIL
  6
CONTINUOUS
 62
     5
 10
420.49999999999972
 20
70.0
 30
0.0
 11
430.49999999999972
 21
60.0
 31
0.0
  0
ARC
  5
143
  8
DETAIL
  6
CONTINUOUS
 62
     5
 10
384.49999999999977
 20
56.20000000000028
 30
0.0
 40
7.5
 50
90.0
 51
270.0
  0
LINE
  5
144
  8
DETAIL
  6
CONTINUOUS
 62
     5
 10
389.49999999999977
 20
63.70000000000028
 30
0.0
 11
384.49999999999977
 21
63.70000000000028
 31
0.0
  0
LINE
  5
145
  8
DETAIL
  6
CONTINUOUS
 62
     5
 10
389.49999999999977
 20
48.70000000000028
 30
0.0
 11
384.49999999999977
 21
48.70000000000028
 31
0.0
  0
ARC
  5
146
  8
DETAIL
  6
CONTINUOUS
 62
     5
 10
389.49999999999977
 20
56.20000000000028
 30
0.0
 40
7.5
 50
270.0
 51
90.0
  0
LINE
  5
147
  8
DETAIL
  6
CONTINUOUS
 62
     5
 10
310.49999999999972
 20
3.2000000000002711
 30
0.0
 11
430.49999999999972
 21
3.2000000000002711
 31
0.0
  0
LINE
  5
148
  8
DETAIL
  6
CONTINUOUS
 62
     5
 10
420.49999999999972
 20
6.4000000000000892
 30
0.0
 11
420.49999999999972
 21
3.2000000000002711
 31
0.0
  0
LINE
  5
149
  8
DETAIL
  6
CONTINUOUS
 62
     5
 10
310.49999999999972
 20
6.4000000000000892
 30
0.0
 11
430.49999999999972
 21
6.4000000000000892
 31
0.0
  0
LINE
  5
14A
  8
DETAIL
  6
CONTINUOUS
 62
     5
 10
430.49999999999972
 20
3.2000000000002711
 30
0.0
 11
430.49999999999972
 21
60.0
 31
0.0
  0
LINE
  5
14B
  8
DETAIL
  6
CONTINUOUS
 62
     5
 10
445.60000000000008
 20
112.0
 30
0.0
 11
445.60000000000008
 21
110.000837
 31
0.0
  0
LINE
  5
14C
  8
DETAIL
  6
CONTINUOUS
 62
     5
 10
445.60000000000008
 20
110.000837
 30
0.0
 11
425.90000000000032
 21
110.000837
 31
0.0
  0
LINE
  5
14D
  8
NOTE
  6
CONTINUOUS
 62
     4
 10
848.68104379665851
 20
921.03750625903535
 30
0.0
 11
898.63259087032179
 21
971.09312361165314
 31
0.0
  0
LINE
  5
14E
  8
NOTE
  6
CONTINUOUS
 62
     4
 10
898.63259087032179
 20
870.98188890641495
 30
0.0
 11
848.68104379665851
 21
921.03750625903535
 31
0.0
  0
LINE
  5
14F
  8
NOTE
  6
CONTINUOUS
 62
     4
 10
848.68104379665851
 20
921.03750625903535
 30
0.0
 11
898.63259087032179
 21
971.09312361165314
 31
0.0
  0
LINE
  5
150
  8
NOTE
  6
CONTINUOUS
 62
     4
 10
898.63259087032179
 20
870.98188890641495
 30
0.0
 11
848.68104379665851
 21
921.03750625903535
 31
0.0
  0
LINE
  5
151
  8
NOTE
  6
CONTINUOUS
 62
     4
 10
939.36393534122431
 20
946.06531493534328
 30
0.0
 11
939.36393534122431
 21
896.00969758272504
 31
0.0
  0
LINE
  5
152
  8
NOTE
  6
CONTINUOUS
 62
     4
 10
939.36393534122431
 20
946.06531493534328
 30
0.0
 11
939.36393534122431
 21
896.00969758272504
 31
0.0
  0
LINE
  5
153
  8
NOTE
  6
CONTINUOUS
 62
     4
 10
898.63259087032179
 20
946.06531493534328
 30
0.0
 11
898.63259087032179
 21
971.09312361165314
 31
0.0
  0
LINE
  5
154
  8
NOTE
  6
CONTINUOUS
 62
     4
 10
898.63259087032179
 20
946.06531493534328
 30
0.0
 11
898.63259087032179
 21
971.09312361165314
 31
0.0
  0
LINE
  5
155
  8
NOTE
  6
CONTINUOUS
 62
     4
 10
898.63259087032179
 20
946.06531493534328
 30
0.0
 11
939.36393534122431
 21
946.06531493534328
 31
0.0
  0
LINE
  5
156
  8
NOTE
  6
CONTINUOUS
 62
     4
 10
898.63259087032179
 20
946.06531493534328
 30
0.0
 11
939.36393534122431
 21
946.06531493534328
 31
0.0
  0
LINE
  5
157
  8
NOTE
  6
CONTINUOUS
 62
     4
 10
898.63259087032179
 20
870.98188890641495
 30
0.0
 11
898.63259087032179
 21
896.00969758272504
 31
0.0
  0
LINE
  5
158
  8
NOTE
  6
CONTINUOUS
 62
     4
 10
898.63259087032179
 20
896.00969758272504
 30
0.0
 11
939.36393534122431
 21
896.00969758272504
 31
0.0
  0
LINE
  5
159
  8
NOTE
  6
CONTINUOUS
 62
     4
 10
898.63259087032179
 20
870.98188890641495
 30
0.0
 11
898.63259087032179
 21
896.00969758272504
 31
0.0
  0
LINE
  5
15A
  8
NOTE
  6
CONTINUOUS
 62
     4
 10
898.63259087032179
 20
896.00969758272504
 30
0.0
 11
939.36393534122431
 21
896.00969758272504
 31
0.0
  0
TEXT
  5
15B
  8
NOTE
  6
CONTINUOUS
 62
     4
 10
908.26136778451996
 20
571.16905910734465
 30
0.0
 40
60.0
  1
空気吸込
 50
0.0000025044165917
 41
0.7031250221965211
  7
STANDARD1
  0
LINE
  5
15C
  8
NOTE
  6
CONTINUOUS
 62
     4
 10
848.68104379665851
 20
258.20594419364488
 30
0.0
 11
898.63259087032179
 21
208.15032684102559
 31
0.0
  0
LINE
  5
15D
  8
NOTE
  6
CONTINUOUS
 62
     4
 10
898.63259087032179
 20
308.26156154626511
 30
0.0
 11
848.68104379665851
 21
258.20594419364488
 31
0.0
  0
LINE
  5
15E
  8
NOTE
  6
CONTINUOUS
 62
     4
 10
848.68104379665851
 20
258.20594419364488
 30
0.0
 11
898.63259087032179
 21
208.15032684102559
 31
0.0
  0
LINE
  5
15F
  8
NOTE
  6
CONTINUOUS
 62
     4
 10
898.63259087032179
 20
308.26156154626511
 30
0.0
 11
848.68104379665851
 21
258.20594419364488
 31
0.0
  0
LINE
  5
160
  8
NOTE
  6
CONTINUOUS
 62
     4
 10
939.36393534122431
 20
233.1781355173357
 30
0.0
 11
939.36393534122431
 21
283.23375286995508
 31
0.0
  0
LINE
  5
161
  8
NOTE
  6
CONTINUOUS
 62
     4
 10
939.36393534122431
 20
233.1781355173357
 30
0.0
 11
939.36393534122431
 21
283.23375286995508
 31
0.0
  0
LINE
  5
162
  8
NOTE
  6
CONTINUOUS
 62
     4
 10
898.63259087032179
 20
233.1781355173357
 30
0.0
 11
898.63259087032179
 21
208.15032684102559
 31
0.0
  0
LINE
  5
163
  8
NOTE
  6
CONTINUOUS
 62
     4
 10
898.63259087032179
 20
233.1781355173357
 30
0.0
 11
898.63259087032179
 21
208.15032684102559
 31
0.0
  0
LINE
  5
164
  8
NOTE
  6
CONTINUOUS
 62
     4
 10
898.63259087032179
 20
233.1781355173357
 30
0.0
 11
939.36393534122431
 21
233.1781355173357
 31
0.0
  0
LINE
  5
165
  8
NOTE
  6
CONTINUOUS
 62
     4
 10
898.63259087032179
 20
233.1781355173357
 30
0.0
 11
939.36393534122431
 21
233.1781355173357
 31
0.0
  0
LINE
  5
166
  8
NOTE
  6
CONTINUOUS
 62
     4
 10
898.63259087032179
 20
308.26156154626511
 30
0.0
 11
898.63259087032179
 21
283.23375286995508
 31
0.0
  0
LINE
  5
167
  8
NOTE
  6
CONTINUOUS
 62
     4
 10
898.63259087032179
 20
283.23375286995508
 30
0.0
 11
939.36393534122431
 21
283.23375286995508
 31
0.0
  0
LINE
  5
168
  8
NOTE
  6
CONTINUOUS
 62
     4
 10
898.63259087032179
 20
308.26156154626511
 30
0.0
 11
898.63259087032179
 21
283.23375286995508
 31
0.0
  0
LINE
  5
169
  8
NOTE
  6
CONTINUOUS
 62
     4
 10
898.63259087032179
 20
283.23375286995508
 30
0.0
 11
939.36393534122431
 21
283.23375286995508
 31
0.0
  0
LINE
  5
16A
  8
NOTE
  6
CONTINUOUS
 62
     4
 10
348.60966192727761
 20
2577.7086543804498
 30
0.0
 11
398.66527927989688
 21
2527.7571073067861
 31
0.0
  0
LINE
  5
16B
  8
NOTE
  6
CONTINUOUS
 62
     4
 10
298.55404457465738
 20
2527.7571073067861
 30
0.0
 11
348.60966192727761
 21
2577.7086543804498
 31
0.0
  0
LINE
  5
16C
  8
NOTE
  6
CONTINUOUS
 62
     4
 10
348.60966192727761
 20
2577.7086543804498
 30
0.0
 11
398.66527927989688
 21
2527.7571073067861
 31
0.0
  0
LINE
  5
16D
  8
NOTE
  6
CONTINUOUS
 62
     4
 10
298.55404457465738
 20
2527.7571073067861
 30
0.0
 11
348.60966192727761
 21
2577.7086543804498
 31
0.0
  0
LINE
  5
16E
  8
NOTE
  6
CONTINUOUS
 62
     4
 10
373.63747060358679
 20
2487.0257628358841
 30
0.0
 11
323.58185325096758
 21
2487.0257628358841
 31
0.0
  0
LINE
  5
16F
  8
NOTE
  6
CONTINUOUS
 62
     4
 10
373.63747060358679
 20
2487.0257628358841
 30
0.0
 11
323.58185325096758
 21
2487.0257628358841
 31
0.0
  0
LINE
  5
170
  8
NOTE
  6
CONTINUOUS
 62
     4
 10
373.63747060358679
 20
2527.7571073067861
 30
0.0
 11
398.66527927989688
 21
2527.7571073067861
 31
0.0
  0
LINE
  5
171
  8
NOTE
  6
CONTINUOUS
 62
     4
 10
373.63747060358679
 20
2527.7571073067861
 30
0.0
 11
398.66527927989688
 21
2527.7571073067861
 31
0.0
  0
LINE
  5
172
  8
NOTE
  6
CONTINUOUS
 62
     4
 10
373.63747060358679
 20
2527.7571073067861
 30
0.0
 11
373.63747060358679
 21
2487.0257628358841
 31
0.0
  0
LINE
  5
173
  8
NOTE
  6
CONTINUOUS
 62
     4
 10
373.63747060358679
 20
2527.7571073067861
 30
0.0
 11
373.63747060358679
 21
2487.0257628358841
 31
0.0
  0
LINE
  5
174
  8
NOTE
  6
CONTINUOUS
 62
     4
 10
298.55404457465738
 20
2527.7571073067861
 30
0.0
 11
323.58185325096758
 21
2527.7571073067861
 31
0.0
  0
LINE
  5
175
  8
NOTE
  6
CONTINUOUS
 62
     4
 10
323.58185325096758
 20
2527.7571073067861
 30
0.0
 11
323.58185325096758
 21
2487.0257628358841
 31
0.0
  0
LINE
  5
176
  8
NOTE
  6
CONTINUOUS
 62
     4
 10
298.55404457465738
 20
2527.7571073067861
 30
0.0
 11
323.58185325096758
 21
2527.7571073067861
 31
0.0
  0
LINE
  5
177
  8
NOTE
  6
CONTINUOUS
 62
     4
 10
323.58185325096758
 20
2527.7571073067861
 30
0.0
 11
323.58185325096758
 21
2487.0257628358841
 31
0.0
  0
TEXT
  5
178
  8
NOTE
  6
CONTINUOUS
 62
     4
 10
-78.811382385312982
 20
2495.7556080277132
 30
0.0
 40
60.0
  1
空気吹出
 50
0.0000025044165917
 41
0.7031250221965211
  7
STANDARD1
  0
LINE
  5
179
  8
NOTE
  6
CONTINUOUS
 62
     4
 10
-314.22190013811269
 20
2577.7086543804498
 30
0.0
 11
-364.27751749073201
 21
2527.7571073067861
 31
0.0
  0
LINE
  5
17A
  8
NOTE
  6
CONTINUOUS
 62
     4
 10
-264.16628278549251
 20
2527.7571073067861
 30
0.0
 11
-314.22190013811269
 21
2577.7086543804498
 31
0.0
  0
LINE
  5
17B
  8
NOTE
  6
CONTINUOUS
 62
     4
 10
-314.22190013811269
 20
2577.7086543804498
 30
0.0
 11
-364.27751749073201
 21
2527.7571073067861
 31
0.0
  0
LINE
  5
17C
  8
NOTE
  6
CONTINUOUS
 62
     4
 10
-264.16628278549251
 20
2527.7571073067861
 30
0.0
 11
-314.22190013811269
 21
2577.7086543804498
 31
0.0
  0
LINE
  5
17D
  8
NOTE
  6
CONTINUOUS
 62
     4
 10
-339.24970881442192
 20
2487.0257628358841
 30
0.0
 11
-289.19409146180271
 21
2487.0257628358841
 31
0.0
  0
LINE
  5
17E
  8
NOTE
  6
CONTINUOUS
 62
     4
 10
-339.24970881442192
 20
2487.0257628358841
 30
0.0
 11
-289.19409146180271
 21
2487.0257628358841
 31
0.0
  0
LINE
  5
17F
  8
NOTE
  6
CONTINUOUS
 62
     4
 10
-339.24970881442192
 20
2527.7571073067861
 30
0.0
 11
-364.27751749073201
 21
2527.7571073067861
 31
0.0
  0
LINE
  5
180
  8
NOTE
  6
CONTINUOUS
 62
     4
 10
-339.24970881442192
 20
2527.7571073067861
 30
0.0
 11
-364.27751749073201
 21
2527.7571073067861
 31
0.0
  0
LINE
  5
181
  8
NOTE
  6
CONTINUOUS
 62
     4
 10
-339.24970881442192
 20
2527.7571073067861
 30
0.0
 11
-339.24970881442192
 21
2487.0257628358841
 31
0.0
  0
LINE
  5
182
  8
NOTE
  6
CONTINUOUS
 62
     4
 10
-339.24970881442192
 20
2527.7571073067861
 30
0.0
 11
-339.24970881442192
 21
2487.0257628358841
 31
0.0
  0
LINE
  5
183
  8
NOTE
  6
CONTINUOUS
 62
     4
 10
-264.16628278549251
 20
2527.7571073067861
 30
0.0
 11
-289.19409146180271
 21
2527.7571073067861
 31
0.0
  0
LINE
  5
184
  8
NOTE
  6
CONTINUOUS
 62
     4
 10
-289.19409146180271
 20
2527.7571073067861
 30
0.0
 11
-289.19409146180271
 21
2487.0257628358841
 31
0.0
  0
LINE
  5
185
  8
NOTE
  6
CONTINUOUS
 62
     4
 10
-264.16628278549251
 20
2527.7571073067861
 30
0.0
 11
-289.19409146180271
 21
2527.7571073067861
 31
0.0
  0
LINE
  5
186
  8
NOTE
  6
CONTINUOUS
 62
     4
 10
-289.19409146180271
 20
2527.7571073067861
 30
0.0
 11
-289.19409146180271
 21
2487.0257628358841
 31
0.0
  0
TEXT
  5
187
  8
NOTE
  6
CONTINUOUS
 62
     4
 10
568.51591035133924
 20
1314.203583979076
 30
0.0
 40
60.0
  1
CL %%C60
 50
0.0000025044165917
 41
0.7
  7
STANDARD1
  0
TEXT
  5
188
  8
NOTE
  6
CONTINUOUS
 62
     4
 10
568.51591035133924
 20
1200.2689449690649
 30
0.0
 40
60.0
  1
EL2 %%C60
 50
0.0000025044165917
 41
0.7
  7
STANDARD1
  0
TEXT
  5
18A
  8
NOTE
  6
CONTINUOUS
 62
     4
 10
-709.62017672536626
 20
605.21528751407504
 30
0.0
 40
60.0
  1
D1 RC1
 50
0.0000025044165917
 41
0.7
  7
STANDARD1
  0
TEXT
  5
18B
  8
NOTE
  6
CONTINUOUS
 62
     4
 10
-788.7695644594661
 20
321.71788207256168
 30
0.0
 40
60.0
  1
D2 RC3/4
 50
0.0000025044165917
 41
0.7
  7
STANDARD1
  0
LINE
  5
18C
  8
SIZE
  6
CONTINUOUS
 62
    30
 10
-449.99999999999977
 20
1998.799999999999
 30
0.0
 11
-449.99999999999977
 21
2253.6451325069138
 31
0.0
  0
LINE
  5
18D
  8
SIZE
  6
CONTINUOUS
 62
    30
 10
449.99999999999977
 20
1998.799999999999
 30
0.0
 11
449.99999999999977
 21
2253.6451325069138
 31
0.0
  0
LINE
  5
18E
  8
SIZE
  6
CONTINUOUS
 62
    30
 10
-449.99999999999977
 20
2233.6451325069129
 30
0.0
 11
449.99999999999977
 21
2233.6451325069129
 31
0.0
  0
CIRCLE
  5
18F
  8
SIZE
  6
CONTINUOUS
 62
    30
 10
-449.99999999999977
 20
2233.6451325069129
 30
0.0
 40
7.5
  0
CIRCLE
  5
190
  8
SIZE
  6
CONTINUOUS
 62
    30
 10
449.99999999999977
 20
2233.6451325069129
 30
0.0
 40
7.5
  0
TEXT
  5
191
  8
SIZE
  6
CONTINUOUS
 62
    30
 10
-69.428571428571658
 20
2253.6451325069138
 30
0.0
 40
60.0
  1
900
 41
0.9
 72
     1
 11
-0.0000000000002274
 21
2253.6451325069138
 31
0.0
  0
POINT
  5
192
  8
DEFPOINTS
  6
CONTINUOUS
 62
     7
 10
-449.99999999999977
 20
1978.799999999999
 30
0.0
  0
POINT
  5
193
  8
DEFPOINTS
  6
CONTINUOUS
 62
     7
 10
449.99999999999977
 20
1978.799999999999
 30
0.0
  0
POINT
  5
194
  8
DEFPOINTS
  6
CONTINUOUS
 62
     7
 10
449.99999999999977
 20
2233.6451325069129
 30
0.0
  0
LINE
  5
195
  8
NOTE
  6
CONTINUOUS
 62
     4
 10
294.50000000195098
 20
975.83183696726201
 30
0.0
 11
294.50000050195081
 21
904.16816303273686
 31
0.0
  0
LINE
  5
196
  8
NOTE
  6
CONTINUOUS
 62
     4
 10
294.50000075000008
 20
895.7070882844348
 30
0.0
 11
294.50000025000031
 21
824.29291171556383
 31
0.0
  0
LINE
  5
197
  8
NOTE
  6
CONTINUOUS
 62
     4
 10
27.333333250000809
 20
29.999998109021359
 30
0.0
 11
-27.33333324999899
 21
29.999998109021359
 31
0.0
  0
LINE
  5
198
  8
NOTE
  6
CONTINUOUS
 62
     4
 10
0.0000001683968094
 20
54.728751579257271
 30
0.0
 11
-0.0000001683954451
 21
5.2712446387849923
 31
0.0
  0
LINE
  5
199
  8
NOTE
  6
CONTINUOUS
 62
     4
 10
-47.666666749999649
 20
226.4999999999996
 30
0.0
 11
-102.3333332499994
 21
226.4999999999996
 31
0.0
  0
LINE
  5
19A
  8
NOTE
  6
CONTINUOUS
 62
     4
 10
-74.99999983160366
 20
251.2287534702354
 30
0.0
 11
-75.000000168395914
 21
201.7712465297632
 31
0.0
  0
LINE
  5
19B
  8
SIZE
  6
CONTINUOUS
 62
    30
 10
294.50000025000031
 20
804.29291171556383
 30
0.0
 11
294.50000025000031
 21
675.75341939686723
 31
0.0
  0
LINE
  5
19C
  8
SIZE
  6
CONTINUOUS
 62
    30
 10
449.99999999999977
 20
133.20000000000019
 30
0.0
 11
449.99999999999977
 21
715.75341939686723
 31
0.0
  0
LINE
  5
19D
  8
SIZE
  6
CONTINUOUS
 62
    30
 10
294.50000025000031
 20
695.75341939686723
 30
0.0
 11
449.99999999999977
 21
695.75341939686723
 31
0.0
  0
LINE
  5
19E
  8
SIZE
  6
CONTINUOUS
 62
    30
 10
449.99999999999977
 20
695.75341939686723
 30
0.0
 11
725.71428571428544
 21
695.75341939686723
 31
0.0
  0
CIRCLE
  5
19F
  8
SIZE
  6
CONTINUOUS
 62
    30
 10
294.50000025000031
 20
695.75341939686723
 30
0.0
 40
7.5
  0
CIRCLE
  5
1A0
  8
SIZE
  6
CONTINUOUS
 62
    30
 10
449.99999999999977
 20
695.75341939686723
 30
0.0
 40
7.5
  0
TEXT
  5
1A1
  8
SIZE
  6
CONTINUOUS
 62
    30
 10
499.99999999999949
 20
715.75341939686723
 30
0.0
 40
60.0
  1
155.5
 41
0.9
 72
     1
 11
602.85714285714243
 21
715.75341939686723
 31
0.0
  0
POINT
  5
1A2
  8
DEFPOINTS
  6
CONTINUOUS
 62
     7
 10
294.50000025000031
 20
824.29291171556383
 30
0.0
  0
POINT
  5
1A3
  8
DEFPOINTS
  6
CONTINUOUS
 62
     7
 10
449.99999999999977
 20
113.2000000000003
 30
0.0
  0
POINT
  5
1A4
  8
DEFPOINTS
  6
CONTINUOUS
 62
     7
 10
449.99999999999977
 20
695.75341939686723
 30
0.0
  0
LINE
  5
1A5
  8
SIZE
  6
CONTINUOUS
 62
    30
 10
238.99944463953551
 20
1020.0
 30
0.0
 11
-873.70871836329718
 21
1020.0
 31
0.0
  0
LINE
  5
1A6
  8
SIZE
  6
CONTINUOUS
 62
    30
 10
233.69514463641801
 20
939.99999999999955
 30
0.0
 11
-873.70871836329718
 21
939.99999999999955
 31
0.0
  0
LINE
  5
1A7
  8
SIZE
  6
CONTINUOUS
 62
    30
 10
-853.70871836329695
 20
939.99999999999955
 30
0.0
 11
-853.70871836329695
 21
1020.0
 31
0.0
  0
LINE
  5
1A8
  8
SIZE
  6
CONTINUOUS
 62
    30
 10
-853.70871836329695
 20
1020.0
 30
0.0
 11
-853.70871836329695
 21
1141.352536055165
 31
0.0
  0
CIRCLE
  5
1A9
  8
SIZE
  6
CONTINUOUS
 62
    30
 10
-853.70871836329695
 20
939.99999999999955
 30
0.0
 40
7.5
  0
CIRCLE
  5
1AA
  8
SIZE
  6
CONTINUOUS
 62
    30
 10
-853.70871836329695
 20
1020.0
 30
0.0
 40
7.5
  0
TEXT
  5
1AB
  8
SIZE
  6
CONTINUOUS
 62
    30
 10
-873.70871836329741
 20
1039.1632023391201
 30
0.0
 40
60.0
  1
80
 50
90.0
 41
0.9
 72
     1
 11
-873.70871836329741
 21
1082.8774880534061
 31
0.0
  0
POINT
  5
1AC
  8
DEFPOINTS
  6
CONTINUOUS
 62
     7
 10
258.99944463953562
 20
1019.999999999999
 30
0.0
  0
POINT
  5
1AD
  8
DEFPOINTS
  6
CONTINUOUS
 62
     7
 10
253.69514463641801
 20
939.99999999999955
 30
0.0
  0
POINT
  5
1AE
  8
DEFPOINTS
  6
CONTINUOUS
 62
     7
 10
-853.70871836329695
 20
939.99999999999955
 30
0.0
  0
LINE
  5
1AF
  8
SIZE
  6
CONTINUOUS
 62
    30
 10
233.69514463641801
 20
939.99999999999955
 30
0.0
 11
-873.70871836329695
 21
939.99999999999955
 31
0.0
  0
LINE
  5
1B0
  8
SIZE
  6
CONTINUOUS
 62
    30
 10
236.83333400000021
 20
859.99999999999955
 30
0.0
 11
-873.70871836329695
 21
860.0
 31
0.0
  0
LINE
  5
1B1
  8
SIZE
  6
CONTINUOUS
 62
    30
 10
-853.70871836329695
 20
939.99999999999955
 30
0.0
 11
-853.70871836329695
 21
860.0
 31
0.0
  0
CIRCLE
  5
1B2
  8
SIZE
  6
CONTINUOUS
 62
    30
 10
-853.70871836329695
 20
939.99999999999955
 30
0.0
 40
7.5
  0
CIRCLE
  5
1B3
  8
SIZE
  6
CONTINUOUS
 62
    30
 10
-853.70871836329695
 20
860.0
 30
0.0
 40
7.5
  0
POINT
  5
1B5
  8
DEFPOINTS
  6
CONTINUOUS
 62
     7
 10
253.69514463641801
 20
939.99999999999955
 30
0.0
  0
POINT
  5
1B6
  8
DEFPOINTS
  6
CONTINUOUS
 62
     7
 10
256.83333400000009
 20
859.99999999999955
 30
0.0
  0
POINT
  5
1B7
  8
DEFPOINTS
  6
CONTINUOUS
 62
     7
 10
-853.70871836329695
 20
860.0
 30
0.0
  0
LINE
  5
1B8
  8
SIZE
  6
CONTINUOUS
 62
    30
 10
236.83333400000021
 20
859.99999999999955
 30
0.0
 11
-873.70871836329695
 21
860.0
 31
0.0
  0
LINE
  5
1B9
  8
SIZE
  6
CONTINUOUS
 62
    30
 10
-459.49999999999972
 20
0.0000000000000057
 30
0.0
 11
-873.70871836329718
 21
0.000000000000123
 31
0.0
  0
LINE
  5
1BA
  8
SIZE
  6
CONTINUOUS
 62
    30
 10
-853.70871836329695
 20
860.0
 30
0.0
 11
-853.70871836329752
 21
0.0000000000001173
 31
0.0
  0
CIRCLE
  5
1BB
  8
SIZE
  6
CONTINUOUS
 62
    30
 10
-853.70871836329695
 20
860.0
 30
0.0
 40
7.5
  0
CIRCLE
  5
1BC
  8
SIZE
  6
CONTINUOUS
 62
    30
 10
-853.70871836329752
 20
0.0000000000001173
 30
0.0
 40
7.5
  0
TEXT
  5
1BD
  8
SIZE
  6
CONTINUOUS
 62
    30
 10
-873.70871836329741
 20
360.5714285714285
 30
0.0
 40
60.0
  1
860
 50
90.0
 41
0.9
 72
     1
 11
-873.70871836329741
 21
430.0
 31
0.0
  0
POINT
  5
1BE
  8
DEFPOINTS
  6
CONTINUOUS
 62
     7
 10
256.83333400000009
 20
859.99999999999955
 30
0.0
  0
POINT
  5
1BF
  8
DEFPOINTS
  6
CONTINUOUS
 62
     7
 10
-439.4999999999996
 20
0.0
 30
0.0
  0
POINT
  5
1C0
  8
DEFPOINTS
  6
CONTINUOUS
 62
     7
 10
-853.70871836329752
 20
0.0000000000001173
 30
0.0
  0
LINE
  5
1C1
  8
SIZE
  6
CONTINUOUS
 62
    30
 10
353.66666700000019
 20
285.0
 30
0.0
 11
594.52468518048215
 21
285.0
 31
0.0
  0
LINE
  5
1C2
  8
SIZE
  6
CONTINUOUS
 62
    30
 10
353.66666700000019
 20
160.0
 30
0.0
 11
594.52468518048215
 21
159.9999999999998
 31
0.0
  0
LINE
  5
1C3
  8
SIZE
  6
CONTINUOUS
 62
    30
 10
574.52468518048215
 20
159.9999999999998
 30
0.0
 11
574.52468518048215
 21
285.0
 31
0.0
  0
LINE
  5
1C4
  8
SIZE
  6
CONTINUOUS
 62
    30
 10
574.52468518048215
 20
285.0
 30
0.0
 11
574.52468518048215
 21
512.81384908210384
 31
0.0
  0
CIRCLE
  5
1C5
  8
SIZE
  6
CONTINUOUS
 62
    30
 10
574.52468518048215
 20
159.9999999999998
 30
0.0
 40
7.5
  0
CIRCLE
  5
1C6
  8
SIZE
  6
CONTINUOUS
 62
    30
 10
574.52468518048215
 20
285.0
 30
0.0
 40
7.5
  0
TEXT
  5
1C7
  8
SIZE
  6
CONTINUOUS
 62
    30
 10
554.52468518048204
 20
364.24242051067529
 30
0.0
 40
60.0
  1
125
 50
90.0
 41
0.9
 72
     1
 11
554.52468518048204
 21
428.52813479638962
 31
0.0
  0
POINT
  5
1C8
  8
DEFPOINTS
  6
CONTINUOUS
 62
     7
 10
333.66666700000019
 20
285.0
 30
0.0
  0
POINT
  5
1C9
  8
DEFPOINTS
  6
CONTINUOUS
 62
     7
 10
333.66666700000019
 20
160.0
 30
0.0
  0
POINT
  5
1CA
  8
DEFPOINTS
  6
CONTINUOUS
 62
     7
 10
574.52468518048215
 20
159.9999999999998
 30
0.0
  0
LINE
  5
1CB
  8
SIZE
  6
CONTINUOUS
 62
    30
 10
327.66666700000019
 20
220.0
 30
0.0
 11
767.30808011867123
 21
219.99999999999989
 31
0.0
  0
LINE
  5
1CC
  8
SIZE
  6
CONTINUOUS
 62
    30
 10
327.66666700000019
 20
345.0
 30
0.0
 11
767.30808011867146
 21
344.99999999999977
 31
0.0
  0
LINE
  5
1CD
  8
SIZE
  6
CONTINUOUS
 62
    30
 10
747.30808011867123
 20
219.99999999999989
 30
0.0
 11
747.30808011867146
 21
344.99999999999977
 31
0.0
  0
LINE
  5
1CE
  8
SIZE
  6
CONTINUOUS
 62
    30
 10
747.30808011867146
 20
344.99999999999977
 30
0.0
 11
747.30808011867146
 21
543.57142857142856
 31
0.0
  0
CIRCLE
  5
1CF
  8
SIZE
  6
CONTINUOUS
 62
    30
 10
747.30808011867123
 20
219.99999999999989
 30
0.0
 40
7.5
  0
CIRCLE
  5
1D0
  8
SIZE
  6
CONTINUOUS
 62
    30
 10
747.30808011867146
 20
344.99999999999977
 30
0.0
 40
7.5
  0
TEXT
  5
1D1
  8
SIZE
  6
CONTINUOUS
 62
    30
 10
727.30808011867123
 20
395.00000000000011
 30
0.0
 40
60.0
  1
125
 50
90.0
 41
0.9
 72
     1
 11
727.30808011867123
 21
459.28571428571428
 31
0.0
  0
POINT
  5
1D2
  8
DEFPOINTS
  6
CONTINUOUS
 62
     7
 10
307.66666700000019
 20
220.0
 30
0.0
  0
POINT
  5
1D3
  8
DEFPOINTS
  6
CONTINUOUS
 62
     7
 10
307.66666700000019
 20
345.0
 30
0.0
  0
POINT
  5
1D4
  8
DEFPOINTS
  6
CONTINUOUS
 62
     7
 10
747.30808011867146
 20
344.99999999999977
 30
0.0
  0
LINE
  5
1D5
  8
SIZE
  6
CONTINUOUS
 62
    30
 10
353.66666700000019
 20
160.0
 30
0.0
 11
594.52468518048215
 21
159.9999999999998
 31
0.0
  0
LINE
  5
1D6
  8
SIZE
  6
CONTINUOUS
 62
    30
 10
459.49999999999972
 20
-0.0000000000000057
 30
0.0
 11
594.52468518048215
 21
-0.0000000000000439
 31
0.0
  0
LINE
  5
1D7
  8
SIZE
  6
CONTINUOUS
 62
    30
 10
574.52468518048215
 20
159.9999999999998
 30
0.0
 11
574.52468518048215
 21
-0.0000000000000382
 31
0.0
  0
CIRCLE
  5
1D8
  8
SIZE
  6
CONTINUOUS
 62
    30
 10
574.52468518048215
 20
159.9999999999998
 30
0.0
 40
7.5
  0
CIRCLE
  5
1D9
  8
SIZE
  6
CONTINUOUS
 62
    30
 10
574.52468518048215
 20
-0.0000000000000382
 30
0.0
 40
7.5
  0
TEXT
  5
1DA
  8
SIZE
  6
CONTINUOUS
 62
    30
 10
554.52468518048204
 20
15.71428571428576
 30
0.0
 40
60.0
  1
160
 50
90.0
 41
0.9
 72
     1
 11
554.52468518048204
 21
80.000000000000057
 31
0.0
  0
POINT
  5
1DB
  8
DEFPOINTS
  6
CONTINUOUS
 62
     7
 10
333.66666700000019
 20
160.0
 30
0.0
  0
POINT
  5
1DC
  8
DEFPOINTS
  6
CONTINUOUS
 62
     7
 10
439.4999999999996
 20
0.0
 30
0.0
  0
POINT
  5
1DD
  8
DEFPOINTS
  6
CONTINUOUS
 62
     7
 10
574.52468518048215
 20
-0.0000000000000382
 30
0.0
  0
LINE
  5
1DE
  8
SIZE
  6
CONTINUOUS
 62
    30
 10
327.66666700000019
 20
220.0
 30
0.0
 11
767.30808011867146
 21
219.99999999999989
 31
0.0
  0
LINE
  5
1DF
  8
SIZE
  6
CONTINUOUS
 62
    30
 10
459.49999999999972
 20
-0.0000000000000057
 30
0.0
 11
767.30808011867146
 21
-0.0000000000000929
 31
0.0
  0
LINE
  5
1E0
  8
SIZE
  6
CONTINUOUS
 62
    30
 10
747.30808011867146
 20
219.99999999999989
 30
0.0
 11
747.30808011867146
 21
-0.0000000000000872
 31
0.0
  0
CIRCLE
  5
1E1
  8
SIZE
  6
CONTINUOUS
 62
    30
 10
747.30808011867146
 20
219.99999999999989
 30
0.0
 40
7.5
  0
CIRCLE
  5
1E2
  8
SIZE
  6
CONTINUOUS
 62
    30
 10
747.30808011867146
 20
-0.0000000000000872
 30
0.0
 40
7.5
  0
TEXT
  5
1E3
  8
SIZE
  6
CONTINUOUS
 62
    30
 10
727.30808011867146
 20
40.571428571428562
 30
0.0
 40
60.0
  1
220
 50
90.0
 41
0.9
 72
     1
 11
727.30808011867146
 21
110.0
 31
0.0
  0
POINT
  5
1E4
  8
DEFPOINTS
  6
CONTINUOUS
 62
     7
 10
307.66666700000019
 20
220.0
 30
0.0
  0
POINT
  5
1E5
  8
DEFPOINTS
  6
CONTINUOUS
 62
     7
 10
439.4999999999996
 20
0.0
 30
0.0
  0
POINT
  5
1E6
  8
DEFPOINTS
  6
CONTINUOUS
 62
     7
 10
747.30808011867146
 20
-0.0000000000000872
 30
0.0
  0
LINE
  5
1E7
  8
SIZE
  6
CONTINUOUS
 62
    30
 10
449.99999999999977
 20
86.799999999999685
 30
0.0
 11
449.99999999999977
 21
-351.00301581718003
 31
0.0
  0
LINE
  5
1E8
  8
SIZE
  6
CONTINUOUS
 62
    30
 10
299.99999999999972
 20
106.33333399999979
 30
0.0
 11
299.99999999999972
 21
-351.00301581718003
 31
0.0
  0
LINE
  5
1E9
  8
SIZE
  6
CONTINUOUS
 62
    30
 10
449.99999999999977
 20
-331.00301581718003
 30
0.0
 11
299.99999999999972
 21
-331.00301581718003
 31
0.0
  0
CIRCLE
  5
1EA
  8
SIZE
  6
CONTINUOUS
 62
    30
 10
449.99999999999977
 20
-331.00301581718003
 30
0.0
 40
7.5
  0
CIRCLE
  5
1EB
  8
SIZE
  6
CONTINUOUS
 62
    30
 10
299.99999999999972
 20
-331.00301581718003
 30
0.0
 40
7.5
  0
POINT
  5
1ED
  8
DEFPOINTS
  6
CONTINUOUS
 62
     7
 10
449.99999999999977
 20
106.7999999999997
 30
0.0
  0
POINT
  5
1EE
  8
DEFPOINTS
  6
CONTINUOUS
 62
     7
 10
299.99999999999972
 20
126.33333399999979
 30
0.0
  0
POINT
  5
1EF
  8
DEFPOINTS
  6
CONTINUOUS
 62
     7
 10
299.99999999999972
 20
-331.00301581718003
 30
0.0
  0
LINE
  5
1F0
  8
SIZE
  6
CONTINUOUS
 62
    30
 10
449.99999999999977
 20
86.799999999999685
 30
0.0
 11
449.99999999999972
 21
-483.15165255284262
 31
0.0
  0
LINE
  5
1F1
  8
SIZE
  6
CONTINUOUS
 62
    30
 10
269.99999999999972
 20
162.33333399999981
 30
0.0
 11
269.99999999999972
 21
-483.15165255284262
 31
0.0
  0
LINE
  5
1F2
  8
SIZE
  6
CONTINUOUS
 62
    30
 10
449.99999999999972
 20
-463.15165255284262
 30
0.0
 11
269.99999999999972
 21
-463.15165255284262
 31
0.0
  0
CIRCLE
  5
1F3
  8
SIZE
  6
CONTINUOUS
 62
    30
 10
449.99999999999972
 20
-463.15165255284262
 30
0.0
 40
7.5
  0
CIRCLE
  5
1F4
  8
SIZE
  6
CONTINUOUS
 62
    30
 10
269.99999999999972
 20
-463.15165255284262
 30
0.0
 40
7.5
  0
POINT
  5
1F6
  8
DEFPOINTS
  6
CONTINUOUS
 62
     7
 10
449.99999999999977
 20
106.7999999999997
 30
0.0
  0
POINT
  5
1F7
  8
DEFPOINTS
  6
CONTINUOUS
 62
     7
 10
269.99999999999972
 20
182.33333399999989
 30
0.0
  0
POINT
  5
1F8
  8
DEFPOINTS
  6
CONTINUOUS
 62
     7
 10
269.99999999999972
 20
-463.15165255284262
 30
0.0
  0
LINE
  5
1F9
  8
SIZE
  6
CONTINUOUS
 62
    30
 10
-0.0000001683954464
 20
-14.72875536121501
 30
0.0
 11
-0.0000001683954836
 21
-622.50701350001361
 31
0.0
  0
LINE
  5
1FA
  8
SIZE
  6
CONTINUOUS
 62
    30
 10
449.99999999999977
 20
86.799999999999685
 30
0.0
 11
449.99999999999972
 21
-622.50701350001361
 31
0.0
  0
LINE
  5
1FB
  8
SIZE
  6
CONTINUOUS
 62
    30
 10
-0.0000001683954824
 20
-602.5070135000135
 30
0.0
 11
449.99999999999972
 21
-602.5070135000135
 31
0.0
  0
CIRCLE
  5
1FC
  8
SIZE
  6
CONTINUOUS
 62
    30
 10
-0.0000001683954824
 20
-602.5070135000135
 30
0.0
 40
7.5
  0
CIRCLE
  5
1FD
  8
SIZE
  6
CONTINUOUS
 62
    30
 10
449.99999999999972
 20
-602.5070135000135
 30
0.0
 40
7.5
  0
TEXT
  5
1FE
  8
SIZE
  6
CONTINUOUS
 62
    30
 10
155.57142848723061
 20
-582.50701350001361
 30
0.0
 40
60.0
  1
450
 41
0.9
 72
     1
 11
224.99999991580211
 21
-582.50701350001361
 31
0.0
  0
POINT
  5
1FF
  8
DEFPOINTS
  6
CONTINUOUS
 62
     7
 10
-0.0000001683954451
 20
5.2712446387849923
 30
0.0
  0
POINT
  5
200
  8
DEFPOINTS
  6
CONTINUOUS
 62
     7
 10
449.99999999999977
 20
106.7999999999997
 30
0.0
  0
POINT
  5
201
  8
DEFPOINTS
  6
CONTINUOUS
 62
     7
 10
449.99999999999972
 20
-602.5070135000135
 30
0.0
  0
LINE
  5
202
  8
SIZE
  6
CONTINUOUS
 62
    30
 10
-75.000000168395914
 20
181.77124652976309
 30
0.0
 11
-75.000000168395943
 21
-760.76528822504054
 31
0.0
  0
LINE
  5
203
  8
SIZE
  6
CONTINUOUS
 62
    30
 10
449.99999999999977
 20
86.799999999999685
 30
0.0
 11
449.99999999999972
 21
-760.76528822504054
 31
0.0
  0
LINE
  5
204
  8
SIZE
  6
CONTINUOUS
 62
    30
 10
-75.000000168395943
 20
-740.76528822504099
 30
0.0
 11
449.99999999999972
 21
-740.76528822504099
 31
0.0
  0
CIRCLE
  5
205
  8
SIZE
  6
CONTINUOUS
 62
    30
 10
-75.000000168395943
 20
-740.76528822504099
 30
0.0
 40
7.5
  0
CIRCLE
  5
206
  8
SIZE
  6
CONTINUOUS
 62
    30
 10
449.99999999999972
 20
-740.76528822504099
 30
0.0
 40
7.5
  0
TEXT
  5
207
  8
SIZE
  6
CONTINUOUS
 62
    30
 10
118.07142848723041
 20
-720.76528822504099
 30
0.0
 40
60.0
  1
525
 41
0.9
 72
     1
 11
187.49999991580191
 21
-720.76528822504099
 31
0.0
  0
POINT
  5
208
  8
DEFPOINTS
  6
CONTINUOUS
 62
     7
 10
-75.000000168395914
 20
201.7712465297632
 30
0.0
  0
POINT
  5
209
  8
DEFPOINTS
  6
CONTINUOUS
 62
     7
 10
449.99999999999977
 20
106.7999999999997
 30
0.0
  0
POINT
  5
20A
  8
DEFPOINTS
  6
CONTINUOUS
 62
     7
 10
449.99999999999972
 20
-740.76528822504099
 30
0.0
  0
LINE
  5
20B
  8
SIZE
  6
CONTINUOUS
 62
    30
 10
-47.333333249998979
 20
29.999998109021369
 30
0.0
 11
-555.61657777431003
 21
29.999998109021512
 31
0.0
  0
LINE
  5
20C
  8
SIZE
  6
CONTINUOUS
 62
    30
 10
-459.49999999999972
 20
0.0000000000000057
 30
0.0
 11
-555.61657777431003
 21
0.0000000000000329
 31
0.0
  0
LINE
  5
20D
  8
SIZE
  6
CONTINUOUS
 62
    30
 10
-535.61657777430992
 20
29.999998109021512
 30
0.0
 11
-535.61657777430992
 21
59.999998109021512
 31
0.0
  0
LINE
  5
20E
  8
SIZE
  6
CONTINUOUS
 62
    30
 10
-535.61657777430992
 20
0.0000000000000272
 30
0.0
 11
-535.61657777430992
 21
-187.4285714285713
 31
0.0
  0
LINE
  5
20F
  8
SIZE
  6
CONTINUOUS
 62
    30
 10
-535.61657777430992
 20
29.999998109021512
 30
0.0
 11
-535.61657777430992
 21
0.0000000000000272
 31
0.0
  0
CIRCLE
  5
210
  8
SIZE
  6
CONTINUOUS
 62
    30
 10
-535.61657777430992
 20
29.999998109021512
 30
0.0
 40
7.5
  0
CIRCLE
  5
211
  8
SIZE
  6
CONTINUOUS
 62
    30
 10
-535.61657777430992
 20
0.0000000000000272
 30
0.0
 40
7.5
  0
TEXT
  5
212
  8
SIZE
  6
CONTINUOUS
 62
    30
 10
-555.61657777431003
 20
-167.42857142857139
 30
0.0
 40
60.0
  1
30
 50
90.0
 41
0.9
 72
     1
 11
-555.61657777431003
 21
-123.71428571428569
 31
0.0
  0
POINT
  5
213
  8
DEFPOINTS
  6
CONTINUOUS
 62
     7
 10
-27.33333324999899
 20
29.999998109021359
 30
0.0
  0
POINT
  5
214
  8
DEFPOINTS
  6
CONTINUOUS
 62
     7
 10
-439.4999999999996
 20
0.0
 30
0.0
  0
POINT
  5
215
  8
DEFPOINTS
  6
CONTINUOUS
 62
     7
 10
-535.61657777430992
 20
0.0000000000000272
 30
0.0
  0
LINE
  5
216
  8
SIZE
  6
CONTINUOUS
 62
    30
 10
-468.79999999999978
 20
1980.0
 30
0.0
 11
-1297.2405551253321
 21
1980.0
 31
0.0
  0
LINE
  5
217
  8
SIZE
  6
CONTINUOUS
 62
    30
 10
-459.49999999999972
 20
0.0000000000000057
 30
0.0
 11
-1297.2405551253321
 21
0.0000000000001691
 31
0.0
  0
LINE
  5
218
  8
SIZE
  6
CONTINUOUS
 62
    30
 10
-1277.2405551253321
 20
1980.0
 30
0.0
 11
-1277.240555125333
 21
0.0000000000001635
 31
0.0
  0
CIRCLE
  5
219
  8
SIZE
  6
CONTINUOUS
 62
    30
 10
-1277.2405551253321
 20
1980.0
 30
0.0
 40
7.5
  0
CIRCLE
  5
21A
  8
SIZE
  6
CONTINUOUS
 62
    30
 10
-1277.240555125333
 20
0.0000000000001635
 30
0.0
 40
7.5
  0
TEXT
  5
21B
  8
SIZE
  6
CONTINUOUS
 62
    30
 10
-1297.2405551253321
 20
899.99999999999955
 30
0.0
 40
60.0
  1
1980
 50
90.0
 41
0.9
 72
     1
 11
-1297.2405551253321
 21
989.99999999999955
 31
0.0
  0
POINT
  5
21C
  8
DEFPOINTS
  6
CONTINUOUS
 62
     7
 10
-448.79999999999978
 20
1980.0
 30
0.0
  0
POINT
  5
21D
  8
DEFPOINTS
  6
CONTINUOUS
 62
     7
 10
-439.4999999999996
 20
0.0
 30
0.0
  0
POINT
  5
21E
  8
DEFPOINTS
  6
CONTINUOUS
 62
     7
 10
-1277.240555125333
 20
0.0000000000001635
 30
0.0
  0
CIRCLE
  5
223
  8
ARRANGE
  6
CONTINUOUS
 62
     1
 10
0.0
 20
0.0
 30
0.0
 40
50.0
  0
LINE
  5
224
  8
ARRANGE
  6
CONTINUOUS
 62
     1
 10
50.037350031328963
 20
-49.522353150325202
 30
0.0
 11
-50.037350031328963
 21
49.522353150325202
 31
0.0
  0
LINE
  5
225
  8
ARRANGE
  6
CONTINUOUS
 62
     1
 10
49.963763310501221
 20
49.596594797985738
 30
0.0
 11
-49.963763310501221
 21
-49.5965947979821
 31
0.0
  0
LINE
  5
226
  8
BASIS
  6
DASHDOT
 62
     6
 10
0.0
 20
2081.6587586332212
 30
0.0
 11
0.0
 21
-139.13632116711281
 31
0.0
  0
TEXT
  5
227
  8
ETC
  6
CONTINUOUS
 62
    61
 10
705.21092529282782
 20
2424.2418994072359
 30
0.0
 40
80.0
  1
PADY-P450NMT-E_5
 50
0.0000029998804485
 41
0.8
  7
STANDARD_MODELNAME
  0
LINE
  5
228
  8
DETAIL
  6
CONTINUOUS
 62
     5
 10
-171.7999999999999
 20
1980.0
 30
0.0
 11
48.200000000000031
 21
1980.0
 31
0.0
  0
LINE
  5
229
  8
DETAIL
  6
CONTINUOUS
 62
     5
 10
48.200000000000031
 20
1980.0
 30
0.0
 11
118.2
 21
1980.0
 31
0.0
  0
LINE
  5
22A
  8
DETAIL
  6
CONTINUOUS
 62
     5
 10
118.2
 20
1980.0
 30
0.0
 11
338.2000000000001
 21
1980.0
 31
0.0
  0
LINE
  5
22B
  8
DETAIL
  6
CONTINUOUS
 62
     5
 10
338.2000000000001
 20
1980.0
 30
0.0
 11
448.79999999999978
 21
1980.0
 31
0.0
  0
LINE
  5
22C
  8
OUTLINE
  6
CONTINUOUS
 62
     3
 10
-171.7999999999999
 20
1980.0
 30
0.0
 11
-448.79999999999978
 21
1980.0
 31
0.0
  0
LINE
  5
22D
  8
OUTLINE
  6
CONTINUOUS
 62
     3
 10
-448.79999999999978
 20
1978.799999999999
 30
0.0
 11
-449.99999999999977
 21
1978.799999999999
 31
0.0
  0
LINE
  5
22E
  8
OUTLINE
  6
CONTINUOUS
 62
     3
 10
-448.79999999999978
 20
1980.0
 30
0.0
 11
-448.79999999999978
 21
1978.799999999999
 31
0.0
  0
LINE
  5
22F
  8
OUTLINE
  6
CONTINUOUS
 62
     3
 10
449.99999999999977
 20
1978.799999999999
 30
0.0
 11
448.79999999999978
 21
1978.799999999999
 31
0.0
  0
LINE
  5
230
  8
OUTLINE
  6
CONTINUOUS
 62
     3
 10
448.79999999999978
 20
1980.0
 30
0.0
 11
448.79999999999978
 21
1978.799999999999
 31
0.0
  0
LINE
  5
231
  8
OUTLINE
  6
CONTINUOUS
 62
     3
 10
338.2000000000001
 20
1982.3
 30
0.0
 11
338.2000000000001
 21
1980.0
 31
0.0
  0
LINE
  5
232
  8
OUTLINE
  6
CONTINUOUS
 62
     3
 10
48.200000000000031
 20
1982.3
 30
0.0
 11
48.200000000000031
 21
1980.0
 31
0.0
  0
LINE
  5
233
  8
OUTLINE
  6
CONTINUOUS
 62
     3
 10
338.2000000000001
 20
1982.3
 30
0.0
 11
118.2
 21
1982.3
 31
0.0
  0
LINE
  5
234
  8
OUTLINE
  6
CONTINUOUS
 62
     3
 10
48.200000000000031
 20
1982.3
 30
0.0
 11
-171.7999999999999
 21
1982.3
 31
0.0
  0
LINE
  5
235
  8
OUTLINE
  6
CONTINUOUS
 62
     3
 10
118.2
 20
1980.0
 30
0.0
 11
118.2
 21
1982.3
 31
0.0
  0
LINE
  5
236
  8
OUTLINE
  6
CONTINUOUS
 62
     3
 10
-171.7999999999999
 20
1980.0
 30
0.0
 11
-171.7999999999999
 21
1982.3
 31
0.0
  0
LINE
  5
237
  8
OUTLINE
  6
CONTINUOUS
 62
     3
 10
48.200000000000031
 20
1980.0
 30
0.0
 11
118.2
 21
1980.0
 31
0.0
  0
LINE
  5
238
  8
OUTLINE
  6
CONTINUOUS
 62
     3
 10
338.2000000000001
 20
1980.0
 30
0.0
 11
448.79999999999978
 21
1980.0
 31
0.0
  0
LINE
  5
239
  8
OUTLINE
  6
CONTINUOUS
 62
     3
 10
-449.99999999999977
 20
1978.799999999999
 30
0.0
 11
-449.99999999999977
 21
113.2000000000003
 31
0.0
  0
LINE
  5
23A
  8
OUTLINE
  6
CONTINUOUS
 62
     3
 10
-448.79999999999978
 20
113.2000000000003
 30
0.0
 11
-449.99999999999977
 21
113.2000000000003
 31
0.0
  0
LINE
  5
23B
  8
OUTLINE
  6
CONTINUOUS
 62
     3
 10
-448.79999999999978
 20
112.0
 30
0.0
 11
-448.79999999999978
 21
113.2000000000003
 31
0.0
  0
LINE
  5
23D
  8
OUTLINE
  6
CONTINUOUS
 62
     3
 10
-426.60000000000002
 20
112.0
 30
0.0
 11
-426.60000000000002
 21
110.0
 31
0.0
  0
LINE
  5
23E
  8
OUTLINE
  6
CONTINUOUS
 62
     3
 10
-426.60000000000002
 20
110.0
 30
0.0
 11
-429.49999999999977
 21
110.0
 31
0.0
  0
LINE
  5
23F
  8
OUTLINE
  6
CONTINUOUS
 62
     3
 10
-429.49999999999977
 20
110.0
 30
0.0
 11
-429.49999999999977
 21
77.0
 31
0.0
  0
LINE
  5
240
  8
OUTLINE
  6
CONTINUOUS
 62
     3
 10
-429.49999999999977
 20
77.0
 30
0.0
 11
-429.99999999999977
 21
77.0
 31
0.0
  0
LINE
  5
241
  8
OUTLINE
  6
CONTINUOUS
 62
     3
 10
-429.99999999999977
 20
77.0
 30
0.0
 11
-429.99999999999977
 21
106.7999999999997
 31
0.0
  0
LINE
  5
242
  8
OUTLINE
  6
CONTINUOUS
 62
     3
 10
-433.19999999999987
 20
109.9999999999995
 30
0.0
 11
-449.99999999999977
 21
109.9999999999995
 31
0.0
  0
LINE
  5
243
  8
OUTLINE
  6
CONTINUOUS
 62
     3
 10
-449.99999999999977
 20
109.9999999999995
 30
0.0
 11
-449.99999999999977
 21
106.7999999999997
 31
0.0
  0
LINE
  5
244
  8
OUTLINE
  6
CONTINUOUS
 62
     3
 10
-449.99999999999977
 20
106.7999999999997
 30
0.0
 11
-433.19999999999987
 21
106.7999999999997
 31
0.0
  0
LINE
  5
245
  8
OUTLINE
  6
CONTINUOUS
 62
     3
 10
-433.19999999999987
 20
106.7999999999997
 30
0.0
 11
-433.19999999999982
 21
77.0
 31
0.0
  0
ARC
  5
246
  8
OUTLINE
  6
CONTINUOUS
 62
     3
 10
-433.19999999999982
 20
106.7999999999997
 30
0.0
 40
3.2000000000000002
 50
0.0
 51
90.0
  0
ARC
  5
247
  8
OUTLINE
  6
CONTINUOUS
 62
     3
 10
-430.0
 20
77.0
 30
0.0
 40
3.2000000000000002
 50
180.0
 51
270.0
  0
LINE
  5
248
  8
OUTLINE
  6
CONTINUOUS
 62
     3
 10
-430.0
 20
73.800000000000196
 30
0.0
 11
-429.49999999999977
 21
73.799999999999699
 31
0.0
  0
LINE
  5
249
  8
OUTLINE
  6
CONTINUOUS
 62
     3
 10
-429.49999999999977
 20
73.799999999999699
 30
0.0
 11
-439.4999999999996
 21
63.79999999999972
 31
0.0
  0
LINE
  5
24A
  8
OUTLINE
  6
CONTINUOUS
 62
     3
 10
-439.4999999999996
 20
63.79999999999972
 30
0.0
 11
-439.4999999999996
 21
0.0
 31
0.0
  0
LINE
  5
24B
  8
OUTLINE
  6
CONTINUOUS
 62
     3
 10
-439.4999999999996
 20
0.0
 30
0.0
 11
439.4999999999996
 21
0.0
 31
0.0
  0
LINE
  5
24C
  8
OUTLINE
  6
CONTINUOUS
 62
     3
 10
439.4999999999996
 20
0.0
 30
0.0
 11
439.4999999999996
 21
63.79999999999972
 31
0.0
  0
LINE
  5
24D
  8
OUTLINE
  6
CONTINUOUS
 62
     3
 10
439.4999999999996
 20
63.79999999999972
 30
0.0
 11
429.49999999999977
 21
73.799999999999699
 31
0.0
  0
LINE
  5
24E
  8
OUTLINE
  6
CONTINUOUS
 62
     3
 10
429.49999999999977
 20
73.799999999999699
 30
0.0
 11
429.99999999999977
 21
73.800000000000196
 31
0.0
  0
ARC
  5
24F
  8
OUTLINE
  6
CONTINUOUS
 62
     3
 10
429.99999999999977
 20
77.0
 30
0.0
 40
3.2000000000000002
 50
270.0
 51
0.0
  0
LINE
  5
250
  8
OUTLINE
  6
CONTINUOUS
 62
     3
 10
433.19999999999982
 20
77.0
 30
0.0
 11
433.19999999999987
 21
106.7999999999997
 31
0.0
  0
LINE
  5
251
  8
OUTLINE
  6
CONTINUOUS
 62
     3
 10
433.19999999999987
 20
106.7999999999997
 30
0.0
 11
449.99999999999977
 21
106.7999999999997
 31
0.0
  0
LINE
  5
252
  8
OUTLINE
  6
CONTINUOUS
 62
     3
 10
449.99999999999977
 20
106.7999999999997
 30
0.0
 11
449.99999999999977
 21
110.0
 31
0.0
  0
LINE
  5
253
  8
OUTLINE
  6
CONTINUOUS
 62
     3
 10
449.99999999999977
 20
110.0
 30
0.0
 11
445.60000000000008
 21
110.000837
 31
0.0
  0
LINE
  5
254
  8
OUTLINE
  6
CONTINUOUS
 62
     3
 10
445.60000000000008
 20
110.000837
 30
0.0
 11
445.60000000000008
 21
112.0
 31
0.0
  0
LINE
  5
255
  8
OUTLINE
  6
CONTINUOUS
 62
     3
 10
448.80000000000001
 20
112.0
 30
0.0
 11
-448.80000000000001
 21
112.0
 31
0.0
  0
LINE
  5
256
  8
OUTLINE
  6
CONTINUOUS
 62
     3
 10
448.79999999999978
 20
112.0
 30
0.0
 11
448.79999999999978
 21
113.2000000000003
 31
0.0
  0
LINE
  5
257
  8
OUTLINE
  6
CONTINUOUS
 62
     3
 10
448.79999999999978
 20
113.2000000000003
 30
0.0
 11
449.99999999999977
 21
113.2000000000003
 31
0.0
  0
LINE
  5
268
  8
OUTLINE
  6
CONTINUOUS
 62
     3
 10
449.99999999999977
 20
1978.799999999999
 30
0.0
 11
449.99999999999977
 21
113.2000000000003
 31
0.0
  0
LINE
  5
279
  8
NOTE
  6
CONTINUOUS
 62
     4
 10
270.00000050000011
 20
345.0
 30
0.0
 11
-592.95539798164282
 21
1751.7286719593219
 31
0.0
  0
LINE
  5
27B
  8
NOTE
  6
CONTINUOUS
 62
     4
 10
260.70401065409641
 20
374.63446873282493
 30
0.0
 11
269.99999973611341
 21
345.00000098719948
 31
0.0
  0
LINE
  5
27C
  8
NOTE
  6
CONTINUOUS
 62
     4
 10
269.99999973611341
 20
345.00000098719948
 30
0.0
 11
247.13220326031211
 21
366.01620844527361
 31
0.0
  0
LINE
  5
27E
  8
NOTE
  6
CONTINUOUS
 62
     4
 10
299.99999999999972
 20
285.0
 30
0.0
 11
-646.62016393970771
 21
1554.645262929814
 31
0.0
  0
LINE
  5
280
  8
NOTE
  6
CONTINUOUS
 62
     4
 10
288.63399585130861
 20
313.90382195870399
 30
0.0
 11
300.00000095231792
 21
284.99999834273029
 31
0.0
  0
LINE
  5
281
  8
NOTE
  6
CONTINUOUS
 62
     4
 10
300.00000095231792
 20
284.99999834273029
 30
0.0
 11
275.70484007508833
 21
304.34844142037929
 31
0.0
  0
LINE
  5
283
  8
NOTE
  6
CONTINUOUS
 62
     4
 10
300.00000050000023
 20
160.0
 30
0.0
 11
-637.38760636352163
 21
1167.4863713239561
 31
0.0
  0
LINE
  5
285
  8
NOTE
  6
CONTINUOUS
 62
     4
 10
285.32521553449868
 20
187.37275583026309
 30
0.0
 11
300.00000016957517
 21
159.99999952963429
 31
0.0
  0
LINE
  5
286
  8
NOTE
  6
CONTINUOUS
 62
     4
 10
300.00000016957517
 20
159.99999952963429
 30
0.0
 11
273.6048858044735
 21
176.3681096597835
 31
0.0
  0
LINE
  5
288
  8
NOTE
  6
CONTINUOUS
 62
     4
 10
270.00000050000011
 20
220.0
 30
0.0
 11
-630.18921910324934
 21
1356.6393140728719
 31
0.0
  0
LINE
  5
28A
  8
NOTE
  6
CONTINUOUS
 62
     4
 10
257.81766480566819
 20
248.56935189030941
 30
0.0
 11
269.99999944315653
 21
220.00000092883761
 31
0.0
  0
LINE
  5
28B
  8
NOTE
  6
CONTINUOUS
 62
     4
 10
269.99999944315653
 20
220.00000092883761
 30
0.0
 11
245.16511277356221
 21
238.65061742502559
 31
0.0
  0
LINE
  5
28D
  8
NOTE
  6
CONTINUOUS
 62
     4
 10
-0.0000005834471146
 20
29.999998109021359
 30
0.0
 11
-464.41773447882611
 21
299.64335767617882
 31
0.0
  0
LINE
  5
28E
  8
NOTE
  6
CONTINUOUS
 62
     4
 10
-464.41773447882611
 20
299.64335767617882
 30
0.0
 11
-793.04633129895979
 21
299.64335767617882
 31
0.0
  0
LINE
  5
28F
  8
NOTE
  6
CONTINUOUS
 62
     4
 10
-21.750528074883459
 20
52.170511908674541
 30
0.0
 11
0.0000004999999419
 21
30.0
 31
0.0
  0
LINE
  5
290
  8
NOTE
  6
CONTINUOUS
 62
     4
 10
0.0000004999999419
 20
30.0
 30
0.0
 11
-29.921765708159182
 21
38.324962376117099
 31
0.0
  0
LINE
  5
292
  8
NOTE
  6
CONTINUOUS
 62
     4
 10
-74.999999999999787
 20
226.49999999999929
 30
0.0
 11
-481.17536773900628
 21
583.14076311769213
 31
0.0
  0
LINE
  5
293
  8
NOTE
  6
CONTINUOUS
 62
     4
 10
-481.17536773900628
 20
583.14076311769213
 30
0.0
 11
-713.89694356485973
 21
583.14076311769213
 31
0.0
  0
LINE
  5
294
  8
NOTE
  6
CONTINUOUS
 62
     4
 10
-91.803498402263884
 20
252.62009825832581
 30
0.0
 11
-74.999999999999773
 21
226.5
 31
0.0
  0
LINE
  5
295
  8
NOTE
  6
CONTINUOUS
 62
     4
 10
-74.999999999999773
 20
226.5
 30
0.0
 11
-102.61230555346999
 21
240.7189195651878
 31
0.0
  0
LINE
  5
297
  8
NOTE
  6
CONTINUOUS
 62
     4
 10
319.05076102679101
 20
877.24123422368973
 30
0.0
 11
555.20235975026822
 21
1043.083144556665
 31
0.0
  0
LINE
  5
299
  8
NOTE
  6
CONTINUOUS
 62
     4
 10
323.67053577162909
 20
870.66287782665268
 30
0.0
 11
294.50000049999989
 21
859.99999999999955
 31
0.0
  0
LINE
  5
29A
  8
NOTE
  6
CONTINUOUS
 62
     4
 10
294.50000049999989
 20
859.99999999999955
 30
0.0
 11
314.43098628195293
 21
883.81959062072781
 31
0.0
  0
LINE
  5
29B
  8
NOTE
  6
CONTINUOUS
 62
     4
 10
294.50000049999989
 20
859.99999999999955
 30
0.0
 11
319.05076102679101
 21
877.24123422368973
 31
0.0
  0
LINE
  5
29C
  8
NOTE
  6
CONTINUOUS
 62
     4
 10
316.64771826828792
 20
960.23557752218142
 30
0.0
 11
555.20235975026822
 21
1178.194420572682
 31
0.0
  0
LINE
  5
29D
  8
NOTE
  6
CONTINUOUS
 62
     4
 10
555.20235975026822
 20
1178.194420572682
 30
0.0
 11
856.38421186007315
 21
1178.194420572682
 31
0.0
  0
LINE
  5
29E
  8
NOTE
  6
CONTINUOUS
 62
     4
 10
322.06982487453888
 20
954.30111448582045
 30
0.0
 11
294.50000049999989
 21
939.99999999999955
 31
0.0
  0
LINE
  5
29F
  8
NOTE
  6
CONTINUOUS
 62
     4
 10
294.50000049999989
 20
939.99999999999955
 30
0.0
 11
311.22561166203701
 21
966.17004055854363
 31
0.0
  0
LINE
  5
2A0
  8
NOTE
  6
CONTINUOUS
 62
     4
 10
294.50000049999989
 20
939.99999999999955
 30
0.0
 11
316.64771826828792
 21
960.23557752218142
 31
0.0
  0
LINE
  5
2A1
  8
NOTE
  6
CONTINUOUS
 62
     4
 10
315.25350940525891
 20
1041.663144909402
 30
0.0
 11
555.20235975026822
 21
1292.129059582692
 31
0.0
  0
LINE
  5
2A2
  8
NOTE
  6
CONTINUOUS
 62
     4
 10
555.20235975026822
 20
1292.129059582692
 30
0.0
 11
796.77893114639073
 21
1292.129059582692
 31
0.0
  0
LINE
  5
2A3
  8
NOTE
  6
CONTINUOUS
 62
     4
 10
321.0581315365863
 20
1036.1022588746071
 30
0.0
 11
294.50000000000028
 21
1019.999999999999
 31
0.0
  0
LINE
  5
2A4
  8
NOTE
  6
CONTINUOUS
 62
     4
 10
294.50000000000028
 20
1019.999999999999
 30
0.0
 11
309.4488872739314
 21
1047.2240309442
 31
0.0
  0
LINE
  5
2A5
  8
NOTE
  6
CONTINUOUS
 62
     4
 10
294.50000000000028
 20
1019.999999999999
 30
0.0
 11
315.25350940525891
 21
1041.663144909402
 31
0.0
  0
LINE
  5
2A7
  8
SIZE
  6
CONTINUOUS
 62
    30
 10
-459.49999999999972
 20
0.0000000000000057
 30
0.0
 11
-707.35415538940265
 21
0.0000000000000759
 31
0.0
  0
POINT
  5
2AD
  8
DEFPOINTS
  6
CONTINUOUS
 62
     7
 10
-102.3333332499994
 20
226.4999999999996
 30
0.0
  0
POINT
  5
2AE
  8
DEFPOINTS
  6
CONTINUOUS
 62
     7
 10
-439.4999999999996
 20
0.0
 30
0.0
  0
TEXT
  5
2B7
  8
NOTE
  6
CONTINUOUS
 62
     4
 10
568.51591035133924
 20
1065.1576689530471
 30
0.0
 40
60.0
  1
EL1 %%C60
 50
0.0000025044165917
 41
0.7
  7
STANDARD1
  0
LINE
  5
2B8
  8
NOTE
  6
CONTINUOUS
 62
     4
 10
555.20235975026822
 20
1043.083144556665
 30
0.0
 11
856.38421186007315
 21
1043.083144556665
 31
0.0
  0
TEXT
  5
2D1
  8
NOTE
  6
CONTINUOUS
 62
     4
 10
-1170.9892242172129
 20
1568.3225993535741
 30
0.0
 40
60.0
  1
RL2 %%C12.7
 50
0.0000025044165917
 41
0.7
  7
STANDARD1
  0
LINE
  5
2D2
  8
NOTE
  6
CONTINUOUS
 62
     4
 10
-646.62016393970771
 20
1554.645262929814
 30
0.0
 11
-1180.660984715229
 21
1554.645262929814
 31
0.0
  0
TEXT
  5
2D3
  8
NOTE
  6
CONTINUOUS
 62
     4
 10
-1172.116004769953
 20
1643.4775990097221
 30
0.0
 40
60.0
  1
定速側冷媒配管穴（液）
 50
0.0000025044165917
 41
0.7
  7
STANDARD1
  0
TEXT
  5
2D4
  8
NOTE
  6
CONTINUOUS
 62
     4
 10
-1166.4669559584379
 20
1765.4060083830809
 30
0.0
 40
60.0
  1
RG2 %%C19.05
 50
0.0000025044165917
 41
0.7
  7
STANDARD1
  0
LINE
  5
2D5
  8
NOTE
  6
CONTINUOUS
 62
     4
 10
-592.95539798164282
 20
1751.7286719593219
 30
0.0
 11
-1176.1387164564519
 21
1751.7286719593219
 31
0.0
  0
TEXT
  5
2D6
  8
NOTE
  6
CONTINUOUS
 62
     4
 10
-1167.5937365111761
 20
1840.56100803923
 30
0.0
 40
60.0
  1
定速側冷媒配管穴（ガス）
 50
0.0000025044165917
 41
0.7
  7
STANDARD1
  0
TEXT
  5
2D7
  8
NOTE
  6
CONTINUOUS
 62
     4
 10
-1203.2301817237919
 20
1181.1637077477169
 30
0.0
 40
60.0
  1
RL1 %%C12.7
 50
0.0000025044165917
 41
0.7
  7
STANDARD1
  0
LINE
  5
2D8
  8
NOTE
  6
CONTINUOUS
 62
     4
 10
-637.38760636352163
 20
1167.4863713239561
 30
0.0
 11
-1217.5289530944531
 21
1167.4863713239561
 31
0.0
  0
TEXT
  5
2D9
  8
NOTE
  6
CONTINUOUS
 62
     4
 10
-1208.983973149177
 20
1256.3187074038649
 30
0.0
 40
60.0
  1
ＩＮＶ側冷媒配管穴（液）
 50
0.0000025044165917
 41
0.7
  7
STANDARD1
  0
TEXT
  5
2DA
  8
NOTE
  6
CONTINUOUS
 62
     4
 10
-1257.442958062489
 20
1370.3166504966309
 30
0.0
 40
60.0
  1
RG1 %%C19.05
 50
0.0000025044165917
 41
0.7
  7
STANDARD1
  0
LINE
  5
2DB
  8
NOTE
  6
CONTINUOUS
 62
     4
 10
-630.18921910324934
 20
1356.6393140728719
 30
0.0
 11
-1267.1147185605039
 21
1356.6393140728719
 31
0.0
  0
TEXT
  5
2DC
  8
NOTE
  6
CONTINUOUS
 62
     4
 10
-1258.5697386152281
 20
1445.4716501527801
 30
0.0
 40
60.0
  1
ＩＮＶ側冷媒配管穴（ガス）
 50
0.0000025044165917
 41
0.7
  7
STANDARD1
  0
LINE
  5
2E1
  8
DETAIL
  6
CONTINUOUS
 62
     5
 10
13.12859474582149
 20
19.200000000000259
 30
0.0
 11
16.441481322580358
 21
19.200000000000259
 31
0.0
  0
LINE
  5
2E2
  8
DETAIL
  6
CONTINUOUS
 62
     5
 10
12.04159457879252
 20
18.0
 30
0.0
 11
16.440986999999719
 21
18.0
 31
0.0
  0
LINE
  5
2E3
  8
DETAIL
  6
CONTINUOUS
 62
     5
 10
16.444154129531672
 20
25.688411549763352
 30
0.0
 11
16.440986999999719
 21
18.0
 31
0.0
  0
CIRCLE
  5
302
  8
FIX
  6
CONTINUOUS
 62
    11
 10
-399.99999999999977
 20
0.0000000000002274
 30
0.0
 40
12.42149793872491
  0
CIRCLE
  5
303
  8
FIX
  6
CONTINUOUS
 62
    11
 10
400.0
 20
0.0
 30
0.0
 40
12.42149793872491
  0
LINE
  5
304
  8
SIZE
  6
CONTINUOUS
 62
    30
 10
-400.00000000000011
 20
-34.995165896357548
 30
0.0
 11
-400.00000000000011
 21
-908.83228468382731
 31
0.0
  0
CIRCLE
  5
305
  8
SIZE
  6
CONTINUOUS
 62
    30
 10
-400.00000000000011
 20
-888.8322846838272
 30
0.0
 40
7.5
  0
LINE
  5
306
  8
SIZE
  6
CONTINUOUS
 62
    30
 10
400.0
 20
-34.995165896357548
 30
0.0
 11
400.0
 21
-908.83228468382822
 31
0.0
  0
LINE
  5
307
  8
SIZE
  6
CONTINUOUS
 62
    30
 10
-400.00000000000011
 20
-888.8322846838272
 30
0.0
 11
400.0
 21
-888.83228468382777
 31
0.0
  0
CIRCLE
  5
308
  8
SIZE
  6
CONTINUOUS
 62
    30
 10
400.0
 20
-888.83228468382777
 30
0.0
 40
7.5
  0
TEXT
  5
309
  8
SIZE
  6
CONTINUOUS
 62
    30
 10
-282.34285714285602
 20
-868.83228468382765
 30
0.0
 40
60.0
  1
800（据付ピッチ）
 41
0.9
 72
     1
 11
0.0000000000011369
 21
-868.83228468382765
 31
0.0
  0
POINT
  5
30A
  8
DEFPOINTS
  6
CONTINUOUS
 62
     7
 10
400.0
 20
-888.83228468382777
 30
0.0
 50
270.0
  0
LINE
  5
30B
  8
NOTE
  6
CONTINUOUS
 62
     4
 10
400.0
 20
14.995165896358451
 30
0.0
 11
400.0
 21
-14.995165896358451
 31
0.0
  0
LINE
  5
30C
  8
NOTE
  6
CONTINUOUS
 62
     4
 10
414.99516589635829
 20
0.0
 30
0.0
 11
385.00483410364183
 21
0.0
 31
0.0
  0
TEXT
  5
30D
  8
NOTE
  6
CONTINUOUS
 62
     4
 10
582.70722823206393
 20
-131.0089135884989
 30
0.0
 40
60.0
  1
AH 4-%%C17
 50
0.0000025044165917
 41
0.7
  7
STANDARD1
  0
LINE
  5
30E
  8
NOTE
  6
CONTINUOUS
 62
     4
 10
400.0
 20
0.0
 30
0.0
 11
573.98465277426521
 21
-153.08343798488181
 31
0.0
  0
LINE
  5
30F
  8
NOTE
  6
CONTINUOUS
 62
     4
 10
573.98465277426521
 20
-153.08343798488181
 30
0.0
 11
908.21766201435184
 21
-153.08343798488181
 31
0.0
  0
LINE
  5
310
  8
NOTE
  6
CONTINUOUS
 62
     4
 10
416.4270692747732
 20
-26.358461385697641
 30
0.0
 11
400.0
 21
0.0
 31
0.0
  0
LINE
  5
311
  8
NOTE
  6
CONTINUOUS
 62
     4
 10
400.0
 20
0.0
 30
0.0
 11
427.40548992823437
 21
-14.613562651624081
 31
0.0
  0
LINE
  5
312
  8
NOTE
  6
CONTINUOUS
 62
     4
 10
-399.99999999999977
 20
14.99516589635868
 30
0.0
 11
-399.99999999999977
 21
-14.99516589635823
 31
0.0
  0
LINE
  5
313
  8
NOTE
  6
CONTINUOUS
 62
     4
 10
-385.0048341036412
 20
0.0000000000002274
 30
0.0
 11
-414.995165896358
 21
0.0000000000002274
 31
0.0
  0
LINE
  5
324
  8
SIZE
  6
CONTINUOUS
 62
    30
 10
-944.12432288314938
 20
762.86159108433446
 30
0.0
 11
-944.12432288314938
 21
884.21412713950042
 31
0.0
  0
TEXT
  5
325
  8
SIZE
  6
CONTINUOUS
 62
    30
 10
-964.12432288314983
 20
782.02479342345498
 30
0.0
 40
60.0
  1
80
 50
90.0
 41
0.9
 72
     1
 11
-964.12432288314983
 21
825.73907913774065
 31
0.0
  0
LINE
  5
32D
  8
SIZE
  6
CONTINUOUS
 62
    30
 10
-944.12432548580614
 20
884.2141256052563
 30
0.0
 11
-853.70871836329695
 21
899.99999999999977
 31
0.0
  0
CIRCLE
  5
348
  8
DETAIL
  6
CONTINUOUS
 62
     5
 10
299.99999999999972
 20
285.00000076448151
 30
0.0
 40
16.0
  0
CIRCLE
  5
349
  8
DETAIL
  6
CONTINUOUS
 62
     5
 10
299.99999912531359
 20
160.00000147748699
 30
0.0
 40
16.0
  0
CIRCLE
  5
34A
  8
DETAIL
  6
CONTINUOUS
 62
     5
 10
269.99999957046759
 20
345.00000151525802
 30
0.0
 40
21.0
  0
CIRCLE
  5
34B
  8
DETAIL
  6
CONTINUOUS
 62
     5
 10
269.99999906845721
 20
220.0000018075622
 30
0.0
 40
21.0
  0
LINE
  5
35E
  8
SIZE
  6
CONTINUOUS
 62
    30
 10
-449.99999999999977
 20
90.814508487070256
 30
0.0
 11
-449.99999999999977
 21
-908.83228468382731
 31
0.0
  0
LINE
  5
35F
  8
SIZE
  6
CONTINUOUS
 62
    30
 10
-400.00000000000023
 20
-888.8322846838272
 30
0.0
 11
-449.99999999999977
 21
-888.8322846838272
 31
0.0
  0
LINE
  5
360
  8
SIZE
  6
CONTINUOUS
 62
    30
 10
-449.99999999999977
 20
-888.8322846838272
 30
0.0
 11
-607.42857142857133
 21
-888.8322846838272
 31
0.0
  0
CIRCLE
  5
361
  8
SIZE
  6
CONTINUOUS
 62
    30
 10
-449.99999999999977
 20
-888.8322846838272
 30
0.0
 40
7.5
  0
TEXT
  5
362
  8
SIZE
  6
CONTINUOUS
 62
    30
 10
-587.42857142857099
 20
-868.83228468382731
 30
0.0
 40
60.0
  1
50
 41
0.9
 72
     1
 11
-543.71428571428532
 21
-868.83228468382731
 31
0.0
  0
POINT
  5
363
  8
DEFPOINTS
  6
CONTINUOUS
 62
     7
 10
-449.99999999999977
 20
-888.8322846838272
 30
0.0
 50
270.0
  0
LINE
  5
364
  8
SIZE
  6
CONTINUOUS
 62
    30
 10
-400.00000000000023
 20
-34.995165896357548
 30
0.0
 11
-400.00000000000023
 21
-908.83228468382731
 31
0.0
  0
CIRCLE
  5
365
  8
SIZE
  6
CONTINUOUS
 62
    30
 10
-400.00000000000023
 20
-888.8322846838272
 30
0.0
 40
7.5
  0
LINE
  5
370
  8
SIZE
  6
CONTINUOUS
 62
    30
 10
629.99999999999966
 20
-463.15165255284262
 30
0.0
 11
449.9999999999996
 21
-463.15165255284262
 31
0.0
  0
TEXT
  5
371
  8
SIZE
  6
CONTINUOUS
 62
    30
 10
475.7142857142855
 20
-443.15165255284262
 30
0.0
 40
60.0
  1
180
 41
0.9
 72
     1
 11
539.99999999999966
 21
-443.15165255284262
 31
0.0
  0
LINE
  5
372
  8
SIZE
  6
CONTINUOUS
 62
    30
 10
629.99999999999977
 20
-331.00301581718003
 30
0.0
 11
449.99999999999977
 21
-331.00301581718003
 31
0.0
  0
TEXT
  5
373
  8
SIZE
  6
CONTINUOUS
 62
    30
 10
475.71428571428561
 20
-311.00301581718003
 30
0.0
 40
60.0
  1
150
 41
0.9
 72
     1
 11
539.99999999999977
 21
-311.00301581718003
 31
0.0
  0
ENDSEC
  0
EOF
