  0
SECTION
  2
HEADER
  9
$ACADVER
  1
AC1009
  9
$INSBASE
 10
0.0
 20
0.0
 30
0.0
  9
$EXTMIN
 10
-84.401244
 20
-30.0
 30
0.0
  9
$EXTMAX
 10
136.251086
 20
99.76732
 30
0.0
  9
$LIMMIN
 10
-4200.0
 20
-2970.0
  9
$LIMMAX
 10
4200.0
 20
2970.0
  9
$ORTHOMODE
 70
     1
  9
$REGENMODE
 70
     1
  9
$FILLMODE
 70
     1
  9
$QTEXTMODE
 70
     0
  9
$MIRRTEXT
 70
     0
  9
$DRAGMODE
 70
     2
  9
$LTSCALE
 40
20.0
  9
$OSMODE
 70
  2087
  9
$ATTMODE
 70
     1
  9
$TEXTSIZE
 40
64.0
  9
$TRACEWID
 40
0.05
  9
$TEXTSTYLE
  7
STANDARD
  9
$CLAYER
  8
DETAIL
  9
$CELTYPE
  6
CONTINUOUS
  9
$CECOLOR
 62
     7
  9
$DIMSCALE
 40
1.0
  9
$DIMASZ
 40
5.0
  9
$DIMEXO
 40
5.0
  9
$DIMDLI
 40
200.0
  9
$DIMRND
 40
0.0
  9
$DIMDLE
 40
0.0
  9
$DIMEXE
 40
15.0
  9
$DIMTP
 40
0.0
  9
$DIMTM
 40
0.0
  9
$DIMTXT
 40
25.0
  9
$DIMCEN
 40
0.0
  9
$DIMTSZ
 40
0.0
  9
$DIMTOL
 70
     0
  9
$DIMLIM
 70
     0
  9
$DIMTIH
 70
     0
  9
$DIMTOH
 70
     0
  9
$DIMSE1
 70
     0
  9
$DIMSE2
 70
     0
  9
$DIMTAD
 70
     1
  9
$DIMZIN
 70
     8
  9
$DIMBLK
  1
_DOTBLANK
  9
$DIMASO
 70
     1
  9
$DIMSHO
 70
     0
  9
$DIMPOST
  1

  9
$DIMAPOST
  1

  9
$DIMALT
 70
     0
  9
$DIMALTD
 70
     2
  9
$DIMALTF
 40
25.4
  9
$DIMLFAC
 40
1.0
  9
$DIMTOFL
 70
     1
  9
$DIMTVP
 40
0.0
  9
$DIMTIX
 70
     1
  9
$DIMSOXD
 70
     0
  9
$DIMSAH
 70
     0
  9
$DIMBLK1
  1

  9
$DIMBLK2
  1

  9
$DIMSTYLE
  2
STANDARD
  9
$DIMCLRD
 70
     0
  9
$DIMCLRE
 70
     0
  9
$DIMCLRT
 70
     0
  9
$DIMTFAC
 40
1.0
  9
$DIMGAP
 40
0.09
  9
$LUNITS
 70
     2
  9
$LUPREC
 70
     4
  9
$SKETCHINC
 40
0.1
  9
$FILLETRAD
 40
0.0
  9
$AUNITS
 70
     1
  9
$AUPREC
 70
     3
  9
$MENU
  1
ACAD
  9
$ELEVATION
 40
0.0
  9
$PELEVATION
 40
0.0
  9
$THICKNESS
 40
0.0
  9
$LIMCHECK
 70
     0
  9
$BLIPMODE
 70
     0
  9
$CHAMFERA
 40
0.0
  9
$CHAMFERB
 40
0.0
  9
$SKPOLY
 70
     0
  9
$TDCREATE
 40
2449761.493623
  9
$TDUPDATE
 40
2453819.373701
  9
$TDINDWG
 40
4.465466
  9
$TDUSRTIMER
 40
4.465466
  9
$USRTIMER
 70
     1
  9
$ANGBASE
 50
0.0
  9
$ANGDIR
 70
     0
  9
$PDMODE
 70
    35
  9
$PDSIZE
 40
100.0
  9
$PLINEWID
 40
0.0
  9
$COORDS
 70
     0
  9
$SPLFRAME
 70
     0
  9
$SPLINETYPE
 70
     6
  9
$SPLINESEGS
 70
     8
  9
$ATTDIA
 70
     0
  9
$ATTREQ
 70
     1
  9
$HANDLING
 70
     1
  9
$HANDSEED
  5
78
  9
$SURFTAB1
 70
     6
  9
$SURFTAB2
 70
     6
  9
$SURFTYPE
 70
     6
  9
$SURFU
 70
     6
  9
$SURFV
 70
     6
  9
$UCSNAME
  2

  9
$UCSORG
 10
0.0
 20
0.0
 30
0.0
  9
$UCSXDIR
 10
1.0
 20
0.0
 30
0.0
  9
$UCSYDIR
 10
0.0
 20
1.0
 30
0.0
  9
$PUCSNAME
  2

  9
$PUCSORG
 10
0.0
 20
0.0
 30
0.0
  9
$PUCSXDIR
 10
1.0
 20
0.0
 30
0.0
  9
$PUCSYDIR
 10
0.0
 20
1.0
 30
0.0
  9
$USERI1
 70
     0
  9
$USERI2
 70
     0
  9
$USERI3
 70
     0
  9
$USERI4
 70
     0
  9
$USERI5
 70
     0
  9
$USERR1
 40
20.0
  9
$USERR2
 40
0.0
  9
$USERR3
 40
0.0
  9
$USERR4
 40
0.0
  9
$USERR5
 40
0.0
  9
$WORLDVIEW
 70
     1
  9
$SHADEDGE
 70
     3
  9
$SHADEDIF
 70
    70
  9
$TILEMODE
 70
     1
  9
$MAXACTVP
 70
    48
  9
$PLIMCHECK
 70
     0
  9
$PEXTMIN
 10
1.000000E+020
 20
1.000000E+020
 30
1.000000E+020
  9
$PEXTMAX
 10
-1.000000E+020
 20
-1.000000E+020
 30
-1.000000E+020
  9
$PLIMMIN
 10
0.0
 20
0.0
  9
$PLIMMAX
 10
12.0
 20
9.0
  9
$UNITMODE
 70
     0
  9
$VISRETAIN
 70
     1
  9
$PLINEGEN
 70
     0
  9
$PSLTSCALE
 70
     1
  0
ENDSEC
  0
SECTION
  2
TABLES
  0
TABLE
  2
VPORT
 70
     2
  0
VPORT
  2
*ACTIVE
 70
     0
 10
0.0
 20
0.0
 11
1.0
 21
1.0
 12
1399.454887
 22
0.0
 13
0.0
 23
0.0
 14
50.0
 24
50.0
 15
100.0
 25
100.0
 16
0.0
 26
0.0
 36
1.0
 17
0.0
 27
0.0
 37
0.0
 40
5940.0
 41
1.885338
 42
50.0
 43
0.0
 44
0.0
 50
0.0
 51
0.0
 71
     0
 72
  1000
 73
     1
 74
     0
 75
     0
 76
     0
 77
     0
 78
     0
  0
ENDTAB
  0
TABLE
  2
LTYPE
 70
     2
  0
LTYPE
  2
CONTINUOUS
 70
     0
  3
実線
 72
    65
 73
     0
 40
0.0
  0
LTYPE
  2
DASHDOT
 70
     0
  3
____ _ ____ _ ____ _ ____ _ ____ _ ____ _ ____
 72
    65
 73
     4
 40
5.5
 49
4.0
 49
-0.6
 49
0.3
 49
-0.6
  0
ENDTAB
  0
TABLE
  2
LAYER
 70
    12
  0
LAYER
  2
0
 70
     0
 62
     7
  6
CONTINUOUS
  0
LAYER
  2
DETAIL
 70
     0
 62
     5
  6
CONTINUOUS
  0
LAYER
  2
OUTLINE
 70
     0
 62
     3
  6
CONTINUOUS
  0
LAYER
  2
BASIS
 70
     0
 62
     6
  6
DASHDOT
  0
LAYER
  2
SIZE
 70
     0
 62
    30
  6
CONTINUOUS
  0
LAYER
  2
NOTE
 70
     0
 62
     4
  6
CONTINUOUS
  0
LAYER
  2
ARRANGE
 70
     0
 62
     1
  6
CONTINUOUS
  0
LAYER
  2
FIX
 70
     0
 62
    11
  6
CONTINUOUS
  0
LAYER
  2
SERVICESPACE
 70
     0
 62
     2
  6
DASHDOT
  0
LAYER
  2
ETC
 70
     0
 62
    61
  6
CONTINUOUS
  0
LAYER
  2
SYMBOLLINE
 70
     0
 62
    15
  6
CONTINUOUS
  0
LAYER
  2
DEFPOINTS
 70
     0
 62
     7
  6
CONTINUOUS
  0
ENDTAB
  0
TABLE
  2
STYLE
 70
     2
  0
STYLE
  2
STANDARD
 70
     0
 40
0.0
 41
0.9
 50
0.0
 71
     0
 42
64.0
  3
SIMPLEX
  4
BIGFONT
  0
STYLE
  2
STANDARD1
 70
     0
 40
0.0
 41
1.0
 50
0.0
 71
     0
 42
3.5
  3
MONOTXT
  4
BIGFONT
  0
ENDTAB
  0
TABLE
  2
VIEW
 70
     1
  0
VIEW
  2
ALL
 70
     0
 40
6056.230032
 10
0.0
 20
58.115016
 41
8400.0
 11
0.0
 21
0.0
 31
1.0
 12
0.0
 22
0.0
 32
0.0
 42
50.0
 43
0.0
 44
0.0
 50
0.0
 71
     0
  0
ENDTAB
  0
TABLE
  2
UCS
 70
     0
  0
ENDTAB
  0
TABLE
  2
APPID
 70
     1
  0
APPID
  2
ACAD
 70
     0
  0
ENDTAB
  0
TABLE
  2
DIMSTYLE
 70
     1
  0
DIMSTYLE
  2
STANDARD
 70
     0
  3

  4

  5

  6

  7

 40
1.0
 41
0.18
 42
0.0625
 43
0.38
 44
0.18
 45
0.0
 46
0.0
 47
0.0
 48
0.0
140
0.18
141
0.09
142
0.0
143
25.4
144
1.0
145
0.0
146
1.0
147
0.09
 71
     0
 72
     0
 73
     1
 74
     1
 75
     0
 76
     0
 77
     0
 78
     0
170
     0
171
     2
172
     0
173
     0
174
     0
175
     0
176
     0
177
     0
178
     0
  0
ENDTAB
  0
ENDSEC
  0
SECTION
  2
BLOCKS
  0
BLOCK
  8
0
  2
$MODEL_SPACE
 70
     0
 10
0.0
 20
0.0
 30
0.0
  3
$MODEL_SPACE
  1

  0
ENDBLK
  5
1A
  8
0
  0
BLOCK
 67
     1
  8
0
  2
$PAPER_SPACE
 70
     0
 10
0.0
 20
0.0
 30
0.0
  3
$PAPER_SPACE
  1

  0
ENDBLK
  5
17
 67
     1
  8
0
  0
BLOCK
  8
0
  2
_DOTBLANK
 70
     0
 10
0.0
 20
0.0
 30
0.0
  3
_DOTBLANK
  1

  0
CIRCLE
  5
32
  8
0
  6
CONTINUOUS
 62
     7
 10
0.0
 20
0.0
 30
0.0
 40
0.5
  0
LINE
  5
33
  8
0
  6
CONTINUOUS
 62
     7
 10
-0.5
 20
0.0
 30
0.0
 11
-1.0
 21
0.0
 31
0.0
  0
ENDBLK
  5
34
  8
0
  0
ENDSEC
  0
SECTION
  2
ENTITIES
  0
TEXT
  5
35
  8
ETC
  6
CONTINUOUS
 62
    61
 10
-84.401244
 20
79.76732
 30
0.0
 40
20.0
  1
PAR-24MA_1
 50
359.999997
 41
0.603059
  7
STANDARD1
  0
LINE
  5
36
  8
OUTLINE
  6
CONTINUOUS
 62
     3
 10
-60.397654
 20
-20.400003
 30
0.0
 11
60.397654
 21
-20.400003
 31
0.0
  0
LINE
  5
37
  8
OUTLINE
  6
CONTINUOUS
 62
     3
 10
-64.000641
 20
0.0
 30
0.0
 11
63.999372
 21
0.0
 31
0.0
  0
LINE
  5
38
  8
SIZE
  6
CONTINUOUS
 62
    30
 10
-65.0
 20
4.0
 30
0.0
 11
-65.0
 21
39.216361
 31
0.0
  0
LINE
  5
39
  8
SIZE
  6
CONTINUOUS
 62
    30
 10
65.0
 20
4.0
 30
0.0
 11
65.0
 21
39.216361
 31
0.0
  0
LINE
  5
3A
  8
SIZE
  6
CONTINUOUS
 62
    30
 10
-60.0
 20
24.216361
 30
0.0
 11
60.0
 21
24.216361
 31
0.0
  0
CIRCLE
  5
3B
  8
SIZE
  6
CONTINUOUS
 62
    30
 10
-65.0
 20
24.216361
 30
0.0
 40
2.5
  0
LINE
  5
3C
  8
SIZE
  6
CONTINUOUS
 62
    30
 10
-62.5
 20
24.216361
 30
0.0
 11
-60.0
 21
24.216361
 31
0.0
  0
CIRCLE
  5
3D
  8
SIZE
  6
CONTINUOUS
 62
    30
 10
65.0
 20
24.216361
 30
0.0
 40
2.5
  0
LINE
  5
3E
  8
SIZE
  6
CONTINUOUS
 62
    30
 10
62.5
 20
24.216361
 30
0.0
 11
60.0
 21
24.216361
 31
0.0
  0
TEXT
  5
3F
  8
SIZE
  6
CONTINUOUS
 62
    30
 10
-26.785714
 20
29.216361
 30
0.0
 40
25.0
  1
130
 41
0.9
 72
     1
 11
0.0
 21
29.216361
 31
0.0
  0
POINT
  5
40
  8
DEFPOINTS
  6
CONTINUOUS
 62
     7
 10
-65.0
 20
-1.0
 30
0.0
  0
POINT
  5
41
  8
DEFPOINTS
  6
CONTINUOUS
 62
     7
 10
65.0
 20
-1.0
 30
0.0
  0
POINT
  5
42
  8
DEFPOINTS
  6
CONTINUOUS
 62
     7
 10
65.0
 20
24.216361
 30
0.0
  0
LINE
  5
43
  8
ARRANGE
  6
CONTINUOUS
 62
     1
 10
-11.22417
 20
-11.22417
 30
0.0
 11
11.22417
 21
11.22417
 31
0.0
  0
LINE
  5
44
  8
ARRANGE
  6
CONTINUOUS
 62
     1
 10
-11.22417
 20
11.22417
 30
0.0
 11
11.22417
 21
-11.22417
 31
0.0
  0
CIRCLE
  5
45
  8
ARRANGE
  6
CONTINUOUS
 62
     1
 10
0.0
 20
0.0
 30
0.0
 40
8.90117
  0
LINE
  5
46
  8
DETAIL
  6
CONTINUOUS
 62
     5
 10
65.0
 20
-1.0
 30
0.0
 11
-65.0
 21
-1.0
 31
0.0
  0
LINE
  5
47
  8
DETAIL
  6
CONTINUOUS
 62
     5
 10
-60.397654
 20
-20.400003
 30
0.0
 11
60.397654
 21
-20.400003
 31
0.0
  0
LINE
  5
48
  8
DETAIL
  6
CONTINUOUS
 62
     5
 10
-64.000641
 20
0.0
 30
0.0
 11
63.999372
 21
0.0
 31
0.0
  0
LINE
  5
49
  8
OUTLINE
  6
CONTINUOUS
 62
     3
 10
-64.035576
 20
-1.0
 30
0.0
 11
-65.0
 21
-1.0
 31
0.0
  0
ARC
  5
4A
  8
OUTLINE
  6
CONTINUOUS
 62
     3
 10
-59.62954
 20
-17.500003
 30
0.0
 40
3.0
 50
206.1117
 51
255.164888
  0
LINE
  5
4B
  8
OUTLINE
  6
CONTINUOUS
 62
     3
 10
-64.446863
 20
-14.488029
 30
0.0
 11
-62.32337
 21
-18.820377
 31
0.0
  0
LINE
  5
4C
  8
OUTLINE
  6
CONTINUOUS
 62
     3
 10
-64.035554
 20
-0.999389
 30
0.0
 11
-64.000655
 21
0.000002
 31
0.0
  0
ARC
  5
4D
  8
DETAIL
  6
CONTINUOUS
 62
     5
 10
-23.312097
 20
-16.494312
 30
0.0
 40
4.305694
 50
270.0
 51
294.892508
  0
ARC
  5
4E
  8
DETAIL
  6
CONTINUOUS
 62
     5
 10
-32.687415
 20
-16.494312
 30
0.0
 40
4.305694
 50
245.107492
 51
270.0
  0
LINE
  5
4F
  8
DETAIL
  6
CONTINUOUS
 62
     5
 10
-32.687415
 20
-20.800006
 30
0.0
 11
-23.312097
 21
-20.800006
 31
0.0
  0
ARC
  5
50
  8
DETAIL
  6
CONTINUOUS
 62
     5
 10
-59.312341
 20
-16.094309
 30
0.0
 40
4.305694
 50
270.0
 51
294.892508
  0
ARC
  5
51
  8
DETAIL
  6
CONTINUOUS
 62
     5
 10
59.312341
 20
-16.094309
 30
0.0
 40
4.305694
 50
245.107492
 51
270.0
  0
LINE
  5
52
  8
DETAIL
  6
CONTINUOUS
 62
     5
 10
-64.035554
 20
-0.999389
 30
0.0
 11
-64.000655
 21
0.000002
 31
0.0
  0
ARC
  5
53
  8
DETAIL
  6
CONTINUOUS
 62
     5
 10
-59.62954
 20
-17.500003
 30
0.0
 40
3.0
 50
206.1117
 51
255.164888
  0
LINE
  5
54
  8
DETAIL
  6
CONTINUOUS
 62
     5
 10
-64.446863
 20
-14.488029
 30
0.0
 11
-62.32337
 21
-18.820377
 31
0.0
  0
LINE
  5
55
  8
BASIS
  6
DASHDOT
 62
     6
 10
0.0
 20
-24.507674
 30
0.0
 11
0.0
 21
6.399126
 31
0.0
  0
ARC
  5
56
  8
OUTLINE
  6
CONTINUOUS
 62
     3
 10
59.62954
 20
-17.500003
 30
0.0
 40
3.0
 50
284.835112
 51
333.884171
  0
LINE
  5
57
  8
OUTLINE
  6
CONTINUOUS
 62
     3
 10
64.44662
 20
-14.489257
 30
0.0
 11
62.323252
 21
-18.820562
 31
0.0
  0
LINE
  5
58
  8
OUTLINE
  6
CONTINUOUS
 62
     3
 10
64.034272
 20
-0.999392
 30
0.0
 11
63.999372
 21
-0.000001
 31
0.0
  0
LINE
  5
59
  8
OUTLINE
  6
CONTINUOUS
 62
     3
 10
65.0
 20
-1.0
 30
0.0
 11
64.034293
 21
-1.0
 31
0.0
  0
LINE
  5
5A
  8
DETAIL
  6
CONTINUOUS
 62
     5
 10
26.812341
 20
-20.800006
 30
0.0
 11
40.437598
 21
-20.800006
 31
0.0
  0
ARC
  5
5B
  8
DETAIL
  6
CONTINUOUS
 62
     5
 10
26.812341
 20
-16.494312
 30
0.0
 40
4.305694
 50
245.107492
 51
270.0
  0
LINE
  5
5C
  8
DETAIL
  6
CONTINUOUS
 62
     5
 10
31.06228
 20
-20.800006
 30
0.0
 11
41.187659
 21
-20.800006
 31
0.0
  0
ARC
  5
5D
  8
DETAIL
  6
CONTINUOUS
 62
     5
 10
41.187659
 20
-16.494312
 30
0.0
 40
4.305694
 50
270.0
 51
294.892508
  0
LINE
  5
5E
  8
DETAIL
  6
CONTINUOUS
 62
     5
 10
64.034272
 20
-0.999392
 30
0.0
 11
63.999372
 21
-0.000001
 31
0.0
  0
ARC
  5
5F
  8
DETAIL
  6
CONTINUOUS
 62
     5
 10
59.62954
 20
-17.500003
 30
0.0
 40
3.0
 50
284.835112
 51
333.884171
  0
LINE
  5
60
  8
DETAIL
  6
CONTINUOUS
 62
     5
 10
64.44662
 20
-14.489257
 30
0.0
 11
62.323252
 21
-18.820562
 31
0.0
  0
LINE
  5
61
  8
DETAIL
  6
CONTINUOUS
 62
     5
 10
-65.0
 20
-1.0
 30
0.0
 11
-64.446863
 21
-14.488029
 31
0.0
  0
LINE
  5
62
  8
DETAIL
  6
CONTINUOUS
 62
     5
 10
65.0
 20
-1.0
 30
0.0
 11
64.44662
 21
-14.489257
 31
0.0
  0
LINE
  5
63
  8
OUTLINE
  6
CONTINUOUS
 62
     3
 10
65.0
 20
-1.0
 30
0.0
 11
64.44662
 21
-14.489257
 31
0.0
  0
LINE
  5
64
  8
OUTLINE
  6
CONTINUOUS
 62
     3
 10
-65.0
 20
-1.0
 30
0.0
 11
-64.446863
 21
-14.488029
 31
0.0
  0
LINE
  5
65
  8
DETAIL
  6
CONTINUOUS
 62
     5
 10
-57.5
 20
-20.0
 30
0.0
 11
57.5
 21
-20.0
 31
0.0
  0
LINE
  5
66
  8
SIZE
  6
CONTINUOUS
 62
    30
 10
70.0
 20
-1.0
 30
0.0
 11
136.251086
 21
-1.0
 31
0.0
  0
LINE
  5
67
  8
SIZE
  6
CONTINUOUS
 62
    30
 10
62.5
 20
-20.0
 30
0.0
 11
136.251086
 21
-20.0
 31
0.0
  0
LINE
  5
68
  8
SIZE
  6
CONTINUOUS
 62
    30
 10
121.251086
 20
-25.0
 30
0.0
 11
121.251086
 21
-30.0
 31
0.0
  0
LINE
  5
69
  8
SIZE
  6
CONTINUOUS
 62
    30
 10
121.251086
 20
4.0
 30
0.0
 11
121.251086
 21
50.071429
 31
0.0
  0
LINE
  5
6A
  8
SIZE
  6
CONTINUOUS
 62
    30
 10
121.251086
 20
-20.0
 30
0.0
 11
121.251086
 21
-1.0
 31
0.0
  0
CIRCLE
  5
6B
  8
SIZE
  6
CONTINUOUS
 62
    30
 10
121.251086
 20
-20.0
 30
0.0
 40
2.5
  0
LINE
  5
6C
  8
SIZE
  6
CONTINUOUS
 62
    30
 10
121.251086
 20
-22.5
 30
0.0
 11
121.251086
 21
-25.0
 31
0.0
  0
CIRCLE
  5
6D
  8
SIZE
  6
CONTINUOUS
 62
    30
 10
121.251086
 20
-1.0
 30
0.0
 40
2.5
  0
LINE
  5
6E
  8
SIZE
  6
CONTINUOUS
 62
    30
 10
121.251086
 20
1.5
 30
0.0
 11
121.251086
 21
4.0
 31
0.0
  0
TEXT
  5
6F
  8
SIZE
  6
CONTINUOUS
 62
    30
 10
116.251086
 20
14.0
 30
0.0
 40
25.0
  1
19
 50
90.0
 41
0.9
 72
     1
 11
116.251086
 21
29.535714
 31
0.0
  0
POINT
  5
70
  8
DEFPOINTS
  6
CONTINUOUS
 62
     7
 10
65.0
 20
-1.0
 30
0.0
  0
POINT
  5
71
  8
DEFPOINTS
  6
CONTINUOUS
 62
     7
 10
57.5
 20
-20.0
 30
0.0
  0
POINT
  5
72
  8
DEFPOINTS
  6
CONTINUOUS
 62
     7
 10
121.251086
 20
-20.0
 30
0.0
  0
LINE
  5
73
  8
DETAIL
  6
CONTINUOUS
 62
     5
 10
-16.687415
 20
-20.800006
 30
0.0
 11
-7.312097
 21
-20.800006
 31
0.0
  0
ARC
  5
74
  8
DETAIL
  6
CONTINUOUS
 62
     5
 10
-16.687415
 20
-16.494312
 30
0.0
 40
4.305694
 50
245.107492
 51
270.0
  0
ARC
  5
75
  8
DETAIL
  6
CONTINUOUS
 62
     5
 10
-7.312097
 20
-16.494312
 30
0.0
 40
4.305694
 50
270.0
 51
294.892508
  0
ENDSEC
  0
EOF
