  0
SECTION
  2
HEADER
  9
$ACADVER
  1
AC1009
  9
$INSBASE
 10
0.0
 20
0.0
 30
0.0
  9
$EXTMIN
 10
-70.49558110360158
 20
-70.243818243319765
 30
-0.0000000000000058
  9
$EXTMAX
 10
158.2946925869837
 20
162.6937971830975
 30
0.0000000000000104
  9
$LIMMIN
 10
-4200.0
 20
-2970.0
  9
$LIMMAX
 10
4200.0
 20
2970.0
  9
$ORTHOMODE
 70
     1
  9
$REGENMODE
 70
     1
  9
$FILLMODE
 70
     1
  9
$QTEXTMODE
 70
     0
  9
$MIRRTEXT
 70
     0
  9
$DRAGMODE
 70
     2
  9
$LTSCALE
 40
20.0
  9
$OSMODE
 70
  3071
  9
$ATTMODE
 70
     1
  9
$TEXTSIZE
 40
64.0
  9
$TRACEWID
 40
0.05
  9
$TEXTSTYLE
  7
STANDARD
  9
$CLAYER
  8
SYMBOLLINE
  9
$CELTYPE
  6
CONTINUOUS
  9
$CECOLOR
 62
     7
  9
$DIMSCALE
 40
1.0
  9
$DIMASZ
 40
5.0
  9
$DIMEXO
 40
5.0
  9
$DIMDLI
 40
200.0
  9
$DIMRND
 40
0.0
  9
$DIMDLE
 40
0.0
  9
$DIMEXE
 40
15.0
  9
$DIMTP
 40
0.0
  9
$DIMTM
 40
0.0
  9
$DIMTXT
 40
25.0
  9
$DIMCEN
 40
0.0
  9
$DIMTSZ
 40
0.0
  9
$DIMTOL
 70
     0
  9
$DIMLIM
 70
     0
  9
$DIMTIH
 70
     0
  9
$DIMTOH
 70
     0
  9
$DIMSE1
 70
     0
  9
$DIMSE2
 70
     0
  9
$DIMTAD
 70
     1
  9
$DIMZIN
 70
     8
  9
$DIMBLK
  1
DOTBLANK
  9
$DIMASO
 70
     1
  9
$DIMSHO
 70
     0
  9
$DIMPOST
  1

  9
$DIMAPOST
  1

  9
$DIMALT
 70
     0
  9
$DIMALTD
 70
     2
  9
$DIMALTF
 40
25.399999999999999
  9
$DIMLFAC
 40
1.0
  9
$DIMTOFL
 70
     1
  9
$DIMTVP
 40
0.0
  9
$DIMTIX
 70
     1
  9
$DIMSOXD
 70
     0
  9
$DIMSAH
 70
     0
  9
$DIMBLK1
  1

  9
$DIMBLK2
  1

  9
$DIMSTYLE
  2
STANDARD
  9
$DIMCLRD
 70
     0
  9
$DIMCLRE
 70
     0
  9
$DIMCLRT
 70
     0
  9
$DIMTFAC
 40
1.0
  9
$DIMGAP
 40
0.09
  9
$LUNITS
 70
     2
  9
$LUPREC
 70
     4
  9
$SKETCHINC
 40
0.1
  9
$FILLETRAD
 40
0.0
  9
$AUNITS
 70
     1
  9
$AUPREC
 70
     3
  9
$MENU
  1
ACAD
  9
$ELEVATION
 40
0.0
  9
$PELEVATION
 40
0.0
  9
$THICKNESS
 40
0.0
  9
$LIMCHECK
 70
     0
  9
$BLIPMODE
 70
     0
  9
$CHAMFERA
 40
0.0
  9
$CHAMFERB
 40
0.0
  9
$SKPOLY
 70
     0
  9
$TDCREATE
 40
2449761.4936229978
  9
$TDUPDATE
 40
2456036.4987074081
  9
$TDINDWG
 40
4.4785864352000004
  9
$TDUSRTIMER
 40
4.4785840740999996
  9
$USRTIMER
 70
     1
  9
$ANGBASE
 50
0.0
  9
$ANGDIR
 70
     0
  9
$PDMODE
 70
    35
  9
$PDSIZE
 40
100.0
  9
$PLINEWID
 40
0.0
  9
$COORDS
 70
     1
  9
$SPLFRAME
 70
     0
  9
$SPLINETYPE
 70
     6
  9
$SPLINESEGS
 70
     8
  9
$ATTDIA
 70
     0
  9
$ATTREQ
 70
     1
  9
$HANDLING
 70
     1
  9
$HANDSEED
  5
4D1
  9
$SURFTAB1
 70
     6
  9
$SURFTAB2
 70
     6
  9
$SURFTYPE
 70
     6
  9
$SURFU
 70
     6
  9
$SURFV
 70
     6
  9
$UCSNAME
  2

  9
$UCSORG
 10
0.0
 20
0.0
 30
0.0
  9
$UCSXDIR
 10
1.0
 20
0.0
 30
0.0
  9
$UCSYDIR
 10
0.0
 20
1.0
 30
0.0
  9
$PUCSNAME
  2

  9
$PUCSORG
 10
0.0
 20
0.0
 30
0.0
  9
$PUCSXDIR
 10
1.0
 20
0.0
 30
0.0
  9
$PUCSYDIR
 10
0.0
 20
1.0
 30
0.0
  9
$USERI1
 70
     0
  9
$USERI2
 70
     0
  9
$USERI3
 70
     0
  9
$USERI4
 70
     0
  9
$USERI5
 70
     0
  9
$USERR1
 40
20.0
  9
$USERR2
 40
0.0
  9
$USERR3
 40
0.0
  9
$USERR4
 40
0.0
  9
$USERR5
 40
0.0
  9
$WORLDVIEW
 70
     1
  9
$SHADEDGE
 70
     3
  9
$SHADEDIF
 70
    70
  9
$TILEMODE
 70
     1
  9
$MAXACTVP
 70
    48
  9
$PLIMCHECK
 70
     0
  9
$PEXTMIN
 10
1.0000000000000000E+020
 20
1.0000000000000000E+020
 30
1.0000000000000000E+020
  9
$PEXTMAX
 10
-1.0000000000000000E+020
 20
-1.0000000000000000E+020
 30
-1.0000000000000000E+020
  9
$PLIMMIN
 10
0.0
 20
0.0
  9
$PLIMMAX
 10
12.0
 20
9.0
  9
$UNITMODE
 70
     0
  9
$VISRETAIN
 70
     1
  9
$PLINEGEN
 70
     0
  9
$PSLTSCALE
 70
     1
  0
ENDSEC
  0
SECTION
  2
TABLES
  0
TABLE
  2
VPORT
 70
     1
  0
VPORT
  2
*ACTIVE
 70
     0
 10
0.0
 20
0.0
 11
1.0
 21
1.0
 12
-0.0000000000005684
 22
0.0
 13
0.0
 23
0.0
 14
50.0
 24
50.0
 15
100.0
 25
100.0
 16
0.0
 26
0.0
 36
1.0
 17
0.0
 27
0.0
 37
0.0
 40
5985.1711026615958
 41
1.552030456852791
 42
50.0
 43
0.0
 44
0.0
 50
0.0
 51
0.0
 71
     0
 72
  1000
 73
     1
 74
     0
 75
     0
 76
     0
 77
     0
 78
     0
  0
ENDTAB
  0
TABLE
  2
LTYPE
 70
     2
  0
LTYPE
  2
CONTINUOUS
 70
     0
  3
実線
 72
    65
 73
     0
 40
0.0
  0
LTYPE
  2
DASHDOT
 70
     0
  3
____ _ ____ _ ____ _ ____ _ ____ _ ____ _ ____
 72
    65
 73
     4
 40
5.5
 49
4.0
 49
-0.6
 49
0.3
 49
-0.6
  0
ENDTAB
  0
TABLE
  2
LAYER
 70
    12
  0
LAYER
  2
0
 70
     0
 62
     7
  6
CONTINUOUS
  0
LAYER
  2
SYMBOLLINE
 70
     0
 62
    15
  6
CONTINUOUS
  0
LAYER
  2
DETAIL
 70
     0
 62
     5
  6
CONTINUOUS
  0
LAYER
  2
OUTLINE
 70
     0
 62
     3
  6
CONTINUOUS
  0
LAYER
  2
BASIS
 70
     0
 62
     6
  6
DASHDOT
  0
LAYER
  2
SIZE
 70
     0
 62
    30
  6
CONTINUOUS
  0
LAYER
  2
NOTE
 70
     0
 62
     4
  6
CONTINUOUS
  0
LAYER
  2
ARRANGE
 70
     0
 62
     1
  6
CONTINUOUS
  0
LAYER
  2
FIX
 70
     0
 62
    11
  6
CONTINUOUS
  0
LAYER
  2
SERVICESPACE
 70
     0
 62
     2
  6
DASHDOT
  0
LAYER
  2
ETC
 70
     0
 62
    61
  6
CONTINUOUS
  0
LAYER
  2
DEFPOINTS
 70
     0
 62
     7
  6
CONTINUOUS
  0
ENDTAB
  0
TABLE
  2
STYLE
 70
     3
  0
STYLE
  2
STANDARD
 70
     0
 40
0.0
 41
0.9
 50
0.0
 71
     0
 42
64.0
  3
SIMPLEX
  4
BIGFONT
  0
STYLE
  2
ANNOTATIVE
 70
     0
 40
0.0
 41
1.0
 50
0.0
 71
     0
 42
0.2
  3
txt
  4

  0
STYLE
  2
STANDARD1
 70
     0
 40
0.0
 41
1.0
 50
0.0
 71
     0
 42
3.5
  3
MONOTXT
  4
BIGFONT
  0
ENDTAB
  0
TABLE
  2
VIEW
 70
     1
  0
VIEW
  2
ALL
 70
     0
 40
6056.2300320000013
 10
0.0
 20
58.11501599999999
 41
8400.0
 11
0.0
 21
0.0
 31
1.0
 12
0.0
 22
0.0
 32
0.0
 42
50.0
 43
0.0
 44
0.0
 50
0.0
 71
     0
  0
ENDTAB
  0
TABLE
  2
UCS
 70
     0
  0
ENDTAB
  0
TABLE
  2
APPID
 70
     4
  0
APPID
  2
ACAD
 70
     0
  0
APPID
  2
ACADANNOTATIVE
 70
     0
  0
APPID
  2
ACAD_MLEADERVER
 70
     0
  0
APPID
  2
ACAD_EXEMPT_FROM_CAD_STANDARDS
 70
     0
  0
ENDTAB
  0
TABLE
  2
DIMSTYLE
 70
     2
  0
DIMSTYLE
  2
STANDARD
 70
     0
  3

  4

  5

  6

  7

 40
1.0
 41
0.18
 42
0.0625
 43
0.38
 44
0.18
 45
0.0
 46
0.0
 47
0.0
 48
0.0
140
0.18
141
0.09
142
0.0
143
25.399999999999999
144
1.0
145
0.0
146
1.0
147
0.09
 71
     0
 72
     0
 73
     1
 74
     1
 75
     0
 76
     0
 77
     0
 78
     0
170
     0
171
     2
172
     0
173
     0
174
     0
175
     0
176
     0
177
     0
178
     0
  0
DIMSTYLE
  2
ANNOTATIVE
 70
     0
  3

  4

  5

  6

  7

 40
1.0
 41
0.18
 42
0.0625
 43
0.38
 44
0.18
 45
0.0
 46
0.0
 47
0.0
 48
0.0
140
0.18
141
0.09
142
0.0
143
25.399999999999999
144
1.0
145
0.0
146
1.0
147
0.09
 71
     0
 72
     0
 73
     1
 74
     1
 75
     0
 76
     0
 77
     0
 78
     0
170
     0
171
     2
172
     0
173
     0
174
     0
175
     0
176
     0
177
     0
178
     0
  0
ENDTAB
  0
ENDSEC
  0
SECTION
  2
BLOCKS
  0
BLOCK
  8
0
  2
$MODEL_SPACE
 70
     0
 10
0.0
 20
0.0
 30
0.0
  3
$MODEL_SPACE
  1

  0
ENDBLK
  5
40D
  8
0
  0
BLOCK
 67
     1
  8
0
  2
$PAPER_SPACE
 70
     0
 10
0.0
 20
0.0
 30
0.0
  3
$PAPER_SPACE
  1

  0
ENDBLK
  5
409
 67
     1
  8
0
  0
BLOCK
  8
0
  2
_DOTBLANK
 70
     0
 10
0.0
 20
0.0
 30
0.0
  3
_DOTBLANK
  1

  0
CIRCLE
  5
32
  8
0
  6
CONTINUOUS
 62
     7
 10
0.0
 20
0.0
 30
0.0
 40
0.5
  0
LINE
  5
33
  8
0
  6
CONTINUOUS
 62
     7
 10
-0.5
 20
0.0
 30
0.0
 11
-1.0
 21
0.0
 31
0.0
  0
ENDBLK
  5
34
  8
0
  0
ENDSEC
  0
SECTION
  2
ENTITIES
  0
TEXT
  5
35
  8
ETC
  6
CONTINUOUS
 62
    61
 10
29.587765708001822
 20
142.26822300000001
 30
0.0
 40
20.0
  1
PAR-26MA1_3
 50
359.99999700000001
 41
0.6030590000000001
  7
STANDARD1
  0
LINE
  5
36
  8
DETAIL
  6
CONTINUOUS
 62
     5
 10
56.799942000000001
 20
-11.843246000000001
 30
0.0
 11
56.799942000000001
 21
48.917724999999997
 31
0.0
  0
LINE
  5
37
  8
DETAIL
  6
CONTINUOUS
 62
     5
 10
-4.2501069999999981
 20
28.800003000000011
 30
0.0
 11
-4.2501069999999981
 21
37.050002999999997
 31
0.0
  0
LINE
  5
38
  8
DETAIL
  6
CONTINUOUS
 62
     5
 10
4.2498930000000001
 20
28.800003000000011
 30
0.0
 11
4.2498930000000001
 21
37.050002999999997
 31
0.0
  0
LINE
  5
39
  8
DETAIL
  6
CONTINUOUS
 62
     5
 10
5.700088
 20
49.978493022953003
 30
0.0
 11
13.082159000000001
 21
28.800001999999999
 31
0.0
  0
LINE
  5
3A
  8
DETAIL
  6
CONTINUOUS
 62
     5
 10
5.700069877639331
 20
48.80000299999999
 30
0.0
 11
12.67136
 21
28.800003000000011
 31
0.0
  0
LINE
  5
3B
  8
DETAIL
  6
CONTINUOUS
 62
     5
 10
-5.7000580000000012
 20
49.978447379797927
 30
0.0
 11
-13.082687999999999
 21
28.800001999999999
 31
0.0
  0
LINE
  5
3C
  8
DETAIL
  6
CONTINUOUS
 62
     5
 10
-5.7000514644305111
 20
48.80000299999999
 30
0.0
 11
-12.671885
 21
28.800004000000001
 31
0.0
  0
LINE
  5
3D
  8
DETAIL
  6
CONTINUOUS
 62
     5
 10
63.299942000000001
 20
-54.800002999999997
 30
0.0
 11
63.299942000000001
 21
54.800002999999997
 31
0.0
  0
LINE
  5
3E
  8
DETAIL
  6
CONTINUOUS
 62
     5
 10
64.299942000000001
 20
-52.0
 30
0.0
 11
64.299942000000001
 21
55.0
 31
0.0
  0
LINE
  5
3F
  8
DETAIL
  6
CONTINUOUS
 62
     5
 10
63.499893
 20
-55.0
 30
0.0
 11
63.499893
 21
55.0
 31
0.0
  0
LINE
  5
40
  8
DETAIL
  6
CONTINUOUS
 62
     5
 10
64.999893
 20
-55.0
 30
0.0
 11
64.999893
 21
55.0
 31
0.0
  0
LINE
  5
41
  8
DETAIL
  6
CONTINUOUS
 62
     5
 10
-56.799897000000001
 20
-11.843246000000001
 30
0.0
 11
-56.799897000000001
 21
48.716431
 31
0.0
  0
LINE
  5
42
  8
DETAIL
  6
CONTINUOUS
 62
     5
 10
-63.29989699999998
 20
-16.68144199999999
 30
0.0
 11
-63.29989699999998
 21
54.800002999999997
 31
0.0
  0
LINE
  5
43
  8
DETAIL
  6
CONTINUOUS
 62
     5
 10
-64.299697999999992
 20
-39.5
 30
0.0
 11
-64.299697999999992
 21
55.0
 31
0.0
  0
LINE
  5
44
  8
DETAIL
  6
CONTINUOUS
 62
     5
 10
-63.499893
 20
-55.0
 30
0.0
 11
-63.499893
 21
55.0
 31
0.0
  0
LINE
  5
45
  8
DETAIL
  6
CONTINUOUS
 62
     5
 10
-64.999893
 20
-55.0
 30
0.0
 11
-64.999893
 21
55.0
 31
0.0
  0
LINE
  5
46
  8
DETAIL
  6
CONTINUOUS
 62
     5
 10
18.749922999999999
 20
-34.388863000000001
 30
0.0
 11
56.30003099999999
 21
-12.709298
 31
0.0
  0
LINE
  5
47
  8
DETAIL
  6
CONTINUOUS
 62
     5
 10
25.878615
 20
-32.005161999999999
 30
0.0
 11
55.300009000000003
 21
-15.018712000000001
 31
0.0
  0
LINE
  5
48
  8
DETAIL
  6
CONTINUOUS
 62
     5
 10
32.499893
 20
-49.800002999999997
 30
0.0
 11
55.799942000000001
 21
-49.800002999999997
 31
0.0
  0
LINE
  5
49
  8
DETAIL
  6
CONTINUOUS
 62
     5
 10
43.849746000000003
 20
-58.300002999999997
 30
0.0
 11
59.799942000000001
 21
-58.300002999999997
 31
0.0
  0
LINE
  5
4A
  8
DETAIL
  6
CONTINUOUS
 62
     5
 10
44.249893
 20
-58.499999999999993
 30
0.0
 11
59.999893000000007
 21
-58.499999999999993
 31
0.0
  0
LINE
  5
4B
  8
DETAIL
  6
CONTINUOUS
 62
     5
 10
34.749893
 20
-60.0
 30
0.0
 11
59.999893000000007
 21
-60.0
 31
0.0
  0
LINE
  5
4C
  8
DETAIL
  6
CONTINUOUS
 62
     5
 10
-24.000107
 20
14.0
 30
0.0
 11
-45.999892999999993
 21
14.0
 31
0.0
  0
LINE
  5
4D
  8
DETAIL
  6
CONTINUOUS
 62
     5
 10
-24.000107
 20
5.0
 30
0.0
 11
-45.999892999999993
 21
5.0
 31
0.0
  0
LINE
  5
4E
  8
DETAIL
  6
CONTINUOUS
 62
     5
 10
-55.299928000000001
 20
-15.018662000000001
 30
0.0
 11
-25.878572999999999
 21
-32.005088999999998
 31
0.0
  0
LINE
  5
4F
  8
DETAIL
  6
CONTINUOUS
 62
     5
 10
-34.499893
 20
-60.0
 30
0.0
 11
-24.500107
 21
-60.0
 31
0.0
  0
LINE
  5
50
  8
DETAIL
  6
CONTINUOUS
 62
     5
 10
-34.499893
 20
-59.30000299999999
 30
0.0
 11
-24.500107
 21
-59.30000299999999
 31
0.0
  0
ARC
  5
51
  8
DETAIL
  6
CONTINUOUS
 62
     5
 10
-23.000107
 20
-41.749999999999993
 30
0.0
 40
8.5
 50
110.833152
 51
179.99996400000001
  0
LINE
  5
52
  8
DETAIL
  6
CONTINUOUS
 62
     5
 10
-56.29992399999999
 20
-12.709263
 30
0.0
 11
-18.749922000000002
 21
-34.388767000000001
 31
0.0
  0
LINE
  5
53
  8
DETAIL
  6
CONTINUOUS
 62
     5
 10
-56.799897000000001
 20
-26.863296999999999
 30
0.0
 11
-56.799897000000001
 21
-15.884705
 31
0.0
  0
POLYLINE
  5
54
  8
NOTE
  6
CONTINUOUS
 62
     4
 66
     1
 10
0.0
 20
0.0
 30
0.0
  0
VERTEX
  5
44A
  8
NOTE
  6
CONTINUOUS
 62
     4
 10
-67.070430000000002
 20
-6.493962999999999
 30
0.0
  0
VERTEX
  5
44B
  8
NOTE
  6
CONTINUOUS
 62
     4
 10
-66.868560999999985
 20
-7.3469269999999982
 30
0.0
  0
VERTEX
  5
44C
  8
NOTE
  6
CONTINUOUS
 62
     4
 10
-66.53812099999999
 20
-8.6222739999999991
 30
0.0
  0
VERTEX
  5
44D
  8
NOTE
  6
CONTINUOUS
 62
     4
 10
-66.171723999999998
 20
-9.8882429999999992
 30
0.0
  0
VERTEX
  5
44E
  8
NOTE
  6
CONTINUOUS
 62
     4
 10
-65.905931999999993
 20
-10.724531999999989
 30
0.0
  0
VERTEX
  5
44F
  8
NOTE
  6
CONTINUOUS
 62
     4
 10
-65.694624000000005
 20
-11.346655
 30
0.0
  0
VERTEX
  5
450
  8
NOTE
  6
CONTINUOUS
 62
     4
 10
-65.357492000000008
 20
-12.270148000000001
 30
0.0
  0
VERTEX
  5
451
  8
NOTE
  6
CONTINUOUS
 62
     4
 10
-64.994979999999984
 20
-13.18013
 30
0.0
  0
VERTEX
  5
452
  8
NOTE
  6
CONTINUOUS
 62
     4
 10
-64.649084999999985
 20
-13.980095
 30
0.0
  0
VERTEX
  5
453
  8
NOTE
  6
CONTINUOUS
 62
     4
 10
-64.330023999999995
 20
-14.670768000000001
 30
0.0
  0
VERTEX
  5
454
  8
NOTE
  6
CONTINUOUS
 62
     4
 10
-64.039039000000002
 20
-15.268641000000001
 30
0.0
  0
VERTEX
  5
455
  8
NOTE
  6
CONTINUOUS
 62
     4
 10
-63.505209999999998
 20
-16.302050000000001
 30
0.0
  0
VERTEX
  5
456
  8
NOTE
  6
CONTINUOUS
 62
     4
 10
-63.085949999999997
 20
-17.067796999999999
 30
0.0
  0
VERTEX
  5
457
  8
NOTE
  6
CONTINUOUS
 62
     4
 10
-62.430014
 20
-18.204322999999999
 30
0.0
  0
VERTEX
  5
458
  8
NOTE
  6
CONTINUOUS
 62
     4
 10
-61.745768999999989
 20
-19.329922
 30
0.0
  0
VERTEX
  5
459
  8
NOTE
  6
CONTINUOUS
 62
     4
 10
-60.802157999999999
 20
-20.813471
 30
0.0
  0
VERTEX
  5
45A
  8
NOTE
  6
CONTINUOUS
 62
     4
 10
-60.073684
 20
-21.923846999999999
 30
0.0
  0
VERTEX
  5
45B
  8
NOTE
  6
CONTINUOUS
 62
     4
 10
-58.95861
 20
-23.595265000000001
 30
0.0
  0
VERTEX
  5
45C
  8
NOTE
  6
CONTINUOUS
 62
     4
 10
-57.830489999999998
 20
-25.285644999999999
 30
0.0
  0
VERTEX
  5
45D
  8
NOTE
  6
CONTINUOUS
 62
     4
 10
-56.825393999999989
 20
-26.823533999999999
 30
0.0
  0
VERTEX
  5
45E
  8
NOTE
  6
CONTINUOUS
 62
     4
 10
-56.089359999999992
 20
-27.993549000000002
 30
0.0
  0
VERTEX
  5
45F
  8
NOTE
  6
CONTINUOUS
 62
     4
 10
-55.555143000000008
 20
-28.880196000000002
 30
0.0
  0
VERTEX
  5
460
  8
NOTE
  6
CONTINUOUS
 62
     4
 10
-55.167788999999999
 20
-29.550236000000002
 30
0.0
  0
VERTEX
  5
461
  8
NOTE
  6
CONTINUOUS
 62
     4
 10
-54.613081999999991
 20
-30.563293000000002
 30
0.0
  0
VERTEX
  5
462
  8
NOTE
  6
CONTINUOUS
 62
     4
 10
-54.349456000000004
 20
-31.073371000000002
 30
0.0
  0
VERTEX
  5
463
  8
NOTE
  6
CONTINUOUS
 62
     4
 10
-54.096140000000013
 20
-31.585785999999999
 30
0.0
  0
VERTEX
  5
464
  8
NOTE
  6
CONTINUOUS
 62
     4
 10
-53.718968999999987
 20
-32.400238999999999
 30
0.0
  0
VERTEX
  5
465
  8
NOTE
  6
CONTINUOUS
 62
     4
 10
-53.414538
 20
-33.117558000000002
 30
0.0
  0
VERTEX
  5
466
  8
NOTE
  6
CONTINUOUS
 62
     4
 10
-53.169651000000002
 20
-33.748740000000012
 30
0.0
  0
VERTEX
  5
467
  8
NOTE
  6
CONTINUOUS
 62
     4
 10
-52.973096999999989
 20
-34.30369300000001
 30
0.0
  0
VERTEX
  5
468
  8
NOTE
  6
CONTINUOUS
 62
     4
 10
-52.815531999999997
 20
-34.791299000000002
 30
0.0
  0
VERTEX
  5
469
  8
NOTE
  6
CONTINUOUS
 62
     4
 10
-52.689272000000003
 20
-35.219487999999998
 30
0.0
  0
VERTEX
  5
46A
  8
NOTE
  6
CONTINUOUS
 62
     4
 10
-52.495833999999981
 20
-35.972223999999997
 30
0.0
  0
VERTEX
  5
46B
  8
NOTE
  6
CONTINUOUS
 62
     4
 10
-52.374997999999998
 20
-36.539588000000002
 30
0.0
  0
VERTEX
  5
46C
  8
NOTE
  6
CONTINUOUS
 62
     4
 10
-52.298712000000002
 20
-36.966675000000002
 30
0.0
  0
VERTEX
  5
46D
  8
NOTE
  6
CONTINUOUS
 62
     4
 10
-52.208388999999997
 20
-37.609791999999999
 30
0.0
  0
VERTEX
  5
46E
  8
NOTE
  6
CONTINUOUS
 62
     4
 10
-52.148316000000001
 20
-38.255859000000001
 30
0.0
  0
VERTEX
  5
46F
  8
NOTE
  6
CONTINUOUS
 62
     4
 10
-52.118819999999999
 20
-38.931840000000001
 30
0.0
  0
VERTEX
  5
470
  8
NOTE
  6
CONTINUOUS
 62
     4
 10
-52.11931100000001
 20
-39.525683000000001
 30
0.0
  0
VERTEX
  5
471
  8
NOTE
  6
CONTINUOUS
 62
     4
 10
-52.138506999999997
 20
-40.046937999999997
 30
0.0
  0
VERTEX
  5
472
  8
NOTE
  6
CONTINUOUS
 62
     4
 10
-52.168754999999997
 20
-40.504184000000002
 30
0.0
  0
VERTEX
  5
473
  8
NOTE
  6
CONTINUOUS
 62
     4
 10
-52.249574000000003
 20
-41.30666699999999
 30
0.0
  0
VERTEX
  5
474
  8
NOTE
  6
CONTINUOUS
 62
     4
 10
-52.331451999999999
 20
-41.910209999999999
 30
0.0
  0
VERTEX
  5
475
  8
NOTE
  6
CONTINUOUS
 62
     4
 10
-52.484413000000004
 20
-42.817743999999983
 30
0.0
  0
VERTEX
  5
476
  8
NOTE
  6
CONTINUOUS
 62
     4
 10
-52.668495999999998
 20
-43.727336999999999
 30
0.0
  0
VERTEX
  5
477
  8
NOTE
  6
CONTINUOUS
 62
     4
 10
-52.825331999999989
 20
-44.41794999999999
 30
0.0
  0
VERTEX
  5
478
  8
NOTE
  6
CONTINUOUS
 62
     4
 10
-53.127540000000003
 20
-45.627546000000002
 30
0.0
  0
VERTEX
  5
479
  8
NOTE
  6
CONTINUOUS
 62
     4
 10
-53.621592
 20
-47.441336
 30
0.0
  0
VERTEX
  5
47A
  8
NOTE
  6
CONTINUOUS
 62
     4
 10
-54.124726000000003
 20
-49.249648999999991
 30
0.0
  0
VERTEX
  5
47B
  8
NOTE
  6
CONTINUOUS
 62
     4
 10
-54.569932999999999
 20
-50.926045999999999
 30
0.0
  0
VERTEX
  5
47C
  8
NOTE
  6
CONTINUOUS
 62
     4
 10
-55.199539000000001
 20
-53.424826000000003
 30
0.0
  0
VERTEX
  5
47D
  8
NOTE
  6
CONTINUOUS
 62
     4
 10
-55.810625000000002
 20
-55.907096000000003
 30
0.0
  0
VERTEX
  5
47E
  8
NOTE
  6
CONTINUOUS
 62
     4
 10
-56.222906999999992
 20
-57.554144000000001
 30
0.0
  0
VERTEX
  5
47F
  8
NOTE
  6
CONTINUOUS
 62
     4
 10
-56.541162999999997
 20
-58.785919999999997
 30
0.0
  0
VERTEX
  5
480
  8
NOTE
  6
CONTINUOUS
 62
     4
 10
-57.042290000000001
 20
-60.628776000000002
 30
0.0
  0
VERTEX
  5
481
  8
NOTE
  6
CONTINUOUS
 62
     4
 10
-57.307049999999997
 20
-61.548357000000003
 30
0.0
  0
VERTEX
  5
482
  8
NOTE
  6
CONTINUOUS
 62
     4
 10
-57.58343499999998
 20
-62.466904000000007
 30
0.0
  0
SEQEND
  5
483
  8
NOTE
  6
CONTINUOUS
 62
     4
  0
LINE
  5
8F
  8
DETAIL
  6
CONTINUOUS
 62
     5
 10
-31.499893
 20
-41.749999999999993
 30
0.0
 11
-31.499893
 21
-48.800002999999982
 31
0.0
  0
LINE
  5
90
  8
DETAIL
  6
CONTINUOUS
 62
     5
 10
-64.299697999999992
 20
-44.5
 30
0.0
 11
-64.299697999999992
 21
-42.0
 31
0.0
  0
POLYLINE
  5
91
  8
DETAIL
  6
CONTINUOUS
 62
     5
 66
     1
 10
0.0
 20
0.0
 30
0.0
  0
VERTEX
  5
484
  8
DETAIL
  6
CONTINUOUS
 62
     5
 10
-57.099488000000001
 20
-40.699996999999989
 30
0.0
  0
VERTEX
  5
485
  8
DETAIL
  6
CONTINUOUS
 62
     5
 10
-57.196598999999992
 20
-40.915984000000002
 30
0.0
  0
VERTEX
  5
486
  8
DETAIL
  6
CONTINUOUS
 62
     5
 10
-57.266120999999998
 20
-41.110137999999999
 30
0.0
  0
VERTEX
  5
487
  8
DETAIL
  6
CONTINUOUS
 62
     5
 10
-57.35730499999999
 20
-41.459927999999998
 30
0.0
  0
VERTEX
  5
488
  8
DETAIL
  6
CONTINUOUS
 62
     5
 10
-57.403911000000001
 20
-41.729263000000003
 30
0.0
  0
VERTEX
  5
489
  8
DETAIL
  6
CONTINUOUS
 62
     5
 10
-57.446131999999992
 20
-42.141761999999993
 30
0.0
  0
VERTEX
  5
48A
  8
DETAIL
  6
CONTINUOUS
 62
     5
 10
-57.464289999999998
 20
-42.561022999999999
 30
0.0
  0
VERTEX
  5
48B
  8
DETAIL
  6
CONTINUOUS
 62
     5
 10
-57.470928000000001
 20
-43.539177000000002
 30
0.0
  0
VERTEX
  5
48C
  8
DETAIL
  6
CONTINUOUS
 62
     5
 10
-57.486769999999993
 20
-44.019013999999977
 30
0.0
  0
VERTEX
  5
48D
  8
DETAIL
  6
CONTINUOUS
 62
     5
 10
-57.50488
 20
-44.253978999999987
 30
0.0
  0
VERTEX
  5
48E
  8
DETAIL
  6
CONTINUOUS
 62
     5
 10
-57.532470999999987
 20
-44.484634
 30
0.0
  0
VERTEX
  5
48F
  8
DETAIL
  6
CONTINUOUS
 62
     5
 10
-57.590609999999991
 20
-44.809401000000001
 30
0.0
  0
VERTEX
  5
490
  8
DETAIL
  6
CONTINUOUS
 62
     5
 10
-57.823087999999998
 20
-45.769566999999988
 30
0.0
  0
VERTEX
  5
491
  8
DETAIL
  6
CONTINUOUS
 62
     5
 10
-57.891449000000001
 20
-46.101267
 30
0.0
  0
VERTEX
  5
492
  8
DETAIL
  6
CONTINUOUS
 62
     5
 10
-57.930843999999993
 20
-46.358961000000001
 30
0.0
  0
VERTEX
  5
493
  8
DETAIL
  6
CONTINUOUS
 62
     5
 10
-57.951278000000002
 20
-46.558644999999977
 30
0.0
  0
VERTEX
  5
494
  8
DETAIL
  6
CONTINUOUS
 62
     5
 10
-57.963639999999998
 20
-46.870570999999991
 30
0.0
  0
VERTEX
  5
495
  8
DETAIL
  6
CONTINUOUS
 62
     5
 10
-57.949494000000001
 20
-47.199996999999982
 30
0.0
  0
VERTEX
  5
496
  8
DETAIL
  6
CONTINUOUS
 62
     5
 10
-57.926313
 20
-47.407778999999998
 30
0.0
  0
VERTEX
  5
497
  8
DETAIL
  6
CONTINUOUS
 62
     5
 10
-57.860286000000002
 20
-47.781694999999992
 30
0.0
  0
VERTEX
  5
498
  8
DETAIL
  6
CONTINUOUS
 62
     5
 10
-57.791505000000001
 20
-48.063859999999991
 30
0.0
  0
VERTEX
  5
499
  8
DETAIL
  6
CONTINUOUS
 62
     5
 10
-57.661374000000002
 20
-48.476211999999983
 30
0.0
  0
VERTEX
  5
49A
  8
DETAIL
  6
CONTINUOUS
 62
     5
 10
-57.585698999999998
 20
-48.672268000000003
 30
0.0
  0
VERTEX
  5
49B
  8
DETAIL
  6
CONTINUOUS
 62
     5
 10
-57.503889000000001
 20
-48.858365999999997
 30
0.0
  0
VERTEX
  5
49C
  8
DETAIL
  6
CONTINUOUS
 62
     5
 10
-57.415222
 20
-49.034742000000001
 30
0.0
  0
VERTEX
  5
49D
  8
DETAIL
  6
CONTINUOUS
 62
     5
 10
-57.333618999999992
 20
-49.176619000000002
 30
0.0
  0
VERTEX
  5
49E
  8
DETAIL
  6
CONTINUOUS
 62
     5
 10
-57.259546999999991
 20
-49.289830999999992
 30
0.0
  0
VERTEX
  5
49F
  8
DETAIL
  6
CONTINUOUS
 62
     5
 10
-57.124956999999981
 20
-49.459866999999981
 30
0.0
  0
VERTEX
  5
4A0
  8
DETAIL
  6
CONTINUOUS
 62
     5
 10
-57.02076899999998
 20
-49.560853999999999
 30
0.0
  0
VERTEX
  5
4A1
  8
DETAIL
  6
CONTINUOUS
 62
     5
 10
-56.941306999999981
 20
-49.619937999999998
 30
0.0
  0
VERTEX
  5
4A2
  8
DETAIL
  6
CONTINUOUS
 62
     5
 10
-56.820746999999997
 20
-49.679203999999999
 30
0.0
  0
VERTEX
  5
4A3
  8
DETAIL
  6
CONTINUOUS
 62
     5
 10
-56.76014099999999
 20
-49.694637
 30
0.0
  0
VERTEX
  5
4A4
  8
DETAIL
  6
CONTINUOUS
 62
     5
 10
-56.699494000000001
 20
-49.699996999999982
 30
0.0
  0
VERTEX
  5
4A5
  8
DETAIL
  6
CONTINUOUS
 62
     5
 10
-56.59249299999999
 20
-49.684238000000001
 30
0.0
  0
VERTEX
  5
4A6
  8
DETAIL
  6
CONTINUOUS
 62
     5
 10
-56.499600000000001
 20
-49.645386999999999
 30
0.0
  0
VERTEX
  5
4A7
  8
DETAIL
  6
CONTINUOUS
 62
     5
 10
-56.419226000000002
 20
-49.593592000000001
 30
0.0
  0
VERTEX
  5
4A8
  8
DETAIL
  6
CONTINUOUS
 62
     5
 10
-56.349826
 20
-49.535571999999981
 30
0.0
  0
VERTEX
  5
4A9
  8
DETAIL
  6
CONTINUOUS
 62
     5
 10
-56.231048999999999
 20
-49.407874999999983
 30
0.0
  0
VERTEX
  5
4AA
  8
DETAIL
  6
CONTINUOUS
 62
     5
 10
-56.144713000000003
 20
-49.292304999999999
 30
0.0
  0
VERTEX
  5
4AB
  8
DETAIL
  6
CONTINUOUS
 62
     5
 10
-56.020645000000002
 20
-49.091221999999981
 30
0.0
  0
VERTEX
  5
4AC
  8
DETAIL
  6
CONTINUOUS
 62
     5
 10
-55.904384
 20
-48.861983000000002
 30
0.0
  0
VERTEX
  5
4AD
  8
DETAIL
  6
CONTINUOUS
 62
     5
 10
-55.822320999999981
 20
-48.672935999999993
 30
0.0
  0
VERTEX
  5
4AE
  8
DETAIL
  6
CONTINUOUS
 62
     5
 10
-55.693390999999998
 20
-48.318676000000004
 30
0.0
  0
VERTEX
  5
4AF
  8
DETAIL
  6
CONTINUOUS
 62
     5
 10
-55.61066499999999
 20
-48.040246000000003
 30
0.0
  0
VERTEX
  5
4B0
  8
DETAIL
  6
CONTINUOUS
 62
     5
 10
-55.512433999999999
 20
-47.615728999999988
 30
0.0
  0
VERTEX
  5
4B1
  8
DETAIL
  6
CONTINUOUS
 62
     5
 10
-55.476252999999993
 20
-47.405568000000002
 30
0.0
  0
VERTEX
  5
4B2
  8
DETAIL
  6
CONTINUOUS
 62
     5
 10
-55.449494000000001
 20
-47.199996999999982
 30
0.0
  0
VERTEX
  5
4B3
  8
DETAIL
  6
CONTINUOUS
 62
     5
 10
-55.432040000000001
 20
-46.993353999999982
 30
0.0
  0
VERTEX
  5
4B4
  8
DETAIL
  6
CONTINUOUS
 62
     5
 10
-55.424518999999989
 20
-46.647930999999993
 30
0.0
  0
VERTEX
  5
4B5
  8
DETAIL
  6
CONTINUOUS
 62
     5
 10
-55.435400999999999
 20
-46.400657000000002
 30
0.0
  0
VERTEX
  5
4B6
  8
DETAIL
  6
CONTINUOUS
 62
     5
 10
-55.472892000000002
 20
-46.045234000000001
 30
0.0
  0
VERTEX
  5
4B7
  8
DETAIL
  6
CONTINUOUS
 62
     5
 10
-55.529041000000007
 20
-45.704058000000003
 30
0.0
  0
VERTEX
  5
4B8
  8
DETAIL
  6
CONTINUOUS
 62
     5
 10
-55.669180000000011
 20
-45.034548999999998
 30
0.0
  0
VERTEX
  5
4B9
  8
DETAIL
  6
CONTINUOUS
 62
     5
 10
-55.736500999999997
 20
-44.701498999999998
 30
0.0
  0
VERTEX
  5
4BA
  8
DETAIL
  6
CONTINUOUS
 62
     5
 10
-55.791381999999992
 20
-44.362761999999996
 30
0.0
  0
VERTEX
  5
4BB
  8
DETAIL
  6
CONTINUOUS
 62
     5
 10
-55.836041999999992
 20
-43.910434000000002
 30
0.0
  0
VERTEX
  5
4BC
  8
DETAIL
  6
CONTINUOUS
 62
     5
 10
-55.867835999999997
 20
-43.210059000000001
 30
0.0
  0
VERTEX
  5
4BD
  8
DETAIL
  6
CONTINUOUS
 62
     5
 10
-55.896925000000003
 20
-42.499943000000002
 30
0.0
  0
VERTEX
  5
4BE
  8
DETAIL
  6
CONTINUOUS
 62
     5
 10
-55.936776999999999
 20
-42.030296999999997
 30
0.0
  0
VERTEX
  5
4BF
  8
DETAIL
  6
CONTINUOUS
 62
     5
 10
-55.986775000000002
 20
-41.683954
 30
0.0
  0
VERTEX
  5
4C0
  8
DETAIL
  6
CONTINUOUS
 62
     5
 10
-56.039333999999982
 20
-41.429076999999999
 30
0.0
  0
VERTEX
  5
4C1
  8
DETAIL
  6
CONTINUOUS
 62
     5
 10
-56.088807999999993
 20
-41.241324999999989
 30
0.0
  0
VERTEX
  5
4C2
  8
DETAIL
  6
CONTINUOUS
 62
     5
 10
-56.181544999999993
 20
-40.966161999999983
 30
0.0
  0
VERTEX
  5
4C3
  8
DETAIL
  6
CONTINUOUS
 62
     5
 10
-56.299484999999997
 20
-40.699996999999989
 30
0.0
  0
SEQEND
  5
4C4
  8
DETAIL
  6
CONTINUOUS
 62
     5
  0
LINE
  5
D3
  8
DETAIL
  6
CONTINUOUS
 62
     5
 10
-59.999679999999991
 20
-51.236496000000002
 30
0.0
 11
-59.999679999999991
 21
-22.035354999999999
 31
0.0
  0
LINE
  5
D4
  8
DETAIL
  6
CONTINUOUS
 62
     5
 10
-61.499680000000012
 20
-49.30000299999999
 30
0.0
 11
-61.499680000000012
 21
-19.723282000000001
 31
0.0
  0
LINE
  5
D5
  8
DETAIL
  6
CONTINUOUS
 62
     5
 10
-56.414306999999987
 20
-58.300002999999997
 30
0.0
 11
-43.849899999999998
 21
-58.300002999999997
 31
0.0
  0
LINE
  5
D6
  8
DETAIL
  6
CONTINUOUS
 62
     5
 10
-54.273589999999999
 20
-49.800002999999997
 30
0.0
 11
-32.499893
 21
-49.800002999999997
 31
0.0
  0
LINE
  5
D7
  8
DETAIL
  6
CONTINUOUS
 62
     5
 10
-59.999893000000007
 20
-58.499999999999993
 30
0.0
 11
-44.249893
 21
-58.499999999999993
 31
0.0
  0
LINE
  5
D8
  8
DETAIL
  6
CONTINUOUS
 62
     5
 10
-59.999893000000007
 20
-60.0
 30
0.0
 11
-34.749893
 21
-60.0
 31
0.0
  0
LINE
  5
D9
  8
DETAIL
  6
CONTINUOUS
 62
     5
 10
-61.649887
 20
-51.100006
 30
0.0
 11
-61.649887
 21
-58.086669999999991
 31
0.0
  0
ARC
  5
DA
  8
DETAIL
  6
CONTINUOUS
 62
     5
 10
-59.999893000000007
 20
-55.0
 30
0.0
 40
4.2000000000000002
 50
180.00003599999999
 51
208.43690000000001
  0
ARC
  5
DB
  8
DETAIL
  6
CONTINUOUS
 62
     5
 10
-59.999893000000007
 20
-55.0
 30
0.0
 40
3.5
 50
180.00003599999999
 51
270.00001800000001
  0
ARC
  5
DC
  8
DETAIL
  6
CONTINUOUS
 62
     5
 10
-59.999893000000007
 20
-55.0
 30
0.0
 40
5.0
 50
180.00003599999999
 51
270.00001800000001
  0
LINE
  5
DD
  8
DETAIL
  6
CONTINUOUS
 62
     5
 10
-64.582474000000005
 20
-56.999999999999993
 30
0.0
 11
-62.871963999999998
 21
-56.999999999999993
 31
0.0
  0
LINE
  5
DE
  8
DETAIL
  6
CONTINUOUS
 62
     5
 10
-51.999893
 20
-60.0
 30
0.0
 11
-51.999893
 21
-58.499999999999993
 31
0.0
  0
LINE
  5
DF
  8
DETAIL
  6
CONTINUOUS
 62
     5
 10
-49.999893
 20
-60.0
 30
0.0
 11
-49.999893
 21
-58.499999999999993
 31
0.0
  0
LINE
  5
E0
  8
DETAIL
  6
CONTINUOUS
 62
     5
 10
-56.999893000000007
 20
-60.0
 30
0.0
 11
-56.999893000000007
 21
-58.499999999999993
 31
0.0
  0
LINE
  5
E1
  8
DETAIL
  6
CONTINUOUS
 62
     5
 10
-54.999893000000007
 20
-60.0
 30
0.0
 11
-54.999893000000007
 21
-58.499999999999993
 31
0.0
  0
LINE
  5
E2
  8
DETAIL
  6
CONTINUOUS
 62
     5
 10
-54.666244999999989
 20
-51.300002999999982
 30
0.0
 11
-59.499680000000012
 21
-51.300002999999982
 31
0.0
  0
LINE
  5
E3
  8
DETAIL
  6
CONTINUOUS
 62
     5
 10
-54.353561999999997
 20
-50.100006
 30
0.0
 11
-59.499680000000012
 21
-50.100006
 31
0.0
  0
LINE
  5
E4
  8
DETAIL
  6
CONTINUOUS
 62
     5
 10
-64.999893
 20
-44.5
 30
0.0
 11
-63.499893
 21
-44.5
 31
0.0
  0
LINE
  5
E5
  8
DETAIL
  6
CONTINUOUS
 62
     5
 10
-64.999893
 20
-47.0
 30
0.0
 11
-63.499893
 21
-47.0
 31
0.0
  0
LINE
  5
E6
  8
DETAIL
  6
CONTINUOUS
 62
     5
 10
-59.999679999999991
 20
-45.300017999999987
 30
0.0
 11
-61.499680000000012
 21
-45.300017999999987
 31
0.0
  0
LINE
  5
E7
  8
DETAIL
  6
CONTINUOUS
 62
     5
 10
-59.999679999999991
 20
-48.40000899999999
 30
0.0
 11
-61.499680000000012
 21
-48.40000899999999
 31
0.0
  0
ARC
  5
E8
  8
DETAIL
  6
CONTINUOUS
 62
     5
 10
-59.499680000000012
 20
-49.600006
 30
0.0
 40
0.5
 50
180.00003599999999
 51
270.00001800000001
  0
LINE
  5
E9
  8
DETAIL
  6
CONTINUOUS
 62
     5
 10
-60.37147499999999
 20
-51.100006
 30
0.0
 11
-61.649887
 21
-51.100006
 31
0.0
  0
LINE
  5
EA
  8
DETAIL
  6
CONTINUOUS
 62
     5
 10
-64.999893
 20
-49.5
 30
0.0
 11
-63.499893
 21
-49.5
 31
0.0
  0
LINE
  5
EB
  8
DETAIL
  6
CONTINUOUS
 62
     5
 10
-64.199844999999996
 20
-55.0
 30
0.0
 11
-64.199844999999996
 21
-52.0
 31
0.0
  0
LINE
  5
EC
  8
DETAIL
  6
CONTINUOUS
 62
     5
 10
-64.999893
 20
-52.0
 30
0.0
 11
-63.499893
 21
-52.0
 31
0.0
  0
ARC
  5
ED
  8
DETAIL
  6
CONTINUOUS
 62
     5
 10
-59.499680000000012
 20
-49.30000299999999
 30
0.0
 40
2.0
 50
180.00003599999999
 51
270.00001800000001
  0
LINE
  5
EE
  8
DETAIL
  6
CONTINUOUS
 62
     5
 10
-64.299697999999992
 20
-49.5
 30
0.0
 11
-64.299697999999992
 21
-47.0
 31
0.0
  0
LINE
  5
EF
  8
DETAIL
  6
CONTINUOUS
 62
     5
 10
-40.149886999999993
 20
-58.300002999999997
 30
0.0
 11
-34.499893
 21
-58.300002999999997
 31
0.0
  0
LINE
  5
F0
  8
DETAIL
  6
CONTINUOUS
 62
     5
 10
-39.749893
 20
-58.499999999999993
 30
0.0
 11
-34.749893
 21
-58.499999999999993
 31
0.0
  0
ARC
  5
F1
  8
DETAIL
  6
CONTINUOUS
 62
     5
 10
-39.749893
 20
-57.999999999999993
 30
0.0
 40
0.5
 50
180.00003599999999
 51
270.00001800000001
  0
ARC
  5
F2
  8
DETAIL
  6
CONTINUOUS
 62
     5
 10
-40.749893
 20
-57.600006000000008
 30
0.0
 40
0.5
 50
0.0
 51
89.99998199999996
  0
ARC
  5
F3
  8
DETAIL
  6
CONTINUOUS
 62
     5
 10
-43.249893
 20
-57.600006000000008
 30
0.0
 40
0.5
 50
89.99998199999996
 51
179.99996400000001
  0
LINE
  5
F4
  8
DETAIL
  6
CONTINUOUS
 62
     5
 10
-40.249893
 20
-57.999999999999993
 30
0.0
 11
-40.249893
 21
-57.600006000000008
 31
0.0
  0
LINE
  5
F5
  8
DETAIL
  6
CONTINUOUS
 62
     5
 10
-43.749893
 20
-57.999999999999993
 30
0.0
 11
-43.749893
 21
-57.600006000000008
 31
0.0
  0
LINE
  5
F6
  8
DETAIL
  6
CONTINUOUS
 62
     5
 10
-43.249893
 20
-57.100006
 30
0.0
 11
-40.749893
 21
-57.100006
 31
0.0
  0
LINE
  5
F7
  8
DETAIL
  6
CONTINUOUS
 62
     5
 10
-39.499893
 20
-58.300002999999997
 30
0.0
 11
-39.499893
 21
-56.999999999999993
 31
0.0
  0
LINE
  5
F8
  8
DETAIL
  6
CONTINUOUS
 62
     5
 10
-44.499893
 20
-58.300002999999997
 30
0.0
 11
-44.499893
 21
-56.999999999999993
 31
0.0
  0
LINE
  5
F9
  8
DETAIL
  6
CONTINUOUS
 62
     5
 10
-46.999893
 20
-60.0
 30
0.0
 11
-46.999893
 21
-58.499999999999993
 31
0.0
  0
LINE
  5
FA
  8
DETAIL
  6
CONTINUOUS
 62
     5
 10
-44.999893
 20
-60.0
 30
0.0
 11
-44.999893
 21
-58.499999999999993
 31
0.0
  0
ARC
  5
FB
  8
DETAIL
  6
CONTINUOUS
 62
     5
 10
-44.249893
 20
-57.999999999999993
 30
0.0
 40
0.5
 50
270.00001800000001
 51
0.00001
  0
LINE
  5
FC
  8
DETAIL
  6
CONTINUOUS
 62
     5
 10
-44.499893
 20
-56.999999999999993
 30
0.0
 11
-39.499893
 21
-56.999999999999993
 31
0.0
  0
LINE
  5
FD
  8
DETAIL
  6
CONTINUOUS
 62
     5
 10
-34.749893
 20
-59.073639
 30
0.0
 11
-34.499893
 21
-59.073639
 31
0.0
  0
LINE
  5
FE
  8
DETAIL
  6
CONTINUOUS
 62
     5
 10
-34.499893
 20
-60.0
 30
0.0
 11
-34.499893
 21
-58.300002999999997
 31
0.0
  0
LINE
  5
FF
  8
DETAIL
  6
CONTINUOUS
 62
     5
 10
-34.749893
 20
-58.300002999999997
 30
0.0
 11
-34.749893
 21
-60.0
 31
0.0
  0
ARC
  5
100
  8
DETAIL
  6
CONTINUOUS
 62
     5
 10
-32.499893
 20
-48.800002999999982
 30
0.0
 40
1.0
 50
270.00001800000001
 51
0.0
  0
LINE
  5
101
  8
DETAIL
  6
CONTINUOUS
 62
     5
 10
-57.999718999999992
 20
-35.182141000000001
 30
0.0
 11
-59.183284
 21
-29.505040000000001
 31
0.0
  0
LINE
  5
102
  8
DETAIL
  6
CONTINUOUS
 62
     5
 10
-57.999679999999991
 20
-37.5
 30
0.0
 11
-57.999679999999991
 21
-25.030730999999999
 31
0.0
  0
LINE
  5
103
  8
DETAIL
  6
CONTINUOUS
 62
     5
 10
-57.099488000000001
 20
-39.5
 30
0.0
 11
-59.999679999999991
 21
-39.5
 31
0.0
  0
LINE
  5
104
  8
DETAIL
  6
CONTINUOUS
 62
     5
 10
-57.099488000000001
 20
-40.699996999999989
 30
0.0
 11
-61.499680000000012
 21
-40.699996999999989
 31
0.0
  0
LINE
  5
105
  8
DETAIL
  6
CONTINUOUS
 62
     5
 10
-64.999893
 20
-39.5
 30
0.0
 11
-63.499893
 21
-39.5
 31
0.0
  0
LINE
  5
106
  8
DETAIL
  6
CONTINUOUS
 62
     5
 10
-64.999893
 20
-42.0
 30
0.0
 11
-63.499893
 21
-42.0
 31
0.0
  0
LINE
  5
107
  8
DETAIL
  6
CONTINUOUS
 62
     5
 10
-59.999679999999991
 20
-43.800018000000001
 30
0.0
 11
-61.499680000000012
 21
-43.800018000000001
 31
0.0
  0
LINE
  5
108
  8
DETAIL
  6
CONTINUOUS
 62
     5
 10
-56.299512
 20
-39.500031999999997
 30
0.0
 11
-56.507994999999987
 21
-38.500017999999997
 31
0.0
  0
LINE
  5
109
  8
DETAIL
  6
CONTINUOUS
 62
     5
 10
-57.099527999999992
 20
-39.500008999999999
 30
0.0
 11
-57.318913999999999
 21
-38.447698000000003
 31
0.0
  0
LINE
  5
10A
  8
DETAIL
  6
CONTINUOUS
 62
     5
 10
-57.099488000000001
 20
-39.5
 30
0.0
 11
-57.099488000000001
 21
-40.699996999999989
 31
0.0
  0
ARC
  5
10B
  8
DETAIL
  6
CONTINUOUS
 62
     5
 10
-56.999680000000012
 20
-37.5
 30
0.0
 40
1.0
 50
180.00003599999999
 51
270.00001800000001
  0
LINE
  5
10C
  8
DETAIL
  6
CONTINUOUS
 62
     5
 10
-56.999680000000012
 20
-38.5
 30
0.0
 11
-52.133804999999988
 21
-38.5
 31
0.0
  0
LINE
  5
10D
  8
DETAIL
  6
CONTINUOUS
 62
     5
 10
-52.185318000000002
 20
-40.699996999999989
 30
0.0
 11
-56.299484999999997
 21
-40.699996999999989
 31
0.0
  0
LINE
  5
10E
  8
DETAIL
  6
CONTINUOUS
 62
     5
 10
-56.299484999999997
 20
-39.5
 30
0.0
 11
-56.299484999999997
 21
-40.699996999999989
 31
0.0
  0
LINE
  5
10F
  8
DETAIL
  6
CONTINUOUS
 62
     5
 10
-52.118805000000002
 20
-39.5
 30
0.0
 11
-56.299484999999997
 21
-39.5
 31
0.0
  0
LINE
  5
110
  8
DETAIL
  6
CONTINUOUS
 62
     5
 10
-59.183242999999997
 20
-29.505019999999998
 30
0.0
 11
-59.183242999999997
 21
-23.259444999999999
 31
0.0
  0
LINE
  5
111
  8
DETAIL
  6
CONTINUOUS
 62
     5
 10
-57.999704000000001
 20
-31.34487
 30
0.0
 11
-58.400112
 21
-29.424265999999999
 31
0.0
  0
LINE
  5
112
  8
DETAIL
  6
CONTINUOUS
 62
     5
 10
-58.400086000000002
 20
-29.424240000000001
 30
0.0
 11
-58.400086000000002
 21
-24.429946999999999
 31
0.0
  0
LINE
  5
113
  8
DETAIL
  6
CONTINUOUS
 62
     5
 10
-32.886200000000002
 20
-40.863692999999998
 30
0.0
 11
-35.113585999999998
 21
-38.636307000000002
 31
0.0
  0
LINE
  5
114
  8
DETAIL
  6
CONTINUOUS
 62
     5
 10
-35.113585999999998
 20
-40.863692999999998
 30
0.0
 11
-32.886200000000002
 21
-38.636307000000002
 31
0.0
  0
CIRCLE
  5
115
  8
DETAIL
  6
CONTINUOUS
 62
     5
 10
-33.999893
 20
-39.75
 30
0.0
 40
2.75
  0
CIRCLE
  5
116
  8
DETAIL
  6
CONTINUOUS
 62
     5
 10
-33.999893
 20
-39.75
 30
0.0
 40
2.4749989999999991
  0
ARC
  5
117
  8
DETAIL
  6
CONTINUOUS
 62
     5
 10
-55.79989699999998
 20
-15.884705
 30
0.0
 40
1.0
 50
59.999932999999992
 51
179.99996400000001
  0
ARC
  5
118
  8
DETAIL
  6
CONTINUOUS
 62
     5
 10
-55.79989699999998
 20
-11.843246000000001
 30
0.0
 40
1.0
 50
180.00003599999999
 51
239.99996899999999
  0
LINE
  5
119
  8
DETAIL
  6
CONTINUOUS
 62
     5
 10
-45.999892999999993
 20
14.0
 30
0.0
 11
-45.999892999999993
 21
5.0
 31
0.0
  0
LINE
  5
11A
  8
DETAIL
  6
CONTINUOUS
 62
     5
 10
-15.150254
 20
-58.300002999999997
 30
0.0
 11
15.149794999999999
 21
-58.300002999999997
 31
0.0
  0
LINE
  5
11B
  8
DETAIL
  6
CONTINUOUS
 62
     5
 10
7.9998929999999984
 20
-49.800002999999997
 30
0.0
 11
13.499893
 21
-49.800002999999997
 31
0.0
  0
LINE
  5
11C
  8
DETAIL
  6
CONTINUOUS
 62
     5
 10
-14.750107
 20
-58.499999999999993
 30
0.0
 11
14.749893
 21
-58.499999999999993
 31
0.0
  0
LINE
  5
11D
  8
DETAIL
  6
CONTINUOUS
 62
     5
 10
-24.250107
 20
-60.0
 30
0.0
 11
24.249893
 21
-60.0
 31
0.0
  0
LINE
  5
11E
  8
DETAIL
  6
CONTINUOUS
 62
     5
 10
-14.500107
 20
-41.749999999999993
 30
0.0
 11
-14.500107
 21
-48.800002999999982
 31
0.0
  0
ARC
  5
11F
  8
DETAIL
  6
CONTINUOUS
 62
     5
 10
-22.999863000000001
 20
-43.75
 30
0.0
 40
2.25
 50
180.00003599999999
 51
0.000036
  0
ARC
  5
120
  8
DETAIL
  6
CONTINUOUS
 62
     5
 10
-23.000107
 20
-43.75
 30
0.0
 40
4.0
 50
180.000091
 51
0.000036
  0
ARC
  5
121
  8
DETAIL
  6
CONTINUOUS
 62
     5
 10
-22.999863000000001
 20
-43.75
 30
0.0
 40
3.75
 50
180.00003599999999
 51
0.000036
  0
LINE
  5
122
  8
DETAIL
  6
CONTINUOUS
 62
     5
 10
-13.500107
 20
-49.800002999999997
 30
0.0
 11
-8.0001069999999999
 21
-49.800002999999997
 31
0.0
  0
ARC
  5
123
  8
DETAIL
  6
CONTINUOUS
 62
     5
 10
-19.250107
 20
-57.999999999999993
 30
0.0
 40
0.5
 50
270.00001800000001
 51
0.00001
  0
LINE
  5
124
  8
DETAIL
  6
CONTINUOUS
 62
     5
 10
-24.500107
 20
-58.300002999999997
 30
0.0
 11
-18.850204999999999
 21
-58.300002999999997
 31
0.0
  0
LINE
  5
125
  8
DETAIL
  6
CONTINUOUS
 62
     5
 10
-19.500107
 20
-56.999999999999993
 30
0.0
 11
-14.500107
 21
-56.999999999999993
 31
0.0
  0
LINE
  5
126
  8
DETAIL
  6
CONTINUOUS
 62
     5
 10
-19.500107
 20
-58.300002999999997
 30
0.0
 11
-19.500107
 21
-56.999999999999993
 31
0.0
  0
LINE
  5
127
  8
DETAIL
  6
CONTINUOUS
 62
     5
 10
-24.500107
 20
-60.0
 30
0.0
 11
-24.500107
 21
-58.300002999999997
 31
0.0
  0
LINE
  5
128
  8
DETAIL
  6
CONTINUOUS
 62
     5
 10
-24.250107
 20
-58.300002999999997
 30
0.0
 11
-24.250107
 21
-60.0
 31
0.0
  0
LINE
  5
129
  8
DETAIL
  6
CONTINUOUS
 62
     5
 10
-24.500107
 20
-59.073639
 30
0.0
 11
-24.250107
 21
-59.073639
 31
0.0
  0
LINE
  5
12A
  8
DETAIL
  6
CONTINUOUS
 62
     5
 10
-24.250107
 20
-58.499999999999993
 30
0.0
 11
-19.250107
 21
-58.499999999999993
 31
0.0
  0
ARC
  5
12B
  8
DETAIL
  6
CONTINUOUS
 62
     5
 10
-18.250107
 20
-57.600006000000008
 30
0.0
 40
0.5
 50
89.99998199999996
 51
179.99996400000001
  0
ARC
  5
12C
  8
DETAIL
  6
CONTINUOUS
 62
     5
 10
-15.750107
 20
-57.600006000000008
 30
0.0
 40
0.5
 50
0.0
 51
89.99998199999996
  0
ARC
  5
12D
  8
DETAIL
  6
CONTINUOUS
 62
     5
 10
-14.750107
 20
-57.999999999999993
 30
0.0
 40
0.5
 50
180.00003599999999
 51
270.00001800000001
  0
LINE
  5
12E
  8
DETAIL
  6
CONTINUOUS
 62
     5
 10
-15.250107
 20
-57.999999999999993
 30
0.0
 11
-15.250107
 21
-57.600006000000008
 31
0.0
  0
LINE
  5
12F
  8
DETAIL
  6
CONTINUOUS
 62
     5
 10
-18.750107
 20
-57.999999999999993
 30
0.0
 11
-18.750107
 21
-57.600006000000008
 31
0.0
  0
LINE
  5
130
  8
DETAIL
  6
CONTINUOUS
 62
     5
 10
-18.250107
 20
-57.100006
 30
0.0
 11
-15.750107
 21
-57.100006
 31
0.0
  0
LINE
  5
131
  8
DETAIL
  6
CONTINUOUS
 62
     5
 10
-14.500107
 20
-58.300002999999997
 30
0.0
 11
-14.500107
 21
-56.999999999999993
 31
0.0
  0
ARC
  5
132
  8
DETAIL
  6
CONTINUOUS
 62
     5
 10
-13.500107
 20
-48.800002999999982
 30
0.0
 40
1.0
 50
180.00003599999999
 51
270.00001800000001
  0
LINE
  5
133
  8
DETAIL
  6
CONTINUOUS
 62
     5
 10
5.9998930000000001
 20
-51.80000299999999
 30
0.0
 11
5.9998930000000001
 21
-58.300002999999997
 31
0.0
  0
LINE
  5
134
  8
DETAIL
  6
CONTINUOUS
 62
     5
 10
-6.0001069999999981
 20
-51.80000299999999
 30
0.0
 11
-6.0001069999999981
 21
-58.300002999999997
 31
0.0
  0
LINE
  5
135
  8
DETAIL
  6
CONTINUOUS
 62
     5
 10
-6.0001069999999981
 20
-58.499999999999993
 30
0.0
 11
-6.0001069999999981
 21
-60.0
 31
0.0
  0
LINE
  5
136
  8
DETAIL
  6
CONTINUOUS
 62
     5
 10
5.9998930000000001
 20
-58.499999999999993
 30
0.0
 11
5.9998930000000001
 21
-60.0
 31
0.0
  0
ARC
  5
137
  8
DETAIL
  6
CONTINUOUS
 62
     5
 10
-8.0001069999999999
 20
-51.80000299999999
 30
0.0
 40
2.0
 50
0.0
 51
89.99998199999996
  0
ARC
  5
138
  8
DETAIL
  6
CONTINUOUS
 62
     5
 10
7.9998929999999984
 20
-51.80000299999999
 30
0.0
 40
2.0
 50
89.99998199999996
 51
180.00001900000001
  0
LINE
  5
139
  8
DETAIL
  6
CONTINUOUS
 62
     5
 10
-19.000107
 20
-41.749999999999993
 30
0.0
 11
-19.000107
 21
-43.75
 31
0.0
  0
LINE
  5
13A
  8
DETAIL
  6
CONTINUOUS
 62
     5
 10
-19.249863000000001
 20
-41.749999999999993
 30
0.0
 11
-19.249863000000001
 21
-43.75
 31
0.0
  0
ARC
  5
13B
  8
DETAIL
  6
CONTINUOUS
 62
     5
 10
-26.378556
 20
-32.871124000000002
 30
0.0
 40
1.0
 50
290.833461
 51
59.999932999999992
  0
LINE
  5
13C
  8
DETAIL
  6
CONTINUOUS
 62
     5
 10
-26.999893
 20
-41.749999999999993
 30
0.0
 11
-26.999893
 21
-43.75
 31
0.0
  0
LINE
  5
13D
  8
DETAIL
  6
CONTINUOUS
 62
     5
 10
-25.249863000000001
 20
-41.749999999999993
 30
0.0
 11
-25.249863000000001
 21
-43.75
 31
0.0
  0
LINE
  5
13E
  8
DETAIL
  6
CONTINUOUS
 62
     5
 10
-20.749863000000001
 20
-41.749999999999993
 30
0.0
 11
-20.749863000000001
 21
-43.75
 31
0.0
  0
LINE
  5
13F
  8
DETAIL
  6
CONTINUOUS
 62
     5
 10
-26.749680000000001
 20
-41.749999999999993
 30
0.0
 11
-26.749680000000001
 21
-43.75
 31
0.0
  0
ARC
  5
140
  8
DETAIL
  6
CONTINUOUS
 62
     5
 10
-22.999863000000001
 20
-41.749999999999993
 30
0.0
 40
2.25
 50
0.0
 51
179.99996400000001
  0
ARC
  5
141
  8
DETAIL
  6
CONTINUOUS
 62
     5
 10
-23.000107
 20
-41.749999999999993
 30
0.0
 40
4.0
 50
0.0
 51
179.99996400000001
  0
ARC
  5
142
  8
DETAIL
  6
CONTINUOUS
 62
     5
 10
-22.999863000000001
 20
-41.749999999999993
 30
0.0
 40
3.75
 50
0.0
 51
179.99996400000001
  0
ARC
  5
143
  8
DETAIL
  6
CONTINUOUS
 62
     5
 10
-23.000107
 20
-41.749999999999993
 30
0.0
 40
8.5
 50
0.0
 51
59.999988000000002
  0
LINE
  5
144
  8
DETAIL
  6
CONTINUOUS
 62
     5
 10
31.499893
 20
-41.749999999999993
 30
0.0
 11
31.499893
 21
-48.800002999999982
 31
0.0
  0
LINE
  5
145
  8
DETAIL
  6
CONTINUOUS
 62
     5
 10
14.499893
 20
-41.749999999999993
 30
0.0
 11
14.499893
 21
-48.800002999999982
 31
0.0
  0
ARC
  5
146
  8
DETAIL
  6
CONTINUOUS
 62
     5
 10
22.999893
 20
-43.75
 30
0.0
 40
4.0
 50
179.99996400000001
 51
0.0
  0
ARC
  5
147
  8
DETAIL
  6
CONTINUOUS
 62
     5
 10
22.999893
 20
-41.749999999999993
 30
0.0
 40
4.0
 50
0.0
 51
180.00001900000001
  0
ARC
  5
148
  8
DETAIL
  6
CONTINUOUS
 62
     5
 10
23.000136999999999
 20
-43.75
 30
0.0
 40
3.75
 50
179.99996400000001
 51
0.0
  0
ARC
  5
149
  8
DETAIL
  6
CONTINUOUS
 62
     5
 10
23.000136999999999
 20
-43.75
 30
0.0
 40
2.25
 50
179.99996400000001
 51
0.0
  0
ARC
  5
14A
  8
DETAIL
  6
CONTINUOUS
 62
     5
 10
23.000136999999999
 20
-41.749999999999993
 30
0.0
 40
3.75
 50
0.0
 51
180.00001900000001
  0
ARC
  5
14B
  8
DETAIL
  6
CONTINUOUS
 62
     5
 10
32.499893
 20
-48.800002999999982
 30
0.0
 40
1.0
 50
180.00003599999999
 51
270.00001800000001
  0
LINE
  5
14C
  8
DETAIL
  6
CONTINUOUS
 62
     5
 10
24.499893
 20
-60.0
 30
0.0
 11
34.499893
 21
-60.0
 31
0.0
  0
LINE
  5
14D
  8
DETAIL
  6
CONTINUOUS
 62
     5
 10
24.499893
 20
-59.30000299999999
 30
0.0
 11
34.499893
 21
-59.30000299999999
 31
0.0
  0
LINE
  5
14E
  8
DETAIL
  6
CONTINUOUS
 62
     5
 10
18.849746
 20
-58.300002999999997
 30
0.0
 11
24.499893
 21
-58.300002999999997
 31
0.0
  0
LINE
  5
14F
  8
DETAIL
  6
CONTINUOUS
 62
     5
 10
19.249893
 20
-58.499999999999993
 30
0.0
 11
24.249893
 21
-58.499999999999993
 31
0.0
  0
ARC
  5
150
  8
DETAIL
  6
CONTINUOUS
 62
     5
 10
14.749893
 20
-57.999999999999993
 30
0.0
 40
0.5
 50
270.00001800000001
 51
0.00001
  0
ARC
  5
151
  8
DETAIL
  6
CONTINUOUS
 62
     5
 10
19.249893
 20
-57.999999999999993
 30
0.0
 40
0.5
 50
180.00003599999999
 51
270.00001800000001
  0
ARC
  5
152
  8
DETAIL
  6
CONTINUOUS
 62
     5
 10
18.249893
 20
-57.600006000000008
 30
0.0
 40
0.5
 50
0.0
 51
89.99998199999996
  0
ARC
  5
153
  8
DETAIL
  6
CONTINUOUS
 62
     5
 10
15.749893
 20
-57.600006000000008
 30
0.0
 40
0.5
 50
89.99998199999996
 51
179.99996400000001
  0
LINE
  5
154
  8
DETAIL
  6
CONTINUOUS
 62
     5
 10
18.749893
 20
-57.999999999999993
 30
0.0
 11
18.749893
 21
-57.600006000000008
 31
0.0
  0
LINE
  5
155
  8
DETAIL
  6
CONTINUOUS
 62
     5
 10
15.249893
 20
-57.999999999999993
 30
0.0
 11
15.249893
 21
-57.600006000000008
 31
0.0
  0
LINE
  5
156
  8
DETAIL
  6
CONTINUOUS
 62
     5
 10
15.749893
 20
-57.100006
 30
0.0
 11
18.249893
 21
-57.100006
 31
0.0
  0
LINE
  5
157
  8
DETAIL
  6
CONTINUOUS
 62
     5
 10
14.499893
 20
-58.300002999999997
 30
0.0
 11
14.499893
 21
-56.999999999999993
 31
0.0
  0
LINE
  5
158
  8
DETAIL
  6
CONTINUOUS
 62
     5
 10
19.499893
 20
-58.300002999999997
 30
0.0
 11
19.499893
 21
-56.999999999999993
 31
0.0
  0
LINE
  5
159
  8
DETAIL
  6
CONTINUOUS
 62
     5
 10
14.499893
 20
-56.999999999999993
 30
0.0
 11
19.499893
 21
-56.999999999999993
 31
0.0
  0
LINE
  5
15A
  8
DETAIL
  6
CONTINUOUS
 62
     5
 10
24.249893
 20
-59.073639
 30
0.0
 11
24.499893
 21
-59.073639
 31
0.0
  0
LINE
  5
15B
  8
DETAIL
  6
CONTINUOUS
 62
     5
 10
24.499893
 20
-60.0
 30
0.0
 11
24.499893
 21
-58.300002999999997
 31
0.0
  0
LINE
  5
15C
  8
DETAIL
  6
CONTINUOUS
 62
     5
 10
24.249893
 20
-58.300002999999997
 30
0.0
 11
24.249893
 21
-60.0
 31
0.0
  0
ARC
  5
15D
  8
DETAIL
  6
CONTINUOUS
 62
     5
 10
13.499893
 20
-48.800002999999982
 30
0.0
 40
1.0
 50
270.00001800000001
 51
0.0
  0
LINE
  5
15E
  8
DETAIL
  6
CONTINUOUS
 62
     5
 10
40.749893
 20
-57.100006
 30
0.0
 11
43.249893
 21
-57.100006
 31
0.0
  0
LINE
  5
15F
  8
DETAIL
  6
CONTINUOUS
 62
     5
 10
39.499893
 20
-56.999999999999993
 30
0.0
 11
44.499893
 21
-56.999999999999993
 31
0.0
  0
ARC
  5
160
  8
DETAIL
  6
CONTINUOUS
 62
     5
 10
39.749893
 20
-57.999999999999993
 30
0.0
 40
0.5
 50
270.00001800000001
 51
0.00001
  0
ARC
  5
161
  8
DETAIL
  6
CONTINUOUS
 62
     5
 10
40.749893
 20
-57.600006000000008
 30
0.0
 40
0.5
 50
89.99998199999996
 51
179.99996400000001
  0
LINE
  5
162
  8
DETAIL
  6
CONTINUOUS
 62
     5
 10
40.249893
 20
-57.999999999999993
 30
0.0
 11
40.249893
 21
-57.600006000000008
 31
0.0
  0
LINE
  5
163
  8
DETAIL
  6
CONTINUOUS
 62
     5
 10
39.499893
 20
-58.300002999999997
 30
0.0
 11
39.499893
 21
-56.999999999999993
 31
0.0
  0
LINE
  5
164
  8
DETAIL
  6
CONTINUOUS
 62
     5
 10
34.499893
 20
-60.0
 30
0.0
 11
34.499893
 21
-58.300002999999997
 31
0.0
  0
LINE
  5
165
  8
DETAIL
  6
CONTINUOUS
 62
     5
 10
34.499893
 20
-59.073639
 30
0.0
 11
34.749893
 21
-59.073639
 31
0.0
  0
LINE
  5
166
  8
DETAIL
  6
CONTINUOUS
 62
     5
 10
34.749893
 20
-58.300002999999997
 30
0.0
 11
34.749893
 21
-60.0
 31
0.0
  0
LINE
  5
167
  8
DETAIL
  6
CONTINUOUS
 62
     5
 10
34.499893
 20
-58.300002999999997
 30
0.0
 11
40.14979499999999
 21
-58.300002999999997
 31
0.0
  0
LINE
  5
168
  8
DETAIL
  6
CONTINUOUS
 62
     5
 10
34.749893
 20
-58.499999999999993
 30
0.0
 11
39.749893
 21
-58.499999999999993
 31
0.0
  0
ARC
  5
169
  8
DETAIL
  6
CONTINUOUS
 62
     5
 10
44.249893
 20
-57.999999999999993
 30
0.0
 40
0.5
 50
180.00003599999999
 51
270.00001800000001
  0
ARC
  5
16A
  8
DETAIL
  6
CONTINUOUS
 62
     5
 10
43.249893
 20
-57.600006000000008
 30
0.0
 40
0.5
 50
0.0
 51
89.99998199999996
  0
LINE
  5
16B
  8
DETAIL
  6
CONTINUOUS
 62
     5
 10
43.749893
 20
-57.999999999999993
 30
0.0
 11
43.749893
 21
-57.600006000000008
 31
0.0
  0
LINE
  5
16C
  8
DETAIL
  6
CONTINUOUS
 62
     5
 10
44.499893
 20
-58.300002999999997
 30
0.0
 11
44.499893
 21
-56.999999999999993
 31
0.0
  0
CIRCLE
  5
16D
  8
DETAIL
  6
CONTINUOUS
 62
     5
 10
33.999893
 20
-39.75
 30
0.0
 40
2.75
  0
ARC
  5
16E
  8
DETAIL
  6
CONTINUOUS
 62
     5
 10
22.999893
 20
-41.749999999999993
 30
0.0
 40
8.5
 50
0.0
 51
69.166811999999993
  0
ARC
  5
16F
  8
DETAIL
  6
CONTINUOUS
 62
     5
 10
23.000136999999999
 20
-41.749999999999993
 30
0.0
 40
2.25
 50
0.0
 51
180.00001900000001
  0
LINE
  5
170
  8
DETAIL
  6
CONTINUOUS
 62
     5
 10
18.999893
 20
-41.749999999999993
 30
0.0
 11
18.999893
 21
-43.75
 31
0.0
  0
LINE
  5
171
  8
DETAIL
  6
CONTINUOUS
 62
     5
 10
20.750136999999999
 20
-41.749999999999993
 30
0.0
 11
20.750136999999999
 21
-43.75
 31
0.0
  0
LINE
  5
172
  8
DETAIL
  6
CONTINUOUS
 62
     5
 10
19.250136999999999
 20
-41.749999999999993
 30
0.0
 11
19.250136999999999
 21
-43.75
 31
0.0
  0
ARC
  5
173
  8
DETAIL
  6
CONTINUOUS
 62
     5
 10
22.999893
 20
-41.749999999999993
 30
0.0
 40
8.5
 50
119.999976
 51
180.00001900000001
  0
ARC
  5
174
  8
DETAIL
  6
CONTINUOUS
 62
     5
 10
26.378554999999999
 20
-32.871124000000002
 30
0.0
 40
1.0
 50
120.00003100000001
 51
249.16655800000001
  0
LINE
  5
175
  8
DETAIL
  6
CONTINUOUS
 62
     5
 10
26.999893
 20
-41.749999999999993
 30
0.0
 11
26.999893
 21
-43.75
 31
0.0
  0
LINE
  5
176
  8
DETAIL
  6
CONTINUOUS
 62
     5
 10
25.250136999999999
 20
-41.749999999999993
 30
0.0
 11
25.250136999999999
 21
-43.75
 31
0.0
  0
LINE
  5
177
  8
DETAIL
  6
CONTINUOUS
 62
     5
 10
26.750136999999999
 20
-41.749999999999993
 30
0.0
 11
26.750136999999999
 21
-43.75
 31
0.0
  0
CIRCLE
  5
178
  8
DETAIL
  6
CONTINUOUS
 62
     5
 10
33.999893
 20
-39.75
 30
0.0
 40
2.4749989999999991
  0
LINE
  5
179
  8
DETAIL
  6
CONTINUOUS
 62
     5
 10
35.113585999999998
 20
-40.863692999999998
 30
0.0
 11
32.886200000000002
 21
-38.636307000000002
 31
0.0
  0
LINE
  5
17A
  8
DETAIL
  6
CONTINUOUS
 62
     5
 10
32.886200000000002
 20
-40.863692999999998
 30
0.0
 11
35.113585999999998
 21
-38.636307000000002
 31
0.0
  0
LINE
  5
17B
  8
DETAIL
  6
CONTINUOUS
 62
     5
 10
4.2498930000000001
 20
28.800003000000011
 30
0.0
 11
13.082167999999999
 21
28.800003000000011
 31
0.0
  0
LINE
  5
17C
  8
DETAIL
  6
CONTINUOUS
 62
     5
 10
-13.082687999999999
 20
28.800003000000011
 30
0.0
 11
-4.2501069999999981
 21
28.800003000000011
 31
0.0
  0
LINE
  5
17D
  8
DETAIL
  6
CONTINUOUS
 62
     5
 10
-24.000107
 20
14.0
 30
0.0
 11
-24.000107
 21
5.0
 31
0.0
  0
LINE
  5
17E
  8
DETAIL
  6
CONTINUOUS
 62
     5
 10
56.799942000000001
 20
-48.800002999999982
 30
0.0
 11
56.799942000000001
 21
-15.884689
 31
0.0
  0
ARC
  5
17F
  8
DETAIL
  6
CONTINUOUS
 62
     5
 10
59.999893000000007
 20
-55.0
 30
0.0
 40
4.2000000000000002
 50
331.56311199999999
 51
0.0
  0
ARC
  5
180
  8
DETAIL
  6
CONTINUOUS
 62
     5
 10
59.799942000000001
 20
-54.800002999999997
 30
0.0
 40
3.5
 50
270.00001800000001
 51
0.0
  0
ARC
  5
181
  8
DETAIL
  6
CONTINUOUS
 62
     5
 10
59.999893000000007
 20
-55.0
 30
0.0
 40
3.5
 50
270.00001800000001
 51
0.0
  0
ARC
  5
182
  8
DETAIL
  6
CONTINUOUS
 62
     5
 10
59.999893000000007
 20
-55.0
 30
0.0
 40
5.0
 50
270.00001800000001
 51
0.0
  0
LINE
  5
183
  8
DETAIL
  6
CONTINUOUS
 62
     5
 10
62.872206999999982
 20
-56.999999999999993
 30
0.0
 11
64.582412000000005
 21
-56.999999999999993
 31
0.0
  0
ARC
  5
184
  8
DETAIL
  6
CONTINUOUS
 62
     5
 10
55.799942000000001
 20
-48.800002999999982
 30
0.0
 40
1.0
 50
270.00001800000001
 51
0.0
  0
LINE
  5
185
  8
DETAIL
  6
CONTINUOUS
 62
     5
 10
64.200087999999994
 20
-55.0
 30
0.0
 11
64.200087999999994
 21
-52.0
 31
0.0
  0
LINE
  5
186
  8
DETAIL
  6
CONTINUOUS
 62
     5
 10
63.499893
 20
-52.0
 30
0.0
 11
64.299942000000001
 21
-52.0
 31
0.0
  0
ARC
  5
187
  8
DETAIL
  6
CONTINUOUS
 62
     5
 10
55.799942000000001
 20
-15.884689
 30
0.0
 40
1.0
 50
0.0
 51
120.00003100000001
  0
ARC
  5
188
  8
DETAIL
  6
CONTINUOUS
 62
     5
 10
55.799942000000001
 20
-11.843246000000001
 30
0.0
 40
1.0
 50
300.000067
 51
0.0
  0
LINE
  5
189
  8
DETAIL
  6
CONTINUOUS
 62
     5
 10
5.700088
 20
51.80000299999999
 30
0.0
 11
53.97401399999999
 21
51.80000299999999
 31
0.0
  0
LINE
  5
18A
  8
DETAIL
  6
CONTINUOUS
 62
     5
 10
45.999892999999993
 20
58.300002999999997
 30
0.0
 11
59.799942000000001
 21
58.300002999999997
 31
0.0
  0
LINE
  5
18B
  8
DETAIL
  6
CONTINUOUS
 62
     5
 10
2.9998930000000001
 20
59.30000299999999
 30
0.0
 11
59.999893000000007
 21
59.30000299999999
 31
0.0
  0
LINE
  5
18C
  8
DETAIL
  6
CONTINUOUS
 62
     5
 10
45.999892999999993
 20
58.500000000000007
 30
0.0
 11
59.999893000000007
 21
58.500000000000007
 31
0.0
  0
LINE
  5
18D
  8
DETAIL
  6
CONTINUOUS
 62
     5
 10
-60.0
 20
60.0
 30
0.0
 11
60.0
 21
60.0
 31
0.0
  0
CIRCLE
  5
18E
  8
DETAIL
  6
CONTINUOUS
 62
     5
 10
-31.822647
 20
46.306747000000001
 30
0.0
 40
4.0
  0
LINE
  5
18F
  8
DETAIL
  6
CONTINUOUS
 62
     5
 10
-53.772263000000002
 20
51.80000299999999
 30
0.0
 11
-5.7000580000000003
 21
51.80000299999999
 31
0.0
  0
LINE
  5
190
  8
DETAIL
  6
CONTINUOUS
 62
     5
 10
-37.999893
 20
58.300002999999997
 30
0.0
 11
-5.7000580000000003
 21
58.300002999999997
 31
0.0
  0
LINE
  5
191
  8
DETAIL
  6
CONTINUOUS
 62
     5
 10
-59.999893000000007
 20
59.30000299999999
 30
0.0
 11
-3.0001069999999981
 21
59.30000299999999
 31
0.0
  0
LINE
  5
192
  8
DETAIL
  6
CONTINUOUS
 62
     5
 10
-37.999893
 20
58.500000000000007
 30
0.0
 11
37.999893
 21
58.500000000000007
 31
0.0
  0
ARC
  5
193
  8
DETAIL
  6
CONTINUOUS
 62
     5
 10
-56.499893000000007
 20
51.450012000000001
 30
0.0
 40
2.75
 50
7.3118289999999968
 51
263.73701799999998
  0
CIRCLE
  5
194
  8
DETAIL
  6
CONTINUOUS
 62
     5
 10
-46.772109999999977
 20
46.306747000000001
 30
0.0
 40
4.0
  0
CIRCLE
  5
195
  8
DETAIL
  6
CONTINUOUS
 62
     5
 10
-34.999893
 20
37.050002999999997
 30
0.0
 40
4.25
  0
CIRCLE
  5
196
  8
DETAIL
  6
CONTINUOUS
 62
     5
 10
-34.999893
 20
37.050002999999997
 30
0.0
 40
2.75
  0
CIRCLE
  5
197
  8
DETAIL
  6
CONTINUOUS
 62
     5
 10
-34.999893
 20
37.050002999999997
 30
0.0
 40
2.4749989999999991
  0
LINE
  5
198
  8
DETAIL
  6
CONTINUOUS
 62
     5
 10
-33.886200000000002
 20
35.936309999999999
 30
0.0
 11
-36.113585999999998
 21
38.163696000000002
 31
0.0
  0
LINE
  5
199
  8
DETAIL
  6
CONTINUOUS
 62
     5
 10
-36.113585999999998
 20
35.936309999999999
 30
0.0
 11
-33.886200000000002
 21
38.163696000000002
 31
0.0
  0
LINE
  5
19A
  8
DETAIL
  6
CONTINUOUS
 62
     5
 10
-59.799896999999987
 20
58.300002999999997
 30
0.0
 11
-45.999892999999993
 21
58.300002999999997
 31
0.0
  0
LINE
  5
19B
  8
DETAIL
  6
CONTINUOUS
 62
     5
 10
-59.999893000000007
 20
58.500000000000007
 30
0.0
 11
-45.999892999999993
 21
58.500000000000007
 31
0.0
  0
ARC
  5
19C
  8
DETAIL
  6
CONTINUOUS
 62
     5
 10
-59.799896999999987
 20
54.800002999999997
 30
0.0
 40
3.5
 50
89.99998199999996
 51
179.99996400000001
  0
ARC
  5
19D
  8
DETAIL
  6
CONTINUOUS
 62
     5
 10
-59.999893000000007
 20
55.0
 30
0.0
 40
3.5
 50
89.99998199999996
 51
179.99996400000001
  0
ARC
  5
19E
  8
DETAIL
  6
CONTINUOUS
 62
     5
 10
-59.999893000000007
 20
55.0
 30
0.0
 40
4.299999999999998
 50
89.99998199999996
 51
179.99996400000001
  0
ARC
  5
19F
  8
DETAIL
  6
CONTINUOUS
 62
     5
 10
-59.999892999032262
 20
55.000000000177181
 30
0.0
 40
5.000000000967745
 50
90.001226140770953
 51
179.9999640020302
  0
LINE
  5
1A0
  8
DETAIL
  6
CONTINUOUS
 62
     5
 10
-46.499893
 20
56.000000000000007
 30
0.0
 11
-37.499893
 21
56.000000000000007
 31
0.0
  0
LINE
  5
1A1
  8
DETAIL
  6
CONTINUOUS
 62
     5
 10
-45.999892999999993
 20
56.500000000000007
 30
0.0
 11
-37.999893
 21
56.500000000000007
 31
0.0
  0
LINE
  5
1A2
  8
DETAIL
  6
CONTINUOUS
 62
     5
 10
-46.499893
 20
56.000000000000007
 30
0.0
 11
-46.499893
 21
58.300002999999997
 31
0.0
  0
LINE
  5
1A3
  8
DETAIL
  6
CONTINUOUS
 62
     5
 10
-45.999892999999993
 20
56.500000000000007
 30
0.0
 11
-45.999892999999993
 21
58.500000000000007
 31
0.0
  0
LINE
  5
1A4
  8
DETAIL
  6
CONTINUOUS
 62
     5
 10
-37.499893
 20
56.000000000000007
 30
0.0
 11
-37.499893
 21
58.300002999999997
 31
0.0
  0
LINE
  5
1A5
  8
DETAIL
  6
CONTINUOUS
 62
     5
 10
-37.999893
 20
56.500000000000007
 30
0.0
 11
-37.999893
 21
58.500000000000007
 31
0.0
  0
LINE
  5
1A6
  8
DETAIL
  6
CONTINUOUS
 62
     5
 10
4.2498930000000001
 20
32.800003000000011
 30
0.0
 11
11.277115
 21
32.800003000000011
 31
0.0
  0
LINE
  5
1A7
  8
DETAIL
  6
CONTINUOUS
 62
     5
 10
5.700088
 20
58.300002999999997
 30
0.0
 11
37.999893
 21
58.300002999999997
 31
0.0
  0
LINE
  5
1A8
  8
DETAIL
  6
CONTINUOUS
 62
     5
 10
5.700088
 20
58.300002999999997
 30
0.0
 11
5.700088
 21
48.80000299999999
 31
0.0
  0
LINE
  5
1A9
  8
DETAIL
  6
CONTINUOUS
 62
     5
 10
-5.7000580000000003
 20
58.300002999999997
 30
0.0
 11
-5.7000580000000003
 21
48.80000299999999
 31
0.0
  0
LINE
  5
1AA
  8
DETAIL
  6
CONTINUOUS
 62
     5
 10
-5.6998860000000002
 20
52.899984000000003
 30
0.0
 11
5.700234
 21
57.000016000000002
 31
0.0
  0
LINE
  5
1AB
  8
DETAIL
  6
CONTINUOUS
 62
     5
 10
-11.277512
 20
32.800003000000011
 30
0.0
 11
-4.2501069999999981
 21
32.800003000000011
 31
0.0
  0
CIRCLE
  5
1AC
  8
DETAIL
  6
CONTINUOUS
 62
     5
 10
-0.000107
 20
37.050002999999997
 30
0.0
 40
4.25
  0
CIRCLE
  5
1AD
  8
DETAIL
  6
CONTINUOUS
 62
     5
 10
-0.000107
 20
37.050002999999997
 30
0.0
 40
2.75
  0
CIRCLE
  5
1AE
  8
DETAIL
  6
CONTINUOUS
 62
     5
 10
-0.000107
 20
37.050002999999997
 30
0.0
 40
2.4749989999999991
  0
LINE
  5
1AF
  8
DETAIL
  6
CONTINUOUS
 62
     5
 10
1.1135859999999991
 20
35.936309999999999
 30
0.0
 11
-1.113799999999999
 21
38.163696000000002
 31
0.0
  0
LINE
  5
1B0
  8
DETAIL
  6
CONTINUOUS
 62
     5
 10
-1.113799999999999
 20
35.936309999999999
 30
0.0
 11
1.1135859999999991
 21
38.163696000000002
 31
0.0
  0
LINE
  5
1B1
  8
DETAIL
  6
CONTINUOUS
 62
     5
 10
-5.7000580000000003
 20
48.80000299999999
 30
0.0
 11
5.700088
 21
48.80000299999999
 31
0.0
  0
LINE
  5
1B2
  8
DETAIL
  6
CONTINUOUS
 62
     5
 10
-3.0001069999999981
 20
59.199997000000003
 30
0.0
 11
2.9998930000000001
 21
59.199997000000003
 31
0.0
  0
LINE
  5
1B3
  8
DETAIL
  6
CONTINUOUS
 62
     5
 10
-3.0001069999999981
 20
59.30000299999999
 30
0.0
 11
-3.0001069999999981
 21
58.500000000000007
 31
0.0
  0
LINE
  5
1B4
  8
DETAIL
  6
CONTINUOUS
 62
     5
 10
2.9998930000000001
 20
59.30000299999999
 30
0.0
 11
2.9998930000000001
 21
58.500000000000007
 31
0.0
  0
ARC
  5
1B5
  8
DETAIL
  6
CONTINUOUS
 62
     5
 10
23.999893
 20
41.749999999999993
 30
0.0
 40
8.5
 50
357.48053099999998
 51
89.99998199999996
  0
ARC
  5
1B6
  8
DETAIL
  6
CONTINUOUS
 62
     5
 10
34.999893
 20
37.050002999999997
 30
0.0
 40
4.25
 50
198.711749
 51
0.00001
  0
ARC
  5
1B7
  8
DETAIL
  6
CONTINUOUS
 62
     5
 10
23.999893
 20
41.749999999999993
 30
0.0
 40
3.75
 50
270.00001800000001
 51
89.999926999999985
  0
ARC
  5
1B8
  8
DETAIL
  6
CONTINUOUS
 62
     5
 10
23.999893
 20
41.749999999999993
 30
0.0
 40
2.25
 50
270.00001800000001
 51
89.999926999999985
  0
ARC
  5
1B9
  8
DETAIL
  6
CONTINUOUS
 62
     5
 10
23.999893
 20
41.749999999999993
 30
0.0
 40
4.0
 50
270.00007299999999
 51
89.99998199999996
  0
ARC
  5
1BA
  8
DETAIL
  6
CONTINUOUS
 62
     5
 10
21.999893
 20
41.749999999999993
 30
0.0
 40
3.75
 50
89.99998199999996
 51
270.000001
  0
ARC
  5
1BB
  8
DETAIL
  6
CONTINUOUS
 62
     5
 10
21.999893
 20
41.749999999999993
 30
0.0
 40
2.25
 50
89.99998199999996
 51
270.000001
  0
ARC
  5
1BC
  8
DETAIL
  6
CONTINUOUS
 62
     5
 10
21.999893
 20
41.749999999999993
 30
0.0
 40
4.0
 50
89.99998199999996
 51
269.99989099999999
  0
ARC
  5
1BD
  8
DETAIL
  6
CONTINUOUS
 62
     5
 10
21.999893
 20
41.749999999999993
 30
0.0
 40
8.5
 50
89.99998199999996
 51
269.99989099999999
  0
LINE
  5
1BE
  8
DETAIL
  6
CONTINUOUS
 62
     5
 10
21.999893
 20
39.5
 30
0.0
 11
23.999893
 21
39.5
 31
0.0
  0
LINE
  5
1BF
  8
DETAIL
  6
CONTINUOUS
 62
     5
 10
23.999893
 20
37.75
 30
0.0
 11
21.999893
 21
37.75
 31
0.0
  0
LINE
  5
1C0
  8
DETAIL
  6
CONTINUOUS
 62
     5
 10
24.000136999999999
 20
38.0
 30
0.0
 11
22.000136999999999
 21
38.0
 31
0.0
  0
ARC
  5
1C1
  8
DETAIL
  6
CONTINUOUS
 62
     5
 10
30.501114000000001
 20
35.52616900000001
 30
0.0
 40
0.5
 50
18.712304
 51
136.247411
  0
LINE
  5
1C2
  8
DETAIL
  6
CONTINUOUS
 62
     5
 10
23.999893
 20
33.25
 30
0.0
 11
21.999893
 21
33.25
 31
0.0
  0
ARC
  5
1C3
  8
DETAIL
  6
CONTINUOUS
 62
     5
 10
23.999893
 20
41.749999999999993
 30
0.0
 40
8.5
 50
270.00007299999999
 51
316.2481029999999
  0
LINE
  5
1C4
  8
DETAIL
  6
CONTINUOUS
 62
     5
 10
23.999893
 20
50.25
 30
0.0
 11
21.999893
 21
50.25
 31
0.0
  0
LINE
  5
1C5
  8
DETAIL
  6
CONTINUOUS
 62
     5
 10
21.999893
 20
45.499999999999993
 30
0.0
 11
23.999893
 21
45.499999999999993
 31
0.0
  0
LINE
  5
1C6
  8
DETAIL
  6
CONTINUOUS
 62
     5
 10
21.999893
 20
44.0
 30
0.0
 11
23.999893
 21
44.0
 31
0.0
  0
LINE
  5
1C7
  8
DETAIL
  6
CONTINUOUS
 62
     5
 10
23.999893
 20
45.75
 30
0.0
 11
21.999893
 21
45.75
 31
0.0
  0
ARC
  5
1C8
  8
DETAIL
  6
CONTINUOUS
 62
     5
 10
34.999893
 20
37.050002999999997
 30
0.0
 40
4.25
 50
0.0
 51
115.016834
  0
ARC
  5
1C9
  8
DETAIL
  6
CONTINUOUS
 62
     5
 10
32.991348000000002
 20
41.354370000000003
 30
0.0
 40
0.5
 50
177.48120900000001
 51
295.01674300000002
  0
CIRCLE
  5
1CA
  8
DETAIL
  6
CONTINUOUS
 62
     5
 10
34.999893
 20
37.050002999999997
 30
0.0
 40
2.75
  0
CIRCLE
  5
1CB
  8
DETAIL
  6
CONTINUOUS
 62
     5
 10
34.999893
 20
37.050002999999997
 30
0.0
 40
2.4749989999999991
  0
LINE
  5
1CC
  8
DETAIL
  6
CONTINUOUS
 62
     5
 10
36.113585999999998
 20
35.936309999999999
 30
0.0
 11
33.886200000000002
 21
38.163696000000002
 31
0.0
  0
LINE
  5
1CD
  8
DETAIL
  6
CONTINUOUS
 62
     5
 10
33.886200000000002
 20
35.936309999999999
 30
0.0
 11
36.113585999999998
 21
38.163696000000002
 31
0.0
  0
LINE
  5
1CE
  8
DETAIL
  6
CONTINUOUS
 62
     5
 10
37.999893
 20
56.500000000000007
 30
0.0
 11
45.999892999999993
 21
56.500000000000007
 31
0.0
  0
LINE
  5
1CF
  8
DETAIL
  6
CONTINUOUS
 62
     5
 10
37.499893
 20
56.000000000000007
 30
0.0
 11
46.499893
 21
56.000000000000007
 31
0.0
  0
LINE
  5
1D0
  8
DETAIL
  6
CONTINUOUS
 62
     5
 10
37.499893
 20
56.000000000000007
 30
0.0
 11
37.499893
 21
58.300002999999997
 31
0.0
  0
LINE
  5
1D1
  8
DETAIL
  6
CONTINUOUS
 62
     5
 10
37.999893
 20
56.500000000000007
 30
0.0
 11
37.999893
 21
58.500000000000007
 31
0.0
  0
LINE
  5
1D2
  8
DETAIL
  6
CONTINUOUS
 62
     5
 10
46.499893
 20
56.000000000000007
 30
0.0
 11
46.499893
 21
58.300002999999997
 31
0.0
  0
LINE
  5
1D3
  8
DETAIL
  6
CONTINUOUS
 62
     5
 10
45.999892999999993
 20
56.500000000000007
 30
0.0
 11
45.999892999999993
 21
58.500000000000007
 31
0.0
  0
ARC
  5
1D4
  8
DETAIL
  6
CONTINUOUS
 62
     5
 10
56.499893000000007
 20
51.450012000000001
 30
0.0
 40
2.5499990000000001
 50
276.75743199999999
 51
172.111177
  0
ARC
  5
1D5
  8
DETAIL
  6
CONTINUOUS
 62
     5
 10
59.799942000000001
 20
54.800002999999997
 30
0.0
 40
3.5
 50
0.0
 51
89.99998199999996
  0
ARC
  5
1D6
  8
DETAIL
  6
CONTINUOUS
 62
     5
 10
59.999893000000007
 20
55.0
 30
0.0
 40
3.5
 50
0.0
 51
89.99998199999996
  0
ARC
  5
1D7
  8
DETAIL
  6
CONTINUOUS
 62
     5
 10
59.999893000000007
 20
55.0
 30
0.0
 40
4.299999999999998
 50
0.0
 51
89.99998199999996
  0
ARC
  5
1D8
  8
DETAIL
  6
CONTINUOUS
 62
     5
 10
59.99989299798807
 20
54.999999999166633
 30
0.0
 40
5.0000000020119444
 50
0.000000009549847
 51
89.998755847263794
  0
LINE
  5
1D9
  8
BASIS
  6
DASHDOT
 62
     6
 10
70.0
 20
0.0
 30
0.0
 11
-70.0
 21
0.0
 31
0.0
  0
LINE
  5
1DA
  8
BASIS
  6
DASHDOT
 62
     6
 10
0.0
 20
70.0
 30
0.0
 11
0.0
 21
-70.0
 31
0.0
  0
LINE
  5
1DB
  8
ARRANGE
  6
CONTINUOUS
 62
     1
 10
11.224170000000001
 20
11.224170000000001
 30
0.0
 11
-11.224170000000001
 21
-11.224170000000001
 31
0.0
  0
LINE
  5
1DC
  8
ARRANGE
  6
CONTINUOUS
 62
     1
 10
-11.224170000000001
 20
11.224170000000001
 30
0.0
 11
11.224170000000001
 21
-11.224170000000001
 31
0.0
  0
CIRCLE
  5
1DD
  8
ARRANGE
  6
CONTINUOUS
 62
     1
 10
0.0
 20
0.0
 30
0.0
 40
8.9011700000000005
  0
LINE
  5
1DE
  8
SIZE
  6
CONTINUOUS
 62
    30
 10
65.0
 20
60.0
 30
0.0
 11
65.0
 21
113.590974
 31
0.0
  0
LINE
  5
1DF
  8
SIZE
  6
CONTINUOUS
 62
    30
 10
-65.0
 20
60.0
 30
0.0
 11
-65.0
 21
113.590974
 31
0.0
  0
LINE
  5
1E0
  8
SIZE
  6
CONTINUOUS
 62
    30
 10
60.0
 20
98.590974000000031
 30
0.0
 11
-60.0
 21
98.590974000000031
 31
0.0
  0
CIRCLE
  5
1E1
  8
SIZE
  6
CONTINUOUS
 62
    30
 10
65.0
 20
98.590974000000031
 30
0.0
 40
2.5
  0
LINE
  5
1E2
  8
SIZE
  6
CONTINUOUS
 62
    30
 10
62.5
 20
98.590974000000031
 30
0.0
 11
60.0
 21
98.590974000000031
 31
0.0
  0
CIRCLE
  5
1E3
  8
SIZE
  6
CONTINUOUS
 62
    30
 10
-65.0
 20
98.590974000000031
 30
0.0
 40
2.5
  0
LINE
  5
1E4
  8
SIZE
  6
CONTINUOUS
 62
    30
 10
-62.5
 20
98.590974000000031
 30
0.0
 11
-60.0
 21
98.590974000000031
 31
0.0
  0
TEXT
  5
1E5
  8
SIZE
  6
CONTINUOUS
 62
    30
 10
-24.411516285714288
 20
103.590974
 30
0.0
 40
25.0
  1
130
 41
0.9
 72
     1
 11
2.374197999999998
 21
103.590974
 31
0.0
  0
POINT
  5
1E6
  8
DEFPOINTS
  6
CONTINUOUS
 62
     7
 10
65.0
 20
55.0
 30
0.0
  0
POINT
  5
1E7
  8
DEFPOINTS
  6
CONTINUOUS
 62
     7
 10
-65.0
 20
55.0
 30
0.0
  0
POINT
  5
1E8
  8
DEFPOINTS
  6
CONTINUOUS
 62
     7
 10
-65.0
 20
98.590974000000031
 30
0.0
  0
LINE
  5
1E9
  8
SIZE
  6
CONTINUOUS
 62
    30
 10
64.999894999999995
 20
60.0
 30
0.0
 11
132.42867899999999
 21
60.0
 31
0.0
  0
LINE
  5
1EA
  8
SIZE
  6
CONTINUOUS
 62
    30
 10
64.999893
 20
-60.0
 30
0.0
 11
132.42867899999999
 21
-60.0
 31
0.0
  0
LINE
  5
1EB
  8
SIZE
  6
CONTINUOUS
 62
    30
 10
117.428679
 20
55.0
 30
0.0
 11
117.428679
 21
-55.0
 31
0.0
  0
CIRCLE
  5
1EC
  8
SIZE
  6
CONTINUOUS
 62
    30
 10
117.428679
 20
60.0
 30
0.0
 40
2.5
  0
LINE
  5
1ED
  8
SIZE
  6
CONTINUOUS
 62
    30
 10
117.428679
 20
57.5
 30
0.0
 11
117.428679
 21
55.0
 31
0.0
  0
CIRCLE
  5
1EE
  8
SIZE
  6
CONTINUOUS
 62
    30
 10
117.428679
 20
-60.0
 30
0.0
 40
2.5
  0
LINE
  5
1EF
  8
SIZE
  6
CONTINUOUS
 62
    30
 10
117.428679
 20
-57.5
 30
0.0
 11
117.428679
 21
-55.0
 31
0.0
  0
TEXT
  5
1F0
  8
SIZE
  6
CONTINUOUS
 62
    30
 10
112.428679
 20
-26.785714285714288
 30
0.0
 40
25.0
  1
120
 50
90.0
 41
0.9
 72
     1
 11
112.428679
 21
0.0000000000000007
 31
0.0
  0
POINT
  5
1F1
  8
DEFPOINTS
  6
CONTINUOUS
 62
     7
 10
59.999894999999981
 20
60.0
 30
0.0
  0
POINT
  5
1F2
  8
DEFPOINTS
  6
CONTINUOUS
 62
     7
 10
59.999893000000007
 20
-60.0
 30
0.0
  0
POINT
  5
1F3
  8
DEFPOINTS
  6
CONTINUOUS
 62
     7
 10
117.428679
 20
-60.0
 30
0.0
  0
LINE
  5
1F4
  8
OUTLINE
  6
CONTINUOUS
 62
     3
 10
-60.0
 20
-60.0
 30
0.0
 11
-34.75
 21
-60.0
 31
0.0
  0
LINE
  5
1F5
  8
OUTLINE
  6
CONTINUOUS
 62
     3
 10
-60.0
 20
60.0
 30
0.0
 11
60.0
 21
60.0
 31
0.0
  0
LINE
  5
1F6
  8
OUTLINE
  6
CONTINUOUS
 62
     3
 10
-65.0
 20
-55.0
 30
0.0
 11
-65.0
 21
55.0
 31
0.0
  0
ARC
  5
1F7
  8
OUTLINE
  6
CONTINUOUS
 62
     3
 10
-60.0
 20
-55.0
 30
0.0
 40
5.0
 50
180.00003599999999
 51
270.00001800000001
  0
ARC
  5
1F8
  8
OUTLINE
  6
CONTINUOUS
 62
     3
 10
-60.0
 20
55.0
 30
0.0
 40
5.0000000000000204
 50
90.000000000000057
 51
179.99996399999969
  0
LINE
  5
1F9
  8
OUTLINE
  6
CONTINUOUS
 62
     3
 10
65.0
 20
-55.0
 30
0.0
 11
65.0
 21
55.0
 31
0.0
  0
LINE
  5
1FA
  8
OUTLINE
  6
CONTINUOUS
 62
     3
 10
34.75
 20
-60.0
 30
0.0
 11
60.0
 21
-60.0
 31
0.0
  0
LINE
  5
1FB
  8
OUTLINE
  6
CONTINUOUS
 62
     3
 10
24.25
 20
-59.073639
 30
0.0
 11
24.25
 21
-60.0
 31
0.0
  0
LINE
  5
1FC
  8
OUTLINE
  6
CONTINUOUS
 62
     3
 10
34.75
 20
-59.073639
 30
0.0
 11
34.75
 21
-60.0
 31
0.0
  0
LINE
  5
1FD
  8
OUTLINE
  6
CONTINUOUS
 62
     3
 10
-24.25
 20
-60.0
 30
0.0
 11
24.25
 21
-60.0
 31
0.0
  0
LINE
  5
1FE
  8
OUTLINE
  6
CONTINUOUS
 62
     3
 10
-34.75
 20
-59.073639
 30
0.0
 11
-34.75
 21
-60.0
 31
0.0
  0
LINE
  5
1FF
  8
OUTLINE
  6
CONTINUOUS
 62
     3
 10
-24.25
 20
-59.745102000000003
 30
0.0
 11
-24.25
 21
-60.0
 31
0.0
  0
ARC
  5
200
  8
OUTLINE
  6
CONTINUOUS
 62
     3
 10
60.0
 20
-55.0
 30
0.0
 40
5.0
 50
270.00001800000001
 51
0.00001
  0
ARC
  5
201
  8
OUTLINE
  6
CONTINUOUS
 62
     3
 10
60.0
 20
55.0
 30
0.0
 40
5.0
 50
0.0
 51
89.99998199999996
  0
LINE
  5
202
  8
OUTLINE
  6
CONTINUOUS
 62
     3
 10
24.249893
 20
-59.073639
 30
0.0
 11
24.499893
 21
-59.073639
 31
0.0
  0
LINE
  5
203
  8
OUTLINE
  6
CONTINUOUS
 62
     3
 10
24.499893
 20
-59.073639
 30
0.0
 11
24.499893
 21
-60.0
 31
0.0
  0
LINE
  5
204
  8
OUTLINE
  6
CONTINUOUS
 62
     3
 10
24.499893
 20
-60.0
 30
0.0
 11
34.499893
 21
-60.0
 31
0.0
  0
LINE
  5
205
  8
OUTLINE
  6
CONTINUOUS
 62
     3
 10
34.499893
 20
-60.0
 30
0.0
 11
34.499893
 21
-59.073639
 31
0.0
  0
LINE
  5
206
  8
OUTLINE
  6
CONTINUOUS
 62
     3
 10
34.499893
 20
-59.073639
 30
0.0
 11
34.75
 21
-59.073639
 31
0.0
  0
LINE
  5
207
  8
OUTLINE
  6
CONTINUOUS
 62
     3
 10
-34.75
 20
-59.073639
 30
0.0
 11
-34.499893
 21
-59.073639
 31
0.0
  0
LINE
  5
208
  8
OUTLINE
  6
CONTINUOUS
 62
     3
 10
-34.499893
 20
-59.073639
 30
0.0
 11
-34.499893
 21
-60.0
 31
0.0
  0
LINE
  5
209
  8
OUTLINE
  6
CONTINUOUS
 62
     3
 10
-34.499893
 20
-60.0
 30
0.0
 11
-24.500107
 21
-60.0
 31
0.0
  0
LINE
  5
20A
  8
OUTLINE
  6
CONTINUOUS
 62
     3
 10
-24.500107
 20
-60.0
 30
0.0
 11
-24.500107
 21
-59.073639
 31
0.0
  0
LINE
  5
20B
  8
OUTLINE
  6
CONTINUOUS
 62
     3
 10
-24.500107
 20
-59.073639
 30
0.0
 11
-24.250107
 21
-59.073639
 31
0.0
  0
LINE
  5
20C
  8
OUTLINE
  6
CONTINUOUS
 62
     3
 10
-24.250107
 20
-59.073639
 30
0.0
 11
-24.25
 21
-59.745102000000003
 31
0.0
  0
ENDSEC
  0
EOF
