  0
SECTION
  2
HEADER
  9
$ACADVER
  1
AC1009
  9
$INSBASE
 10
0.0
 20
0.0
 30
0.0
  9
$EXTMIN
 10
-78.826879941425432
 20
-132.78349116768729
 30
-0.0015258207003583
  9
$EXTMAX
 10
107.02516127729901
 20
106.0455427226188
 30
0.0000000349246037
  9
$LIMMIN
 10
-4200.0
 20
-2970.0
  9
$LIMMAX
 10
4200.0
 20
2970.0
  9
$ORTHOMODE
 70
     0
  9
$REGENMODE
 70
     1
  9
$FILLMODE
 70
     1
  9
$QTEXTMODE
 70
     0
  9
$MIRRTEXT
 70
     0
  9
$DRAGMODE
 70
     2
  9
$LTSCALE
 40
20.0
  9
$OSMODE
 70
  3071
  9
$ATTMODE
 70
     1
  9
$TEXTSIZE
 40
64.0
  9
$TRACEWID
 40
0.05
  9
$TEXTSTYLE
  7
STANDARD
  9
$CLAYER
  8
SYMBOLLINE
  9
$CELTYPE
  6
CONTINUOUS
  9
$CECOLOR
 62
     7
  9
$DIMSCALE
 40
1.0
  9
$DIMASZ
 40
5.0
  9
$DIMEXO
 40
5.0
  9
$DIMDLI
 40
200.0
  9
$DIMRND
 40
0.0
  9
$DIMDLE
 40
0.0
  9
$DIMEXE
 40
15.0
  9
$DIMTP
 40
0.0
  9
$DIMTM
 40
0.0
  9
$DIMTXT
 40
25.0
  9
$DIMCEN
 40
0.0
  9
$DIMTSZ
 40
0.0
  9
$DIMTOL
 70
     0
  9
$DIMLIM
 70
     0
  9
$DIMTIH
 70
     0
  9
$DIMTOH
 70
     0
  9
$DIMSE1
 70
     0
  9
$DIMSE2
 70
     0
  9
$DIMTAD
 70
     1
  9
$DIMZIN
 70
     8
  9
$DIMBLK
  1
DOTBLANK
  9
$DIMASO
 70
     1
  9
$DIMSHO
 70
     0
  9
$DIMPOST
  1

  9
$DIMAPOST
  1

  9
$DIMALT
 70
     0
  9
$DIMALTD
 70
     2
  9
$DIMALTF
 40
25.399999999999999
  9
$DIMLFAC
 40
1.0
  9
$DIMTOFL
 70
     1
  9
$DIMTVP
 40
0.0
  9
$DIMTIX
 70
     1
  9
$DIMSOXD
 70
     0
  9
$DIMSAH
 70
     0
  9
$DIMBLK1
  1

  9
$DIMBLK2
  1

  9
$DIMSTYLE
  2
STANDARD
  9
$DIMCLRD
 70
     0
  9
$DIMCLRE
 70
     0
  9
$DIMCLRT
 70
     0
  9
$DIMTFAC
 40
1.0
  9
$DIMGAP
 40
0.09
  9
$LUNITS
 70
     2
  9
$LUPREC
 70
     4
  9
$SKETCHINC
 40
0.1
  9
$FILLETRAD
 40
0.0
  9
$AUNITS
 70
     1
  9
$AUPREC
 70
     3
  9
$MENU
  1
ACAD
  9
$ELEVATION
 40
0.0
  9
$PELEVATION
 40
0.0
  9
$THICKNESS
 40
0.0
  9
$LIMCHECK
 70
     0
  9
$BLIPMODE
 70
     0
  9
$CHAMFERA
 40
0.0
  9
$CHAMFERB
 40
0.0
  9
$SKPOLY
 70
     0
  9
$TDCREATE
 40
2449761.4936229978
  9
$TDUPDATE
 40
2456036.4996184842
  9
$TDINDWG
 40
4.4830072568999997
  9
$TDUSRTIMER
 40
4.4830046412
  9
$USRTIMER
 70
     1
  9
$ANGBASE
 50
0.0
  9
$ANGDIR
 70
     0
  9
$PDMODE
 70
    35
  9
$PDSIZE
 40
100.0
  9
$PLINEWID
 40
0.0
  9
$COORDS
 70
     1
  9
$SPLFRAME
 70
     0
  9
$SPLINETYPE
 70
     6
  9
$SPLINESEGS
 70
     8
  9
$ATTDIA
 70
     0
  9
$ATTREQ
 70
     1
  9
$HANDLING
 70
     1
  9
$HANDSEED
  5
38A
  9
$SURFTAB1
 70
     6
  9
$SURFTAB2
 70
     6
  9
$SURFTYPE
 70
     6
  9
$SURFU
 70
     6
  9
$SURFV
 70
     6
  9
$UCSNAME
  2

  9
$UCSORG
 10
0.0
 20
0.0
 30
0.0
  9
$UCSXDIR
 10
1.0
 20
0.0
 30
0.0
  9
$UCSYDIR
 10
0.0
 20
1.0
 30
0.0
  9
$PUCSNAME
  2

  9
$PUCSORG
 10
0.0
 20
0.0
 30
0.0
  9
$PUCSXDIR
 10
1.0
 20
0.0
 30
0.0
  9
$PUCSYDIR
 10
0.0
 20
1.0
 30
0.0
  9
$USERI1
 70
     0
  9
$USERI2
 70
     0
  9
$USERI3
 70
     0
  9
$USERI4
 70
     0
  9
$USERI5
 70
     0
  9
$USERR1
 40
20.0
  9
$USERR2
 40
0.0
  9
$USERR3
 40
0.0
  9
$USERR4
 40
0.0
  9
$USERR5
 40
0.0
  9
$WORLDVIEW
 70
     1
  9
$SHADEDGE
 70
     3
  9
$SHADEDIF
 70
    70
  9
$TILEMODE
 70
     1
  9
$MAXACTVP
 70
    48
  9
$PLIMCHECK
 70
     0
  9
$PEXTMIN
 10
1.0000000000000000E+020
 20
1.0000000000000000E+020
 30
1.0000000000000000E+020
  9
$PEXTMAX
 10
-1.0000000000000000E+020
 20
-1.0000000000000000E+020
 30
-1.0000000000000000E+020
  9
$PLIMMIN
 10
0.0
 20
0.0
  9
$PLIMMAX
 10
12.0
 20
9.0
  9
$UNITMODE
 70
     0
  9
$VISRETAIN
 70
     1
  9
$PLINEGEN
 70
     0
  9
$PSLTSCALE
 70
     1
  0
ENDSEC
  0
SECTION
  2
TABLES
  0
TABLE
  2
VPORT
 70
     1
  0
VPORT
  2
*ACTIVE
 70
     0
 10
0.0
 20
0.0
 11
1.0
 21
1.0
 12
-0.0000000000005684
 22
0.0
 13
0.0
 23
0.0
 14
50.0
 24
50.0
 15
100.0
 25
100.0
 16
0.0
 26
0.0
 36
1.0
 17
0.0
 27
0.0
 37
0.0
 40
5985.1711026615958
 41
1.552030456852791
 42
50.0
 43
0.0
 44
0.0
 50
0.0
 51
0.0
 71
     0
 72
  1000
 73
     1
 74
     0
 75
     0
 76
     0
 77
     0
 78
     0
  0
ENDTAB
  0
TABLE
  2
LTYPE
 70
     2
  0
LTYPE
  2
CONTINUOUS
 70
     0
  3
実線
 72
    65
 73
     0
 40
0.0
  0
LTYPE
  2
DASHDOT
 70
     0
  3
____ _ ____ _ ____ _ ____ _ ____ _ ____ _ ____
 72
    65
 73
     4
 40
5.5
 49
4.0
 49
-0.6
 49
0.3
 49
-0.6
  0
ENDTAB
  0
TABLE
  2
LAYER
 70
    12
  0
LAYER
  2
0
 70
     0
 62
     7
  6
CONTINUOUS
  0
LAYER
  2
SYMBOLLINE
 70
     0
 62
    15
  6
CONTINUOUS
  0
LAYER
  2
DETAIL
 70
     0
 62
     5
  6
CONTINUOUS
  0
LAYER
  2
OUTLINE
 70
     0
 62
     3
  6
CONTINUOUS
  0
LAYER
  2
BASIS
 70
     0
 62
     6
  6
DASHDOT
  0
LAYER
  2
SIZE
 70
     0
 62
    30
  6
CONTINUOUS
  0
LAYER
  2
NOTE
 70
     0
 62
     4
  6
CONTINUOUS
  0
LAYER
  2
ARRANGE
 70
     0
 62
     1
  6
CONTINUOUS
  0
LAYER
  2
FIX
 70
     0
 62
    11
  6
CONTINUOUS
  0
LAYER
  2
SERVICESPACE
 70
     0
 62
     2
  6
DASHDOT
  0
LAYER
  2
ETC
 70
     0
 62
    61
  6
CONTINUOUS
  0
LAYER
  2
DEFPOINTS
 70
     0
 62
     7
  6
CONTINUOUS
  0
ENDTAB
  0
TABLE
  2
STYLE
 70
     3
  0
STYLE
  2
STANDARD
 70
     0
 40
0.0
 41
0.9
 50
0.0
 71
     0
 42
64.0
  3
SIMPLEX
  4
BIGFONT
  0
STYLE
  2
ANNOTATIVE
 70
     0
 40
0.0
 41
1.0
 50
0.0
 71
     0
 42
0.2
  3
txt
  4

  0
STYLE
  2
STANDARD1
 70
     0
 40
0.0
 41
1.0
 50
0.0
 71
     0
 42
3.5
  3
MONOTXT
  4
BIGFONT
  0
ENDTAB
  0
TABLE
  2
VIEW
 70
     1
  0
VIEW
  2
ALL
 70
     0
 40
6056.2300320000013
 10
0.0
 20
58.11501599999999
 41
8400.0
 11
0.0
 21
0.0
 31
1.0
 12
0.0
 22
0.0
 32
0.0
 42
50.0
 43
0.0
 44
0.0
 50
0.0
 71
     0
  0
ENDTAB
  0
TABLE
  2
UCS
 70
     0
  0
ENDTAB
  0
TABLE
  2
APPID
 70
     4
  0
APPID
  2
ACAD
 70
     0
  0
APPID
  2
ACADANNOTATIVE
 70
     0
  0
APPID
  2
ACAD_MLEADERVER
 70
     0
  0
APPID
  2
ACAD_EXEMPT_FROM_CAD_STANDARDS
 70
     0
  0
ENDTAB
  0
TABLE
  2
DIMSTYLE
 70
     2
  0
DIMSTYLE
  2
STANDARD
 70
     0
  3

  4

  5

  6

  7

 40
1.0
 41
0.18
 42
0.0625
 43
0.38
 44
0.18
 45
0.0
 46
0.0
 47
0.0
 48
0.0
140
0.18
141
0.09
142
0.0
143
25.399999999999999
144
1.0
145
0.0
146
1.0
147
0.09
 71
     0
 72
     0
 73
     1
 74
     1
 75
     0
 76
     0
 77
     0
 78
     0
170
     0
171
     2
172
     0
173
     0
174
     0
175
     0
176
     0
177
     0
178
     0
  0
DIMSTYLE
  2
ANNOTATIVE
 70
     0
  3

  4

  5

  6

  7

 40
1.0
 41
0.18
 42
0.0625
 43
0.38
 44
0.18
 45
0.0
 46
0.0
 47
0.0
 48
0.0
140
0.18
141
0.09
142
0.0
143
25.399999999999999
144
1.0
145
0.0
146
1.0
147
0.09
 71
     0
 72
     0
 73
     1
 74
     1
 75
     0
 76
     0
 77
     0
 78
     0
170
     0
171
     2
172
     0
173
     0
174
     0
175
     0
176
     0
177
     0
178
     0
  0
ENDTAB
  0
ENDSEC
  0
SECTION
  2
BLOCKS
  0
BLOCK
  8
0
  2
$MODEL_SPACE
 70
     0
 10
0.0
 20
0.0
 30
0.0
  3
$MODEL_SPACE
  1

  0
ENDBLK
  5
30B
  8
0
  0
BLOCK
 67
     1
  8
0
  2
$PAPER_SPACE
 70
     0
 10
0.0
 20
0.0
 30
0.0
  3
$PAPER_SPACE
  1

  0
ENDBLK
  5
307
 67
     1
  8
0
  0
BLOCK
  8
0
  2
_DOTBLANK
 70
     0
 10
0.0
 20
0.0
 30
0.0
  3
_DOTBLANK
  1

  0
CIRCLE
  5
36
  8
0
  6
CONTINUOUS
 62
     7
 10
0.0
 20
0.0
 30
0.0
 40
0.5
  0
LINE
  5
37
  8
0
  6
CONTINUOUS
 62
     7
 10
-0.5
 20
0.0
 30
0.0
 11
-1.0
 21
0.0
 31
0.0
  0
ENDBLK
  5
38
  8
0
  0
ENDSEC
  0
SECTION
  2
ENTITIES
  0
TEXT
  5
39
  8
ETC
  6
CONTINUOUS
 62
    61
 10
-21.637393050390529
 20
85.799776872867369
 30
0.0
 40
20.0
  1
PAR-26MA1_4
 50
359.99999700000001
 41
0.6030590000000001
  7
STANDARD1
  0
LINE
  5
3A
  8
DETAIL
  6
CONTINUOUS
 62
     5
 10
-19.5
 20
-13.000028
 30
0.0
 11
-19.5
 21
39.999972
 31
0.0
  0
LINE
  5
3B
  8
DETAIL
  6
CONTINUOUS
 62
     5
 10
-18.1922
 20
-11.203488999999999
 30
0.0
 11
-18.1922
 21
39.999972
 31
0.0
  0
LINE
  5
3C
  8
DETAIL
  6
CONTINUOUS
 62
     5
 10
-0.700012
 20
-39.699705000000002
 30
0.0
 11
-0.700012
 21
59.999972
 31
0.0
  0
LINE
  5
3D
  8
DETAIL
  6
CONTINUOUS
 62
     5
 10
0.0
 20
-59.29965
 30
0.0
 11
0.0
 21
59.275530000000003
 31
0.0
  0
LINE
  5
3E
  8
DETAIL
  6
CONTINUOUS
 62
     5
 10
-21.323240999999999
 20
-14.500042000000001
 30
0.0
 11
-18.491115000000001
 21
-14.564994
 31
0.0
  0
LINE
  5
3F
  8
DETAIL
  6
CONTINUOUS
 62
     5
 10
-18.1922
 20
-13.000028
 30
0.0
 11
-21.323226999999999
 21
-13.000028
 31
0.0
  0
LINE
  5
40
  8
DETAIL
  6
CONTINUOUS
 62
     5
 10
-21.323226999999999
 20
-14.500028
 30
0.0
 11
-21.323226999999999
 21
-13.000028
 31
0.0
  0
LINE
  5
41
  8
SIZE
  6
CONTINUOUS
 62
    30
 10
-18.1922
 20
-45.000027999999993
 30
0.0
 11
-18.1922
 21
-132.39345399999999
 31
0.0
  0
LINE
  5
42
  8
SIZE
  6
CONTINUOUS
 62
    30
 10
-0.700012
 20
-44.699705000000002
 30
0.0
 11
-0.700012
 21
-132.39345399999999
 31
0.0
  0
LINE
  5
43
  8
SIZE
  6
CONTINUOUS
 62
    30
 10
4.299987999999999
 20
-117.39345400000001
 30
0.0
 11
9.2999880000000008
 21
-117.39345400000001
 31
0.0
  0
LINE
  5
44
  8
SIZE
  6
CONTINUOUS
 62
    30
 10
-23.1922
 20
-117.39345400000001
 30
0.0
 11
-78.263629000000023
 21
-117.39345400000001
 31
0.0
  0
LINE
  5
45
  8
SIZE
  6
CONTINUOUS
 62
    30
 10
-0.700012
 20
-117.39345400000001
 30
0.0
 11
-18.1922
 21
-117.39345400000001
 31
0.0
  0
CIRCLE
  5
46
  8
SIZE
  6
CONTINUOUS
 62
    30
 10
-0.700012
 20
-117.39345400000001
 30
0.0
 40
2.5
  0
LINE
  5
47
  8
SIZE
  6
CONTINUOUS
 62
    30
 10
1.799987999999999
 20
-117.39345400000001
 30
0.0
 11
4.299987999999999
 21
-117.39345400000001
 31
0.0
  0
CIRCLE
  5
48
  8
SIZE
  6
CONTINUOUS
 62
    30
 10
-18.1922
 20
-117.39345400000001
 30
0.0
 40
2.5
  0
LINE
  5
49
  8
SIZE
  6
CONTINUOUS
 62
    30
 10
-20.6922
 20
-117.39345400000001
 30
0.0
 11
-23.1922
 21
-117.39345400000001
 31
0.0
  0
TEXT
  5
4A
  8
SIZE
  6
CONTINUOUS
 62
    30
 10
-79.477913999999984
 20
-112.39345400000001
 30
0.0
 40
25.0
  1
１９
 41
0.9
 72
     1
 11
-53.227913999999991
 21
-112.39345400000001
 31
0.0
  0
POINT
  5
4B
  8
DEFPOINTS
  6
CONTINUOUS
 62
     7
 10
-18.1922
 20
-40.000027999999993
 30
0.0
  0
POINT
  5
4C
  8
DEFPOINTS
  6
CONTINUOUS
 62
     7
 10
-0.700012
 20
-39.699705000000002
 30
0.0
  0
POINT
  5
4D
  8
DEFPOINTS
  6
CONTINUOUS
 62
     7
 10
-0.700012
 20
-117.39345400000001
 30
0.0
  0
LINE
  5
4E
  8
DETAIL
  6
CONTINUOUS
 62
     5
 10
-18.1922
 20
-40.000027999999993
 30
0.0
 11
-18.1922
 21
-11.203488999999999
 31
0.0
  0
LINE
  5
4F
  8
DETAIL
  6
CONTINUOUS
 62
     5
 10
-19.5
 20
-40.000027999999993
 30
0.0
 11
-19.5
 21
-15.732389
 31
0.0
  0
LINE
  5
51
  8
DETAIL
  6
CONTINUOUS
 62
     5
 10
-8.0000160000000005
 20
-59.733181999999992
 30
0.0
 11
-8.0000169999999962
 21
-13.161084000000001
 31
0.0
  0
LINE
  5
52
  8
DETAIL
  6
CONTINUOUS
 62
     5
 10
-0.700012
 20
-44.699705000000002
 30
0.0
 11
-0.700012
 21
-42.150830999999997
 31
0.0
  0
POLYLINE
  5
53
  8
DETAIL
  6
CONTINUOUS
 62
     5
 66
     1
 10
0.0
 20
0.0
 30
0.0
  0
VERTEX
  5
348
  8
DETAIL
  6
CONTINUOUS
 62
     5
 10
-18.1922
 20
-40.000027999999993
 30
0.0
  0
VERTEX
  5
349
  8
DETAIL
  6
CONTINUOUS
 62
     5
 10
-18.137761999999999
 20
-43.513722999999999
 30
0.0
  0
VERTEX
  5
34A
  8
DETAIL
  6
CONTINUOUS
 62
     5
 10
-17.976144999999999
 20
-46.918118999999997
 30
0.0
  0
VERTEX
  5
34B
  8
DETAIL
  6
CONTINUOUS
 62
     5
 10
-17.712374000000001
 20
-50.107312999999991
 30
0.0
  0
VERTEX
  5
34C
  8
DETAIL
  6
CONTINUOUS
 62
     5
 10
-17.354654
 20
-52.982098999999991
 30
0.0
  0
VERTEX
  5
34D
  8
DETAIL
  6
CONTINUOUS
 62
     5
 10
-16.914111999999999
 20
-55.453054000000002
 30
0.0
  0
VERTEX
  5
34E
  8
DETAIL
  6
CONTINUOUS
 62
     5
 10
-16.404454999999999
 20
-57.44330699999999
 30
0.0
  0
SEQEND
  5
34F
  8
DETAIL
  6
CONTINUOUS
 62
     5
  0
POLYLINE
  5
5C
  8
DETAIL
  6
CONTINUOUS
 62
     5
 66
     1
 10
0.0
 20
0.0
 30
0.0
  0
VERTEX
  5
350
  8
DETAIL
  6
CONTINUOUS
 62
     5
 10
-19.5
 20
-40.000027999999993
 30
0.0
  0
VERTEX
  5
351
  8
DETAIL
  6
CONTINUOUS
 62
     5
 10
-19.446158
 20
-43.494641999999992
 30
0.0
  0
VERTEX
  5
352
  8
DETAIL
  6
CONTINUOUS
 62
     5
 10
-19.286284999999999
 20
-46.881741999999981
 30
0.0
  0
VERTEX
  5
353
  8
DETAIL
  6
CONTINUOUS
 62
     5
 10
-19.025303000000001
 20
-50.057103999999988
 30
0.0
  0
VERTEX
  5
354
  8
DETAIL
  6
CONTINUOUS
 62
     5
 10
-18.671240000000001
 20
-52.923031999999992
 30
0.0
  0
VERTEX
  5
355
  8
DETAIL
  6
CONTINUOUS
 62
     5
 10
-18.234988999999999
 20
-55.391354999999997
 30
0.0
  0
VERTEX
  5
356
  8
DETAIL
  6
CONTINUOUS
 62
     5
 10
-17.729975
 20
-57.386125
 30
0.0
  0
SEQEND
  5
357
  8
DETAIL
  6
CONTINUOUS
 62
     5
  0
LINE
  5
65
  8
DETAIL
  6
CONTINUOUS
 62
     5
 10
0.000011
 20
-44.675245999999987
 30
0.0
 11
-5.034883999999999
 21
-44.851067999999991
 31
0.0
  0
LINE
  5
66
  8
DETAIL
  6
CONTINUOUS
 62
     5
 10
0.000001
 20
-47.17527599999999
 30
0.0
 11
-5.0349099999999991
 21
-46.999453000000003
 31
0.0
  0
LINE
  5
67
  8
DETAIL
  6
CONTINUOUS
 62
     5
 10
0.000009
 20
-49.675240000000002
 30
0.0
 11
-5.0348860000000002
 21
-49.851063000000003
 31
0.0
  0
LINE
  5
68
  8
DETAIL
  6
CONTINUOUS
 62
     5
 10
-0.000012
 20
-52.175269999999998
 30
0.0
 11
-5.0349069999999987
 21
-51.999448000000001
 31
0.0
  0
LINE
  5
69
  8
DETAIL
  6
CONTINUOUS
 62
     5
 10
-0.724433
 20
-60.0
 30
0.0
 11
-7.8465419999999977
 21
-59.750512000000001
 31
0.0
  0
LINE
  5
6A
  8
DETAIL
  6
CONTINUOUS
 62
     5
 10
-13.225336
 20
-59.56268399999999
 30
0.0
 11
-8.0000049999999998
 21
-55.903866999999991
 31
0.0
  0
ARC
  5
6B
  8
DETAIL
  6
CONTINUOUS
 62
     5
 10
-14.862700999999999
 20
-56.503629000000011
 30
0.0
 40
3.0
 50
197.10736499999999
 51
268.0000839999999
  0
ARC
  5
6C
  8
DETAIL
  6
CONTINUOUS
 62
     5
 10
-13.540604
 20
-56.549802
 30
0.0
 40
3.0
 50
197.327516
 51
268.0000839999999
  0
LINE
  5
6D
  8
DETAIL
  6
CONTINUOUS
 62
     5
 10
-13.225341999999999
 20
-59.562649999999998
 30
0.0
 11
-14.967399
 21
-59.501815999999998
 31
0.0
  0
ARC
  5
6E
  8
DETAIL
  6
CONTINUOUS
 62
     5
 10
-7.8116459999999979
 20
-58.751081000000013
 30
0.0
 40
1.0
 50
194.99978699999991
 51
267.99992000000009
  0
LINE
  5
6F
  8
DETAIL
  6
CONTINUOUS
 62
     5
 10
-8.7776049999999977
 20
-59.009895999999991
 30
0.0
 11
-9.3555399999999995
 21
-56.853011000000002
 31
0.0
  0
LINE
  5
70
  8
DETAIL
  6
CONTINUOUS
 62
     5
 10
-6.0
 20
-46.000028
 30
0.0
 11
-6.0
 21
-45.850460999999981
 31
0.0
  0
ARC
  5
71
  8
DETAIL
  6
CONTINUOUS
 62
     5
 10
-5.0
 20
-45.850460999999981
 30
0.0
 40
1.0
 50
91.999971000000016
 51
179.99996400000001
  0
ARC
  5
72
  8
DETAIL
  6
CONTINUOUS
 62
     5
 10
-5.0
 20
-46.000028
 30
0.0
 40
1.0
 50
180.00003599999999
 51
270.00012700000002
  0
LINE
  5
73
  8
DETAIL
  6
CONTINUOUS
 62
     5
 10
-6.0
 20
-51.000028
 30
0.0
 11
-6.0
 21
-50.850476999999998
 31
0.0
  0
ARC
  5
74
  8
DETAIL
  6
CONTINUOUS
 62
     5
 10
-5.0
 20
-50.850476999999998
 30
0.0
 40
1.0
 50
91.999971000000016
 51
179.99996400000001
  0
ARC
  5
75
  8
DETAIL
  6
CONTINUOUS
 62
     5
 10
-5.0
 20
-51.000028
 30
0.0
 40
1.0
 50
180.00003599999999
 51
270.00012700000002
  0
LINE
  5
76
  8
DETAIL
  6
CONTINUOUS
 62
     5
 10
-0.700012
 20
-57.024533999999989
 30
0.0
 11
-0.700012
 21
-52.150799999999997
 31
0.0
  0
ARC
  5
77
  8
DETAIL
  6
CONTINUOUS
 62
     5
 10
-0.7012838398137152
 20
-59.299110136218751
 30
0.0
 40
0.701272047616778
 50
268.10830877620049
 51
359.95589169803941
  0
LINE
  5
78
  8
DETAIL
  6
CONTINUOUS
 62
     5
 10
-0.700012
 20
-57.024533999999989
 30
0.0
 11
0.0
 21
-57.024533999999989
 31
0.0
  0
LINE
  5
79
  8
DETAIL
  6
CONTINUOUS
 62
     5
 10
-0.700012
 20
-49.699705000000002
 30
0.0
 11
-0.700012
 21
-47.15079999999999
 31
0.0
  0
LINE
  5
7A
  8
DETAIL
  6
CONTINUOUS
 62
     5
 10
0.000013
 20
-39.675252
 30
0.0
 11
-5.0348969999999991
 21
-39.851075000000002
 31
0.0
  0
LINE
  5
7B
  8
DETAIL
  6
CONTINUOUS
 62
     5
 10
-0.000002
 20
-42.175282000000003
 30
0.0
 11
-5.0349120000000003
 21
-41.999459000000002
 31
0.0
  0
LINE
  5
7C
  8
DETAIL
  6
CONTINUOUS
 62
     5
 10
-6.0
 20
-41.000028
 30
0.0
 11
-6.0
 21
-40.850476999999991
 31
0.0
  0
ARC
  5
7D
  8
DETAIL
  6
CONTINUOUS
 62
     5
 10
-5.0
 20
-40.850476999999991
 30
0.0
 40
1.0
 50
91.999971000000016
 51
179.99996400000001
  0
ARC
  5
7E
  8
DETAIL
  6
CONTINUOUS
 62
     5
 10
-5.0
 20
-41.000028
 30
0.0
 40
1.0
 50
180.00003599999999
 51
270.00012700000002
  0
ARC
  5
7F
  8
DETAIL
  6
CONTINUOUS
 62
     5
 10
-11.126144
 20
-6.000013
 30
0.0
 40
7.5
 50
160.41420500000001
 51
199.58577700000001
  0
LINE
  5
80
  8
DETAIL
  6
CONTINUOUS
 62
     5
 10
-9.4215289999999996
 20
-11.66314
 30
0.0
 11
-18.192222999999998
 21
-11.203487000000001
 31
0.0
  0
LINE
  5
81
  8
DETAIL
  6
CONTINUOUS
 62
     5
 10
-9.4215289999999996
 20
-11.66314
 30
0.0
 11
-18.192208000000001
 21
-11.203488
 31
0.0
  0
LINE
  5
82
  8
DETAIL
  6
CONTINUOUS
 62
     5
 10
-18.491104
 20
-13.000028
 30
0.0
 11
-18.491104
 21
-14.81352
 31
0.0
  0
LINE
  5
83
  8
DETAIL
  6
CONTINUOUS
 62
     5
 10
-20.350982999999999
 20
-14.522321
 30
0.0
 11
-20.350982999999999
 21
-13.000028
 31
0.0
  0
LINE
  5
84
  8
DETAIL
  6
CONTINUOUS
 62
     5
 10
-18.491102999999999
 20
-14.813508000000001
 30
0.0
 11
-19.499977000000001
 21
-15.73236
 31
0.0
  0
ARC
  5
85
  8
DETAIL
  6
CONTINUOUS
 62
     5
 10
-9.5000149999999994
 20
-13.161085
 30
0.0
 40
1.5
 50
0.0
 51
86.999998999999988
  0
ARC
  5
86
  8
DETAIL
  6
CONTINUOUS
 62
     5
 10
-9.5000149999999994
 20
-13.161085
 30
0.0
 40
1.5
 50
0.0
 51
86.999998999999988
  0
POLYLINE
  5
87
  8
DETAIL
  6
CONTINUOUS
 62
     5
 66
     1
 10
0.0
 20
0.0
 30
0.0
  0
VERTEX
  5
358
  8
DETAIL
  6
CONTINUOUS
 62
     5
 10
-16.404453
 20
57.443240000000003
 30
0.0
  0
VERTEX
  5
359
  8
DETAIL
  6
CONTINUOUS
 62
     5
 10
-16.914111999999999
 20
55.452975000000002
 30
0.0
  0
VERTEX
  5
35A
  8
DETAIL
  6
CONTINUOUS
 62
     5
 10
-17.354652000000002
 20
52.982028
 30
0.0
  0
VERTEX
  5
35B
  8
DETAIL
  6
CONTINUOUS
 62
     5
 10
-17.712371999999991
 20
50.107241000000002
 30
0.0
  0
VERTEX
  5
35C
  8
DETAIL
  6
CONTINUOUS
 62
     5
 10
-17.976144999999999
 20
46.918047999999978
 30
0.0
  0
VERTEX
  5
35D
  8
DETAIL
  6
CONTINUOUS
 62
     5
 10
-18.137761999999999
 20
43.513658999999997
 30
0.0
  0
VERTEX
  5
35E
  8
DETAIL
  6
CONTINUOUS
 62
     5
 10
-18.1922
 20
39.999972
 30
0.0
  0
SEQEND
  5
35F
  8
DETAIL
  6
CONTINUOUS
 62
     5
  0
POLYLINE
  5
90
  8
DETAIL
  6
CONTINUOUS
 62
     5
 66
     1
 10
0.0
 20
0.0
 30
0.0
  0
VERTEX
  5
360
  8
DETAIL
  6
CONTINUOUS
 62
     5
 10
-17.729969000000001
 20
57.386065000000002
 30
0.0
  0
VERTEX
  5
361
  8
DETAIL
  6
CONTINUOUS
 62
     5
 10
-18.176109
 20
55.664355
 30
0.0
  0
VERTEX
  5
362
  8
DETAIL
  6
CONTINUOUS
 62
     5
 10
-18.570767
 20
53.572038999999997
 30
0.0
  0
VERTEX
  5
363
  8
DETAIL
  6
CONTINUOUS
 62
     5
 10
-18.904599999999999
 20
51.158633000000002
 30
0.0
  0
VERTEX
  5
364
  8
DETAIL
  6
CONTINUOUS
 62
     5
 10
-19.169716000000001
 20
48.481219000000003
 30
0.0
  0
SEQEND
  5
365
  8
DETAIL
  6
CONTINUOUS
 62
     5
  0
POLYLINE
  5
97
  8
DETAIL
  6
CONTINUOUS
 62
     5
 66
     1
 10
0.0
 20
0.0
 30
0.0
  0
VERTEX
  5
366
  8
DETAIL
  6
CONTINUOUS
 62
     5
 10
-19.169716000000001
 20
48.481219000000003
 30
0.0
  0
VERTEX
  5
367
  8
DETAIL
  6
CONTINUOUS
 62
     5
 10
-19.351894000000001
 20
45.756396000000002
 30
0.0
  0
VERTEX
  5
368
  8
DETAIL
  6
CONTINUOUS
 62
     5
 10
-19.462776000000002
 20
42.909120999999992
 30
0.0
  0
VERTEX
  5
369
  8
DETAIL
  6
CONTINUOUS
 62
     5
 10
-19.5
 20
39.999972
 30
0.0
  0
SEQEND
  5
36A
  8
DETAIL
  6
CONTINUOUS
 62
     5
  0
LINE
  5
9D
  8
DETAIL
  6
CONTINUOUS
 62
     5
 10
-19.147777000000001
 20
48.39814699999998
 30
0.0
 11
-18.104585
 21
44.446835
 31
0.0
  0
ARC
  5
9E
  8
DETAIL
  6
CONTINUOUS
 62
     5
 10
-18.664337
 20
48.525804999999998
 30
0.0
 40
0.5
 50
175.257846
 51
194.79000099999999
  0
LINE
  5
9F
  8
DETAIL
  6
CONTINUOUS
 62
     5
 10
-0.7000070000000001
 20
60.0
 30
0.0
 11
-14.967402999999999
 21
59.501771999999981
 31
0.0
  0
ARC
  5
A0
  8
DETAIL
  6
CONTINUOUS
 62
     5
 10
-14.862700999999999
 20
56.503572999999989
 30
0.0
 40
3.0
 50
92.000024999999994
 51
162.89268999999999
  0
ARC
  5
A1
  8
DETAIL
  6
CONTINUOUS
 62
     5
 10
-13.540588
 20
56.549745999999999
 30
0.0
 40
3.0
 50
92.000024999999994
 51
162.67281199999999
  0
LINE
  5
A2
  8
DETAIL
  6
CONTINUOUS
 62
     5
 10
-0.000007
 20
59.275543999999996
 30
0.0
 11
-0.700005
 21
59.299987999999992
 31
0.0
  0
LINE
  5
A3
  8
SIZE
  6
CONTINUOUS
 62
    30
 10
4.299992999999998
 20
60.0
 30
0.0
 11
67.986654000000001
 21
60.0
 31
0.0
  0
LINE
  5
A4
  8
SIZE
  6
CONTINUOUS
 62
    30
 10
4.299987999999999
 20
-59.999650000000003
 30
0.0
 11
67.986654000000001
 21
-59.999650000000003
 31
0.0
  0
LINE
  5
A5
  8
SIZE
  6
CONTINUOUS
 62
    30
 10
52.986654000000001
 20
55.0
 30
0.0
 11
52.986654000000001
 21
-54.999650000000003
 31
0.0
  0
CIRCLE
  5
A6
  8
SIZE
  6
CONTINUOUS
 62
    30
 10
52.986654000000001
 20
60.0
 30
0.0
 40
2.5
  0
LINE
  5
A7
  8
SIZE
  6
CONTINUOUS
 62
    30
 10
52.986654000000001
 20
57.5
 30
0.0
 11
52.986654000000001
 21
55.0
 31
0.0
  0
CIRCLE
  5
A8
  8
SIZE
  6
CONTINUOUS
 62
    30
 10
52.986654000000001
 20
-59.999650000000003
 30
0.0
 40
2.5
  0
LINE
  5
A9
  8
SIZE
  6
CONTINUOUS
 62
    30
 10
52.986654000000001
 20
-57.499650000000003
 30
0.0
 11
52.986654000000001
 21
-54.999650000000003
 31
0.0
  0
TEXT
  5
AA
  8
SIZE
  6
CONTINUOUS
 62
    30
 10
47.986653999999987
 20
-26.78553928571429
 30
0.0
 40
25.0
  1
120
 50
90.0
 41
0.9
 72
     1
 11
47.986653999999987
 21
0.000175
 31
0.0
  0
POINT
  5
AB
  8
DEFPOINTS
  6
CONTINUOUS
 62
     7
 10
-0.7000070000000001
 20
60.0
 30
0.0
  0
POINT
  5
AC
  8
DEFPOINTS
  6
CONTINUOUS
 62
     7
 10
-0.700012
 20
-59.999650000000003
 30
0.0
  0
POINT
  5
AD
  8
DEFPOINTS
  6
CONTINUOUS
 62
     7
 10
52.986654000000001
 20
-59.999650000000003
 30
0.0
  0
LINE
  5
AE
  8
ARRANGE
  6
CONTINUOUS
 62
     1
 10
-11.224170000000001
 20
11.224170000000001
 30
0.0
 11
11.224170000000001
 21
-11.224170000000001
 31
0.0
  0
LINE
  5
AF
  8
ARRANGE
  6
CONTINUOUS
 62
     1
 10
11.224170000000001
 20
11.224170000000001
 30
0.0
 11
-11.224170000000001
 21
-11.224170000000001
 31
0.0
  0
CIRCLE
  5
B0
  8
ARRANGE
  6
CONTINUOUS
 62
     1
 10
0.0
 20
0.0
 30
0.0
 40
8.9011700000000005
  0
LINE
  5
B1
  8
BASIS
  6
DASHDOT
 62
     6
 10
19.788575000000002
 20
0.0
 30
0.0
 11
-34.788575000000002
 21
0.0
 31
0.0
  0
LINE
  5
B2
  8
OUTLINE
  6
CONTINUOUS
 62
     3
 10
-19.5
 20
-13.000028
 30
0.0
 11
-19.5
 21
39.999972
 31
0.0
  0
LINE
  5
B3
  8
OUTLINE
  6
CONTINUOUS
 62
     3
 10
0.0
 20
-59.29965
 30
0.0
 11
0.0
 21
59.275530000000003
 31
0.0
  0
LINE
  5
B4
  8
OUTLINE
  6
CONTINUOUS
 62
     3
 10
-19.5
 20
-13.000028
 30
0.0
 11
-21.323226999999999
 21
-13.000028
 31
0.0
  0
LINE
  5
B5
  8
OUTLINE
  6
CONTINUOUS
 62
     3
 10
-0.724433
 20
-60.0
 30
0.0
 11
-7.8465419999999977
 21
-59.750512000000001
 31
0.0
  0
LINE
  5
B6
  8
OUTLINE
  6
CONTINUOUS
 62
     3
 10
-8.7776049999999977
 20
-59.009895999999991
 30
0.0
 11
-9.3555399999999995
 21
-56.853011000000002
 31
0.0
  0
ARC
  5
B7
  8
OUTLINE
  6
CONTINUOUS
 62
     3
 10
-7.8116459999999979
 20
-58.751081000000013
 30
0.0
 40
1.0
 50
194.99978699999991
 51
267.99992000000009
  0
LINE
  5
B8
  8
OUTLINE
  6
CONTINUOUS
 62
     3
 10
-13.225336
 20
-59.56268399999999
 30
0.0
 11
-9.3555369999999982
 21
-56.853020999999998
 31
0.0
  0
ARC
  5
B9
  8
OUTLINE
  6
CONTINUOUS
 62
     3
 10
-0.7012838398137152
 20
-59.299110136218751
 30
0.0
 40
0.701272047616778
 50
268.10830877620049
 51
359.95589169803941
  0
LINE
  5
BA
  8
OUTLINE
  6
CONTINUOUS
 62
     3
 10
-21.323240999999999
 20
-14.500042000000001
 30
0.0
 11
-18.491115000000001
 21
-14.564994
 31
0.0
  0
LINE
  5
BB
  8
OUTLINE
  6
CONTINUOUS
 62
     3
 10
-18.491102999999999
 20
-14.813508000000001
 30
0.0
 11
-19.499977000000001
 21
-15.73236
 31
0.0
  0
ARC
  5
BC
  8
OUTLINE
  6
CONTINUOUS
 62
     3
 10
-14.862700999999999
 20
-56.503629000000011
 30
0.0
 40
3.0
 50
197.10736499999999
 51
268.0000839999999
  0
POLYLINE
  5
BD
  8
OUTLINE
  6
CONTINUOUS
 62
     3
 66
     1
 10
0.0
 20
0.0
 30
0.0
  0
VERTEX
  5
36B
  8
OUTLINE
  6
CONTINUOUS
 62
     3
 10
-19.5
 20
-40.000027999999993
 30
0.0
  0
VERTEX
  5
36C
  8
OUTLINE
  6
CONTINUOUS
 62
     3
 10
-19.446158
 20
-43.494641999999992
 30
0.0
  0
VERTEX
  5
36D
  8
OUTLINE
  6
CONTINUOUS
 62
     3
 10
-19.286284999999999
 20
-46.881741999999981
 30
0.0
  0
VERTEX
  5
36E
  8
OUTLINE
  6
CONTINUOUS
 62
     3
 10
-19.025303000000001
 20
-50.057103999999988
 30
0.0
  0
VERTEX
  5
36F
  8
OUTLINE
  6
CONTINUOUS
 62
     3
 10
-18.671240000000001
 20
-52.923031999999992
 30
0.0
  0
VERTEX
  5
370
  8
OUTLINE
  6
CONTINUOUS
 62
     3
 10
-18.234988999999999
 20
-55.391354999999997
 30
0.0
  0
VERTEX
  5
371
  8
OUTLINE
  6
CONTINUOUS
 62
     3
 10
-17.729975
 20
-57.386125
 30
0.0
  0
SEQEND
  5
372
  8
OUTLINE
  6
CONTINUOUS
 62
     3
  0
LINE
  5
C6
  8
OUTLINE
  6
CONTINUOUS
 62
     3
 10
-19.5
 20
-40.000027999999993
 30
0.0
 11
-19.5
 21
-15.732389
 31
0.0
  0
LINE
  5
C7
  8
OUTLINE
  6
CONTINUOUS
 62
     3
 10
-13.225341999999999
 20
-59.562649999999998
 30
0.0
 11
-14.967399
 21
-59.501815999999998
 31
0.0
  0
LINE
  5
C8
  8
OUTLINE
  6
CONTINUOUS
 62
     3
 10
-18.491104
 20
-14.564994
 30
0.0
 11
-18.491104
 21
-14.81352
 31
0.0
  0
LINE
  5
C9
  8
OUTLINE
  6
CONTINUOUS
 62
     3
 10
-21.323226999999999
 20
-14.500028
 30
0.0
 11
-21.323226999999999
 21
-13.000028
 31
0.0
  0
LINE
  5
CA
  8
OUTLINE
  6
CONTINUOUS
 62
     3
 10
-0.000007
 20
59.275543999999996
 30
0.0
 11
-0.700005
 21
59.299987999999992
 31
0.0
  0
ARC
  5
CB
  8
OUTLINE
  6
CONTINUOUS
 62
     3
 10
-14.862700999999999
 20
56.503572999999989
 30
0.0
 40
3.0
 50
92.000024999999994
 51
162.89268999999999
  0
ARC
  5
CC
  8
OUTLINE
  6
CONTINUOUS
 62
     3
 10
-18.664337
 20
48.525804999999998
 30
0.0
 40
0.5
 50
175.257846
 51
194.79000099999999
  0
POLYLINE
  5
CD
  8
OUTLINE
  6
CONTINUOUS
 62
     3
 66
     1
 10
0.0
 20
0.0
 30
0.0
  0
VERTEX
  5
373
  8
OUTLINE
  6
CONTINUOUS
 62
     3
 10
-19.169716000000001
 20
48.481219000000003
 30
0.0
  0
VERTEX
  5
374
  8
OUTLINE
  6
CONTINUOUS
 62
     3
 10
-19.351894000000001
 20
45.756396000000002
 30
0.0
  0
VERTEX
  5
375
  8
OUTLINE
  6
CONTINUOUS
 62
     3
 10
-19.462776000000002
 20
42.909120999999992
 30
0.0
  0
VERTEX
  5
376
  8
OUTLINE
  6
CONTINUOUS
 62
     3
 10
-19.5
 20
39.999972
 30
0.0
  0
SEQEND
  5
377
  8
OUTLINE
  6
CONTINUOUS
 62
     3
  0
POLYLINE
  5
D3
  8
OUTLINE
  6
CONTINUOUS
 62
     3
 66
     1
 10
0.0
 20
0.0
 30
0.0
  0
VERTEX
  5
378
  8
OUTLINE
  6
CONTINUOUS
 62
     3
 10
-17.729969000000001
 20
57.386065000000002
 30
0.0
  0
VERTEX
  5
379
  8
OUTLINE
  6
CONTINUOUS
 62
     3
 10
-18.176109
 20
55.664355
 30
0.0
  0
VERTEX
  5
37A
  8
OUTLINE
  6
CONTINUOUS
 62
     3
 10
-18.570767
 20
53.572038999999997
 30
0.0
  0
VERTEX
  5
37B
  8
OUTLINE
  6
CONTINUOUS
 62
     3
 10
-18.904599999999999
 20
51.158633000000002
 30
0.0
  0
VERTEX
  5
37C
  8
OUTLINE
  6
CONTINUOUS
 62
     3
 10
-19.169716000000001
 20
48.481219000000003
 30
0.0
  0
SEQEND
  5
37D
  8
OUTLINE
  6
CONTINUOUS
 62
     3
  0
LINE
  5
DA
  8
OUTLINE
  6
CONTINUOUS
 62
     3
 10
-0.7000070000000001
 20
60.0
 30
0.0
 11
-14.967402999999999
 21
59.501771999999981
 31
0.0
  0
LINE
  5
DB
  8
OUTLINE
  6
CONTINUOUS
 62
     3
 10
-0.700005
 20
59.299987999999992
 30
0.0
 11
-0.7000070000000001
 21
60.0
 31
0.0
  0
ENDSEC
  0
EOF
