  0
SECTION
  2
HEADER
  9
$ACADVER
  1
AC1009
  9
$INSBASE
 10
0.0
 20
0.0
 30
0.0
  9
$EXTMIN
 10
-70.49558110360158
 20
-70.243818243319765
 30
-0.0015258207003583
  9
$EXTMAX
 10
143.55470233544841
 20
162.6937971830975
 30
0.0000000349246037
  9
$LIMMIN
 10
-4200.0
 20
-2970.0
  9
$LIMMAX
 10
4200.0
 20
2970.0
  9
$ORTHOMODE
 70
     1
  9
$REGENMODE
 70
     1
  9
$FILLMODE
 70
     1
  9
$QTEXTMODE
 70
     0
  9
$MIRRTEXT
 70
     0
  9
$DRAGMODE
 70
     2
  9
$LTSCALE
 40
20.0
  9
$OSMODE
 70
   959
  9
$ATTMODE
 70
     1
  9
$TEXTSIZE
 40
64.0
  9
$TRACEWID
 40
0.05
  9
$TEXTSTYLE
  7
STANDARD
  9
$CLAYER
  8
SYMBOLLINE
  9
$CELTYPE
  6
CONTINUOUS
  9
$CECOLOR
 62
     7
  9
$DIMSCALE
 40
1.0
  9
$DIMASZ
 40
5.0
  9
$DIMEXO
 40
5.0
  9
$DIMDLI
 40
200.0
  9
$DIMRND
 40
0.0
  9
$DIMDLE
 40
0.0
  9
$DIMEXE
 40
15.0
  9
$DIMTP
 40
0.0
  9
$DIMTM
 40
0.0
  9
$DIMTXT
 40
25.0
  9
$DIMCEN
 40
0.0
  9
$DIMTSZ
 40
0.0
  9
$DIMTOL
 70
     0
  9
$DIMLIM
 70
     0
  9
$DIMTIH
 70
     0
  9
$DIMTOH
 70
     0
  9
$DIMSE1
 70
     0
  9
$DIMSE2
 70
     0
  9
$DIMTAD
 70
     1
  9
$DIMZIN
 70
     8
  9
$DIMBLK
  1
DOTBLANK
  9
$DIMASO
 70
     1
  9
$DIMSHO
 70
     0
  9
$DIMPOST
  1

  9
$DIMAPOST
  1

  9
$DIMALT
 70
     0
  9
$DIMALTD
 70
     2
  9
$DIMALTF
 40
25.399999999999999
  9
$DIMLFAC
 40
1.0
  9
$DIMTOFL
 70
     1
  9
$DIMTVP
 40
0.0
  9
$DIMTIX
 70
     1
  9
$DIMSOXD
 70
     0
  9
$DIMSAH
 70
     0
  9
$DIMBLK1
  1

  9
$DIMBLK2
  1

  9
$DIMSTYLE
  2
STANDARD
  9
$DIMCLRD
 70
     0
  9
$DIMCLRE
 70
     0
  9
$DIMCLRT
 70
     0
  9
$DIMTFAC
 40
1.0
  9
$DIMGAP
 40
0.09
  9
$LUNITS
 70
     2
  9
$LUPREC
 70
     4
  9
$SKETCHINC
 40
0.1
  9
$FILLETRAD
 40
0.0
  9
$AUNITS
 70
     1
  9
$AUPREC
 70
     3
  9
$MENU
  1
ACAD
  9
$ELEVATION
 40
0.0
  9
$PELEVATION
 40
0.0
  9
$THICKNESS
 40
0.0
  9
$LIMCHECK
 70
     0
  9
$BLIPMODE
 70
     0
  9
$CHAMFERA
 40
0.0
  9
$CHAMFERB
 40
0.0
  9
$SKPOLY
 70
     0
  9
$TDCREATE
 40
2449761.4936229978
  9
$TDUPDATE
 40
2455573.648810613
  9
$TDINDWG
 40
4.4713730671
  9
$TDUSRTIMER
 40
4.4713721644
  9
$USRTIMER
 70
     1
  9
$ANGBASE
 50
0.0
  9
$ANGDIR
 70
     0
  9
$PDMODE
 70
    35
  9
$PDSIZE
 40
100.0
  9
$PLINEWID
 40
0.0
  9
$COORDS
 70
     0
  9
$SPLFRAME
 70
     0
  9
$SPLINETYPE
 70
     6
  9
$SPLINESEGS
 70
     8
  9
$ATTDIA
 70
     0
  9
$ATTREQ
 70
     1
  9
$HANDLING
 70
     1
  9
$HANDSEED
  5
2A21
  9
$SURFTAB1
 70
     6
  9
$SURFTAB2
 70
     6
  9
$SURFTYPE
 70
     6
  9
$SURFU
 70
     6
  9
$SURFV
 70
     6
  9
$UCSNAME
  2

  9
$UCSORG
 10
0.0
 20
0.0
 30
0.0
  9
$UCSXDIR
 10
1.0
 20
0.0
 30
0.0
  9
$UCSYDIR
 10
0.0
 20
1.0
 30
0.0
  9
$PUCSNAME
  2

  9
$PUCSORG
 10
0.0
 20
0.0
 30
0.0
  9
$PUCSXDIR
 10
1.0
 20
0.0
 30
0.0
  9
$PUCSYDIR
 10
0.0
 20
1.0
 30
0.0
  9
$USERI1
 70
     0
  9
$USERI2
 70
     0
  9
$USERI3
 70
     0
  9
$USERI4
 70
     0
  9
$USERI5
 70
     0
  9
$USERR1
 40
20.0
  9
$USERR2
 40
0.0
  9
$USERR3
 40
0.0
  9
$USERR4
 40
0.0
  9
$USERR5
 40
0.0
  9
$WORLDVIEW
 70
     1
  9
$SHADEDGE
 70
     3
  9
$SHADEDIF
 70
    70
  9
$TILEMODE
 70
     1
  9
$MAXACTVP
 70
    48
  9
$PLIMCHECK
 70
     0
  9
$PEXTMIN
 10
1.0000000000000000E+020
 20
1.0000000000000000E+020
 30
1.0000000000000000E+020
  9
$PEXTMAX
 10
-1.0000000000000000E+020
 20
-1.0000000000000000E+020
 30
-1.0000000000000000E+020
  9
$PLIMMIN
 10
0.0
 20
0.0
  9
$PLIMMAX
 10
12.0
 20
9.0
  9
$UNITMODE
 70
     0
  9
$VISRETAIN
 70
     1
  9
$PLINEGEN
 70
     0
  9
$PSLTSCALE
 70
     1
  0
ENDSEC
  0
SECTION
  2
TABLES
  0
TABLE
  2
VPORT
 70
     1
  0
VPORT
  2
*ACTIVE
 70
     0
 10
0.0
 20
0.0
 11
1.0
 21
1.0
 12
0.0000000000003411
 22
0.0
 13
0.0
 23
0.0
 14
50.0
 24
50.0
 15
100.0
 25
100.0
 16
0.0
 26
0.0
 36
1.0
 17
0.0
 27
0.0
 37
0.0
 40
5985.5172413793098
 41
1.5639386189258311
 42
50.0
 43
0.0
 44
0.0
 50
0.0
 51
0.0
 71
     0
 72
  1000
 73
     1
 74
     0
 75
     0
 76
     0
 77
     0
 78
     0
  0
ENDTAB
  0
TABLE
  2
LTYPE
 70
     2
  0
LTYPE
  2
CONTINUOUS
 70
     0
  3
実線
 72
    65
 73
     0
 40
0.0
  0
LTYPE
  2
DASHDOT
 70
     0
  3
____ _ ____ _ ____ _ ____ _ ____ _ ____ _ ____
 72
    65
 73
     4
 40
5.5
 49
4.0
 49
-0.6
 49
0.3
 49
-0.6
  0
ENDTAB
  0
TABLE
  2
LAYER
 70
    12
  0
LAYER
  2
0
 70
     0
 62
     7
  6
CONTINUOUS
  0
LAYER
  2
DETAIL
 70
     0
 62
     5
  6
CONTINUOUS
  0
LAYER
  2
OUTLINE
 70
     0
 62
     3
  6
CONTINUOUS
  0
LAYER
  2
BASIS
 70
     0
 62
     6
  6
DASHDOT
  0
LAYER
  2
SIZE
 70
     0
 62
    30
  6
CONTINUOUS
  0
LAYER
  2
NOTE
 70
     0
 62
     4
  6
CONTINUOUS
  0
LAYER
  2
ARRANGE
 70
     0
 62
     1
  6
CONTINUOUS
  0
LAYER
  2
FIX
 70
     0
 62
    11
  6
CONTINUOUS
  0
LAYER
  2
SERVICESPACE
 70
     0
 62
     2
  6
DASHDOT
  0
LAYER
  2
ETC
 70
     0
 62
    61
  6
CONTINUOUS
  0
LAYER
  2
SYMBOLLINE
 70
     0
 62
    15
  6
CONTINUOUS
  0
LAYER
  2
DEFPOINTS
 70
     0
 62
     7
  6
CONTINUOUS
  0
ENDTAB
  0
TABLE
  2
STYLE
 70
     3
  0
STYLE
  2
STANDARD
 70
     0
 40
0.0
 41
0.9
 50
0.0
 71
     0
 42
64.0
  3
SIMPLEX
  4
BIGFONT
  0
STYLE
  2
ANNOTATIVE
 70
     0
 40
0.0
 41
1.0
 50
0.0
 71
     0
 42
0.2
  3
txt
  4

  0
STYLE
  2
STANDARD1
 70
     0
 40
0.0
 41
1.0
 50
0.0
 71
     0
 42
3.5
  3
MONOTXT
  4
BIGFONT
  0
ENDTAB
  0
TABLE
  2
VIEW
 70
     9
  0
VIEW
  2
ALL
 70
     0
 40
6056.2300320000013
 10
0.0
 20
58.115015999999997
 41
8400.0
 11
0.0
 21
0.0
 31
1.0
 12
0.0
 22
0.0
 32
0.0
 42
50.0
 43
0.0
 44
0.0
 50
0.0
 71
     0
  0
ENDTAB
  0
TABLE
  2
UCS
 70
     0
  0
ENDTAB
  0
TABLE
  2
APPID
 70
     3
  0
APPID
  2
ACAD
 70
     0
  0
APPID
  2
ACADANNOTATIVE
 70
     0
  0
APPID
  2
ACAD_MLEADERVER
 70
     0
  0
ENDTAB
  0
TABLE
  2
DIMSTYLE
 70
     2
  0
DIMSTYLE
  2
STANDARD
 70
     0
  3

  4

  5

  6

  7

 40
1.0
 41
0.18
 42
0.0625
 43
0.38
 44
0.18
 45
0.0
 46
0.0
 47
0.0
 48
0.0
140
0.18
141
0.09
142
0.0
143
25.399999999999999
144
1.0
145
0.0
146
1.0
147
0.09
 71
     0
 72
     0
 73
     1
 74
     1
 75
     0
 76
     0
 77
     0
 78
     0
170
     0
171
     2
172
     0
173
     0
174
     0
175
     0
176
     0
177
     0
178
     0
  0
DIMSTYLE
  2
ANNOTATIVE
 70
     0
  3

  4

  5

  6

  7

 40
1.0
 41
0.18
 42
0.0625
 43
0.38
 44
0.18
 45
0.0
 46
0.0
 47
0.0
 48
0.0
140
0.18
141
0.09
142
0.0
143
25.399999999999999
144
1.0
145
0.0
146
1.0
147
0.09
 71
     0
 72
     0
 73
     1
 74
     1
 75
     0
 76
     0
 77
     0
 78
     0
170
     0
171
     2
172
     0
173
     0
174
     0
175
     0
176
     0
177
     0
178
     0
  0
ENDTAB
  0
ENDSEC
  0
SECTION
  2
BLOCKS
  0
BLOCK
  8
0
  2
$MODEL_SPACE
 70
     0
 10
0.0
 20
0.0
 30
0.0
  3
$MODEL_SPACE
  1

  0
ENDBLK
  5
29A1
  8
0
  0
BLOCK
 67
     1
  8
0
  2
$PAPER_SPACE
 70
     0
 10
0.0
 20
0.0
 30
0.0
  3
$PAPER_SPACE
  1

  0
ENDBLK
  5
299D
 67
     1
  8
0
  0
BLOCK
  8
0
  2
_DOTBLANK
 70
     0
 10
0.0
 20
0.0
 30
0.0
  3
_DOTBLANK
  1

  0
CIRCLE
  5
32
  8
0
  6
CONTINUOUS
 62
     7
 10
0.0
 20
0.0
 30
0.0
 40
0.5
  0
LINE
  5
33
  8
0
  6
CONTINUOUS
 62
     7
 10
-0.5
 20
0.0
 30
0.0
 11
-1.0
 21
0.0
 31
0.0
  0
ENDBLK
  5
34
  8
0
  0
ENDSEC
  0
SECTION
  2
ENTITIES
  0
TEXT
  5
35
  8
ETC
  6
CONTINUOUS
 62
    61
 10
26.674436983019412
 20
142.68962000000019
 30
0.0
 40
20.0
  1
PAR-26MA_2
 50
359.99999700000001
 41
0.6030590000000001
  7
STANDARD1
  0
LINE
  5
36
  8
DETAIL
  6
CONTINUOUS
 62
     5
 10
57.5
 20
45.500000000000242
 30
0.0
 11
57.5
 21
-11.200011999999751
 31
0.0
  0
LINE
  5
37
  8
DETAIL
  6
CONTINUOUS
 62
     5
 10
53.5
 20
34.500000000000242
 30
0.0
 11
53.5
 21
-11.200011999999751
 31
0.0
  0
LINE
  5
38
  8
DETAIL
  6
CONTINUOUS
 62
     5
 10
-57.5
 20
45.500000000000242
 30
0.0
 11
-57.5
 21
-11.200011999999751
 31
0.0
  0
LINE
  5
39
  8
DETAIL
  6
CONTINUOUS
 62
     5
 10
-53.5
 20
34.500000000000242
 30
0.0
 11
-53.5
 21
-11.200011999999751
 31
0.0
  0
LINE
  5
3A
  8
DETAIL
  6
CONTINUOUS
 62
     5
 10
-65.0
 20
-54.999999999999751
 30
0.0
 11
-65.0
 21
55.000000000000242
 31
0.0
  0
LINE
  5
3B
  8
DETAIL
  6
CONTINUOUS
 62
     5
 10
65.0
 20
-54.999999999999751
 30
0.0
 11
65.0
 21
55.000000000000242
 31
0.0
  0
LINE
  5
3C
  8
DETAIL
  6
CONTINUOUS
 62
     5
 10
-64.745086999999998
 20
-11.200011999999751
 30
0.0
 11
-53.489975000000001
 21
-11.200011999999751
 31
0.0
  0
LINE
  5
3D
  8
DETAIL
  6
CONTINUOUS
 62
     5
 10
-65.0
 20
-11.200011999999751
 30
0.0
 11
-53.5
 21
-11.200011999999751
 31
0.0
  0
ARC
  5
3E
  8
DETAIL
  6
CONTINUOUS
 62
     5
 10
-59.745086999999998
 20
-54.745101999999761
 30
0.0
 40
5.0
 50
180.00003599999999
 51
270.00001800000001
  0
ARC
  5
3F
  8
DETAIL
  6
CONTINUOUS
 62
     5
 10
-60.0
 20
-54.999999999999751
 30
0.0
 40
5.0
 50
180.00003599999999
 51
270.00001800000001
  0
LINE
  5
40
  8
DETAIL
  6
CONTINUOUS
 62
     5
 10
-64.745086999999998
 20
-11.200011999999751
 30
0.0
 11
-64.745086999999998
 21
-54.745101999999761
 31
0.0
  0
LINE
  5
41
  8
DETAIL
  6
CONTINUOUS
 62
     5
 10
-37.5
 20
-59.745101999999761
 30
0.0
 11
37.5
 21
-59.745101999999761
 31
0.0
  0
LINE
  5
42
  8
DETAIL
  6
CONTINUOUS
 62
     5
 10
-54.5
 20
-15.73231499999976
 30
0.0
 11
54.5
 21
-15.73231499999976
 31
0.0
  0
LINE
  5
43
  8
DETAIL
  6
CONTINUOUS
 62
     5
 10
-51.5
 20
-12.99999999999976
 30
0.0
 11
54.5
 21
-12.99999999999976
 31
0.0
  0
LINE
  5
44
  8
DETAIL
  6
CONTINUOUS
 62
     5
 10
44.300049000000001
 20
5.8000030000002409
 30
0.0
 11
-44.299804999999999
 21
5.8000030000002409
 31
0.0
  0
LINE
  5
45
  8
DETAIL
  6
CONTINUOUS
 62
     5
 10
44.300049000000001
 20
28.800003000000249
 30
0.0
 11
-44.299804999999999
 21
28.800003000000249
 31
0.0
  0
LINE
  5
46
  8
DETAIL
  6
CONTINUOUS
 62
     5
 10
-24.25
 20
-59.999999999999751
 30
0.0
 11
24.25
 21
-59.999999999999751
 31
0.0
  0
LINE
  5
D5
  8
DETAIL
  6
CONTINUOUS
 62
     5
 10
16.0
 20
-6.9999849999997572
 30
0.0
 11
18.5
 21
-6.9999849999997572
 31
0.0
  0
LINE
  5
D6
  8
DETAIL
  6
CONTINUOUS
 62
     5
 10
16.0
 20
-4.9999849999997581
 30
0.0
 11
18.5
 21
-4.9999849999997581
 31
0.0
  0
LINE
  5
103
  8
DETAIL
  6
CONTINUOUS
 62
     5
 10
-43.0
 20
-58.294814999999751
 30
0.0
 11
-37.5
 21
-58.294814999999751
 31
0.0
  0
LINE
  5
104
  8
DETAIL
  6
CONTINUOUS
 62
     5
 10
-60.0
 20
-59.999999999999751
 30
0.0
 11
-34.75
 21
-59.999999999999751
 31
0.0
  0
LINE
  5
105
  8
DETAIL
  6
CONTINUOUS
 62
     5
 10
-59.745086999999998
 20
-59.745101999999761
 30
0.0
 11
-43.0
 21
-59.745101999999761
 31
0.0
  0
LINE
  5
106
  8
DETAIL
  6
CONTINUOUS
 62
     5
 10
-43.0
 20
-58.294814999999751
 30
0.0
 11
-43.0
 21
-59.745101999999761
 31
0.0
  0
LINE
  5
107
  8
DETAIL
  6
CONTINUOUS
 62
     5
 10
-37.5
 20
-58.294814999999751
 30
0.0
 11
-37.5
 21
-59.745101999999761
 31
0.0
  0
LINE
  5
108
  8
DETAIL
  6
CONTINUOUS
 62
     5
 10
-34.75
 20
-59.745101999999761
 30
0.0
 11
-34.75
 21
-59.999999999999751
 31
0.0
  0
LINE
  5
109
  8
DETAIL
  6
CONTINUOUS
 62
     5
 10
-24.25
 20
-59.745101999999761
 30
0.0
 11
-24.25
 21
-59.999999999999751
 31
0.0
  0
LINE
  5
15F
  8
DETAIL
  6
CONTINUOUS
 62
     5
 10
-22.342499
 20
1.6354060000002419
 30
0.0
 11
-23.475586
 21
1.6354060000002419
 31
0.0
  0
ARC
  5
160
  8
DETAIL
  6
CONTINUOUS
 62
     5
 10
-21.955749999999998
 20
1.3894960000002421
 30
0.0
 40
1.4593750000000001
 50
215.36317600000001
 51
254.63285099999999
  0
LINE
  5
161
  8
DETAIL
  6
CONTINUOUS
 62
     5
 10
-23.483336999999999
 20
2.6713710000002422
 30
0.0
 11
-22.346436000000001
 21
2.6713710000002422
 31
0.0
  0
LINE
  5
163
  8
DETAIL
  6
CONTINUOUS
 62
     5
 10
-23.475586
 20
1.8798520000002421
 30
0.0
 11
-20.910706000000001
 21
1.8798520000002421
 31
0.0
  0
LINE
  5
164
  8
DETAIL
  6
CONTINUOUS
 62
     5
 10
-20.926207999999999
 20
2.4269410000002418
 30
0.0
 11
-23.452331999999998
 21
2.4269410000002418
 31
0.0
  0
ARC
  5
170
  8
DETAIL
  6
CONTINUOUS
 62
     5
 10
-24.999756000000001
 20
-5.9999849999997581
 30
0.0
 40
3.5
 50
270.00001800000001
 51
0.0
  0
ARC
  5
171
  8
DETAIL
  6
CONTINUOUS
 62
     5
 10
-24.999756000000001
 20
-5.9999849999997581
 30
0.0
 40
3.5
 50
0.0
 51
89.999981999999974
  0
ARC
  5
172
  8
DETAIL
  6
CONTINUOUS
 62
     5
 10
-24.999756000000001
 20
-5.9999849999997581
 30
0.0
 40
3.5
 50
270.00001800000001
 51
0.0
  0
ARC
  5
173
  8
DETAIL
  6
CONTINUOUS
 62
     5
 10
-24.999756000000001
 20
-5.9999849999997581
 30
0.0
 40
3.5
 50
0.0
 51
89.999981999999974
  0
ARC
  5
174
  8
DETAIL
  6
CONTINUOUS
 62
     5
 10
-24.999756000000001
 20
-5.9999849999997581
 30
0.0
 40
3.0
 50
270.00001800000001
 51
0.0
  0
ARC
  5
175
  8
DETAIL
  6
CONTINUOUS
 62
     5
 10
-24.999756000000001
 20
-5.9999849999997581
 30
0.0
 40
3.0
 50
0.0
 51
89.999981999999974
  0
ARC
  5
178
  8
DETAIL
  6
CONTINUOUS
 62
     5
 10
-21.961715999999999
 20
1.265930000000242
 30
0.0
 40
1.605138999999999
 50
217.50164000000001
 51
250.14098300000001
  0
ARC
  5
179
  8
DETAIL
  6
CONTINUOUS
 62
     5
 10
-51.5
 20
-10.99999999999976
 30
0.0
 40
2.0
 50
185.73952600000001
 51
270.00001800000001
  0
ARC
  5
17A
  8
DETAIL
  6
CONTINUOUS
 62
     5
 10
-54.5
 20
-12.73231499999976
 30
0.0
 40
3.0
 50
180.00003599999999
 51
270.00001800000001
  0
LINE
  5
17B
  8
DETAIL
  6
CONTINUOUS
 62
     5
 10
-57.5
 20
-11.200011999999751
 30
0.0
 11
-57.5
 21
-12.73231499999976
 31
0.0
  0
ARC
  5
17C
  8
DETAIL
  6
CONTINUOUS
 62
     5
 10
-30.999756000000001
 20
-5.9999849999997581
 30
0.0
 40
3.5
 50
180.00003599999999
 51
270.00001800000001
  0
ARC
  5
17D
  8
DETAIL
  6
CONTINUOUS
 62
     5
 10
-30.999756000000001
 20
-5.9999849999997581
 30
0.0
 40
3.5
 50
180.00003599999999
 51
270.00001800000001
  0
ARC
  5
17E
  8
DETAIL
  6
CONTINUOUS
 62
     5
 10
-30.999756000000001
 20
-5.9999849999997581
 30
0.0
 40
3.0
 50
180.00003599999999
 51
270.00001800000001
  0
LINE
  5
180
  8
DETAIL
  6
CONTINUOUS
 62
     5
 10
-27.999694000000002
 20
-7.500021999999757
 30
0.0
 11
-26.267645999999999
 21
-4.5000259999997567
 31
0.0
  0
LINE
  5
181
  8
DETAIL
  6
CONTINUOUS
 62
     5
 10
-29.731745
 20
-4.5000139999997568
 30
0.0
 11
-27.999689
 21
-7.500021999999757
 31
0.0
  0
LINE
  5
182
  8
DETAIL
  6
CONTINUOUS
 62
     5
 10
-24.999756000000001
 20
-9.4999849999997572
 30
0.0
 11
-30.999756000000001
 21
-9.4999849999997572
 31
0.0
  0
LINE
  5
183
  8
DETAIL
  6
CONTINUOUS
 62
     5
 10
-24.999756000000001
 20
-9.4999849999997572
 30
0.0
 11
-30.999756000000001
 21
-9.4999849999997572
 31
0.0
  0
LINE
  5
184
  8
DETAIL
  6
CONTINUOUS
 62
     5
 10
-24.999756000000001
 20
-8.9999849999997572
 30
0.0
 11
-30.999756000000001
 21
-8.9999849999997572
 31
0.0
  0
ARC
  5
186
  8
DETAIL
  6
CONTINUOUS
 62
     5
 10
-30.999756000000001
 20
-5.9999849999997581
 30
0.0
 40
3.5
 50
89.999981999999974
 51
179.99996400000001
  0
ARC
  5
187
  8
DETAIL
  6
CONTINUOUS
 62
     5
 10
-30.999756000000001
 20
-5.9999849999997581
 30
0.0
 40
3.5
 50
89.999981999999974
 51
179.99996400000001
  0
ARC
  5
188
  8
DETAIL
  6
CONTINUOUS
 62
     5
 10
-30.999756000000001
 20
-5.9999849999997581
 30
0.0
 40
3.0
 50
89.999981999999974
 51
179.99996400000001
  0
LINE
  5
18A
  8
DETAIL
  6
CONTINUOUS
 62
     5
 10
-24.999756000000001
 20
-2.4999849999997572
 30
0.0
 11
-30.999756000000001
 21
-2.4999849999997572
 31
0.0
  0
LINE
  5
18B
  8
DETAIL
  6
CONTINUOUS
 62
     5
 10
-24.999756000000001
 20
-2.4999849999997572
 30
0.0
 11
-30.999756000000001
 21
-2.4999849999997572
 31
0.0
  0
LINE
  5
18C
  8
DETAIL
  6
CONTINUOUS
 62
     5
 10
-24.999756000000001
 20
-2.9999849999997572
 30
0.0
 11
-30.999756000000001
 21
-2.9999849999997572
 31
0.0
  0
ARC
  5
18E
  8
DETAIL
  6
CONTINUOUS
 62
     5
 10
-23.479064999999999
 20
1.773544000000242
 30
0.0
 40
0.106359
 50
88.126009999999994
 51
140.18113600000001
  0
ARC
  5
18F
  8
DETAIL
  6
CONTINUOUS
 62
     5
 10
-23.456665000000001
 20
1.759674000000242
 30
0.0
 40
0.132496
 50
141.77733699999999
 51
180.88568900000001
  0
ARC
  5
190
  8
DETAIL
  6
CONTINUOUS
 62
     5
 10
-23.456665000000001
 20
1.755585000000242
 30
0.0
 40
0.132496
 50
179.11432099999999
 51
218.22267199999999
  0
ARC
  5
191
  8
DETAIL
  6
CONTINUOUS
 62
     5
 10
-23.479064999999999
 20
1.741714000000242
 30
0.0
 40
0.106359
 50
219.81886399999999
 51
271.87398999999999
  0
ARC
  5
192
  8
DETAIL
  6
CONTINUOUS
 62
     5
 10
-25.596893000000001
 20
1.2676700000002421
 30
0.0
 40
2.555375999999999
 50
343.56924199999997
 51
349.27804200000003
  0
ARC
  5
193
  8
DETAIL
  6
CONTINUOUS
 62
     5
 10
-28.327179000000001
 20
1.7899320000002421
 30
0.0
 40
5.3351459999999991
 50
349.222352
 51
352.23084599999999
  0
ARC
  5
194
  8
DETAIL
  6
CONTINUOUS
 62
     5
 10
-23.154540999999998
 20
1.087372000000242
 30
0.0
 40
0.115058
 50
350.66653700000001
 51
44.26157899999999
  0
ARC
  5
195
  8
DETAIL
  6
CONTINUOUS
 62
     5
 10
-23.188048999999999
 20
1.051086000000242
 30
0.0
 40
0.164405
 50
45.166435999999997
 51
81.851422999999997
  0
ARC
  5
196
  8
DETAIL
  6
CONTINUOUS
 62
     5
 10
-23.192352
 20
1.0607910000002421
 30
0.0
 40
0.1555
 50
79.775626000000003
 51
117.9929799999999
  0
ARC
  5
197
  8
DETAIL
  6
CONTINUOUS
 62
     5
 10
-23.210830999999999
 20
1.102646000000242
 30
0.0
 40
0.109912
 50
119.7227929999999
 51
175.419803
  0
ARC
  5
198
  8
DETAIL
  6
CONTINUOUS
 62
     5
 10
-25.927551000000001
 20
1.3605800000002419
 30
0.0
 40
2.6190439999999988
 50
336.11221599999999
 51
354.54131100000001
  0
ARC
  5
199
  8
DETAIL
  6
CONTINUOUS
 62
     5
 10
-25.012146000000001
 20
0.9787750000002422
 30
0.0
 40
1.627569
 50
312.98531800000001
 51
335.35173800000001
  0
ARC
  5
19A
  8
DETAIL
  6
CONTINUOUS
 62
     5
 10
-25.627898999999999
 20
1.2110600000002421
 30
0.0
 40
2.564362
 50
328.32013499999999
 51
338.92039899999997
  0
ARC
  5
19B
  8
DETAIL
  6
CONTINUOUS
 62
     5
 10
-23.489532000000001
 20
2.2154690000002422
 30
0.0
 40
0.455945
 50
89.223259999999996
 51
109.083223
  0
ARC
  5
19C
  8
DETAIL
  6
CONTINUOUS
 62
     5
 10
-23.534241000000002
 20
2.3485110000002418
 30
0.0
 40
0.315605
 50
109.309562
 51
133.90493000000001
  0
ARC
  5
19D
  8
DETAIL
  6
CONTINUOUS
 62
     5
 10
-23.542708999999999
 20
2.361694000000242
 30
0.0
 40
0.300246
 50
134.483529
 51
159.49333200000001
  0
ARC
  5
19E
  8
DETAIL
  6
CONTINUOUS
 62
     5
 10
-23.454284999999999
 20
2.330704000000241
 30
0.0
 40
0.39393
 50
159.77627899999999
 51
180.6614129999999
  0
LINE
  5
19F
  8
DETAIL
  6
CONTINUOUS
 62
     5
 10
-23.848175000000001
 20
1.973053000000242
 30
0.0
 11
-23.848175000000001
 21
2.3261570000002418
 31
0.0
  0
ARC
  5
1A0
  8
DETAIL
  6
CONTINUOUS
 62
     5
 10
-23.744537000000001
 20
1.9707030000002419
 30
0.0
 40
0.103684
 50
178.69883999999999
 51
234.641559
  0
ARC
  5
1A1
  8
DETAIL
  6
CONTINUOUS
 62
     5
 10
-23.711807
 20
2.0217290000002421
 30
0.0
 40
0.164265
 50
235.63407100000001
 51
271.15819299999998
  0
ARC
  5
1A2
  8
DETAIL
  6
CONTINUOUS
 62
     5
 10
-23.705428999999999
 20
2.0250400000002422
 30
0.0
 40
0.16757
 50
268.955375
 51
303.70559800000001
  0
ARC
  5
1A3
  8
DETAIL
  6
CONTINUOUS
 62
     5
 10
-23.668030000000002
 20
1.967865000000242
 30
0.0
 40
0.099261
 50
304.063582
 51
0.690534
  0
LINE
  5
1A4
  8
DETAIL
  6
CONTINUOUS
 62
     5
 10
-23.568787
 20
2.3067170000002419
 30
0.0
 11
-23.568787
 21
1.9690700000002419
 31
0.0
  0
ARC
  5
1A5
  8
DETAIL
  6
CONTINUOUS
 62
     5
 10
-23.348998999999999
 20
2.3109740000002419
 30
0.0
 40
0.219833
 50
167.59752900000001
 51
181.11238299999999
  0
ARC
  5
1A6
  8
DETAIL
  6
CONTINUOUS
 62
     5
 10
-23.476638999999999
 20
2.339432000000242
 30
0.0
 40
0.089061
 50
140.655711
 51
167.83479600000001
  0
ARC
  5
1A7
  8
DETAIL
  6
CONTINUOUS
 62
     5
 10
-23.486145
 20
2.3435060000002421
 30
0.0
 40
0.079174
 50
107.426643
 51
138.581997
  0
ARC
  5
1A8
  8
DETAIL
  6
CONTINUOUS
 62
     5
 10
-23.457062000000001
 20
2.2478180000002421
 30
0.0
 40
0.179187
 50
88.484752000000015
 51
107.12996699999999
  0
LINE
  5
1A9
  8
DETAIL
  6
CONTINUOUS
 62
     5
 10
-27.105163999999998
 20
-0.0759119999997577
 30
0.0
 11
-27.105163999999998
 21
0.5875850000002423
 31
0.0
  0
ARC
  5
1AA
  8
DETAIL
  6
CONTINUOUS
 62
     5
 10
-27.554962
 20
-0.0852659999997578
 30
0.0
 40
0.4498810000000001
 50
344.37099000000001
 51
1.191805999999999
  0
ARC
  5
1AB
  8
DETAIL
  6
CONTINUOUS
 62
     5
 10
-27.834961
 20
-0.0852659999997578
 30
0.0
 40
0.4498810000000001
 50
178.80820499999999
 51
195.629008
  0
LINE
  5
1AC
  8
DETAIL
  6
CONTINUOUS
 62
     5
 10
-28.284759999999999
 20
0.5875850000002423
 30
0.0
 11
-28.284759999999999
 21
-0.0759119999997577
 31
0.0
  0
ARC
  5
1AD
  8
DETAIL
  6
CONTINUOUS
 62
     5
 10
-27.834686000000001
 20
0.5969390000002423
 30
0.0
 40
0.450157
 50
164.375934
 51
181.18989199999999
  0
ARC
  5
1AE
  8
DETAIL
  6
CONTINUOUS
 62
     5
 10
-28.061188000000001
 20
0.6599270000002423
 30
0.0
 40
0.215079
 50
136.199805
 51
164.28581600000001
  0
ARC
  5
1AF
  8
DETAIL
  6
CONTINUOUS
 62
     5
 10
-28.066803
 20
0.6564330000002423
 30
0.0
 40
0.213538
 50
106.10763799999999
 51
134.47822899999991
  0
ARC
  5
1B0
  8
DETAIL
  6
CONTINUOUS
 62
     5
 10
-28.003342
 20
0.4330750000002423
 30
0.0
 40
0.445736
 50
88.775745999999998
 51
105.97870399999999
  0
LINE
  5
1B1
  8
DETAIL
  6
CONTINUOUS
 62
     5
 10
-27.396118000000001
 20
0.8787080000002422
 30
0.0
 11
-27.993819999999999
 21
0.8787080000002422
 31
0.0
  0
ARC
  5
1B2
  8
DETAIL
  6
CONTINUOUS
 62
     5
 10
-27.386581
 20
0.4330750000002423
 30
0.0
 40
0.445736
 50
74.021300999999994
 51
91.224258999999989
  0
ARC
  5
1B3
  8
DETAIL
  6
CONTINUOUS
 62
     5
 10
-27.323119999999999
 20
0.6564330000002423
 30
0.0
 40
0.213538
 50
45.521772999999989
 51
73.892367000000007
  0
ARC
  5
1B4
  8
DETAIL
  6
CONTINUOUS
 62
     5
 10
-27.328751
 20
0.6599270000002423
 30
0.0
 40
0.215079
 50
15.714185000000001
 51
43.800196999999997
  0
ARC
  5
1B5
  8
DETAIL
  6
CONTINUOUS
 62
     5
 10
-27.555237000000002
 20
0.5969390000002423
 30
0.0
 40
0.450157
 50
358.810115
 51
15.624072999999999
  0
ARC
  5
1B6
  8
DETAIL
  6
CONTINUOUS
 62
     5
 10
-24.837371999999998
 20
1.739517000000242
 30
0.0
 40
1.9329130000000001
 50
238.75055
 51
250.95810599999999
  0
ARC
  5
1B7
  8
DETAIL
  6
CONTINUOUS
 62
     5
 10
-24.584945999999999
 20
2.4462740000002419
 30
0.0
 40
2.6833669999999992
 50
250.78647000000001
 51
260.97829400000001
  0
ARC
  5
1B8
  8
DETAIL
  6
CONTINUOUS
 62
     5
 10
-25.017288000000001
 20
-0.3024139999997577
 30
0.0
 40
0.099182
 50
25.338083000000001
 51
83.304368000000011
  0
ARC
  5
1B9
  8
DETAIL
  6
CONTINUOUS
 62
     5
 10
-26.895081000000001
 20
-0.3204799999997578
 30
0.0
 40
0.109815
 50
130.23289700000001
 51
157.27315200000001
  0
ARC
  5
1BA
  8
DETAIL
  6
CONTINUOUS
 62
     5
 10
-26.871521000000001
 20
-0.3510439999997578
 30
0.0
 40
0.148383
 50
105.4478959999999
 51
129.553799
  0
ARC
  5
1BB
  8
DETAIL
  6
CONTINUOUS
 62
     5
 10
-27.924118
 20
3.3684390000002411
 30
0.0
 40
3.7171879999999988
 50
285.81544400000001
 51
292.12733800000001
  0
ARC
  5
1BC
  8
DETAIL
  6
CONTINUOUS
 62
     5
 10
-27.334320000000002
 20
1.943527000000242
 30
0.0
 40
2.175079999999999
 50
291.873671
 51
301.40277600000002
  0
ARC
  5
1BD
  8
DETAIL
  6
CONTINUOUS
 62
     5
 10
-23.818054
 20
2.7310030000002419
 30
0.0
 40
3.5593589999999988
 50
212.9078189999999
 51
227.97243
  0
ARC
  5
1BE
  8
DETAIL
  6
CONTINUOUS
 62
     5
 10
-26.692748999999999
 20
0.8749850000002423
 30
0.0
 40
0.137604
 50
190.241918
 51
214.39667700000001
  0
ARC
  5
1BF
  8
DETAIL
  6
CONTINUOUS
 62
     5
 10
-26.727554000000001
 20
0.8675080000002422
 30
0.0
 40
0.102035
 50
162.472565
 51
189.585971
  0
ARC
  5
1C0
  8
DETAIL
  6
CONTINUOUS
 62
     5
 10
-26.704681000000001
 20
0.8561100000002422
 30
0.0
 40
0.127336
 50
118.574611
 51
160.682222
  0
ARC
  5
1C1
  8
DETAIL
  6
CONTINUOUS
 62
     5
 10
-26.688797000000001
 20
0.8374330000002421
 30
0.0
 40
0.151418
 50
84.514212999999984
 51
120.47524799999999
  0
ARC
  5
1C2
  8
DETAIL
  6
CONTINUOUS
 62
     5
 10
-26.683716
 20
0.885849000000242
 30
0.0
 40
0.102744
 50
32.280166999999999
 51
84.752818999999974
  0
ARC
  5
1C3
  8
DETAIL
  6
CONTINUOUS
 62
     5
 10
-22.408446999999999
 20
3.4826510000002422
 30
0.0
 40
4.899394
 50
211.253424
 51
216.43251100000001
  0
ARC
  5
1C4
  8
DETAIL
  6
CONTINUOUS
 62
     5
 10
-24.668762000000001
 20
1.8187100000002421
 30
0.0
 40
2.0926770000000001
 50
216.53141199999999
 51
229.69764000000001
  0
ARC
  5
1C5
  8
DETAIL
  6
CONTINUOUS
 62
     5
 10
-27.105651999999999
 20
1.5590520000002419
 30
0.0
 40
1.7202519999999999
 50
309.0304339999999
 51
341.81571600000001
  0
ARC
  5
1C6
  8
DETAIL
  6
CONTINUOUS
 62
     5
 10
-25.526855000000001
 20
1.042038000000242
 30
0.0
 40
0.058981
 50
340.35772300000002
 51
37.601013999999999
  0
ARC
  5
1C7
  8
DETAIL
  6
CONTINUOUS
 62
     5
 10
-25.533936000000001
 20
1.0329900000002421
 30
0.0
 40
0.070159
 50
39.932499
 51
70.657534999999996
  0
ARC
  5
1C8
  8
DETAIL
  6
CONTINUOUS
 62
     5
 10
-25.560623
 20
0.9564360000002423
 30
0.0
 40
0.15124
 50
70.723740000000006
 51
91.476210999999964
  0
LINE
  5
1C9
  8
DETAIL
  6
CONTINUOUS
 62
     5
 10
-26.880034999999999
 20
1.1076200000002421
 30
0.0
 11
-25.564513999999999
 21
1.1076200000002421
 31
0.0
  0
ARC
  5
1CA
  8
DETAIL
  6
CONTINUOUS
 62
     5
 10
-26.883300999999999
 20
1.2107240000002419
 30
0.0
 40
0.103156
 50
219.43700200000001
 51
271.820311
  0
ARC
  5
1CB
  8
DETAIL
  6
CONTINUOUS
 62
     5
 10
-26.859435999999999
 20
1.225784000000242
 30
0.0
 40
0.131214
 50
179.092806
 51
217.89306099999999
  0
ARC
  5
1CC
  8
DETAIL
  6
CONTINUOUS
 62
     5
 10
-26.859435999999999
 20
1.229935000000242
 30
0.0
 40
0.131214
 50
142.10694899999999
 51
180.90720400000001
  0
ARC
  5
1CD
  8
DETAIL
  6
CONTINUOUS
 62
     5
 10
-26.883300999999999
 20
1.245010000000242
 30
0.0
 40
0.103156
 50
88.179688999999996
 51
140.56299799999999
  0
LINE
  5
1CE
  8
DETAIL
  6
CONTINUOUS
 62
     5
 10
-25.518035999999999
 20
1.3481140000002421
 30
0.0
 11
-26.880034999999999
 21
1.3481140000002421
 31
0.0
  0
ARC
  5
1CF
  8
DETAIL
  6
CONTINUOUS
 62
     5
 10
-25.508316000000001
 20
0.9889220000002422
 30
0.0
 40
0.359311
 50
61.950403000000001
 51
91.548071999999976
  0
ARC
  5
1D0
  8
DETAIL
  6
CONTINUOUS
 62
     5
 10
-25.467911000000001
 20
1.0757900000002421
 30
0.0
 40
0.263705
 50
28.267378000000011
 51
60.824445999999988
  0
ARC
  5
1D1
  8
DETAIL
  6
CONTINUOUS
 62
     5
 10
-25.522659000000001
 20
1.0537110000002421
 30
0.0
 40
0.32245
 50
336.51982299999997
 51
27.115095
  0
ARC
  5
1D2
  8
DETAIL
  6
CONTINUOUS
 62
     5
 10
-27.339508000000009
 20
1.827332000000242
 30
0.0
 40
2.297134999999999
 50
310.74722200000002
 51
336.87693400000001
  0
ARC
  5
1D3
  8
DETAIL
  6
CONTINUOUS
 62
     5
 10
-27.229918999999999
 20
1.292648000000242
 30
0.0
 40
0.098233
 50
39.913136000000002
 51
91.886978999999997
  0
ARC
  5
1D4
  8
DETAIL
  6
CONTINUOUS
 62
     5
 10
-27.250122000000001
 20
1.2802120000002419
 30
0.0
 40
0.121744
 50
359.119775
 51
38.304482999999998
  0
ARC
  5
1D5
  8
DETAIL
  6
CONTINUOUS
 62
     5
 10
-27.250122000000001
 20
1.2764740000002419
 30
0.0
 40
0.121744
 50
321.695517
 51
0.880225
  0
ARC
  5
1D6
  8
DETAIL
  6
CONTINUOUS
 62
     5
 10
-27.229918999999999
 20
1.264038000000242
 30
0.0
 40
0.098233
 50
268.113021
 51
320.08686399999999
  0
LINE
  5
1D7
  8
DETAIL
  6
CONTINUOUS
 62
     5
 10
-28.16452
 20
1.1658630000002419
 30
0.0
 11
-27.233153999999999
 21
1.1658630000002419
 31
0.0
  0
ARC
  5
1D8
  8
DETAIL
  6
CONTINUOUS
 62
     5
 10
-28.167755
 20
1.264038000000242
 30
0.0
 40
0.098233
 50
219.91313400000001
 51
271.88697400000001
  0
ARC
  5
1D9
  8
DETAIL
  6
CONTINUOUS
 62
     5
 10
-28.147583000000001
 20
1.2764740000002419
 30
0.0
 40
0.121744
 50
179.11978500000001
 51
218.304484
  0
ARC
  5
1DA
  8
DETAIL
  6
CONTINUOUS
 62
     5
 10
-28.147583000000001
 20
1.2802120000002419
 30
0.0
 40
0.121744
 50
141.695525
 51
180.880225
  0
ARC
  5
1DB
  8
DETAIL
  6
CONTINUOUS
 62
     5
 10
-28.167755
 20
1.292648000000242
 30
0.0
 40
0.098233
 50
88.113026000000005
 51
140.08686599999999
  0
LINE
  5
1DC
  8
DETAIL
  6
CONTINUOUS
 62
     5
 10
-27.233153999999999
 20
1.3908230000002419
 30
0.0
 11
-28.16452
 21
1.3908230000002419
 31
0.0
  0
ARC
  5
1DD
  8
DETAIL
  6
CONTINUOUS
 62
     5
 10
-27.229918999999999
 20
1.793213000000242
 30
0.0
 40
0.098233
 50
39.913136000000002
 51
91.886978999999997
  0
ARC
  5
1DE
  8
DETAIL
  6
CONTINUOUS
 62
     5
 10
-27.250122000000001
 20
1.7807770000002421
 30
0.0
 40
0.121744
 50
359.119775
 51
38.304482999999998
  0
ARC
  5
1DF
  8
DETAIL
  6
CONTINUOUS
 62
     5
 10
-27.250122000000001
 20
1.7770390000002421
 30
0.0
 40
0.121744
 50
321.695517
 51
0.880225
  0
ARC
  5
1E0
  8
DETAIL
  6
CONTINUOUS
 62
     5
 10
-27.229918999999999
 20
1.764603000000242
 30
0.0
 40
0.098233
 50
268.113021
 51
320.08686399999999
  0
LINE
  5
1E1
  8
DETAIL
  6
CONTINUOUS
 62
     5
 10
-28.16452
 20
1.666412000000242
 30
0.0
 11
-27.233153999999999
 21
1.666412000000242
 31
0.0
  0
ARC
  5
1E2
  8
DETAIL
  6
CONTINUOUS
 62
     5
 10
-28.167755
 20
1.764603000000242
 30
0.0
 40
0.098233
 50
219.91313400000001
 51
271.88697400000001
  0
ARC
  5
1E3
  8
DETAIL
  6
CONTINUOUS
 62
     5
 10
-28.147583000000001
 20
1.7770390000002421
 30
0.0
 40
0.121744
 50
179.11978500000001
 51
218.304484
  0
ARC
  5
1E4
  8
DETAIL
  6
CONTINUOUS
 62
     5
 10
-28.147583000000001
 20
1.7807770000002421
 30
0.0
 40
0.121744
 50
141.695525
 51
180.880225
  0
ARC
  5
1E5
  8
DETAIL
  6
CONTINUOUS
 62
     5
 10
-28.167755
 20
1.793213000000242
 30
0.0
 40
0.098233
 50
88.113026000000005
 51
140.08686599999999
  0
LINE
  5
1E6
  8
DETAIL
  6
CONTINUOUS
 62
     5
 10
-27.233153999999999
 20
1.8913880000002421
 30
0.0
 11
-28.16452
 21
1.8913880000002421
 31
0.0
  0
ARC
  5
1E7
  8
DETAIL
  6
CONTINUOUS
 62
     5
 10
-25.013335999999999
 20
2.187500000000242
 30
0.0
 40
0.132123
 50
154.470834
 51
178.805869
  0
ARC
  5
1E8
  8
DETAIL
  6
CONTINUOUS
 62
     5
 10
-25.057434000000001
 20
2.2075200000002422
 30
0.0
 40
0.083695
 50
123.451421
 51
153.81699399999999
  0
ARC
  5
1E9
  8
DETAIL
  6
CONTINUOUS
 62
     5
 10
-25.050674000000001
 20
2.188126000000242
 30
0.0
 40
0.103728
 50
72.948087000000001
 51
120.666876
  0
ARC
  5
1EA
  8
DETAIL
  6
CONTINUOUS
 62
     5
 10
-25.059784000000001
 20
2.1398320000002422
 30
0.0
 40
0.152672
 50
39.093206000000002
 51
74.992055000000008
  0
ARC
  5
1EB
  8
DETAIL
  6
CONTINUOUS
 62
     5
 10
-25.041931000000002
 20
2.1536250000002419
 30
0.0
 40
0.13011
 50
353.89153800000003
 51
39.340899
  0
ARC
  5
1EC
  8
DETAIL
  6
CONTINUOUS
 62
     5
 10
-26.969971000000001
 20
2.3283390000002422
 30
0.0
 40
2.066046
 50
347.92398900000001
 51
354.763442
  0
ARC
  5
1ED
  8
DETAIL
  6
CONTINUOUS
 62
     5
 10
-25.540832999999999
 20
2.0151370000002422
 30
0.0
 40
0.6030560000000002
 50
331.45854000000003
 51
348.61651899999998
  0
ARC
  5
1EE
  8
DETAIL
  6
CONTINUOUS
 62
     5
 10
-25.229965
 20
1.847305000000242
 30
0.0
 40
0.249778
 50
298.81394299999999
 51
331.20432499999998
  0
ARC
  5
1EF
  8
DETAIL
  6
CONTINUOUS
 62
     5
 10
-25.247146999999998
 20
1.9067380000002421
 30
0.0
 40
0.310432
 50
268.01123100000001
 51
296.30497500000001
  0
LINE
  5
1F0
  8
DETAIL
  6
CONTINUOUS
 62
     5
 10
-25.401581
 20
1.5964970000002421
 30
0.0
 11
-25.257919000000001
 21
1.5964970000002421
 31
0.0
  0
ARC
  5
1F1
  8
DETAIL
  6
CONTINUOUS
 62
     5
 10
-25.407318
 20
1.9935610000002419
 30
0.0
 40
0.397098
 50
253.34868599999999
 51
270.82770699999998
  0
ARC
  5
1F2
  8
DETAIL
  6
CONTINUOUS
 62
     5
 10
-25.452483999999998
 20
1.8416600000002421
 30
0.0
 40
0.238627
 50
228.67117200000001
 51
253.291121
  0
ARC
  5
1F3
  8
DETAIL
  6
CONTINUOUS
 62
     5
 10
-25.468536
 20
1.818649000000242
 30
0.0
 40
0.210769
 50
200.77916500000001
 51
227.81426999999999
  0
ARC
  5
1F4
  8
DETAIL
  6
CONTINUOUS
 62
     5
 10
-25.375153000000001
 20
1.8512120000002421
 30
0.0
 40
0.309638
 50
179.00188199999999
 51
200.28328999999999
  0
LINE
  5
1F5
  8
DETAIL
  6
CONTINUOUS
 62
     5
 10
-25.684753000000001
 20
2.5356290000002422
 30
0.0
 11
-25.684753000000001
 21
1.856598000000242
 31
0.0
  0
ARC
  5
1F6
  8
DETAIL
  6
CONTINUOUS
 62
     5
 10
-25.888535000000001
 20
2.541000000000242
 30
0.0
 40
0.20386
 50
358.4912930000001
 51
16.123954000000001
  0
ARC
  5
1F7
  8
DETAIL
  6
CONTINUOUS
 62
     5
 10
-25.772293000000001
 20
2.5744320000002419
 30
0.0
 40
0.0829
 50
16.233253999999999
 51
47.509504999999997
  0
ARC
  5
1F8
  8
DETAIL
  6
CONTINUOUS
 62
     5
 10
-25.773696999999999
 20
2.5675350000002419
 30
0.0
 40
0.089014
 50
49.846364999999999
 51
77.990685999999997
  0
ARC
  5
1F9
  8
DETAIL
  6
CONTINUOUS
 62
     5
 10
-25.804183999999999
 20
2.4288790000002418
 30
0.0
 40
0.23098
 50
77.750208000000001
 51
91.185668999999947
  0
LINE
  5
1FA
  8
DETAIL
  6
CONTINUOUS
 62
     5
 10
-26.286269999999998
 20
2.659805000000242
 30
0.0
 11
-25.808959999999999
 21
2.659805000000242
 31
0.0
  0
ARC
  5
1FB
  8
DETAIL
  6
CONTINUOUS
 62
     5
 10
-26.293365000000001
 20
2.3305050000002421
 30
0.0
 40
0.3293789999999999
 50
88.764810999999995
 51
98.337108999999984
  0
ARC
  5
1FC
  8
DETAIL
  6
CONTINUOUS
 62
     5
 10
-26.330718999999998
 20
2.5765530000002421
 30
0.0
 40
0.080531
 50
97.434329000000005
 51
126.41299100000001
  0
ARC
  5
1FD
  8
DETAIL
  6
CONTINUOUS
 62
     5
 10
-26.336182000000001
 20
2.5910190000002422
 30
0.0
 40
0.065761
 50
130.05811299999999
 51
165.56247400000001
  0
ARC
  5
1FE
  8
DETAIL
  6
CONTINUOUS
 62
     5
 10
-26.194732999999999
 20
2.5537870000002418
 30
0.0
 40
0.212048
 50
165.34834799999999
 51
181.741007
  0
ARC
  5
1FF
  8
DETAIL
  6
CONTINUOUS
 62
     5
 10
-28.711348999999998
 20
2.533493000000242
 30
0.0
 40
2.3047149999999998
 50
350.22493900000001
 51
0.344155
  0
ARC
  5
200
  8
DETAIL
  6
CONTINUOUS
 62
     5
 10
-27.504028000000002
 20
2.3241580000002422
 30
0.0
 40
1.079393
 50
334.61712199999999
 51
350.29481900000002
  0
ARC
  5
201
  8
DETAIL
  6
CONTINUOUS
 62
     5
 10
-27.228760000000001
 20
2.2030640000002419
 30
0.0
 40
0.778829
 50
316.462896
 51
333.98566399999999
  0
ARC
  5
202
  8
DETAIL
  6
CONTINUOUS
 62
     5
 10
-27.529572000000002
 20
2.5064540000002422
 30
0.0
 40
1.205954999999999
 50
305.03254700000002
 51
315.85760399999998
  0
ARC
  5
203
  8
DETAIL
  6
CONTINUOUS
 62
     5
 10
-26.912659000000001
 20
1.617645000000242
 30
0.0
 40
0.124134
 50
256.11777499999999
 51
307.37364200000002
  0
ARC
  5
204
  8
DETAIL
  6
CONTINUOUS
 62
     5
 10
-26.902237
 20
1.6472470000002419
 30
0.0
 40
0.155404
 50
216.92835500000001
 51
255.0074589999999
  0
ARC
  5
205
  8
DETAIL
  6
CONTINUOUS
 62
     5
 10
-26.920853000000001
 20
1.639465000000242
 30
0.0
 40
0.135932
 50
177.43416199999999
 51
219.01785699999999
  0
ARC
  5
206
  8
DETAIL
  6
CONTINUOUS
 62
     5
 10
-26.953064000000001
 20
1.6356960000002421
 30
0.0
 40
0.104054
 50
116.97117
 51
174.573037
  0
ARC
  5
207
  8
DETAIL
  6
CONTINUOUS
 62
     5
 10
-27.303345
 20
2.276398000000242
 30
0.0
 40
0.6261910000000001
 50
298.94736399999999
 51
345.16744199999999
  0
ARC
  5
208
  8
DETAIL
  6
CONTINUOUS
 62
     5
 10
-27.786224000000001
 20
2.411743000000242
 30
0.0
 40
1.1276619999999999
 50
344.80042300000002
 51
356.86253799999997
  0
ARC
  5
209
  8
DETAIL
  6
CONTINUOUS
 62
     5
 10
-30.169830000000001
 20
2.548187000000242
 30
0.0
 40
3.515155
 50
356.76838500000002
 51
0.6436270000000001
  0
ARC
  5
20A
  8
DETAIL
  6
CONTINUOUS
 62
     5
 10
-26.271941999999999
 20
2.5994420000002418
 30
0.0
 40
0.382952
 50
164.42113599999999
 51
180.26893699999999
  0
ARC
  5
20B
  8
DETAIL
  6
CONTINUOUS
 62
     5
 10
-26.370422000000001
 20
2.6279140000002421
 30
0.0
 40
0.280448
 50
142.14354499999999
 51
164.61989399999999
  0
ARC
  5
20C
  8
DETAIL
  6
CONTINUOUS
 62
     5
 10
-26.399840999999999
 20
2.6474000000002418
 30
0.0
 40
0.245275
 50
113.535462
 51
141.518733
  0
ARC
  5
20D
  8
DETAIL
  6
CONTINUOUS
 62
     5
 10
-26.356902999999999
 20
2.535828000000242
 30
0.0
 40
0.364741
 50
88.673722999999995
 51
112.720736
  0
LINE
  5
20E
  8
DETAIL
  6
CONTINUOUS
 62
     5
 10
-25.739182
 20
2.9004670000002419
 30
0.0
 11
-26.348465000000001
 21
2.9004670000002419
 31
0.0
  0
ARC
  5
20F
  8
DETAIL
  6
CONTINUOUS
 62
     5
 10
-25.733353000000001
 20
2.5495760000002421
 30
0.0
 40
0.350948
 50
68.276449
 51
90.951269999999965
  0
ARC
  5
210
  8
DETAIL
  6
CONTINUOUS
 62
     5
 10
-25.701080000000001
 20
2.6369630000002422
 30
0.0
 40
0.257839
 50
41.924359999999993
 51
67.750059999999991
  0
ARC
  5
211
  8
DETAIL
  6
CONTINUOUS
 62
     5
 10
-25.744994999999999
 20
2.6101230000002422
 30
0.0
 40
0.308588
 50
358.418409
 51
40.183904999999982
  0
LINE
  5
212
  8
DETAIL
  6
CONTINUOUS
 62
     5
 10
-25.436523000000001
 20
1.910858000000242
 30
0.0
 11
-25.436523000000001
 21
2.6015930000002419
 31
0.0
  0
ARC
  5
213
  8
DETAIL
  6
CONTINUOUS
 62
     5
 10
-25.326706000000001
 20
1.906815000000242
 30
0.0
 40
0.109902
 50
177.89084299999999
 51
199.626048
  0
ARC
  5
214
  8
DETAIL
  6
CONTINUOUS
 62
     5
 10
-25.388366999999999
 20
1.885605000000242
 30
0.0
 40
0.044709
 50
200.56626799999989
 51
237.67420799999999
  0
ARC
  5
215
  8
DETAIL
  6
CONTINUOUS
 62
     5
 10
-25.377379999999999
 20
1.908463000000242
 30
0.0
 40
0.069957
 50
240.090182
 51
264.45648599999998
  0
ARC
  5
216
  8
DETAIL
  6
CONTINUOUS
 62
     5
 10
-25.352509000000001
 20
2.1229710000002422
 30
0.0
 40
0.285891
 50
263.64821499999988
 51
271.04242099999999
  0
LINE
  5
217
  8
DETAIL
  6
CONTINUOUS
 62
     5
 10
-25.316132
 20
1.8371280000002419
 30
0.0
 11
-25.347321000000001
 21
1.8371280000002419
 31
0.0
  0
ARC
  5
218
  8
DETAIL
  6
CONTINUOUS
 62
     5
 10
-25.307158999999999
 20
2.0161440000002422
 30
0.0
 40
0.179234
 50
267.13383199999998
 51
292.27202199999999
  0
ARC
  5
219
  8
DETAIL
  6
CONTINUOUS
 62
     5
 10
-25.285202000000002
 20
1.9436040000002419
 30
0.0
 40
0.104039
 50
296.22016500000001
 51
336.19460500000002
  0
ARC
  5
21A
  8
DETAIL
  6
CONTINUOUS
 62
     5
 10
-25.529022000000001
 20
2.0502320000002419
 30
0.0
 40
0.370156
 50
336.32785200000001
 51
353.60332099999999
  0
ARC
  5
21B
  8
DETAIL
  6
CONTINUOUS
 62
     5
 10
-27.116942999999999
 20
2.2702940000002418
 30
0.0
 40
1.9731399999999999
 50
352.39008699999999
 51
357.675319
  0
ARC
  5
21C
  8
DETAIL
  6
CONTINUOUS
 62
     5
 10
-27.097977
 20
2.2993320000002422
 30
0.0
 40
0.100597
 50
39.626784000000001
 51
91.847212999999968
  0
ARC
  5
21D
  8
DETAIL
  6
CONTINUOUS
 62
     5
 10
-27.12020900000001
 20
2.285431000000242
 30
0.0
 40
0.126642
 50
359.103363
 51
38.056513000000002
  0
ARC
  5
21E
  8
DETAIL
  6
CONTINUOUS
 62
     5
 10
-27.12020900000001
 20
2.2814640000002422
 30
0.0
 40
0.126642
 50
321.943487
 51
0.8966369999999999
  0
ARC
  5
21F
  8
DETAIL
  6
CONTINUOUS
 62
     5
 10
-27.097977
 20
2.267563000000242
 30
0.0
 40
0.100597
 50
268.15278699999999
 51
320.37321600000001
  0
LINE
  5
220
  8
DETAIL
  6
CONTINUOUS
 62
     5
 10
-28.30423
 20
2.1670070000002419
 30
0.0
 11
-27.101227000000002
 21
2.1670070000002419
 31
0.0
  0
ARC
  5
221
  8
DETAIL
  6
CONTINUOUS
 62
     5
 10
-28.307465000000001
 20
2.2675170000002418
 30
0.0
 40
0.100563
 50
219.617524
 51
271.84590400000002
  0
ARC
  5
222
  8
DETAIL
  6
CONTINUOUS
 62
     5
 10
-28.285187000000001
 20
2.2814640000002422
 30
0.0
 40
0.126662
 50
179.102846
 51
218.04852999999989
  0
ARC
  5
223
  8
DETAIL
  6
CONTINUOUS
 62
     5
 10
-28.285187000000001
 20
2.285431000000242
 30
0.0
 40
0.126662
 50
141.95148
 51
180.897164
  0
ARC
  5
224
  8
DETAIL
  6
CONTINUOUS
 62
     5
 10
-28.307465000000001
 20
2.2993620000002419
 30
0.0
 40
0.100563
 50
88.154095999999996
 51
140.382476
  0
LINE
  5
225
  8
DETAIL
  6
CONTINUOUS
 62
     5
 10
-27.101227000000002
 20
2.3998870000002421
 30
0.0
 11
-28.30423
 21
2.3998870000002421
 31
0.0
  0
ARC
  5
226
  8
DETAIL
  6
CONTINUOUS
 62
     5
 10
-27.241607999999999
 20
2.7997890000002421
 30
0.0
 40
0.10073
 50
39.658073000000002
 51
91.851605000000006
  0
ARC
  5
227
  8
DETAIL
  6
CONTINUOUS
 62
     5
 10
-27.263701999999999
 20
2.7859950000002418
 30
0.0
 40
0.126593
 50
359.10512899999998
 51
38.083530000000003
  0
ARC
  5
228
  8
DETAIL
  6
CONTINUOUS
 62
     5
 10
-27.263701999999999
 20
2.7820430000002419
 30
0.0
 40
0.126593
 50
321.91647
 51
0.894871
  0
ARC
  5
229
  8
DETAIL
  6
CONTINUOUS
 62
     5
 10
-27.241607999999999
 20
2.7682500000002421
 30
0.0
 40
0.10073
 50
268.14839499999999
 51
320.341927
  0
LINE
  5
22A
  8
DETAIL
  6
CONTINUOUS
 62
     5
 10
-28.152816999999999
 20
2.6675720000002419
 30
0.0
 11
-27.244872999999998
 21
2.6675720000002419
 31
0.0
  0
ARC
  5
22B
  8
DETAIL
  6
CONTINUOUS
 62
     5
 10
-28.156067
 20
2.7682500000002421
 30
0.0
 40
0.10073
 50
219.65806799999999
 51
271.85160000000002
  0
ARC
  5
22C
  8
DETAIL
  6
CONTINUOUS
 62
     5
 10
-28.133972
 20
2.7820430000002419
 30
0.0
 40
0.126593
 50
179.10512700000001
 51
218.083528
  0
ARC
  5
22D
  8
DETAIL
  6
CONTINUOUS
 62
     5
 10
-28.133972
 20
2.7859950000002418
 30
0.0
 40
0.126593
 50
141.916482
 51
180.89488299999999
  0
ARC
  5
22E
  8
DETAIL
  6
CONTINUOUS
 62
     5
 10
-28.156067
 20
2.7997890000002421
 30
0.0
 40
0.10073
 50
88.148399999999995
 51
140.34193200000001
  0
LINE
  5
22F
  8
DETAIL
  6
CONTINUOUS
 62
     5
 10
-27.244872999999998
 20
2.9004670000002419
 30
0.0
 11
-28.152816999999999
 21
2.9004670000002419
 31
0.0
  0
ARC
  5
230
  8
DETAIL
  6
CONTINUOUS
 62
     5
 10
-27.417418999999999
 20
-0.0730439999997577
 30
0.0
 40
0.068863
 50
268.38346200000001
 51
315.22449699999999
  0
ARC
  5
231
  8
DETAIL
  6
CONTINUOUS
 62
     5
 10
-27.420013000000001
 20
-0.0735169999997577
 30
0.0
 40
0.070406
 50
316.97976699999998
 51
1.120066
  0
LINE
  5
232
  8
DETAIL
  6
CONTINUOUS
 62
     5
 10
-27.349609000000001
 20
0.5838170000002422
 30
0.0
 11
-27.349609000000001
 21
-0.0721439999997577
 31
0.0
  0
ARC
  5
233
  8
DETAIL
  6
CONTINUOUS
 62
     5
 10
-27.420013000000001
 20
0.5851750000002423
 30
0.0
 40
0.070412
 50
358.89245599999998
 51
43.017959000000012
  0
ARC
  5
234
  8
DETAIL
  6
CONTINUOUS
 62
     5
 10
-27.417418999999999
 20
0.5847320000002423
 30
0.0
 40
0.068854
 50
44.757392999999993
 51
91.608941999999985
  0
LINE
  5
235
  8
DETAIL
  6
CONTINUOUS
 62
     5
 10
-27.97438
 20
0.6535640000002423
 30
0.0
 11
-27.419357000000002
 21
0.6535640000002423
 31
0.0
  0
ARC
  5
236
  8
DETAIL
  6
CONTINUOUS
 62
     5
 10
-27.975342000000001
 20
0.5822600000002423
 30
0.0
 40
0.071312
 50
89.230896000000001
 51
112.55985099999999
  0
ARC
  5
237
  8
DETAIL
  6
CONTINUOUS
 62
     5
 10
-27.980011000000001
 20
0.5948180000002422
 30
0.0
 40
0.057911
 50
113.060531
 51
138.48104699999999
  0
ARC
  5
238
  8
DETAIL
  6
CONTINUOUS
 62
     5
 10
-27.974640000000001
 20
0.5906370000002424
 30
0.0
 40
0.064701
 50
138.85803300000001
 51
161.61231599999999
  0
ARC
  5
239
  8
DETAIL
  6
CONTINUOUS
 62
     5
 10
-27.955963000000001
 20
0.5844420000002423
 30
0.0
 40
0.084393
 50
161.615554
 51
180.4222879999999
  0
LINE
  5
23A
  8
DETAIL
  6
CONTINUOUS
 62
     5
 10
-28.040344000000001
 20
-0.0721439999997577
 30
0.0
 11
-28.040344000000001
 21
0.5838170000002422
 31
0.0
  0
ARC
  5
23B
  8
DETAIL
  6
CONTINUOUS
 62
     5
 10
-27.955901999999998
 20
-0.0727689999997577
 30
0.0
 40
0.084453
 50
179.574566
 51
198.37795399999999
  0
ARC
  5
23C
  8
DETAIL
  6
CONTINUOUS
 62
     5
 10
-27.974685999999998
 20
-0.0790099999997577
 30
0.0
 40
0.064657
 50
198.38243800000001
 51
221.15090099999989
  0
ARC
  5
23D
  8
DETAIL
  6
CONTINUOUS
 62
     5
 10
-27.980042000000001
 20
-0.0831759999997578
 30
0.0
 40
0.057884
 50
221.53057799999999
 51
246.95801299999999
  0
ARC
  5
23E
  8
DETAIL
  6
CONTINUOUS
 62
     5
 10
-27.975342000000001
 20
-0.0705259999997578
 30
0.0
 40
0.071361
 50
247.458304
 51
270.77030600000001
  0
LINE
  5
23F
  8
DETAIL
  6
CONTINUOUS
 62
     5
 10
-27.419357000000002
 20
-0.1418759999997577
 30
0.0
 11
-27.97438
 21
-0.1418759999997577
 31
0.0
  0
ARC
  5
240
  8
DETAIL
  6
CONTINUOUS
 62
     5
 10
-23.746948
 20
-0.2811579999997577
 30
0.0
 40
0.193696
 50
189.82049599999999
 51
224.33389199999999
  0
ARC
  5
241
  8
DETAIL
  6
CONTINUOUS
 62
     5
 10
-23.747344999999999
 20
-0.2921909999997577
 30
0.0
 40
0.185859
 50
221.98843299999999
 51
257.57117699999998
  0
ARC
  5
242
  8
DETAIL
  6
CONTINUOUS
 62
     5
 10
-23.765625
 20
-0.3665769999997577
 30
0.0
 40
0.109296
 50
258.541358
 51
317.38165500000002
  0
ARC
  5
243
  8
DETAIL
  6
CONTINUOUS
 62
     5
 10
-27.323028999999998
 20
-0.1446079999997577
 30
0.0
 40
0.213503
 50
286.080804
 51
314.44771300000002
  0
ARC
  5
244
  8
DETAIL
  6
CONTINUOUS
 62
     5
 10
-27.386565999999998
 20
0.0793910000002423
 30
0.0
 40
0.4463420000000001
 50
268.77600000000001
 51
285.95494400000001
  0
LINE
  5
245
  8
DETAIL
  6
CONTINUOUS
 62
     5
 10
-27.993819999999999
 20
-0.3668519999997577
 30
0.0
 11
-27.396118000000001
 21
-0.3668519999997577
 31
0.0
  0
ARC
  5
246
  8
DETAIL
  6
CONTINUOUS
 62
     5
 10
-28.003357000000001
 20
0.0793910000002423
 30
0.0
 40
0.4463420000000001
 50
254.045051
 51
271.223995
  0
ARC
  5
247
  8
DETAIL
  6
CONTINUOUS
 62
     5
 10
-28.066894999999999
 20
-0.1446079999997577
 30
0.0
 40
0.213503
 50
225.552289
 51
253.91919100000001
  0
ARC
  5
248
  8
DETAIL
  6
CONTINUOUS
 62
     5
 10
-25.074463000000002
 20
-0.3247069999997578
 30
0.0
 40
0.15855
 50
310.82131600000002
 51
347.94760200000002
  0
ARC
  5
249
  8
DETAIL
  6
CONTINUOUS
 62
     5
 10
-25.044281000000002
 20
-0.3557739999997577
 30
0.0
 40
0.115339
 50
256.252295
 51
309.56465400000002
  0
ARC
  5
24A
  8
DETAIL
  6
CONTINUOUS
 62
     5
 10
-26.881699000000001
 20
-0.3827509999997577
 30
0.0
 40
0.093744
 50
231.57002700000001
 51
287.93582199999997
  0
ARC
  5
24B
  8
DETAIL
  6
CONTINUOUS
 62
     5
 10
-26.839645000000001
 20
-0.3245389999997577
 30
0.0
 40
0.16552
 50
198.17654899999999
 51
232.69394800000001
  0
LINE
  5
24C
  8
DETAIL
  6
CONTINUOUS
 62
     5
 10
-29.73168900000001
 20
-4.4999849999997581
 30
0.0
 11
-26.267578
 21
-4.4999849999997581
 31
0.0
  0
ARC
  5
24D
  8
DETAIL
  6
CONTINUOUS
 62
     5
 10
-23.825942999999999
 20
-0.2955469999997577
 30
0.0
 40
0.113403
 50
132.42426800000001
 51
189.465991
  0
ARC
  5
24E
  8
DETAIL
  6
CONTINUOUS
 62
     5
 10
-24.845825000000001
 20
0.7179260000002423
 30
0.0
 40
1.639872999999999
 50
315.05228399999999
 51
328.63245899999998
  0
ARC
  5
24F
  8
DETAIL
  6
CONTINUOUS
 62
     5
 10
-27.328491
 20
-0.1482699999997578
 30
0.0
 40
0.214814
 50
316.17281100000002
 51
344.27974899999998
  0
ARC
  5
250
  8
DETAIL
  6
CONTINUOUS
 62
     5
 10
-28.061432
 20
-0.1482699999997578
 30
0.0
 40
0.214814
 50
195.720249
 51
223.82718800000001
  0
ARC
  5
251
  8
DETAIL
  6
CONTINUOUS
 62
     5
 10
-25.065369
 20
-0.3208309999997577
 30
0.0
 40
0.150571
 50
345.78047700000002
 51
23.845410999999991
  0
ARC
  5
252
  8
DETAIL
  6
CONTINUOUS
 62
     5
 10
-24.541504
 20
2.0423430000002418
 30
0.0
 40
2.5655369999999991
 50
234.74545000000001
 51
258.073442
  0
ARC
  5
253
  8
DETAIL
  6
CONTINUOUS
 62
     5
 10
-27.979126000000001
 20
2.7910770000002421
 30
0.0
 40
3.4519329999999999
 50
289.04326200000003
 51
304.531856
  0
ARC
  5
254
  8
DETAIL
  6
CONTINUOUS
 62
     5
 10
-26.865829000000002
 20
-0.3278349999997578
 30
0.0
 40
0.139708
 50
159.125021
 51
200.239577
  0
LINE
  5
255
  8
DETAIL
  6
CONTINUOUS
 62
     5
 10
-45.299804999999992
 20
27.800003000000249
 30
0.0
 11
-45.299804999999992
 21
6.8000030000002409
 31
0.0
  0
ARC
  5
256
  8
DETAIL
  6
CONTINUOUS
 62
     5
 10
-44.299804999999999
 20
6.8000030000002409
 30
0.0
 40
1.0
 50
180.00003599999999
 51
270.00001800000001
  0
ARC
  5
257
  8
DETAIL
  6
CONTINUOUS
 62
     5
 10
-44.299804999999999
 20
27.800003000000249
 30
0.0
 40
1.0
 50
89.999981999999974
 51
179.99996400000001
  0
LINE
  5
10B5
  8
DETAIL
  6
CONTINUOUS
 62
     5
 10
-11.999743
 20
-4.4999739999997566
 30
0.0
 11
-10.267687
 21
-7.4999819999997559
 31
0.0
  0
LINE
  5
10B6
  8
DETAIL
  6
CONTINUOUS
 62
     5
 10
-13.731705
 20
-7.5000299999997582
 30
0.0
 11
-11.999656999999999
 21
-4.5000349999997571
 31
0.0
  0
ARC
  5
10B7
  8
DETAIL
  6
CONTINUOUS
 62
     5
 10
-8.9997559999999996
 20
-5.9999849999997581
 30
0.0
 40
3.5
 50
270.00001800000001
 51
0.0
  0
ARC
  5
10B8
  8
DETAIL
  6
CONTINUOUS
 62
     5
 10
-8.9997559999999996
 20
-5.9999849999997581
 30
0.0
 40
3.5
 50
270.00001800000001
 51
0.0
  0
ARC
  5
10B9
  8
DETAIL
  6
CONTINUOUS
 62
     5
 10
-8.9997559999999996
 20
-5.9999849999997581
 30
0.0
 40
3.0
 50
270.00001800000001
 51
0.0
  0
ARC
  5
10BB
  8
DETAIL
  6
CONTINUOUS
 62
     5
 10
-14.999756
 20
-5.9999849999997581
 30
0.0
 40
3.5
 50
180.00003599999999
 51
270.00001800000001
  0
ARC
  5
10BC
  8
DETAIL
  6
CONTINUOUS
 62
     5
 10
-14.999756
 20
-5.9999849999997581
 30
0.0
 40
3.5
 50
180.00003599999999
 51
270.00001800000001
  0
ARC
  5
10BD
  8
DETAIL
  6
CONTINUOUS
 62
     5
 10
-14.999756
 20
-5.9999849999997581
 30
0.0
 40
3.0
 50
180.00003599999999
 51
270.00001800000001
  0
LINE
  5
10BF
  8
DETAIL
  6
CONTINUOUS
 62
     5
 10
-8.9997559999999996
 20
-9.4999849999997572
 30
0.0
 11
-14.999756
 21
-9.4999849999997572
 31
0.0
  0
LINE
  5
10C0
  8
DETAIL
  6
CONTINUOUS
 62
     5
 10
-8.9997559999999996
 20
-9.4999849999997572
 30
0.0
 11
-14.999756
 21
-9.4999849999997572
 31
0.0
  0
LINE
  5
10C1
  8
DETAIL
  6
CONTINUOUS
 62
     5
 10
-8.9997559999999996
 20
-8.9999849999997572
 30
0.0
 11
-14.999756
 21
-8.9999849999997572
 31
0.0
  0
LINE
  5
10C3
  8
DETAIL
  6
CONTINUOUS
 62
     5
 10
-13.731688999999999
 20
-7.4999849999997572
 30
0.0
 11
-10.267578
 21
-7.4999849999997572
 31
0.0
  0
LINE
  5
10C4
  8
DETAIL
  6
CONTINUOUS
 62
     5
 10
-14.210509999999999
 20
0.7855380000002423
 30
0.0
 11
-12.126754999999999
 21
0.7855380000002423
 31
0.0
  0
LINE
  5
10C5
  8
DETAIL
  6
CONTINUOUS
 62
     5
 10
-12.099518
 20
1.010635000000242
 30
0.0
 11
-14.210509999999999
 21
1.010635000000242
 31
0.0
  0
LINE
  5
10C6
  8
DETAIL
  6
CONTINUOUS
 62
     5
 10
-14.373459
 20
2.531860000000242
 30
0.0
 11
-11.688186999999999
 21
2.531860000000242
 31
0.0
  0
LINE
  5
10C7
  8
DETAIL
  6
CONTINUOUS
 62
     5
 10
-8.9997559999999996
 20
-2.4999849999997572
 30
0.0
 11
-14.999756
 21
-2.4999849999997572
 31
0.0
  0
LINE
  5
10C8
  8
DETAIL
  6
CONTINUOUS
 62
     5
 10
-8.9997559999999996
 20
-2.4999849999997572
 30
0.0
 11
-14.999756
 21
-2.4999849999997572
 31
0.0
  0
LINE
  5
10C9
  8
DETAIL
  6
CONTINUOUS
 62
     5
 10
-8.9997559999999996
 20
-2.9999849999997572
 30
0.0
 11
-14.999756
 21
-2.9999849999997572
 31
0.0
  0
ARC
  5
10CB
  8
DETAIL
  6
CONTINUOUS
 62
     5
 10
-11.544739
 20
3.9596100000002421
 30
0.0
 40
4.1761730000000004
 50
254.09302700000001
 51
268.77632799999998
  0
ARC
  5
10CC
  8
DETAIL
  6
CONTINUOUS
 62
     5
 10
-13.769257
 20
2.206467000000242
 30
0.0
 40
2.2983839999999991
 50
291.21037100000001
 51
305.584901
  0
ARC
  5
10CD
  8
DETAIL
  6
CONTINUOUS
 62
     5
 10
-14.084258999999999
 20
2.6979220000002422
 30
0.0
 40
3.0876389999999989
 50
296.85779000000002
 51
307.56517700000001
  0
LINE
  5
10CE
  8
DETAIL
  6
CONTINUOUS
 62
     5
 10
-11.688186999999999
 20
2.7530060000002421
 30
0.0
 11
-13.026947
 21
2.7530060000002421
 31
0.0
  0
LINE
  5
10CF
  8
DETAIL
  6
CONTINUOUS
 62
     5
 10
-13.570251000000001
 20
1.286087000000242
 30
0.0
 11
-12.355682
 21
1.286087000000242
 31
0.0
  0
LINE
  5
10D0
  8
DETAIL
  6
CONTINUOUS
 62
     5
 10
-12.243042000000001
 20
2.1125790000002418
 30
0.0
 11
-13.674988000000001
 21
2.1125790000002418
 31
0.0
  0
LINE
  5
10D1
  8
DETAIL
  6
CONTINUOUS
 62
     5
 10
-13.674988000000001
 20
1.895370000000242
 30
0.0
 11
-12.243042000000001
 21
1.895370000000242
 31
0.0
  0
LINE
  5
10D2
  8
DETAIL
  6
CONTINUOUS
 62
     5
 10
-12.367217999999999
 20
1.495712000000242
 30
0.0
 11
-13.558533000000001
 21
1.495712000000242
 31
0.0
  0
ARC
  5
10D3
  8
DETAIL
  6
CONTINUOUS
 62
     5
 10
-11.050903
 20
5.237015000000242
 30
0.0
 40
5.7493089999999993
 50
250.80133299999989
 51
257.62688400000002
  0
ARC
  5
10D4
  8
DETAIL
  6
CONTINUOUS
 62
     5
 10
-14.863922000000001
 20
6.1416930000002408
 30
0.0
 40
6.6366690000000004
 50
274.77488
 51
281.27025400000002
  0
ARC
  5
10D5
  8
DETAIL
  6
CONTINUOUS
 62
     5
 10
-14.456512
 20
5.1666870000002421
 30
0.0
 40
5.3830599999999986
 50
270.966319
 51
283.99239799999998
  0
ARC
  5
10D6
  8
DETAIL
  6
CONTINUOUS
 62
     5
 10
-11.389709
 20
3.4660340000002421
 30
0.0
 40
3.9402140000000001
 50
227.428077
 51
243.38450599999999
  0
ARC
  5
10D7
  8
DETAIL
  6
CONTINUOUS
 62
     5
 10
-11.391785
 20
3.323029000000242
 30
0.0
 40
3.6047210000000001
 50
226.418015
 51
235.89408299999999
  0
LINE
  5
10D8
  8
DETAIL
  6
CONTINUOUS
 62
     5
 10
-13.298615
 20
2.7530060000002421
 30
0.0
 11
-14.392929000000001
 21
2.7530060000002421
 31
0.0
  0
ARC
  5
10D9
  8
DETAIL
  6
CONTINUOUS
 62
     5
 10
-13.640869
 20
1.5815890000002419
 30
0.0
 40
0.2868110000000001
 50
228.41289499999999
 51
253.8997730000001
  0
ARC
  5
10DA
  8
DETAIL
  6
CONTINUOUS
 62
     5
 10
-13.796265
 20
2.2328190000002421
 30
0.0
 40
0.149628
 50
56.561096999999997
 51
91.122967999999972
  0
ARC
  5
10DB
  8
DETAIL
  6
CONTINUOUS
 62
     5
 10
-10.920540000000001
 20
4.1052400000002409
 30
0.0
 40
4.516894999999999
 50
236.50815800000001
 51
243.475101
  0
LINE
  5
10DC
  8
DETAIL
  6
CONTINUOUS
 62
     5
 10
-13.298615
 20
2.9082030000002419
 30
0.0
 11
-13.298615
 21
2.7530060000002421
 31
0.0
  0
ARC
  5
10DD
  8
DETAIL
  6
CONTINUOUS
 62
     5
 10
-13.206329
 20
2.909103000000242
 30
0.0
 40
0.092289
 50
122.683161
 51
180.56158300000001
  0
ARC
  5
10DE
  8
DETAIL
  6
CONTINUOUS
 62
     5
 10
-13.166138
 20
2.8454130000002422
 30
0.0
 40
0.167593
 50
88.847872999999993
 51
122.487954
  0
ARC
  5
10DF
  8
DETAIL
  6
CONTINUOUS
 62
     5
 10
-13.159409
 20
2.8454130000002422
 30
0.0
 40
0.167593
 50
57.512056999999992
 51
91.152131999999966
  0
ARC
  5
10E0
  8
DETAIL
  6
CONTINUOUS
 62
     5
 10
-13.119232
 20
2.909103000000242
 30
0.0
 40
0.092289
 50
359.43842799999999
 51
57.316843999999989
  0
LINE
  5
10E1
  8
DETAIL
  6
CONTINUOUS
 62
     5
 10
-13.026947
 20
2.7530060000002421
 30
0.0
 11
-13.026947
 21
2.9082030000002419
 31
0.0
  0
ARC
  5
10E2
  8
DETAIL
  6
CONTINUOUS
 62
     5
 10
-13.578491
 20
1.7992710000002421
 30
0.0
 40
0.513248
 50
253.948903
 51
270.9208569999999
  0
ARC
  5
10E3
  8
DETAIL
  6
CONTINUOUS
 62
     5
 10
-13.762878000000001
 20
2.2847600000002419
 30
0.0
 40
0.087899
 50
359.15638799999999
 51
56.058259
  0
LINE
  5
10E4
  8
DETAIL
  6
CONTINUOUS
 62
     5
 10
-13.674988000000001
 20
2.1125790000002418
 30
0.0
 11
-13.674988000000001
 21
2.2834630000002418
 31
0.0
  0
LINE
  5
10E5
  8
DETAIL
  6
CONTINUOUS
 62
     5
 10
-13.674988000000001
 20
1.619751000000242
 30
0.0
 11
-13.674988000000001
 21
1.895370000000242
 31
0.0
  0
ARC
  5
10E6
  8
DETAIL
  6
CONTINUOUS
 62
     5
 10
-13.499893
 20
1.617432000000242
 30
0.0
 40
0.175117
 50
179.24301500000001
 51
195.9671699999999
  0
ARC
  5
10E7
  8
DETAIL
  6
CONTINUOUS
 62
     5
 10
-13.566864000000001
 20
1.5982510000002419
 30
0.0
 40
0.105452
 50
195.96044000000001
 51
220.28062600000001
  0
ARC
  5
10E8
  8
DETAIL
  6
CONTINUOUS
 62
     5
 10
-13.577681999999999
 20
1.590973000000242
 30
0.0
 40
0.092502
 50
221.17404199999999
 51
248.82376099999999
  0
ARC
  5
10E9
  8
DETAIL
  6
CONTINUOUS
 62
     5
 10
-13.56134
 20
1.6371310000002419
 30
0.0
 40
0.141441
 50
249.404143
 51
271.13629500000002
  0
ARC
  5
10EA
  8
DETAIL
  6
CONTINUOUS
 62
     5
 10
-14.389359000000001
 20
3.7892610000002418
 30
0.0
 40
4.2368559999999986
 50
281.193803
 51
289.98182500000001
  0
ARC
  5
10EB
  8
DETAIL
  6
CONTINUOUS
 62
     5
 10
-20.834136999999998
 20
-0.0974119999997578
 30
0.0
 40
3.2326399999999991
 50
55.802160999999991
 51
60.705368999999997
  0
ARC
  5
10EC
  8
DETAIL
  6
CONTINUOUS
 62
     5
 10
-19.198212000000002
 20
2.828125000000242
 30
0.0
 40
0.119315
 50
190.727722
 51
242.98814999999999
  0
ARC
  5
10ED
  8
DETAIL
  6
CONTINUOUS
 62
     5
 10
-19.187286
 20
2.825424000000242
 30
0.0
 40
0.129637
 50
145.17465999999999
 51
188.653704
  0
ARC
  5
10EE
  8
DETAIL
  6
CONTINUOUS
 62
     5
 10
-19.180358999999999
 20
2.8241420000002422
 30
0.0
 40
0.13608
 50
103.252557
 51
146.393835
  0
ARC
  5
10EF
  8
DETAIL
  6
CONTINUOUS
 62
     5
 10
-19.181915
 20
2.8055570000002419
 30
0.0
 40
0.153923
 50
54.899131000000011
 51
101.104305
  0
ARC
  5
10F0
  8
DETAIL
  6
CONTINUOUS
 62
     5
 10
-21.585235999999998
 20
14.562180000000239
 30
0.0
 40
14.657591999999999
 50
269.89152000000001
 51
273.95952599999998
  0
ARC
  5
10F1
  8
DETAIL
  6
CONTINUOUS
 62
     5
 10
-21.066421999999999
 20
0.8444820000002422
 30
0.0
 40
0.105529
 50
268.214204
 51
320.80230299999999
  0
ARC
  5
10F2
  8
DETAIL
  6
CONTINUOUS
 62
     5
 10
-21.092255000000002
 20
0.8609310000002423
 30
0.0
 40
0.135991
 50
322.31210199999998
 51
0.9201910000000001
  0
ARC
  5
10F3
  8
DETAIL
  6
CONTINUOUS
 62
     5
 10
-21.092255000000002
 20
0.8652950000002423
 30
0.0
 40
0.135991
 50
359.07980900000001
 51
37.687897999999997
  0
ARC
  5
10F4
  8
DETAIL
  6
CONTINUOUS
 62
     5
 10
-21.066421999999999
 20
0.8817440000002422
 30
0.0
 40
0.105529
 50
39.197696999999998
 51
91.785795999999976
  0
ARC
  5
10F5
  8
DETAIL
  6
CONTINUOUS
 62
     5
 10
-20.907226999999999
 20
1.741714000000242
 30
0.0
 40
0.106359
 50
268.12600499999991
 51
320.18113099999999
  0
ARC
  5
10F6
  8
DETAIL
  6
CONTINUOUS
 62
     5
 10
-20.929625999999999
 20
1.755585000000242
 30
0.0
 40
0.132496
 50
321.7773259999999
 51
0.8856900000000001
  0
ARC
  5
10F7
  8
DETAIL
  6
CONTINUOUS
 62
     5
 10
-20.929625999999999
 20
1.759674000000242
 30
0.0
 40
0.132496
 50
359.11430999999999
 51
38.222673999999998
  0
ARC
  5
10F8
  8
DETAIL
  6
CONTINUOUS
 62
     5
 10
-20.907226999999999
 20
1.773544000000242
 30
0.0
 40
0.106359
 50
39.818868999999999
 51
91.873994999999965
  0
ARC
  5
10F9
  8
DETAIL
  6
CONTINUOUS
 62
     5
 10
-20.592711999999999
 20
-0.1835939999997578
 30
0.0
 40
0.145961
 50
352.72284500000001
 51
34.423406
  0
ARC
  5
10FA
  8
DETAIL
  6
CONTINUOUS
 62
     5
 10
-20.550995
 20
-0.1601559999997577
 30
0.0
 40
0.09839
 50
36.901541999999999
 51
66.952833999999996
  0
ARC
  5
10FB
  8
DETAIL
  6
CONTINUOUS
 62
     5
 10
-20.562056999999999
 20
-0.1920319999997577
 30
0.0
 40
0.13207
 50
67.950020999999992
 51
94.798407999999981
  0
LINE
  5
10FC
  8
DETAIL
  6
CONTINUOUS
 62
     5
 10
-20.541916000000001
 20
2.3261570000002418
 30
0.0
 11
-20.541916000000001
 21
1.984589000000242
 31
0.0
  0
ARC
  5
10FD
  8
DETAIL
  6
CONTINUOUS
 62
     5
 10
-20.944077
 20
2.330444000000242
 30
0.0
 40
0.4021800000000001
 50
359.38783599999999
 51
19.322901000000002
  0
ARC
  5
10FE
  8
DETAIL
  6
CONTINUOUS
 62
     5
 10
-20.84761
 20
2.3631740000002419
 30
0.0
 40
0.300323
 50
19.520281000000001
 51
44.300449999999998
  0
ARC
  5
10FF
  8
DETAIL
  6
CONTINUOUS
 62
     5
 10
-20.850708000000001
 20
2.3553010000002419
 30
0.0
 40
0.308062
 50
44.94563999999999
 51
70.253290000000007
  0
ARC
  5
1100
  8
DETAIL
  6
CONTINUOUS
 62
     5
 10
-20.899536000000001
 20
2.2118990000002419
 30
0.0
 40
0.4595430000000001
 50
70.564022999999992
 51
90.899634000000006
  0
ARC
  5
1101
  8
DETAIL
  6
CONTINUOUS
 62
     5
 10
-20.921326000000001
 20
2.2799070000002422
 30
0.0
 40
0.147118
 50
69.789397999999991
 51
91.896178999999975
  0
ARC
  5
1102
  8
DETAIL
  6
CONTINUOUS
 62
     5
 10
-20.895202999999999
 20
2.3540650000002419
 30
0.0
 40
0.068499
 50
34.617860999999998
 51
68.875920999999991
  0
ARC
  5
1103
  8
DETAIL
  6
CONTINUOUS
 62
     5
 10
-20.919616999999999
 20
2.3411100000002421
 30
0.0
 40
0.096009
 50
8.2676020000000001
 51
32.697642000000002
  0
ARC
  5
1104
  8
DETAIL
  6
CONTINUOUS
 62
     5
 10
-21.104842999999999
 20
2.3116000000002419
 30
0.0
 40
0.283568
 50
359.01153299999999
 51
8.7866990000000005
  0
LINE
  5
1105
  8
DETAIL
  6
CONTINUOUS
 62
     5
 10
-20.82132
 20
1.984589000000242
 30
0.0
 11
-20.82132
 21
2.3067170000002419
 31
0.0
  0
ARC
  5
1106
  8
DETAIL
  6
CONTINUOUS
 62
     5
 10
-20.722411999999998
 20
1.9842530000002421
 30
0.0
 40
0.098895
 50
179.80240800000001
 51
236.04412500000001
  0
ARC
  5
1107
  8
DETAIL
  6
CONTINUOUS
 62
     5
 10
-20.680817000000001
 20
2.0455320000002422
 30
0.0
 40
0.172966
 50
235.95010400000001
 51
269.73411199999998
  0
ARC
  5
1108
  8
DETAIL
  6
CONTINUOUS
 62
     5
 10
-20.674515
 20
2.034836000000241
 30
0.0
 40
0.16243
 50
267.49370699999997
 51
303.200085
  0
ARC
  5
1109
  8
DETAIL
  6
CONTINUOUS
 62
     5
 10
-20.642426
 20
1.981857000000242
 30
0.0
 40
0.100541
 50
304.43114800000001
 51
1.560870999999999
  0
LINE
  5
110A
  8
DETAIL
  6
CONTINUOUS
 62
     5
 10
-22.051559000000001
 20
0.7389980000002423
 30
0.0
 11
-22.051559000000001
 21
-0.0721439999997577
 31
0.0
  0
LINE
  5
110B
  8
DETAIL
  6
CONTINUOUS
 62
     5
 10
-22.051559000000001
 20
1.6354060000002419
 30
0.0
 11
-22.051559000000001
 21
0.9872130000002423
 31
0.0
  0
LINE
  5
110C
  8
DETAIL
  6
CONTINUOUS
 62
     5
 10
-22.342499
 20
-0.0176999999997578
 30
0.0
 11
-22.342499
 21
1.6354060000002419
 31
0.0
  0
LINE
  5
110D
  8
DETAIL
  6
CONTINUOUS
 62
     5
 10
-22.039856
 20
2.9004670000002419
 30
0.0
 11
-22.039856
 21
2.6713710000002422
 31
0.0
  0
ARC
  5
110E
  8
DETAIL
  6
CONTINUOUS
 62
     5
 10
-22.141983
 20
2.9012150000002421
 30
0.0
 40
0.102137
 50
359.58469500000001
 51
57.931178000000003
  0
ARC
  5
110F
  8
DETAIL
  6
CONTINUOUS
 62
     5
 10
-22.18927
 20
2.8255310000002418
 30
0.0
 40
0.191376
 50
57.967794999999988
 51
91.164153999999996
  0
ARC
  5
1110
  8
DETAIL
  6
CONTINUOUS
 62
     5
 10
-22.197037000000002
 20
2.8255310000002418
 30
0.0
 40
0.191376
 50
88.835851000000005
 51
122.0322169999999
  0
ARC
  5
1111
  8
DETAIL
  6
CONTINUOUS
 62
     5
 10
-22.244308
 20
2.9012150000002421
 30
0.0
 40
0.102137
 50
122.068827
 51
180.41530800000001
  0
LINE
  5
1112
  8
DETAIL
  6
CONTINUOUS
 62
     5
 10
-22.346436000000001
 20
2.6713710000002422
 30
0.0
 11
-22.346436000000001
 21
2.9004670000002419
 31
0.0
  0
ARC
  5
1113
  8
DETAIL
  6
CONTINUOUS
 62
     5
 10
-21.657684
 20
3.2099150000002421
 30
0.0
 40
3.3056049999999999
 50
263.15665999999999
 51
270.774698
  0
LINE
  5
1114
  8
DETAIL
  6
CONTINUOUS
 62
     5
 10
-21.069701999999999
 20
0.7389980000002423
 30
0.0
 11
-22.051559000000001
 21
0.7389980000002423
 31
0.0
  0
LINE
  5
1115
  8
DETAIL
  6
CONTINUOUS
 62
     5
 10
-22.051559000000001
 20
0.9872130000002423
 30
0.0
 11
-21.069701999999999
 21
0.9872130000002423
 31
0.0
  0
LINE
  5
1116
  8
DETAIL
  6
CONTINUOUS
 62
     5
 10
-20.910706000000001
 20
1.6354060000002419
 30
0.0
 11
-22.051559000000001
 21
1.6354060000002419
 31
0.0
  0
LINE
  5
1117
  8
DETAIL
  6
CONTINUOUS
 62
     5
 10
-22.039856
 20
2.6713710000002422
 30
0.0
 11
-20.906769000000001
 21
2.6713710000002422
 31
0.0
  0
ARC
  5
1118
  8
DETAIL
  6
CONTINUOUS
 62
     5
 10
-14.313034
 20
-0.3576969999997577
 30
0.0
 40
0.11425
 50
221.55095900000001
 51
270.781542
  0
ARC
  5
1119
  8
DETAIL
  6
CONTINUOUS
 62
     5
 10
-14.26088
 20
-0.3080289999997578
 30
0.0
 40
0.186245
 50
191.509806
 51
222.34455899999989
  0
ARC
  5
111A
  8
DETAIL
  6
CONTINUOUS
 62
     5
 10
-14.864898999999999
 20
-0.3648679999997577
 30
0.0
 40
0.112249
 50
289.77402999999998
 51
342.90770099999997
  0
ARC
  5
111B
  8
DETAIL
  6
CONTINUOUS
 62
     5
 10
-14.863922000000001
 20
-0.3476099999997577
 30
0.0
 40
0.128339
 50
244.50725199999999
 51
286.76507199999998
  0
ARC
  5
111C
  8
DETAIL
  6
CONTINUOUS
 62
     5
 10
-14.856125
 20
-0.3211519999997577
 30
0.0
 40
0.155646
 50
209.35102499999999
 51
246.10660899999999
  0
ARC
  5
111D
  8
DETAIL
  6
CONTINUOUS
 62
     5
 10
-14.875305000000001
 20
-0.3331449999997577
 30
0.0
 40
0.13306
 50
162.512576
 51
208.899259
  0
ARC
  5
111E
  8
DETAIL
  6
CONTINUOUS
 62
     5
 10
-19.337233999999999
 20
-0.2476499999997578
 30
0.0
 40
0.146583
 50
282.68705299999999
 51
333.62565499999999
  0
ARC
  5
111F
  8
DETAIL
  6
CONTINUOUS
 62
     5
 10
-19.329193
 20
-0.2537839999997578
 30
0.0
 40
0.138986
 50
233.88175899999999
 51
280.004032
  0
LINE
  5
1120
  8
DETAIL
  6
CONTINUOUS
 62
     5
 10
-18.623871000000001
 20
-0.3165739999997577
 30
0.0
 11
-16.082062000000001
 21
-0.3165739999997577
 31
0.0
  0
ARC
  5
1121
  8
DETAIL
  6
CONTINUOUS
 62
     5
 10
-21.409331999999999
 20
41.740982000000237
 30
0.0
 40
42.104545999999999
 50
269.72286300000002
 51
271.12230699999998
  0
ARC
  5
1122
  8
DETAIL
  6
CONTINUOUS
 62
     5
 10
-20.589279000000001
 20
-0.2293549999997577
 30
0.0
 40
0.12622
 50
272.10845599999999
 51
322.59754600000002
  0
ARC
  5
1123
  8
DETAIL
  6
CONTINUOUS
 62
     5
 10
-14.999756
 20
-5.9999849999997581
 30
0.0
 40
3.5
 50
89.999981999999974
 51
179.99996400000001
  0
ARC
  5
1124
  8
DETAIL
  6
CONTINUOUS
 62
     5
 10
-14.999756
 20
-5.9999849999997581
 30
0.0
 40
3.5
 50
89.999981999999974
 51
179.99996400000001
  0
ARC
  5
1125
  8
DETAIL
  6
CONTINUOUS
 62
     5
 10
-14.999756
 20
-5.9999849999997581
 30
0.0
 40
3.0
 50
89.999981999999974
 51
179.99996400000001
  0
ARC
  5
1127
  8
DETAIL
  6
CONTINUOUS
 62
     5
 10
-21.647141000000001
 20
3.5624850000002422
 30
0.0
 40
3.9257119999999999
 50
263.59198199999997
 51
270.49843700000002
  0
ARC
  5
1128
  8
DETAIL
  6
CONTINUOUS
 62
     5
 10
-14.309601000000001
 20
-0.3117219999997578
 30
0.0
 40
0.137913
 50
156.261833
 51
194.04932199999999
  0
ARC
  5
1129
  8
DETAIL
  6
CONTINUOUS
 62
     5
 10
-18.192810000000001
 20
0.7895200000002423
 30
0.0
 40
3.6346239999999992
 50
340.93222100000003
 51
356.88511599999998
  0
ARC
  5
112A
  8
DETAIL
  6
CONTINUOUS
 62
     5
 10
-18.244842999999999
 20
0.8544620000002423
 30
0.0
 40
3.4397160000000002
 50
340.51029599999998
 51
355.77022699999998
  0
ARC
  5
112B
  8
DETAIL
  6
CONTINUOUS
 62
     5
 10
-29.709105999999998
 20
5.6197810000002422
 30
0.0
 40
12.062832999999999
 50
330.54080299999998
 51
333.782937
  0
ARC
  5
112C
  8
DETAIL
  6
CONTINUOUS
 62
     5
 10
-19.323944000000001
 20
-0.2421719999997577
 30
0.0
 40
0.151482
 50
190.66298599999999
 51
234.86445900000001
  0
ARC
  5
112D
  8
DETAIL
  6
CONTINUOUS
 62
     5
 10
-16.113281000000001
 20
-0.2101289999997577
 30
0.0
 40
0.124376
 50
324.35428100000001
 51
1.032991999999999
  0
ARC
  5
112E
  8
DETAIL
  6
CONTINUOUS
 62
     5
 10
-16.080017000000002
 20
-0.2319949999997577
 30
0.0
 40
0.084606
 50
268.60884499999997
 51
323.255584
  0
ARC
  5
112F
  8
DETAIL
  6
CONTINUOUS
 62
     5
 10
-18.628326000000001
 20
-0.2105559999997578
 30
0.0
 40
0.106118
 50
222.768249
 51
272.41410100000002
  0
ARC
  5
1130
  8
DETAIL
  6
CONTINUOUS
 62
     5
 10
-18.622101000000001
 20
-0.2104029999997577
 30
0.0
 40
0.110875
 50
178.70403099999999
 51
220.64281299999999
  0
ARC
  5
1131
  8
DETAIL
  6
CONTINUOUS
 62
     5
 10
-21.865112
 20
1.623108000000242
 30
0.0
 40
1.974113999999999
 50
251.02579300000011
 51
263.59700299999997
  0
ARC
  5
1132
  8
DETAIL
  6
CONTINUOUS
 62
     5
 10
-20.642638999999999
 20
-0.1852109999997577
 30
0.0
 40
0.19544
 50
321.816821
 51
355.04569800000002
  0
ARC
  5
1133
  8
DETAIL
  6
CONTINUOUS
 62
     5
 10
-14.370117
 20
-0.2888949999997577
 30
0.0
 40
0.073415
 50
86.584012999999985
 51
153.54807600000001
  0
ARC
  5
1134
  8
DETAIL
  6
CONTINUOUS
 62
     5
 10
-14.000655999999999
 20
0.6211240000002423
 30
0.0
 40
0.078815
 50
169.587559
 51
226.08775800000001
  0
ARC
  5
1135
  8
DETAIL
  6
CONTINUOUS
 62
     5
 10
-13.945983999999999
 20
0.6124880000002423
 30
0.0
 40
0.134161
 50
134.672493
 51
170.18255099999999
  0
ARC
  5
1136
  8
DETAIL
  6
CONTINUOUS
 62
     5
 10
-13.950806
 20
0.6230620000002423
 30
0.0
 40
0.123309
 50
96.756821999999971
 51
136.53019499999999
  0
ARC
  5
1137
  8
DETAIL
  6
CONTINUOUS
 62
     5
 10
-13.957367
 20
0.6334840000002422
 30
0.0
 40
0.112322
 50
44.21414699999999
 51
94.065781999999984
  0
ARC
  5
1138
  8
DETAIL
  6
CONTINUOUS
 62
     5
 10
-14.213744999999999
 20
0.8836820000002422
 30
0.0
 40
0.098208
 50
219.88958400000001
 51
271.88374299999998
  0
ARC
  5
1139
  8
DETAIL
  6
CONTINUOUS
 62
     5
 10
-14.19342
 20
0.8962100000002422
 30
0.0
 40
0.12187
 50
179.118405
 51
218.2840350000001
  0
ARC
  5
113A
  8
DETAIL
  6
CONTINUOUS
 62
     5
 10
-14.19342
 20
0.8999630000002422
 30
0.0
 40
0.12187
 50
141.71597499999999
 51
180.88160500000001
  0
ARC
  5
113B
  8
DETAIL
  6
CONTINUOUS
 62
     5
 10
-14.213744999999999
 20
0.9124910000002422
 30
0.0
 40
0.098208
 50
88.116256999999976
 51
140.11041599999999
  0
ARC
  5
113C
  8
DETAIL
  6
CONTINUOUS
 62
     5
 10
-14.37767
 20
2.3231810000002411
 30
0.0
 40
0.208711
 50
88.843843000000007
 51
108.756016
  0
ARC
  5
113D
  8
DETAIL
  6
CONTINUOUS
 62
     5
 10
-14.403778000000001
 20
2.4032750000002419
 30
0.0
 40
0.124493
 50
109.230557
 51
137.60176999999999
  0
ARC
  5
113E
  8
DETAIL
  6
CONTINUOUS
 62
     5
 10
-14.386749
 20
2.3920440000002419
 30
0.0
 40
0.144659
 50
138.86572299999989
 51
164.65792500000001
  0
ARC
  5
113F
  8
DETAIL
  6
CONTINUOUS
 62
     5
 10
-14.250366
 20
2.3545070000002419
 30
0.0
 40
0.286125
 50
164.635221
 51
181.0169379999999
  0
LINE
  5
1140
  8
DETAIL
  6
CONTINUOUS
 62
     5
 10
-14.536438
 20
2.0233310000002418
 30
0.0
 11
-14.536438
 21
2.3494260000002418
 31
0.0
  0
ARC
  5
1141
  8
DETAIL
  6
CONTINUOUS
 62
     5
 10
279.84674100000001
 20
2.0465240000002418
 30
0.0
 40
294.38317899999998
 50
180.00451699999999
 51
180.03318999999999
  0
ARC
  5
1142
  8
DETAIL
  6
CONTINUOUS
 62
     5
 10
-32.339294000000002
 20
1.6102140000002421
 30
0.0
 40
17.804894999999998
 50
356.72169600000001
 51
0.855331
  0
ARC
  5
1143
  8
DETAIL
  6
CONTINUOUS
 62
     5
 10
-32.731918
 20
1.734802000000242
 30
0.0
 40
17.953278999999998
 50
356.37841100000003
 51
0.933528
  0
LINE
  5
1144
  8
DETAIL
  6
CONTINUOUS
 62
     5
 10
-14.781021000000001
 20
2.3609620000002418
 30
0.0
 11
-14.781021000000001
 21
2.0273130000002411
 31
0.0
  0
ARC
  5
1145
  8
DETAIL
  6
CONTINUOUS
 62
     5
 10
-14.269774999999999
 20
2.3685000000002421
 30
0.0
 40
0.511294
 50
162.12783099999999
 51
180.84338299999999
  0
ARC
  5
1146
  8
DETAIL
  6
CONTINUOUS
 62
     5
 10
-14.446121
 20
2.4242550000002421
 30
0.0
 40
0.326355
 50
136.54641000000001
 51
161.94329300000001
  0
ARC
  5
1147
  8
DETAIL
  6
CONTINUOUS
 62
     5
 10
-14.456436
 20
2.427368000000242
 30
0.0
 40
0.316761
 50
109.39608699999999
 51
135.67172199999999
  0
ARC
  5
1148
  8
DETAIL
  6
CONTINUOUS
 62
     5
 10
-14.401184000000001
 20
2.2617030000002418
 30
0.0
 40
0.4913720000000001
 50
89.036714000000003
 51
109.057637
  0
ARC
  5
1149
  8
DETAIL
  6
CONTINUOUS
 62
     5
 10
-13.65509
 20
1.557968000000242
 30
0.0
 40
0.259758
 50
199.55305100000001
 51
227.29997
  0
ARC
  5
114A
  8
DETAIL
  6
CONTINUOUS
 62
     5
 10
-13.495010000000001
 20
1.611267000000242
 30
0.0
 40
0.4284600000000001
 50
178.86694499999999
 51
199.10512299999991
  0
LINE
  5
114B
  8
DETAIL
  6
CONTINUOUS
 62
     5
 10
-13.923386000000001
 20
1.895370000000242
 30
0.0
 11
-13.923386000000001
 21
1.619751000000242
 31
0.0
  0
LINE
  5
114C
  8
DETAIL
  6
CONTINUOUS
 62
     5
 10
-14.342438
 20
1.895370000000242
 30
0.0
 11
-13.923386000000001
 21
1.895370000000242
 31
0.0
  0
ARC
  5
114D
  8
DETAIL
  6
CONTINUOUS
 62
     5
 10
-14.345656999999999
 20
1.991028000000242
 30
0.0
 40
0.09571
 50
220.153953
 51
271.91967699999998
  0
ARC
  5
114E
  8
DETAIL
  6
CONTINUOUS
 62
     5
 10
-14.327209
 20
2.0022130000002418
 30
0.0
 40
0.117061
 50
179.134019
 51
218.51426699999999
  0
ARC
  5
114F
  8
DETAIL
  6
CONTINUOUS
 62
     5
 10
-14.327209
 20
2.0057370000002419
 30
0.0
 40
0.117061
 50
141.48574300000001
 51
180.86599100000001
  0
ARC
  5
1150
  8
DETAIL
  6
CONTINUOUS
 62
     5
 10
-14.345656999999999
 20
2.0169220000002421
 30
0.0
 40
0.09571
 50
88.080322999999979
 51
139.846047
  0
LINE
  5
1151
  8
DETAIL
  6
CONTINUOUS
 62
     5
 10
-13.923386000000001
 20
2.1125790000002418
 30
0.0
 11
-14.342438
 21
2.1125790000002418
 31
0.0
  0
LINE
  5
1152
  8
DETAIL
  6
CONTINUOUS
 62
     5
 10
-13.923386000000001
 20
2.2834630000002418
 30
0.0
 11
-13.923386000000001
 21
2.1125790000002418
 31
0.0
  0
ARC
  5
1153
  8
DETAIL
  6
CONTINUOUS
 62
     5
 10
-13.835495
 20
2.2847600000002419
 30
0.0
 40
0.087899
 50
123.94174599999999
 51
180.84361499999989
  0
ARC
  5
1154
  8
DETAIL
  6
CONTINUOUS
 62
     5
 10
-13.802123999999999
 20
2.2328190000002421
 30
0.0
 40
0.149628
 50
88.877037000000016
 51
123.438908
  0
LINE
  5
1155
  8
DETAIL
  6
CONTINUOUS
 62
     5
 10
-17.758469000000002
 20
-0.0991969999997578
 30
0.0
 11
-18.185303000000001
 21
-0.0991969999997578
 31
0.0
  0
LINE
  5
1156
  8
DETAIL
  6
CONTINUOUS
 62
     5
 10
-17.758469000000002
 20
0.9601900000002421
 30
0.0
 11
-17.758469000000002
 21
-0.0991969999997578
 31
0.0
  0
LINE
  5
1157
  8
DETAIL
  6
CONTINUOUS
 62
     5
 10
-18.002869
 20
0.9601900000002421
 30
0.0
 11
-17.758469000000002
 21
0.9601900000002421
 31
0.0
  0
ARC
  5
1158
  8
DETAIL
  6
CONTINUOUS
 62
     5
 10
-18.008362000000002
 20
0.6856690000002423
 30
0.0
 40
0.274581
 50
88.85445
 51
105.941712
  0
ARC
  5
1159
  8
DETAIL
  6
CONTINUOUS
 62
     5
 10
-18.045836999999999
 20
0.8178860000002423
 30
0.0
 40
0.13716
 50
106.060284
 51
133.73967999999999
  0
ARC
  5
115A
  8
DETAIL
  6
CONTINUOUS
 62
     5
 10
-18.044036999999999
 20
0.8214260000002422
 30
0.0
 40
0.135887
 50
135.32105999999999
 51
163.392236
  0
ARC
  5
115B
  8
DETAIL
  6
CONTINUOUS
 62
     5
 10
-17.913788
 20
0.7834470000002423
 30
0.0
 40
0.271552
 50
163.56516300000001
 51
181.19627199999999
  0
LINE
  5
115C
  8
DETAIL
  6
CONTINUOUS
 62
     5
 10
-18.185303000000001
 20
-0.0991969999997578
 30
0.0
 11
-18.185303000000001
 21
0.7777710000002424
 31
0.0
  0
LINE
  5
115D
  8
DETAIL
  6
CONTINUOUS
 62
     5
 10
-17.102692000000001
 20
-0.0991969999997578
 30
0.0
 11
-17.529509999999998
 21
-0.0991969999997578
 31
0.0
  0
LINE
  5
115E
  8
DETAIL
  6
CONTINUOUS
 62
     5
 10
-17.102692000000001
 20
0.9601900000002421
 30
0.0
 11
-17.102692000000001
 21
-0.0991969999997578
 31
0.0
  0
LINE
  5
115F
  8
DETAIL
  6
CONTINUOUS
 62
     5
 10
-17.529509999999998
 20
0.9601900000002421
 30
0.0
 11
-17.102692000000001
 21
0.9601900000002421
 31
0.0
  0
LINE
  5
1160
  8
DETAIL
  6
CONTINUOUS
 62
     5
 10
-17.529509999999998
 20
-0.0991969999997578
 30
0.0
 11
-17.529509999999998
 21
0.9601900000002421
 31
0.0
  0
LINE
  5
1161
  8
DETAIL
  6
CONTINUOUS
 62
     5
 10
-16.450683999999999
 20
-0.0991969999997578
 30
0.0
 11
-16.877533
 21
-0.0991969999997578
 31
0.0
  0
LINE
  5
1162
  8
DETAIL
  6
CONTINUOUS
 62
     5
 10
-16.450683999999999
 20
0.7777710000002424
 30
0.0
 11
-16.450683999999999
 21
-0.0991969999997578
 31
0.0
  0
ARC
  5
1163
  8
DETAIL
  6
CONTINUOUS
 62
     5
 10
-16.722076000000001
 20
0.7834320000002423
 30
0.0
 40
0.271456
 50
358.80390499999999
 51
16.441448999999999
  0
ARC
  5
1164
  8
DETAIL
  6
CONTINUOUS
 62
     5
 10
-16.591949
 20
0.8214110000002423
 30
0.0
 40
0.135906
 50
16.615006999999999
 51
44.684071000000003
  0
ARC
  5
1165
  8
DETAIL
  6
CONTINUOUS
 62
     5
 10
-16.590178999999999
 20
0.8178560000002422
 30
0.0
 40
0.137191
 50
46.26391799999999
 51
73.937569999999994
  0
ARC
  5
1166
  8
DETAIL
  6
CONTINUOUS
 62
     5
 10
-16.627624999999998
 20
0.6857450000002423
 30
0.0
 40
0.274509
 50
74.056258
 51
91.144891999999984
  0
LINE
  5
1167
  8
DETAIL
  6
CONTINUOUS
 62
     5
 10
-16.877533
 20
0.9601900000002421
 30
0.0
 11
-16.63310199999999
 21
0.9601900000002421
 31
0.0
  0
LINE
  5
1168
  8
DETAIL
  6
CONTINUOUS
 62
     5
 10
-16.877533
 20
-0.0991969999997578
 30
0.0
 11
-16.877533
 21
0.9601900000002421
 31
0.0
  0
ARC
  5
1169
  8
DETAIL
  6
CONTINUOUS
 62
     5
 10
-16.748016
 20
2.0028990000002418
 30
0.0
 40
0.274509
 50
268.85510799999997
 51
285.94374199999999
  0
ARC
  5
116A
  8
DETAIL
  6
CONTINUOUS
 62
     5
 10
-16.710571000000002
 20
1.870773000000242
 30
0.0
 40
0.137191
 50
286.06243000000001
 51
313.73608200000001
  0
ARC
  5
116B
  8
DETAIL
  6
CONTINUOUS
 62
     5
 10
-16.712357000000001
 20
1.8672180000002421
 30
0.0
 40
0.135906
 50
315.31592899999998
 51
343.38499300000001
  0
ARC
  5
116C
  8
DETAIL
  6
CONTINUOUS
 62
     5
 10
-16.842483999999999
 20
1.9051970000002421
 30
0.0
 40
0.271456
 50
343.55855100000002
 51
1.1960949999999999
  0
LINE
  5
116D
  8
DETAIL
  6
CONTINUOUS
 62
     5
 10
-16.571075
 20
2.1204830000002421
 30
0.0
 11
-16.571075
 21
1.910858000000242
 31
0.0
  0
LINE
  5
116E
  8
DETAIL
  6
CONTINUOUS
 62
     5
 10
-18.065062999999999
 20
2.1204830000002421
 30
0.0
 11
-16.571075
 21
2.1204830000002421
 31
0.0
  0
LINE
  5
116F
  8
DETAIL
  6
CONTINUOUS
 62
     5
 10
-18.065062999999999
 20
1.910858000000242
 30
0.0
 11
-18.065062999999999
 21
2.1204830000002421
 31
0.0
  0
ARC
  5
1170
  8
DETAIL
  6
CONTINUOUS
 62
     5
 10
-17.793579000000001
 20
1.9051970000002421
 30
0.0
 40
0.271552
 50
178.80373800000001
 51
196.43484699999999
  0
ARC
  5
1171
  8
DETAIL
  6
CONTINUOUS
 62
     5
 10
-17.923812999999999
 20
1.867203000000242
 30
0.0
 40
0.135887
 50
196.607764
 51
224.67894000000001
  0
ARC
  5
1172
  8
DETAIL
  6
CONTINUOUS
 62
     5
 10
-17.925598000000001
 20
1.8707430000002421
 30
0.0
 40
0.13716
 50
226.26032000000001
 51
253.939716
  0
ARC
  5
1173
  8
DETAIL
  6
CONTINUOUS
 62
     5
 10
-17.888123
 20
2.0029600000002419
 30
0.0
 40
0.274581
 50
254.058288
 51
271.14555000000001
  0
LINE
  5
1174
  8
DETAIL
  6
CONTINUOUS
 62
     5
 10
-16.753509999999999
 20
1.7284390000002421
 30
0.0
 11
-17.882645
 21
1.7284390000002421
 31
0.0
  0
LINE
  5
1175
  8
DETAIL
  6
CONTINUOUS
 62
     5
 10
-16.571075
 20
2.3222050000002419
 30
0.0
 11
-18.065062999999999
 21
2.3222050000002419
 31
0.0
  0
LINE
  5
1176
  8
DETAIL
  6
CONTINUOUS
 62
     5
 10
-16.571075
 20
2.5006710000002421
 30
0.0
 11
-16.571075
 21
2.3222050000002419
 31
0.0
  0
ARC
  5
1177
  8
DETAIL
  6
CONTINUOUS
 62
     5
 10
-16.842834
 20
2.506363000000241
 30
0.0
 40
0.271804
 50
358.80062500000003
 51
16.431149999999999
  0
ARC
  5
1178
  8
DETAIL
  6
CONTINUOUS
 62
     5
 10
-16.712219000000001
 20
2.5444490000002422
 30
0.0
 40
0.135753
 50
16.604064999999999
 51
44.702341999999987
  0
ARC
  5
1179
  8
DETAIL
  6
CONTINUOUS
 62
     5
 10
-16.710464000000002
 20
2.540848000000242
 30
0.0
 40
0.137096
 50
46.289889000000009
 51
73.974206999999993
  0
ARC
  5
117A
  8
DETAIL
  6
CONTINUOUS
 62
     5
 10
-16.748016
 20
2.4081270000002419
 30
0.0
 40
0.275018
 50
74.089807999999991
 51
91.145902999999976
  0
LINE
  5
117B
  8
DETAIL
  6
CONTINUOUS
 62
     5
 10
-17.882645
 20
2.683090000000242
 30
0.0
 11
-16.753509999999999
 21
2.683090000000242
 31
0.0
  0
ARC
  5
117C
  8
DETAIL
  6
CONTINUOUS
 62
     5
 10
-17.888152999999999
 20
2.408051000000242
 30
0.0
 40
0.27509
 50
88.853438999999995
 51
105.9081689999999
  0
ARC
  5
117D
  8
DETAIL
  6
CONTINUOUS
 62
     5
 10
-17.925719999999998
 20
2.5408780000002422
 30
0.0
 40
0.137065
 50
106.02365399999999
 51
133.71369799999999
  0
ARC
  5
117E
  8
DETAIL
  6
CONTINUOUS
 62
     5
 10
-17.923950000000001
 20
2.5444640000002421
 30
0.0
 40
0.135734
 50
135.30278300000001
 51
163.403178
  0
ARC
  5
117F
  8
DETAIL
  6
CONTINUOUS
 62
     5
 10
-17.793213000000002
 20
2.506363000000241
 30
0.0
 40
0.2719
 50
163.57544899999999
 51
181.1995499999999
  0
LINE
  5
1180
  8
DETAIL
  6
CONTINUOUS
 62
     5
 10
-18.065062999999999
 20
2.3222050000002419
 30
0.0
 11
-18.065062999999999
 21
2.5006710000002421
 31
0.0
  0
ARC
  5
1181
  8
DETAIL
  6
CONTINUOUS
 62
     5
 10
-18.760985999999999
 20
0.8655400000002423
 30
0.0
 40
0.132994
 50
115.43499199999999
 51
162.39601200000001
  0
ARC
  5
1182
  8
DETAIL
  6
CONTINUOUS
 62
     5
 10
-18.773589999999999
 20
0.8805690000002423
 30
0.0
 40
0.114119
 50
67.310613000000004
 51
112.959075
  0
ARC
  5
1183
  8
DETAIL
  6
CONTINUOUS
 62
     5
 10
-18.777083999999999
 20
0.8688510000002422
 30
0.0
 40
0.126278
 50
25.267621999999999
 51
67.893056999999985
  0
ARC
  5
1184
  8
DETAIL
  6
CONTINUOUS
 62
     5
 10
-18.798248000000001
 20
0.8626710000002423
 30
0.0
 40
0.148091
 50
340.29274800000002
 51
23.937023
  0
ARC
  5
1185
  8
DETAIL
  6
CONTINUOUS
 62
     5
 10
-23.654572000000002
 20
2.687500000000242
 30
0.0
 40
5.335939999999999
 50
333.30944099999999
 51
339.43032899999997
  0
ARC
  5
1186
  8
DETAIL
  6
CONTINUOUS
 62
     5
 10
-19.293883999999998
 20
-0.2428129999997577
 30
0.0
 40
0.180995
 50
143.179439
 51
188.706515
  0
ARC
  5
1187
  8
DETAIL
  6
CONTINUOUS
 62
     5
 10
-24.939316000000002
 20
3.4458470000002421
 30
0.0
 40
6.5630499999999987
 50
326.940744
 51
337.230253
  0
ARC
  5
1188
  8
DETAIL
  6
CONTINUOUS
 62
     5
 10
-16.080017000000002
 20
-0.1837769999997577
 30
0.0
 40
0.084606
 50
36.744416000000001
 51
91.391154999999969
  0
ARC
  5
1189
  8
DETAIL
  6
CONTINUOUS
 62
     5
 10
-16.113281000000001
 20
-0.2056429999997577
 30
0.0
 40
0.124376
 50
358.96700800000002
 51
35.645719
  0
ARC
  5
118A
  8
DETAIL
  6
CONTINUOUS
 62
     5
 10
-18.619171000000001
 20
-0.2077179999997577
 30
0.0
 40
0.113789
 50
139.06424999999999
 51
180.08512300000001
  0
ARC
  5
118B
  8
DETAIL
  6
CONTINUOUS
 62
     5
 10
-18.627593999999998
 20
-0.2044679999997577
 30
0.0
 40
0.10533
 50
87.970718999999974
 51
137.39810700000001
  0
LINE
  5
118C
  8
DETAIL
  6
CONTINUOUS
 62
     5
 10
-18.425919
 20
-0.0991969999997578
 30
0.0
 11
-18.623871000000001
 21
-0.0991969999997578
 31
0.0
  0
LINE
  5
118D
  8
DETAIL
  6
CONTINUOUS
 62
     5
 10
-18.425919
 20
0.7738190000002423
 30
0.0
 11
-18.425919
 21
-0.0991969999997578
 31
0.0
  0
ARC
  5
118E
  8
DETAIL
  6
CONTINUOUS
 62
     5
 10
-17.763275
 20
0.7888640000002423
 30
0.0
 40
0.662813
 50
165.11882600000001
 51
181.30080100000001
  0
ARC
  5
118F
  8
DETAIL
  6
CONTINUOUS
 62
     5
 10
-18.131744000000001
 20
0.8867950000002423
 30
0.0
 40
0.281555
 50
135.85709299999999
 51
165.12021899999999
  0
ARC
  5
1190
  8
DETAIL
  6
CONTINUOUS
 62
     5
 10
-18.138458
 20
0.8786930000002421
 30
0.0
 40
0.2825789999999999
 50
104.641189
 51
133.73036400000001
  0
ARC
  5
1191
  8
DETAIL
  6
CONTINUOUS
 62
     5
 10
-18.041198999999999
 20
0.5073700000002424
 30
0.0
 40
0.6664250000000001
 50
88.718966000000009
 51
104.66252
  0
LINE
  5
1192
  8
DETAIL
  6
CONTINUOUS
 62
     5
 10
-16.613631999999999
 20
1.173630000000242
 30
0.0
 11
-18.026306000000002
 21
1.173630000000242
 31
0.0
  0
ARC
  5
1193
  8
DETAIL
  6
CONTINUOUS
 62
     5
 10
-16.598739999999999
 20
0.5074460000002424
 30
0.0
 40
0.6663470000000001
 50
75.33664499999999
 51
91.280799999999985
  0
ARC
  5
1194
  8
DETAIL
  6
CONTINUOUS
 62
     5
 10
-16.501494999999998
 20
0.8786620000002422
 30
0.0
 40
0.282607
 50
46.271284000000001
 51
75.357825000000005
  0
ARC
  5
1195
  8
DETAIL
  6
CONTINUOUS
 62
     5
 10
-16.508194
 20
0.8867650000002422
 30
0.0
 40
0.281572
 50
14.883134
 51
44.145356999999997
  0
ARC
  5
1196
  8
DETAIL
  6
CONTINUOUS
 62
     5
 10
-16.876525999999998
 20
0.7888640000002423
 30
0.0
 40
0.662696
 50
358.69924800000001
 51
14.884169
  0
LINE
  5
1197
  8
DETAIL
  6
CONTINUOUS
 62
     5
 10
-16.214005
 20
-0.0991969999997578
 30
0.0
 11
-16.214005
 21
0.7738190000002423
 31
0.0
  0
LINE
  5
1198
  8
DETAIL
  6
CONTINUOUS
 62
     5
 10
-16.082062000000001
 20
-0.0991969999997578
 30
0.0
 11
-16.214005
 21
-0.0991969999997578
 31
0.0
  0
ARC
  5
1199
  8
DETAIL
  6
CONTINUOUS
 62
     5
 10
-21.474212999999999
 20
-2.0421299999997569
 30
0.0
 40
4.6336309999999994
 50
58.754973999999997
 51
61.730545999999997
  0
ARC
  5
119A
  8
DETAIL
  6
CONTINUOUS
 62
     5
 10
-30.708739999999999
 20
-17.375106999999758
 30
0.0
 40
22.532684
 50
58.177646000000003
 51
58.902670000000001
  0
ARC
  5
119B
  8
DETAIL
  6
CONTINUOUS
 62
     5
 10
74.328261999999995
 20
152.6292110000002
 30
0.0
 40
177.30290199999999
 50
238.304498
 51
238.3184589999999
  0
ARC
  5
119C
  8
DETAIL
  6
CONTINUOUS
 62
     5
 10
-18.844298999999999
 20
1.6547700000002421
 30
0.0
 40
0.107436
 50
8.9280360000000005
 51
60.107242000000021
  0
ARC
  5
119D
  8
DETAIL
  6
CONTINUOUS
 62
     5
 10
-18.879546999999999
 20
1.6504060000002421
 30
0.0
 40
0.142923
 50
331.178248
 51
8.4633339999999997
  0
ARC
  5
119E
  8
DETAIL
  6
CONTINUOUS
 62
     5
 10
-18.866669000000002
 20
1.638885000000242
 30
0.0
 40
0.12615
 50
291.3748700000001
 51
332.94356499999998
  0
ARC
  5
119F
  8
DETAIL
  6
CONTINUOUS
 62
     5
 10
-18.856383999999998
 20
1.628067000000242
 30
0.0
 40
0.112471
 50
236.319276
 51
288.50188700000001
  0
ARC
  5
11A0
  8
DETAIL
  6
CONTINUOUS
 62
     5
 10
-21.806792999999999
 20
-3.2359769999997572
 30
0.0
 40
5.5765679999999991
 50
58.809274000000002
 51
64.430001000000004
  0
ARC
  5
11A1
  8
DETAIL
  6
CONTINUOUS
 62
     5
 10
-19.351288
 20
1.908890000000242
 30
0.0
 40
0.124359
 50
195.467614
 51
247.00830999999999
  0
ARC
  5
11A2
  8
DETAIL
  6
CONTINUOUS
 62
     5
 10
-19.327576000000001
 20
1.9114530000002421
 30
0.0
 40
0.147956
 50
153.997229
 51
193.97440800000001
  0
ARC
  5
11A3
  8
DETAIL
  6
CONTINUOUS
 62
     5
 10
-19.331939999999999
 20
1.918259000000242
 30
0.0
 40
0.141103
 50
114.09723099999999
 51
155.704476
  0
ARC
  5
11A4
  8
DETAIL
  6
CONTINUOUS
 62
     5
 10
-19.343018000000001
 20
1.930283000000242
 30
0.0
 40
0.125718
 50
59.72311899999999
 51
111.722053
  0
LINE
  5
11A5
  8
DETAIL
  6
CONTINUOUS
 62
     5
 10
-16.334229000000001
 20
1.910858000000242
 30
0.0
 11
-16.334229000000001
 21
2.5006710000002421
 31
0.0
  0
ARC
  5
11A6
  8
DETAIL
  6
CONTINUOUS
 62
     5
 10
-16.995850000000001
 20
1.895813000000242
 30
0.0
 40
0.661787
 50
345.09618699999999
 51
1.302667
  0
ARC
  5
11A7
  8
DETAIL
  6
CONTINUOUS
 62
     5
 10
-16.628173999999991
 20
1.797974000000242
 30
0.0
 40
0.281317
 50
315.81003500000003
 51
345.09423900000002
  0
ARC
  5
11A8
  8
DETAIL
  6
CONTINUOUS
 62
     5
 10
-16.621796
 20
1.8064120000002419
 30
0.0
 40
0.28282
 50
284.61513400000001
 51
313.68333000000001
  0
ARC
  5
11A9
  8
DETAIL
  6
CONTINUOUS
 62
     5
 10
-16.719131000000001
 20
2.1785430000002419
 30
0.0
 40
0.667479
 50
268.72078499999998
 51
284.63975699999997
  0
LINE
  5
11AA
  8
DETAIL
  6
CONTINUOUS
 62
     5
 10
-17.902114999999998
 20
1.5112300000002421
 30
0.0
 11
-16.734038999999999
 21
1.5112300000002421
 31
0.0
  0
ARC
  5
11AB
  8
DETAIL
  6
CONTINUOUS
 62
     5
 10
-17.917023
 20
2.1782530000002418
 30
0.0
 40
0.6671870000000001
 50
255.35692599999999
 51
271.28053499999999
  0
ARC
  5
11AC
  8
DETAIL
  6
CONTINUOUS
 62
     5
 10
-18.014374
 20
1.806152000000242
 30
0.0
 40
0.282562
 50
226.29672500000001
 51
255.38094699999999
  0
ARC
  5
11AD
  8
DETAIL
  6
CONTINUOUS
 62
     5
 10
-18.007843000000001
 20
1.7978670000002419
 30
0.0
 40
0.281288
 50
194.88609199999999
 51
224.167113
  0
ARC
  5
11AE
  8
DETAIL
  6
CONTINUOUS
 62
     5
 10
-17.639434999999999
 20
1.8957980000002419
 30
0.0
 40
0.6624850000000001
 50
178.69767899999999
 51
194.886675
  0
LINE
  5
11AF
  8
DETAIL
  6
CONTINUOUS
 62
     5
 10
-18.301742999999998
 20
2.5006710000002421
 30
0.0
 11
-18.301742999999998
 21
1.910858000000242
 31
0.0
  0
ARC
  5
11B0
  8
DETAIL
  6
CONTINUOUS
 62
     5
 10
-17.639130000000002
 20
2.515717000000242
 30
0.0
 40
0.662773
 50
165.116681
 51
181.30099200000001
  0
ARC
  5
11B1
  8
DETAIL
  6
CONTINUOUS
 62
     5
 10
-18.007567999999999
 20
2.6136470000002419
 30
0.0
 40
0.281544
 50
135.85299499999999
 51
165.1178699999999
  0
ARC
  5
11B2
  8
DETAIL
  6
CONTINUOUS
 62
     5
 10
-18.014282000000001
 20
2.6055300000002419
 30
0.0
 40
0.28259
 50
104.638812
 51
133.72626600000001
  0
ARC
  5
11B3
  8
DETAIL
  6
CONTINUOUS
 62
     5
 10
-17.917023
 20
2.2341770000002419
 30
0.0
 40
0.666467
 50
88.719157999999993
 51
104.660355
  0
LINE
  5
11B4
  8
DETAIL
  6
CONTINUOUS
 62
     5
 10
-16.734038999999999
 20
2.9004670000002419
 30
0.0
 11
-17.902114999999998
 21
2.9004670000002419
 31
0.0
  0
ARC
  5
11B5
  8
DETAIL
  6
CONTINUOUS
 62
     5
 10
-16.719147
 20
2.2338710000002422
 30
0.0
 40
0.666759
 50
75.342969999999994
 51
91.279522000000014
  0
ARC
  5
11B6
  8
DETAIL
  6
CONTINUOUS
 62
     5
 10
-16.621887000000001
 20
2.605270000000242
 30
0.0
 40
0.282848
 50
46.293677000000002
 51
75.36511999999999
  0
ARC
  5
11B7
  8
DETAIL
  6
CONTINUOUS
 62
     5
 10
-16.628418
 20
2.6135410000002421
 30
0.0
 40
0.281573
 50
14.901786
 51
44.169857
  0
ARC
  5
11B8
  8
DETAIL
  6
CONTINUOUS
 62
     5
 10
-16.996123999999998
 20
2.515701000000242
 30
0.0
 40
0.6620740000000001
 50
358.69867599999998
 51
14.900466
  0
ARC
  5
11B9
  8
DETAIL
  6
CONTINUOUS
 62
     5
 10
-23.316604999999999
 20
-3.5998379999997572
 30
0.0
 40
7.777760999999999
 50
52.781250000000007
 51
57.113033999999999
  0
ARC
  5
11BA
  8
DETAIL
  6
CONTINUOUS
 62
     5
 10
-18.675719999999998
 20
2.5030670000002422
 30
0.0
 40
0.110825
 50
5.0056209999999988
 51
54.995767999999998
  0
ARC
  5
11BB
  8
DETAIL
  6
CONTINUOUS
 62
     5
 10
-18.696289
 20
2.5041500000002421
 30
0.0
 40
0.131252
 50
324.51856099999998
 51
3.7462179999999989
  0
ARC
  5
11BC
  8
DETAIL
  6
CONTINUOUS
 62
     5
 10
-18.694458000000001
 20
2.4988100000002418
 30
0.0
 40
0.126706
 50
285.41281099999998
 51
326.00370700000002
  0
ARC
  5
11BD
  8
DETAIL
  6
CONTINUOUS
 62
     5
 10
-18.6875
 20
2.4888460000002421
 30
0.0
 40
0.115321
 50
233.68433899999999
 51
283.39576099999999
  0
ARC
  5
11BE
  8
DETAIL
  6
CONTINUOUS
 62
     5
 10
-26.081436
 20
-7.9412839999997571
 30
0.0
 40
12.669769000000001
 50
54.676105000000007
 51
56.112493999999991
  0
ARC
  5
11BF
  8
DETAIL
  6
CONTINUOUS
 62
     5
 10
-11.634124999999999
 20
-0.3390659999997577
 30
0.0
 40
0.123447
 50
63.914847999999999
 51
89.903785999999997
  0
ARC
  5
11C0
  8
DETAIL
  6
CONTINUOUS
 62
     5
 10
-11.621810999999999
 20
-0.3108979999997578
 30
0.0
 40
0.092742
 50
34.123153999999992
 51
63.101379000000001
  0
ARC
  5
11C1
  8
DETAIL
  6
CONTINUOUS
 62
     5
 10
-13.288773000000001
 20
1.555664000000242
 30
0.0
 40
1.4895519999999991
 50
305.121578
 51
323.47339799999997
  0
ARC
  5
11C2
  8
DETAIL
  6
CONTINUOUS
 62
     5
 10
-12.166931
 20
0.7239840000002423
 30
0.0
 40
0.09306
 50
323.84426000000002
 51
351.50689199999999
  0
ARC
  5
11C3
  8
DETAIL
  6
CONTINUOUS
 62
     5
 10
-12.151427999999999
 20
0.7213750000002424
 30
0.0
 40
0.07733
 50
351.72459700000002
 51
19.921312
  0
ARC
  5
11C4
  8
DETAIL
  6
CONTINUOUS
 62
     5
 10
-12.137726000000001
 20
0.7267150000002423
 30
0.0
 40
0.062626
 50
19.590910000000001
 51
50.424370000000003
  0
ARC
  5
11C5
  8
DETAIL
  6
CONTINUOUS
 62
     5
 10
-12.127136
 20
0.7395170000002423
 30
0.0
 40
0.046022
 50
50.436954999999998
 51
89.533575999999996
  0
ARC
  5
11C6
  8
DETAIL
  6
CONTINUOUS
 62
     5
 10
-12.087158000000001
 20
0.6179350000002423
 30
0.0
 40
0.392906
 50
65.416362000000007
 51
91.802707999999981
  0
ARC
  5
11C7
  8
DETAIL
  6
CONTINUOUS
 62
     5
 10
-12.013092
 20
0.7857360000002424
 30
0.0
 40
0.20951
 50
28.124321999999999
 51
64.747523000000001
  0
ARC
  5
11C8
  8
DETAIL
  6
CONTINUOUS
 62
     5
 10
-12.023804
 20
0.7863160000002423
 30
0.0
 40
0.218766
 50
353.55504500000001
 51
26.66606599999999
  0
ARC
  5
11C9
  8
DETAIL
  6
CONTINUOUS
 62
     5
 10
-12.125443000000001
 20
0.7969360000002422
 30
0.0
 40
0.320952
 50
328.72463900000002
 51
353.70741299999997
  0
ARC
  5
11CA
  8
DETAIL
  6
CONTINUOUS
 62
     5
 10
-13.057036999999999
 20
1.391907000000242
 30
0.0
 40
1.426264999999999
 50
306.841724
 51
327.72523899999999
  0
ARC
  5
11CB
  8
DETAIL
  6
CONTINUOUS
 62
     5
 10
-11.685364
 20
2.6564640000002422
 30
0.0
 40
0.096585
 50
39.925936
 51
91.679415999999975
  0
ARC
  5
11CC
  8
DETAIL
  6
CONTINUOUS
 62
     5
 10
-11.705963000000001
 20
2.6430210000002421
 30
0.0
 40
0.121051
 50
359.72411
 51
38.550516999999999
  0
ARC
  5
11CD
  8
DETAIL
  6
CONTINUOUS
 62
     5
 10
-11.702805
 20
2.6394040000002419
 30
0.0
 40
0.117938
 50
321.766254
 51
1.474305
  0
ARC
  5
11CE
  8
DETAIL
  6
CONTINUOUS
 62
     5
 10
-11.684585999999999
 20
2.629089000000242
 30
0.0
 40
0.097303
 50
267.88196299999998
 51
319.89555100000001
  0
ARC
  5
11CF
  8
DETAIL
  6
CONTINUOUS
 62
     5
 10
-11.619384999999999
 20
2.0206760000002419
 30
0.0
 40
0.091953
 50
39.082454999999989
 51
91.768925999999993
  0
ARC
  5
11D0
  8
DETAIL
  6
CONTINUOUS
 62
     5
 10
-11.642486999999999
 20
2.0059050000002419
 30
0.0
 40
0.11924
 50
359.07369
 51
37.589494999999999
  0
ARC
  5
11D1
  8
DETAIL
  6
CONTINUOUS
 62
     5
 10
-11.642486999999999
 20
2.002045000000241
 30
0.0
 40
0.11924
 50
322.410505
 51
0.9263099999999999
  0
ARC
  5
11D2
  8
DETAIL
  6
CONTINUOUS
 62
     5
 10
-11.619384999999999
 20
1.987274000000242
 30
0.0
 40
0.091953
 50
268.23107399999998
 51
320.91754500000002
  0
LINE
  5
11D3
  8
DETAIL
  6
CONTINUOUS
 62
     5
 10
-12.002533
 20
1.895370000000242
 30
0.0
 11
-11.622223
 21
1.895370000000242
 31
0.0
  0
LINE
  5
11D4
  8
DETAIL
  6
CONTINUOUS
 62
     5
 10
-12.002533
 20
1.619751000000242
 30
0.0
 11
-12.002533
 21
1.895370000000242
 31
0.0
  0
ARC
  5
11D5
  8
DETAIL
  6
CONTINUOUS
 62
     5
 10
-12.430923
 20
1.611267000000242
 30
0.0
 40
0.4284600000000001
 50
340.89488499999999
 51
1.133055999999999
  0
ARC
  5
11D6
  8
DETAIL
  6
CONTINUOUS
 62
     5
 10
-12.270844
 20
1.557968000000242
 30
0.0
 40
0.259758
 50
312.70002099999999
 51
340.44694600000003
  0
ARC
  5
11D7
  8
DETAIL
  6
CONTINUOUS
 62
     5
 10
-12.285049000000001
 20
1.5815890000002419
 30
0.0
 40
0.2868110000000001
 50
286.10022200000009
 51
311.587107
  0
ARC
  5
11D8
  8
DETAIL
  6
CONTINUOUS
 62
     5
 10
-12.347427
 20
1.7992710000002421
 30
0.0
 40
0.513248
 50
269.079138
 51
286.05109199999998
  0
LINE
  5
11D9
  8
DETAIL
  6
CONTINUOUS
 62
     5
 10
-12.243042000000001
 20
2.2911830000002422
 30
0.0
 11
-12.243042000000001
 21
2.1125790000002418
 31
0.0
  0
ARC
  5
11DA
  8
DETAIL
  6
CONTINUOUS
 62
     5
 10
-12.154327
 20
2.2928920000002422
 30
0.0
 40
0.088727
 50
125.1915209999999
 51
181.101113
  0
ARC
  5
11DB
  8
DETAIL
  6
CONTINUOUS
 62
     5
 10
-12.125473
 20
2.248627000000242
 30
0.0
 40
0.141543
 50
88.912594999999996
 51
124.40723800000001
  0
ARC
  5
11DC
  8
DETAIL
  6
CONTINUOUS
 62
     5
 10
-12.120101999999999
 20
2.248627000000242
 30
0.0
 40
0.141543
 50
55.592770999999999
 51
91.087409999999977
  0
ARC
  5
11DD
  8
DETAIL
  6
CONTINUOUS
 62
     5
 10
-12.091248
 20
2.2928920000002422
 30
0.0
 40
0.088727
 50
358.89889799999997
 51
54.808487999999997
  0
LINE
  5
11DE
  8
DETAIL
  6
CONTINUOUS
 62
     5
 10
-12.002533
 20
2.1125790000002418
 30
0.0
 11
-12.002533
 21
2.2911830000002422
 31
0.0
  0
LINE
  5
11DF
  8
DETAIL
  6
CONTINUOUS
 62
     5
 10
-11.622223
 20
2.1125790000002418
 30
0.0
 11
-12.002533
 21
2.1125790000002418
 31
0.0
  0
ARC
  5
11E0
  8
DETAIL
  6
CONTINUOUS
 62
     5
 10
-12.364868
 20
1.6466670000002419
 30
0.0
 40
0.150968
 50
269.11301500000002
 51
289.91771699999998
  0
ARC
  5
11E1
  8
DETAIL
  6
CONTINUOUS
 62
     5
 10
-12.349640000000001
 20
1.6026610000002419
 30
0.0
 40
0.10441
 50
290.27954599999998
 51
315.96053499999999
  0
ARC
  5
11E2
  8
DETAIL
  6
CONTINUOUS
 62
     5
 10
-12.352539
 20
1.603729000000242
 30
0.0
 40
0.107259
 50
316.63344499999999
 51
341.25453700000003
  0
ARC
  5
11E3
  8
DETAIL
  6
CONTINUOUS
 62
     5
 10
-12.395721
 20
1.6179200000002421
 30
0.0
 40
0.152709
 50
341.420345
 51
0.686381
  0
LINE
  5
11E4
  8
DETAIL
  6
CONTINUOUS
 62
     5
 10
-12.243042000000001
 20
1.895370000000242
 30
0.0
 11
-12.243042000000001
 21
1.619751000000242
 31
0.0
  0
ARC
  5
11E5
  8
DETAIL
  6
CONTINUOUS
 62
     5
 10
-11.682816000000001
 20
-0.3235019999997577
 30
0.0
 40
0.15639
 50
313.35190799999998
 51
350.442385
  0
ARC
  5
11E6
  8
DETAIL
  6
CONTINUOUS
 62
     5
 10
-11.665253
 20
-0.3403169999997577
 30
0.0
 40
0.132111
 50
265.12505199999998
 51
312.81523600000003
  0
ARC
  5
11E7
  8
DETAIL
  6
CONTINUOUS
 62
     5
 10
-11.335556
 20
3.7659150000002422
 30
0.0
 40
4.2515519999999993
 50
257.125835
 51
265.40074600000003
  0
ARC
  5
11E8
  8
DETAIL
  6
CONTINUOUS
 62
     5
 10
-8.9997559999999996
 20
-5.9999849999997581
 30
0.0
 40
3.5
 50
0.0
 51
89.999981999999974
  0
ARC
  5
11E9
  8
DETAIL
  6
CONTINUOUS
 62
     5
 10
-8.9997559999999996
 20
-5.9999849999997581
 30
0.0
 40
3.5
 50
0.0
 51
89.999981999999974
  0
ARC
  5
11EA
  8
DETAIL
  6
CONTINUOUS
 62
     5
 10
-8.9997559999999996
 20
-5.9999849999997581
 30
0.0
 40
3.0
 50
0.0
 51
89.999981999999974
  0
ARC
  5
11EC
  8
DETAIL
  6
CONTINUOUS
 62
     5
 10
-11.650269
 20
-0.3247529999997577
 30
0.0
 40
0.124163
 50
348.52123399999999
 51
32.049802
  0
ARC
  5
11ED
  8
DETAIL
  6
CONTINUOUS
 62
     5
 10
16.0
 20
-5.9999849999997581
 30
0.0
 40
1.0
 50
180.00003599999999
 51
270.00001800000001
  0
ARC
  5
11EE
  8
DETAIL
  6
CONTINUOUS
 62
     5
 10
16.0
 20
-5.9999849999997581
 30
0.0
 40
1.0
 50
89.999981999999974
 51
179.99996400000001
  0
LINE
  5
1C56
  8
DETAIL
  6
CONTINUOUS
 62
     5
 10
64.745102000000003
 20
-11.200011999999751
 30
0.0
 11
64.745102000000003
 21
-54.745101999999761
 31
0.0
  0
LINE
  5
1C57
  8
DETAIL
  6
CONTINUOUS
 62
     5
 10
43.0
 20
-59.745101999999761
 30
0.0
 11
59.745102000000003
 21
-59.745101999999761
 31
0.0
  0
LINE
  5
1C58
  8
DETAIL
  6
CONTINUOUS
 62
     5
 10
34.75
 20
-59.999999999999751
 30
0.0
 11
60.0
 21
-59.999999999999751
 31
0.0
  0
LINE
  5
1C59
  8
DETAIL
  6
CONTINUOUS
 62
     5
 10
37.5
 20
-58.294814999999751
 30
0.0
 11
43.0
 21
-58.294814999999751
 31
0.0
  0
LINE
  5
1C5A
  8
DETAIL
  6
CONTINUOUS
 62
     5
 10
24.25
 20
-59.745101999999761
 30
0.0
 11
24.25
 21
-59.999999999999751
 31
0.0
  0
LINE
  5
1C5B
  8
DETAIL
  6
CONTINUOUS
 62
     5
 10
37.5
 20
-58.294814999999751
 30
0.0
 11
37.5
 21
-59.745101999999761
 31
0.0
  0
LINE
  5
1C5C
  8
DETAIL
  6
CONTINUOUS
 62
     5
 10
34.75
 20
-59.745101999999761
 30
0.0
 11
34.75
 21
-59.999999999999751
 31
0.0
  0
LINE
  5
1C5D
  8
DETAIL
  6
CONTINUOUS
 62
     5
 10
43.0
 20
-58.294814999999751
 30
0.0
 11
43.0
 21
-59.745101999999761
 31
0.0
  0
ARC
  5
1C5E
  8
DETAIL
  6
CONTINUOUS
 62
     5
 10
59.745102000000003
 20
-54.745101999999761
 30
0.0
 40
5.0
 50
270.00001800000001
 51
0.0
  0
ARC
  5
1C5F
  8
DETAIL
  6
CONTINUOUS
 62
     5
 10
60.0
 20
-54.999999999999751
 30
0.0
 40
5.0
 50
270.00001800000001
 51
0.00001
  0
LINE
  5
1C60
  8
DETAIL
  6
CONTINUOUS
 62
     5
 10
53.489975000000001
 20
-11.200011999999751
 30
0.0
 11
64.745102000000003
 21
-11.200011999999751
 31
0.0
  0
LINE
  5
1C61
  8
DETAIL
  6
CONTINUOUS
 62
     5
 10
53.5
 20
-11.200011999999751
 30
0.0
 11
65.0
 21
-11.200011999999751
 31
0.0
  0
ARC
  5
1C62
  8
DETAIL
  6
CONTINUOUS
 62
     5
 10
54.5
 20
-12.73231499999976
 30
0.0
 40
3.0
 50
270.00001800000001
 51
0.00001
  0
ARC
  5
1C63
  8
DETAIL
  6
CONTINUOUS
 62
     5
 10
38.140900000000002
 20
2.4414980000002422
 30
0.0
 40
2.6969279999999989
 50
253.676255
 51
259.85317800000001
  0
LINE
  5
1C64
  8
DETAIL
  6
CONTINUOUS
 62
     5
 10
37.145859000000002
 20
0.5752110000002423
 30
0.0
 11
37.894835999999998
 21
0.5752110000002423
 31
0.0
  0
LINE
  5
1C65
  8
DETAIL
  6
CONTINUOUS
 62
     5
 10
38.740935999999998
 20
0.7963560000002423
 30
0.0
 11
37.145859000000002
 21
0.7963560000002423
 31
0.0
  0
LINE
  5
1C66
  8
DETAIL
  6
CONTINUOUS
 62
     5
 10
36.979140999999998
 20
1.1300200000002421
 30
0.0
 11
38.923538000000001
 21
1.1300200000002421
 31
0.0
  0
LINE
  5
1C67
  8
DETAIL
  6
CONTINUOUS
 62
     5
 10
38.931122000000002
 20
1.3551640000002421
 30
0.0
 11
36.971541999999999
 21
1.3551640000002421
 31
0.0
  0
LINE
  5
1C68
  8
DETAIL
  6
CONTINUOUS
 62
     5
 10
28.5
 20
-9.4999849999997572
 30
0.0
 11
39.5
 21
-9.4999849999997572
 31
0.0
  0
LINE
  5
1C69
  8
DETAIL
  6
CONTINUOUS
 62
     5
 10
28.5
 20
-2.4999849999997572
 30
0.0
 11
39.5
 21
-2.4999849999997572
 31
0.0
  0
LINE
  5
1C6A
  8
DETAIL
  6
CONTINUOUS
 62
     5
 10
28.5
 20
-8.9999849999997572
 30
0.0
 11
39.5
 21
-8.9999849999997572
 31
0.0
  0
LINE
  5
1C6B
  8
DETAIL
  6
CONTINUOUS
 62
     5
 10
28.5
 20
-2.9999849999997572
 30
0.0
 11
39.5
 21
-2.9999849999997572
 31
0.0
  0
LINE
  5
1C6E
  8
DETAIL
  6
CONTINUOUS
 62
     5
 10
37.149979000000002
 20
1.5957950000002421
 30
0.0
 11
38.768493999999997
 21
1.5957950000002421
 31
0.0
  0
LINE
  5
1C6F
  8
DETAIL
  6
CONTINUOUS
 62
     5
 10
38.768493999999997
 20
2.3330690000002421
 30
0.0
 11
37.149979000000002
 21
2.3330690000002421
 31
0.0
  0
LINE
  5
1C70
  8
DETAIL
  6
CONTINUOUS
 62
     5
 10
36.769653000000012
 20
2.5659330000002418
 30
0.0
 11
39.179169000000002
 21
2.5659330000002418
 31
0.0
  0
LINE
  5
1C71
  8
DETAIL
  6
CONTINUOUS
 62
     5
 10
37.825240999999998
 20
2.7871250000002421
 30
0.0
 11
36.769653000000012
 21
2.7871250000002421
 31
0.0
  0
LINE
  5
1C72
  8
DETAIL
  6
CONTINUOUS
 62
     5
 10
37.169280999999998
 20
2.1235810000002422
 30
0.0
 11
38.74507100000001
 21
2.1235810000002422
 31
0.0
  0
LINE
  5
1C73
  8
DETAIL
  6
CONTINUOUS
 62
     5
 10
38.74507100000001
 20
1.805267000000242
 30
0.0
 11
37.169280999999998
 21
1.805267000000242
 31
0.0
  0
ARC
  5
1C74
  8
DETAIL
  6
CONTINUOUS
 62
     5
 10
37.842682000000003
 20
1.3334200000002421
 30
0.0
 40
1.8092360000000001
 50
255.02909
 51
267.88471500000003
  0
ARC
  5
1C75
  8
DETAIL
  6
CONTINUOUS
 62
     5
 10
28.5
 20
-5.9999849999997581
 30
0.0
 40
3.5
 50
180.00003599999999
 51
270.00001800000001
  0
ARC
  5
1C76
  8
DETAIL
  6
CONTINUOUS
 62
     5
 10
28.5
 20
-5.9999849999997581
 30
0.0
 40
3.0
 50
180.00003599999999
 51
270.00001800000001
  0
ARC
  5
1C78
  8
DETAIL
  6
CONTINUOUS
 62
     5
 10
18.5
 20
-5.9999849999997581
 30
0.0
 40
1.0
 50
270.00001800000001
 51
0.0
  0
ARC
  5
1C79
  8
DETAIL
  6
CONTINUOUS
 62
     5
 10
26.853363000000002
 20
24.074493000000238
 30
0.0
 40
24.446386
 50
270.82359500000001
 51
273.066349
  0
ARC
  5
1C7A
  8
DETAIL
  6
CONTINUOUS
 62
     5
 10
28.5
 20
-5.9999849999997581
 30
0.0
 40
3.5
 50
89.999981999999974
 51
180.00001900000001
  0
ARC
  5
1C7B
  8
DETAIL
  6
CONTINUOUS
 62
     5
 10
28.5
 20
-5.9999849999997581
 30
0.0
 40
3.0
 50
89.999981999999974
 51
179.99996400000001
  0
LINE
  5
1C7D
  8
DETAIL
  6
CONTINUOUS
 62
     5
 10
27.139907999999998
 20
1.2931520000002421
 30
0.0
 11
27.908187999999999
 21
1.2931520000002421
 31
0.0
  0
LINE
  5
1C7E
  8
DETAIL
  6
CONTINUOUS
 62
     5
 10
27.811706999999998
 20
1.0020290000002421
 30
0.0
 11
27.139907999999998
 21
1.0020290000002421
 31
0.0
  0
LINE
  5
1C7F
  8
DETAIL
  6
CONTINUOUS
 62
     5
 10
27.908187999999999
 20
1.4871060000002421
 30
0.0
 11
27.139907999999998
 21
1.4871060000002421
 31
0.0
  0
LINE
  5
1C80
  8
DETAIL
  6
CONTINUOUS
 62
     5
 10
27.139907999999998
 20
1.7625580000002421
 30
0.0
 11
27.811706999999998
 21
1.7625580000002421
 31
0.0
  0
ARC
  5
1C81
  8
DETAIL
  6
CONTINUOUS
 62
     5
 10
26.364716000000001
 20
19.78373700000024
 30
0.0
 40
19.93486
 50
272.34624300000002
 51
275.32504499999999
  0
LINE
  5
1C82
  8
DETAIL
  6
CONTINUOUS
 62
     5
 10
27.139907999999998
 20
0.3190610000002423
 30
0.0
 11
28.152771000000001
 21
0.3190610000002423
 31
0.0
  0
LINE
  5
1C83
  8
DETAIL
  6
CONTINUOUS
 62
     5
 10
27.757277999999999
 20
2.4222870000002419
 30
0.0
 11
27.139907999999998
 21
2.4222870000002419
 31
0.0
  0
LINE
  5
1C84
  8
DETAIL
  6
CONTINUOUS
 62
     5
 10
27.139907999999998
 20
2.2205660000002418
 30
0.0
 11
27.749725000000002
 21
2.2205660000002418
 31
0.0
  0
LINE
  5
1C85
  8
DETAIL
  6
CONTINUOUS
 62
     5
 10
27.807587000000002
 20
1.968216000000242
 30
0.0
 11
27.139907999999998
 21
1.968216000000242
 31
0.0
  0
LINE
  5
1C86
  8
DETAIL
  6
CONTINUOUS
 62
     5
 10
27.139907999999998
 20
0.7963560000002423
 30
0.0
 11
27.807587000000002
 21
0.7963560000002423
 31
0.0
  0
LINE
  5
1C87
  8
DETAIL
  6
CONTINUOUS
 62
     5
 10
28.152771000000001
 20
0.5364380000002422
 30
0.0
 11
27.139907999999998
 21
0.5364380000002422
 31
0.0
  0
LINE
  5
1C88
  8
DETAIL
  6
CONTINUOUS
 62
     5
 10
26.08091700000001
 20
2.686188000000242
 30
0.0
 11
27.912323000000001
 21
2.686188000000242
 31
0.0
  0
LINE
  5
1C89
  8
DETAIL
  6
CONTINUOUS
 62
     5
 10
27.916443000000001
 20
2.9073490000002411
 30
0.0
 11
26.08091700000001
 21
2.9073490000002411
 31
0.0
  0
ARC
  5
1C8A
  8
DETAIL
  6
CONTINUOUS
 62
     5
 10
27.088180999999999
 20
5.6661680000002423
 30
0.0
 40
6.0366669999999987
 50
264.11210799999998
 51
271.10663799999998
  0
ARC
  5
1C8B
  8
DETAIL
  6
CONTINUOUS
 62
     5
 10
24.984145999999999
 20
-0.3595729999997577
 30
0.0
 40
0.104443
 50
252.307683
 51
308.21684599999998
  0
ARC
  5
1C8C
  8
DETAIL
  6
CONTINUOUS
 62
     5
 10
25.002502
 20
-0.3040159999997578
 30
0.0
 40
0.16296
 50
215.36962399999999
 51
252.09656200000001
  0
ARC
  5
1C8D
  8
DETAIL
  6
CONTINUOUS
 62
     5
 10
24.991057999999999
 20
-0.3057709999997578
 30
0.0
 40
0.152705
 50
177.47558100000001
 51
217.31851900000001
  0
ARC
  5
1C8E
  8
DETAIL
  6
CONTINUOUS
 62
     5
 10
26.665344000000001
 20
1.707047000000242
 30
0.0
 40
2.0551049999999988
 50
248.80494400000001
 51
264.51518499999997
  0
ARC
  5
1C8F
  8
DETAIL
  6
CONTINUOUS
 62
     5
 10
23.460709000000001
 20
1.594177000000242
 30
0.0
 40
2.5819509999999992
 50
307.95620600000001
 51
323.41065600000002
  0
ARC
  5
1C90
  8
DETAIL
  6
CONTINUOUS
 62
     5
 10
24.969452
 20
-0.3106079999997577
 30
0.0
 40
0.131463
 50
123.358312
 51
174.95521400000001
  0
ARC
  5
1C91
  8
DETAIL
  6
CONTINUOUS
 62
     5
 10
18.5
 20
-5.9999849999997581
 30
0.0
 40
1.0
 50
0.0
 51
89.999981999999974
  0
LINE
  5
1C92
  8
DETAIL
  6
CONTINUOUS
 62
     5
 10
26.903594999999999
 20
1.0020290000002421
 30
0.0
 11
26.212494
 21
1.0020290000002421
 31
0.0
  0
LINE
  5
1C93
  8
DETAIL
  6
CONTINUOUS
 62
     5
 10
26.903594999999999
 20
1.2931520000002421
 30
0.0
 11
26.903594999999999
 21
1.0020290000002421
 31
0.0
  0
LINE
  5
1C94
  8
DETAIL
  6
CONTINUOUS
 62
     5
 10
26.107787999999999
 20
1.2931520000002421
 30
0.0
 11
26.903594999999999
 21
1.2931520000002421
 31
0.0
  0
LINE
  5
1C95
  8
DETAIL
  6
CONTINUOUS
 62
     5
 10
26.107787999999999
 20
1.099014000000242
 30
0.0
 11
26.107787999999999
 21
1.2931520000002421
 31
0.0
  0
ARC
  5
1C96
  8
DETAIL
  6
CONTINUOUS
 62
     5
 10
26.259232000000001
 20
1.0951230000002421
 30
0.0
 40
0.151483
 50
178.52977899999999
 51
196.24296000000001
  0
ARC
  5
1C97
  8
DETAIL
  6
CONTINUOUS
 62
     5
 10
26.176727
 20
1.0713810000002419
 30
0.0
 40
0.065642
 50
196.48716999999999
 51
227.64662999999999
  0
ARC
  5
1C98
  8
DETAIL
  6
CONTINUOUS
 62
     5
 10
26.181290000000001
 20
1.0807340000002419
 30
0.0
 40
0.075677
 50
229.86545799999999
 51
257.606244
  0
ARC
  5
1C99
  8
DETAIL
  6
CONTINUOUS
 62
     5
 10
26.208435000000001
 20
1.1994480000002421
 30
0.0
 40
0.19746
 50
257.30615899999992
 51
271.178157
  0
LINE
  5
1C9A
  8
DETAIL
  6
CONTINUOUS
 62
     5
 10
27.139907999999998
 20
1.0020290000002421
 30
0.0
 11
27.139907999999998
 21
1.2931520000002421
 31
0.0
  0
LINE
  5
1C9B
  8
DETAIL
  6
CONTINUOUS
 62
     5
 10
26.903594999999999
 20
1.4871060000002421
 30
0.0
 11
26.107787999999999
 21
1.4871060000002421
 31
0.0
  0
LINE
  5
1C9C
  8
DETAIL
  6
CONTINUOUS
 62
     5
 10
26.903594999999999
 20
1.7625580000002421
 30
0.0
 11
26.903594999999999
 21
1.4871060000002421
 31
0.0
  0
LINE
  5
1C9D
  8
DETAIL
  6
CONTINUOUS
 62
     5
 10
26.204941000000002
 20
1.7625580000002421
 30
0.0
 11
26.903594999999999
 21
1.7625580000002421
 31
0.0
  0
ARC
  5
1C9E
  8
DETAIL
  6
CONTINUOUS
 62
     5
 10
26.199921
 20
1.571701000000242
 30
0.0
 40
0.190921
 50
88.492990000000006
 51
103.0224479999999
  0
ARC
  5
1C9F
  8
DETAIL
  6
CONTINUOUS
 62
     5
 10
26.170197000000002
 20
1.6986240000002419
 30
0.0
 40
0.060562
 50
102.673248
 51
135.28006500000001
  0
ARC
  5
1CA0
  8
DETAIL
  6
CONTINUOUS
 62
     5
 10
26.176224000000001
 20
1.6980740000002419
 30
0.0
 40
0.065339
 50
138.66413700000001
 51
169.28953100000001
  0
ARC
  5
1CA1
  8
DETAIL
  6
CONTINUOUS
 62
     5
 10
26.328125
 20
1.6669620000002421
 30
0.0
 40
0.220401
 50
168.67952700000001
 51
181.35108500000001
  0
LINE
  5
1CA2
  8
DETAIL
  6
CONTINUOUS
 62
     5
 10
26.107787999999999
 20
1.4871060000002421
 30
0.0
 11
26.107787999999999
 21
1.6617580000002421
 31
0.0
  0
LINE
  5
1CA3
  8
DETAIL
  6
CONTINUOUS
 62
     5
 10
27.139907999999998
 20
1.4871060000002421
 30
0.0
 11
27.139907999999998
 21
1.7625580000002421
 31
0.0
  0
ARC
  5
1CA4
  8
DETAIL
  6
CONTINUOUS
 62
     5
 10
26.407578000000012
 20
0.9309540000002423
 30
0.0
 40
1.0141530000000001
 50
216.83128500000001
 51
242.68945199999999
  0
ARC
  5
1CA5
  8
DETAIL
  6
CONTINUOUS
 62
     5
 10
26.597304999999999
 20
1.384369000000242
 30
0.0
 40
1.504602
 50
244.19217599999999
 51
264.26510400000001
  0
ARC
  5
1CA6
  8
DETAIL
  6
CONTINUOUS
 62
     5
 10
26.952743999999999
 20
4.5701450000002417
 30
0.0
 40
4.7100770000000001
 50
263.835397
 51
272.77551299999999
  0
ARC
  5
1CA7
  8
DETAIL
  6
CONTINUOUS
 62
     5
 10
26.322738999999999
 20
0.7975620000002424
 30
0.0
 40
1.0833200000000001
 50
223.26052799999999
 51
248.30832799999999
  0
ARC
  5
1CA8
  8
DETAIL
  6
CONTINUOUS
 62
     5
 10
23.487656000000001
 20
1.7949070000002421
 30
0.0
 40
2.443268999999999
 50
305.232528
 51
313.28921700000001
  0
ARC
  5
1CA9
  8
DETAIL
  6
CONTINUOUS
 62
     5
 10
24.114899000000001
 20
1.1402440000002421
 30
0.0
 40
1.536667
 50
313.00269100000003
 51
323.30849999999998
  0
LINE
  5
1CAA
  8
DETAIL
  6
CONTINUOUS
 62
     5
 10
25.347092
 20
1.3163910000002419
 30
0.0
 11
25.347092
 21
0.2220760000002423
 31
0.0
  0
ARC
  5
1CAB
  8
DETAIL
  6
CONTINUOUS
 62
     5
 10
25.193726000000002
 20
1.3194270000002419
 30
0.0
 40
0.153402
 50
358.864104
 51
16.186323999999999
  0
ARC
  5
1CAC
  8
DETAIL
  6
CONTINUOUS
 62
     5
 10
25.265395999999999
 20
1.339996000000242
 30
0.0
 40
0.078841
 50
16.354475000000001
 51
44.167521000000001
  0
ARC
  5
1CAD
  8
DETAIL
  6
CONTINUOUS
 62
     5
 10
25.265533000000001
 20
1.337067000000242
 30
0.0
 40
0.080816
 50
45.73016599999999
 51
73.577051999999995
  0
ARC
  5
1CAE
  8
DETAIL
  6
CONTINUOUS
 62
     5
 10
25.242355
 20
1.257080000000242
 30
0.0
 40
0.164083
 50
73.708437000000004
 51
91.194164999999984
  0
LINE
  5
1CAF
  8
DETAIL
  6
CONTINUOUS
 62
     5
 10
24.963318000000001
 20
1.4211270000002421
 30
0.0
 11
25.238937
 21
1.4211270000002421
 31
0.0
  0
ARC
  5
1CB0
  8
DETAIL
  6
CONTINUOUS
 62
     5
 10
24.958587999999999
 20
1.5232090000002421
 30
0.0
 40
0.102183
 50
218.69337200000001
 51
272.650732
  0
ARC
  5
1CB1
  8
DETAIL
  6
CONTINUOUS
 62
     5
 10
24.982727000000001
 20
1.5352630000002421
 30
0.0
 40
0.128693
 50
176.398788
 51
216.16451799999999
  0
ARC
  5
1CB2
  8
DETAIL
  6
CONTINUOUS
 62
     5
 10
24.998642
 20
1.5392300000002419
 30
0.0
 40
0.144408
 50
142.3785169999999
 51
178.362604
  0
ARC
  5
1CB3
  8
DETAIL
  6
CONTINUOUS
 62
     5
 10
24.962357000000001
 20
1.566635000000242
 30
0.0
 40
0.098949
 50
89.450847999999993
 51
142.12356
  0
LINE
  5
1CB4
  8
DETAIL
  6
CONTINUOUS
 62
     5
 10
25.289200000000001
 20
1.665573000000242
 30
0.0
 11
24.963318000000001
 21
1.665573000000242
 31
0.0
  0
ARC
  5
1CB5
  8
DETAIL
  6
CONTINUOUS
 62
     5
 10
25.294540000000001
 20
1.301132000000242
 30
0.0
 40
0.364475
 50
69.235393999999999
 51
90.837519999999984
  0
ARC
  5
1CB6
  8
DETAIL
  6
CONTINUOUS
 62
     5
 10
25.327591000000002
 20
1.393311000000242
 30
0.0
 40
0.266568
 50
43.943313000000003
 51
68.855559999999997
  0
ARC
  5
1CB7
  8
DETAIL
  6
CONTINUOUS
 62
     5
 10
25.305191000000001
 20
1.3818660000002421
 30
0.0
 40
0.290738
 50
358.57597800000002
 51
42.504840999999999
  0
LINE
  5
1CB8
  8
DETAIL
  6
CONTINUOUS
 62
     5
 10
25.595839999999999
 20
0.3230130000002422
 30
0.0
 11
25.595839999999999
 21
1.3746340000002419
 31
0.0
  0
LINE
  5
1CB9
  8
DETAIL
  6
CONTINUOUS
 62
     5
 10
27.139907999999998
 20
0.0940860000002423
 30
0.0
 11
27.139907999999998
 21
0.3190610000002423
 31
0.0
  0
ARC
  5
1CBA
  8
DETAIL
  6
CONTINUOUS
 62
     5
 10
27.035903999999999
 20
0.0906070000002423
 30
0.0
 40
0.104074
 50
310.13838600000003
 51
1.9175839999999991
  0
ARC
  5
1CBB
  8
DETAIL
  6
CONTINUOUS
 62
     5
 10
27.023682000000001
 20
0.1107480000002423
 30
0.0
 40
0.1274
 50
269.133083
 51
308.50066099999998
  0
ARC
  5
1CBC
  8
DETAIL
  6
CONTINUOUS
 62
     5
 10
27.019821
 20
0.1107480000002423
 30
0.0
 40
0.1274
 50
231.499334
 51
270.86691200000001
  0
ARC
  5
1CBD
  8
DETAIL
  6
CONTINUOUS
 62
     5
 10
27.007598999999999
 20
0.0906070000002423
 30
0.0
 40
0.104074
 50
178.08241599999999
 51
229.86162899999999
  0
LINE
  5
1CBE
  8
DETAIL
  6
CONTINUOUS
 62
     5
 10
26.903594999999999
 20
0.3190610000002423
 30
0.0
 11
26.903594999999999
 21
0.0940860000002423
 31
0.0
  0
LINE
  5
1CBF
  8
DETAIL
  6
CONTINUOUS
 62
     5
 10
25.86731
 20
0.3190610000002423
 30
0.0
 11
26.903594999999999
 21
0.3190610000002423
 31
0.0
  0
ARC
  5
1CC0
  8
DETAIL
  6
CONTINUOUS
 62
     5
 10
25.861954000000001
 20
0.4241940000002423
 30
0.0
 40
0.105272
 50
178.06478000000001
 51
272.91698300000002
  0
ARC
  5
1CC1
  8
DETAIL
  6
CONTINUOUS
 62
     5
 10
25.861954000000001
 20
0.4313050000002423
 30
0.0
 40
0.105272
 50
87.083027000000001
 51
181.93522999999999
  0
LINE
  5
1CC2
  8
DETAIL
  6
CONTINUOUS
 62
     5
 10
26.903594999999999
 20
0.5364380000002422
 30
0.0
 11
25.86731
 21
0.5364380000002422
 31
0.0
  0
LINE
  5
1CC3
  8
DETAIL
  6
CONTINUOUS
 62
     5
 10
26.903594999999999
 20
0.7963560000002423
 30
0.0
 11
26.903594999999999
 21
0.5364380000002422
 31
0.0
  0
LINE
  5
1CC4
  8
DETAIL
  6
CONTINUOUS
 62
     5
 10
26.212494
 20
0.7963560000002423
 30
0.0
 11
26.903594999999999
 21
0.7963560000002423
 31
0.0
  0
ARC
  5
1CC5
  8
DETAIL
  6
CONTINUOUS
 62
     5
 10
26.20224
 20
1.3870850000002419
 30
0.0
 40
0.5908170000000002
 50
256.33961199999999
 51
270.99508800000001
  0
ARC
  5
1CC6
  8
DETAIL
  6
CONTINUOUS
 62
     5
 10
26.125641000000002
 20
1.0758670000002419
 30
0.0
 40
0.270308
 50
231.17789200000001
 51
256.53570000000002
  0
ARC
  5
1CC7
  8
DETAIL
  6
CONTINUOUS
 62
     5
 10
26.095779
 20
1.0301670000002421
 30
0.0
 40
0.216047
 50
199.843525
 51
229.75148899999999
  0
ARC
  5
1CC8
  8
DETAIL
  6
CONTINUOUS
 62
     5
 10
26.252669999999998
 20
1.0822910000002419
 30
0.0
 40
0.381338
 50
178.649021
 51
199.20885999999999
  0
LINE
  5
1CC9
  8
DETAIL
  6
CONTINUOUS
 62
     5
 10
25.871428999999999
 20
1.6617580000002421
 30
0.0
 11
25.871428999999999
 21
1.0912930000002421
 31
0.0
  0
ARC
  5
1CCA
  8
DETAIL
  6
CONTINUOUS
 62
     5
 10
26.315308000000002
 20
1.6715090000002419
 30
0.0
 40
0.443987
 50
163.65792999999999
 51
181.2570879999999
  0
ARC
  5
1CCB
  8
DETAIL
  6
CONTINUOUS
 62
     5
 10
26.101348999999999
 20
1.733093000000242
 30
0.0
 40
0.221341
 50
134.06854000000001
 51
163.37350799999999
  0
ARC
  5
1CCC
  8
DETAIL
  6
CONTINUOUS
 62
     5
 10
26.116302000000001
 20
1.7063140000002419
 30
0.0
 40
0.251101
 50
104.641947
 51
132.269004
  0
ARC
  5
1CCD
  8
DETAIL
  6
CONTINUOUS
 62
     5
 10
26.200333000000001
 20
1.3887180000002419
 30
0.0
 40
0.579631
 50
88.797691
 51
104.743505
  0
LINE
  5
1CCE
  8
DETAIL
  6
CONTINUOUS
 62
     5
 10
26.903594999999999
 20
1.968216000000242
 30
0.0
 11
26.212494
 21
1.968216000000242
 31
0.0
  0
LINE
  5
1CCF
  8
DETAIL
  6
CONTINUOUS
 62
     5
 10
26.903594999999999
 20
2.2205660000002418
 30
0.0
 11
26.903594999999999
 21
1.968216000000242
 31
0.0
  0
LINE
  5
1CD0
  8
DETAIL
  6
CONTINUOUS
 62
     5
 10
26.251801
 20
2.2205660000002418
 30
0.0
 11
26.903594999999999
 21
2.2205660000002418
 31
0.0
  0
ARC
  5
1CD1
  8
DETAIL
  6
CONTINUOUS
 62
     5
 10
26.244888
 20
2.3214260000002418
 30
0.0
 40
0.101095
 50
86.082131000000004
 51
273.91787900000003
  0
LINE
  5
1CD2
  8
DETAIL
  6
CONTINUOUS
 62
     5
 10
26.903594999999999
 20
2.4222870000002419
 30
0.0
 11
26.251801
 21
2.4222870000002419
 31
0.0
  0
LINE
  5
1CD3
  8
DETAIL
  6
CONTINUOUS
 62
     5
 10
26.903594999999999
 20
2.5309750000002418
 30
0.0
 11
26.903594999999999
 21
2.4222870000002419
 31
0.0
  0
ARC
  5
1CD4
  8
DETAIL
  6
CONTINUOUS
 62
     5
 10
26.994202000000001
 20
2.5327000000002422
 30
0.0
 40
0.090635
 50
126.327832
 51
181.09500700000001
  0
ARC
  5
1CD5
  8
DETAIL
  6
CONTINUOUS
 62
     5
 10
27.020523000000001
 20
2.4936980000002422
 30
0.0
 40
0.13766
 50
89.488093000000006
 51
125.534465
  0
ARC
  5
1CD6
  8
DETAIL
  6
CONTINUOUS
 62
     5
 10
27.025452000000001
 20
2.4969790000002421
 30
0.0
 40
0.134422
 50
54.776873999999999
 51
91.580405999999968
  0
ARC
  5
1CD7
  8
DETAIL
  6
CONTINUOUS
 62
     5
 10
27.048721
 20
2.5334630000002418
 30
0.0
 40
0.091227
 50
358.434864
 51
53.49745699999999
  0
LINE
  5
1CD8
  8
DETAIL
  6
CONTINUOUS
 62
     5
 10
27.139907999999998
 20
2.4222870000002419
 30
0.0
 11
27.139907999999998
 21
2.5309750000002418
 31
0.0
  0
LINE
  5
1CD9
  8
DETAIL
  6
CONTINUOUS
 62
     5
 10
27.139907999999998
 20
1.968216000000242
 30
0.0
 11
27.139907999999998
 21
2.2205660000002418
 31
0.0
  0
LINE
  5
1CDA
  8
DETAIL
  6
CONTINUOUS
 62
     5
 10
27.139907999999998
 20
0.5364380000002422
 30
0.0
 11
27.139907999999998
 21
0.7963560000002423
 31
0.0
  0
ARC
  5
1CDB
  8
DETAIL
  6
CONTINUOUS
 62
     5
 10
19.122498
 20
-2.466048999999757
 30
0.0
 40
8.0682869999999998
 50
37.015128000000011
 51
41.463773000000003
  0
ARC
  5
1CDC
  8
DETAIL
  6
CONTINUOUS
 62
     5
 10
25.471436000000001
 20
2.3189700000002418
 30
0.0
 40
0.118106
 50
346.14031899999998
 51
37.743122999999997
  0
ARC
  5
1CDD
  8
DETAIL
  6
CONTINUOUS
 62
     5
 10
25.442764
 20
2.3286130000002419
 30
0.0
 40
0.148279
 50
306.468164
 51
345.17702400000002
  0
ARC
  5
1CDE
  8
DETAIL
  6
CONTINUOUS
 62
     5
 10
25.448685000000001
 20
2.3134610000002418
 30
0.0
 40
0.132643
 50
265.92225200000001
 51
308.301267
  0
ARC
  5
1CDF
  8
DETAIL
  6
CONTINUOUS
 62
     5
 10
25.453704999999999
 20
2.298187000000242
 30
0.0
 40
0.117919
 50
209.648043
 51
262.95873499999999
  0
ARC
  5
1CE0
  8
DETAIL
  6
CONTINUOUS
 62
     5
 10
21.430519
 20
-0.5157009999997577
 30
0.0
 40
4.7921839999999989
 50
35.100358999999997
 51
42.299002999999999
  0
ARC
  5
1CE1
  8
DETAIL
  6
CONTINUOUS
 62
     5
 10
25.092941
 20
2.8211060000002419
 30
0.0
 40
0.162404
 50
201.29222200000001
 51
223.43850900000001
  0
ARC
  5
1CE2
  8
DETAIL
  6
CONTINUOUS
 62
     5
 10
25.050384999999999
 20
2.8036650000002421
 30
0.0
 40
0.116417
 50
175.39182700000001
 51
200.895985
  0
ARC
  5
1CE3
  8
DETAIL
  6
CONTINUOUS
 62
     5
 10
25.053604
 20
2.8011020000002418
 30
0.0
 40
0.119844
 50
128.60957999999999
 51
174.30059499999999
  0
ARC
  5
1CE4
  8
DETAIL
  6
CONTINUOUS
 62
     5
 10
25.064589999999999
 20
2.7912290000002411
 30
0.0
 40
0.134449
 50
39.278813
 51
129.64059700000001
  0
ARC
  5
1CE5
  8
DETAIL
  6
CONTINUOUS
 62
     5
 10
26.075728999999999
 20
2.4652560000002421
 30
0.0
 40
0.220996
 50
88.657324000000003
 51
101.179772
  0
ARC
  5
1CE6
  8
DETAIL
  6
CONTINUOUS
 62
     5
 10
26.044235
 20
2.6204530000002419
 30
0.0
 40
0.06265
 50
100.436846
 51
130.99322000000001
  0
ARC
  5
1CE7
  8
DETAIL
  6
CONTINUOUS
 62
     5
 10
26.041626000000001
 20
2.628571000000242
 30
0.0
 40
0.054903
 50
134.499921
 51
167.642212
  0
ARC
  5
1CE8
  8
DETAIL
  6
CONTINUOUS
 62
     5
 10
26.159958
 20
2.6016540000002411
 30
0.0
 40
0.176266
 50
167.32631599999999
 51
181.53166100000001
  0
LINE
  5
1CE9
  8
DETAIL
  6
CONTINUOUS
 62
     5
 10
25.983749
 20
2.3640750000002422
 30
0.0
 11
25.983749
 21
2.5969390000002419
 31
0.0
  0
ARC
  5
1CEA
  8
DETAIL
  6
CONTINUOUS
 62
     5
 10
25.901947
 20
2.3634340000002418
 30
0.0
 40
0.081812
 50
302.19399900000002
 51
0.445574
  0
ARC
  5
1CEB
  8
DETAIL
  6
CONTINUOUS
 62
     5
 10
25.864532000000001
 20
2.423203000000242
 30
0.0
 40
0.15232
 50
268.83818200000002
 51
302.12462399999998
  0
ARC
  5
1CEC
  8
DETAIL
  6
CONTINUOUS
 62
     5
 10
25.858353000000001
 20
2.423203000000242
 30
0.0
 40
0.15232
 50
237.875371
 51
271.161813
  0
ARC
  5
1CED
  8
DETAIL
  6
CONTINUOUS
 62
     5
 10
25.820952999999999
 20
2.3634340000002418
 30
0.0
 40
0.081812
 50
179.55443099999999
 51
237.80601300000001
  0
LINE
  5
1CEE
  8
DETAIL
  6
CONTINUOUS
 62
     5
 10
25.739135999999998
 20
2.5969390000002419
 30
0.0
 11
25.739135999999998
 21
2.3640750000002422
 31
0.0
  0
ARC
  5
1CEF
  8
DETAIL
  6
CONTINUOUS
 62
     5
 10
26.227615000000011
 20
2.6097560000002411
 30
0.0
 40
0.488641
 50
163.89750599999999
 51
181.503657
  0
ARC
  5
1CF0
  8
DETAIL
  6
CONTINUOUS
 62
     5
 10
25.956924000000001
 20
2.686966000000242
 30
0.0
 40
0.207158
 50
132.002995
 51
163.64524
  0
ARC
  5
1CF1
  8
DETAIL
  6
CONTINUOUS
 62
     5
 10
25.974945000000002
 20
2.6520540000002422
 30
0.0
 40
0.245358
 50
101.90801399999989
 51
129.67514399999999
  0
ARC
  5
1CF2
  8
DETAIL
  6
CONTINUOUS
 62
     5
 10
26.067046999999999
 20
2.236710000000242
 30
0.0
 40
0.6707920000000001
 50
88.815674999999999
 51
102.28562100000001
  0
ARC
  5
1CF3
  8
DETAIL
  6
CONTINUOUS
 62
     5
 10
37.401062000000003
 20
-0.2640839999997577
 30
0.0
 40
0.139073
 50
136.13185799999999
 51
174.749762
  0
ARC
  5
1CF4
  8
DETAIL
  6
CONTINUOUS
 62
     5
 10
37.359482
 20
-0.2261809999997578
 30
0.0
 40
0.082844
 50
73.590466000000006
 51
135.102904
  0
ARC
  5
1CF5
  8
DETAIL
  6
CONTINUOUS
 62
     5
 10
37.142502
 20
0.6735530000002424
 30
0.0
 40
0.098407
 50
220.41120499999991
 51
271.95386200000002
  0
ARC
  5
1CF6
  8
DETAIL
  6
CONTINUOUS
 62
     5
 10
37.160141000000003
 20
0.6840210000002424
 30
0.0
 40
0.11867
 50
179.149687
 51
218.739622
  0
ARC
  5
1CF7
  8
DETAIL
  6
CONTINUOUS
 62
     5
 10
37.160141000000003
 20
0.6875460000002424
 30
0.0
 40
0.11867
 50
141.26038799999989
 51
180.850323
  0
ARC
  5
1CF8
  8
DETAIL
  6
CONTINUOUS
 62
     5
 10
37.142502
 20
0.6980130000002423
 30
0.0
 40
0.098407
 50
88.046137999999999
 51
139.588795
  0
ARC
  5
1CF9
  8
DETAIL
  6
CONTINUOUS
 62
     5
 10
36.976669000000001
 20
0.9908450000002423
 30
0.0
 40
0.139204
 50
88.987693000000007
 51
109.14627299999999
  0
ARC
  5
1CFA
  8
DETAIL
  6
CONTINUOUS
 62
     5
 10
36.960464000000002
 20
1.0392000000002419
 30
0.0
 40
0.088203
 50
109.50703
 51
135.97376700000001
  0
ARC
  5
1CFB
  8
DETAIL
  6
CONTINUOUS
 62
     5
 10
36.963196000000011
 20
1.0385280000002419
 30
0.0
 40
0.090644
 50
136.8612
 51
162.159797
  0
ARC
  5
1CFC
  8
DETAIL
  6
CONTINUOUS
 62
     5
 10
37.011184999999998
 20
1.023499000000242
 30
0.0
 40
0.140938
 50
162.320989
 51
180.807197
  0
LINE
  5
1CFD
  8
DETAIL
  6
CONTINUOUS
 62
     5
 10
36.870269999999998
 20
0.6062160000002425
 30
0.0
 11
36.870269999999998
 21
1.0215000000002421
 31
0.0
  0
ARC
  5
1CFE
  8
DETAIL
  6
CONTINUOUS
 62
     5
 10
36.759369
 20
0.6022030000002423
 30
0.0
 40
0.110973
 50
311.356247
 51
2.0729340000000001
  0
ARC
  5
1CFF
  8
DETAIL
  6
CONTINUOUS
 62
     5
 10
36.75177
 20
0.6167910000002425
 30
0.0
 40
0.127005
 50
269.21146599999997
 51
309.57888800000001
  0
ARC
  5
1D00
  8
DETAIL
  6
CONTINUOUS
 62
     5
 10
36.748275999999997
 20
0.6167910000002425
 30
0.0
 40
0.127005
 50
230.42110700000001
 51
270.78852899999998
  0
ARC
  5
1D01
  8
DETAIL
  6
CONTINUOUS
 62
     5
 10
36.740677000000012
 20
0.6022030000002423
 30
0.0
 40
0.110973
 50
177.92706999999999
 51
228.64375200000001
  0
LINE
  5
1D02
  8
DETAIL
  6
CONTINUOUS
 62
     5
 10
36.629776
 20
1.0215000000002421
 30
0.0
 11
36.629776
 21
0.6062160000002425
 31
0.0
  0
ARC
  5
1D03
  8
DETAIL
  6
CONTINUOUS
 62
     5
 10
37.120834000000002
 20
1.032181000000242
 30
0.0
 40
0.4911710000000001
 50
163.280002
 51
181.245408
  0
ARC
  5
1D04
  8
DETAIL
  6
CONTINUOUS
 62
     5
 10
36.884917999999999
 20
1.102020000000242
 30
0.0
 40
0.245136
 50
134.42528100000001
 51
163.04988
  0
ARC
  5
1D05
  8
DETAIL
  6
CONTINUOUS
 62
     5
 10
36.887878000000001
 20
1.0884860000002421
 30
0.0
 40
0.256977
 50
105.34044299999999
 51
132.78482
  0
ARC
  5
1D06
  8
DETAIL
  6
CONTINUOUS
 62
     5
 10
36.960982999999999
 20
0.8207550000002424
 30
0.0
 40
0.5345170000000001
 50
88.866545999999985
 51
105.3044419999999
  0
ARC
  5
1D07
  8
DETAIL
  6
CONTINUOUS
 62
     5
 10
36.431183000000011
 20
2.9218290000002418
 30
0.0
 40
0.089576
 50
112.41725700000001
 51
169.36374799999999
  0
ARC
  5
1D08
  8
DETAIL
  6
CONTINUOUS
 62
     5
 10
36.453277999999997
 20
2.8645480000002421
 30
0.0
 40
0.150959
 50
76.962188999999995
 51
111.877959
  0
ARC
  5
1D09
  8
DETAIL
  6
CONTINUOUS
 62
     5
 10
36.458801000000001
 20
2.862549000000242
 30
0.0
 40
0.151769
 50
44.223633999999997
 51
79.165607999999992
  0
ARC
  5
1D0A
  8
DETAIL
  6
CONTINUOUS
 62
     5
 10
36.499634
 20
2.9038700000002411
 30
0.0
 40
0.093691
 50
347.81777399999999
 51
43.531271999999987
  0
ARC
  5
1D0B
  8
DETAIL
  6
CONTINUOUS
 62
     5
 10
30.486816000000001
 20
3.9668580000002418
 30
0.0
 40
6.1996820000000001
 50
342.06383599999998
 51
349.94195000000002
  0
ARC
  5
1D0C
  8
DETAIL
  6
CONTINUOUS
 62
     5
 10
34.380080999999997
 20
2.0828700000002418
 30
0.0
 40
1.8337699999999999
 50
340.43230699999998
 51
344.21665400000001
  0
ARC
  5
1D0D
  8
DETAIL
  6
CONTINUOUS
 62
     5
 10
35.145156999999998
 20
1.808533000000242
 30
0.0
 40
1.0210030000000001
 50
336.79670499999997
 51
340.55847599999998
  0
ARC
  5
1D0E
  8
DETAIL
  6
CONTINUOUS
 62
     5
 10
35.789046999999997
 20
1.528244000000242
 30
0.0
 40
0.318789
 50
327.95866100000001
 51
337.50376800000009
  0
ARC
  5
1D0F
  8
DETAIL
  6
CONTINUOUS
 62
     5
 10
35.973250999999998
 20
1.408218000000242
 30
0.0
 40
0.099053
 50
299.987281
 51
330.27785499999999
  0
ARC
  5
1D10
  8
DETAIL
  6
CONTINUOUS
 62
     5
 10
35.987273999999999
 20
1.387924000000242
 30
0.0
 40
0.07449
 50
264.69376699999998
 51
298.44023600000003
  0
ARC
  5
1D11
  8
DETAIL
  6
CONTINUOUS
 62
     5
 10
36.000259
 20
1.448105000000242
 30
0.0
 40
0.1358
 50
220.399157
 51
261.58347600000002
  0
ARC
  5
1D12
  8
DETAIL
  6
CONTINUOUS
 62
     5
 10
36.04646300000001
 20
1.4999850000002419
 30
0.0
 40
0.20483
 50
192.01687999999999
 51
223.07971900000001
  0
ARC
  5
1D13
  8
DETAIL
  6
CONTINUOUS
 62
     5
 10
35.98161300000001
 20
1.4881900000002419
 30
0.0
 40
0.138964
 50
146.55191300000001
 51
192.825884
  0
ARC
  5
1D14
  8
DETAIL
  6
CONTINUOUS
 62
     5
 10
29.505676000000001
 20
-0.3713379999997577
 30
0.0
 40
0.10374
 50
309.97829300000001
 51
1.895891999999999
  0
ARC
  5
1D15
  8
DETAIL
  6
CONTINUOUS
 62
     5
 10
29.49282800000001
 20
-0.3503879999997578
 30
0.0
 40
0.128111
 50
269.12358899999998
 51
308.36112700000001
  0
ARC
  5
1D16
  8
DETAIL
  6
CONTINUOUS
 62
     5
 10
29.488907000000001
 20
-0.3503879999997578
 30
0.0
 40
0.128111
 50
231.63887500000001
 51
270.87640599999997
  0
ARC
  5
1D17
  8
DETAIL
  6
CONTINUOUS
 62
     5
 10
29.476044000000002
 20
-0.3713379999997577
 30
0.0
 40
0.10374
 50
178.104108
 51
230.02170100000001
  0
ARC
  5
1D18
  8
DETAIL
  6
CONTINUOUS
 62
     5
 10
28.155441
 20
-0.1872559999997577
 30
0.0
 40
0.149743
 50
272.15100799999999
 51
316.96280000000002
  0
LINE
  5
1D19
  8
DETAIL
  6
CONTINUOUS
 62
     5
 10
33.448605999999998
 20
-0.5773639999997579
 30
0.0
 11
34.531035000000003
 21
2.8608420000002419
 31
0.0
  0
LINE
  5
1D1A
  8
DETAIL
  6
CONTINUOUS
 62
     5
 10
34.748055999999998
 20
2.790908000000242
 30
0.0
 11
33.665627999999998
 21
-0.6472989999997579
 31
0.0
  0
ARC
  5
1D1B
  8
DETAIL
  6
CONTINUOUS
 62
     5
 10
22.243210000000001
 20
-2.1425629999997571
 30
0.0
 40
10.107986
 50
10.492912
 51
19.310268000000001
  0
ARC
  5
1D1C
  8
DETAIL
  6
CONTINUOUS
 62
     5
 10
27.501235999999999
 20
-1.005935999999757
 30
0.0
 40
4.4809039999999989
 50
8.1104889999999994
 51
11.055056
  0
ARC
  5
1D1D
  8
DETAIL
  6
CONTINUOUS
 62
     5
 10
29.42775
 20
11.572617000000241
 30
0.0
 40
11.977062
 50
274.47609399999999
 51
281.90748300000001
  0
ARC
  5
1D1E
  8
DETAIL
  6
CONTINUOUS
 62
     5
 10
30.373856
 20
-0.2337799999997577
 30
0.0
 40
0.144818
 50
185.98344599999999
 51
223.989282
  0
LINE
  5
1D1F
  8
DETAIL
  6
CONTINUOUS
 62
     5
 10
29.609359999999999
 20
-0.3679049999997577
 30
0.0
 11
29.609359999999999
 21
0.0823820000002423
 31
0.0
  0
LINE
  5
1D20
  8
DETAIL
  6
CONTINUOUS
 62
     5
 10
29.37236
 20
0.0823820000002423
 30
0.0
 11
29.37236
 21
-0.3679049999997577
 31
0.0
  0
ARC
  5
1D21
  8
DETAIL
  6
CONTINUOUS
 62
     5
 10
28.130431999999999
 20
-0.1644439999997578
 30
0.0
 40
0.183606
 50
317.08505400000001
 51
350.832739
  0
ARC
  5
1D22
  8
DETAIL
  6
CONTINUOUS
 62
     5
 10
33.306975999999999
 20
3.1414490000002422
 30
0.0
 40
3.005444999999999
 50
328.35857499999997
 51
342.83534700000001
  0
ARC
  5
1D23
  8
DETAIL
  6
CONTINUOUS
 62
     5
 10
30.518813999999999
 20
3.9782870000002419
 30
0.0
 40
5.9164459999999988
 50
343.06075900000002
 51
349.87663300000003
  0
ARC
  5
1D24
  8
DETAIL
  6
CONTINUOUS
 62
     5
 10
37.140396000000003
 20
2.0423130000002421
 30
0.0
 40
0.4466160000000001
 50
254.04721000000001
 51
271.22932200000002
  0
ARC
  5
1D25
  8
DETAIL
  6
CONTINUOUS
 62
     5
 10
37.076644999999999
 20
1.8175510000002419
 30
0.0
 40
0.21299
 50
225.50113099999999
 51
253.920817
  0
ARC
  5
1D26
  8
DETAIL
  6
CONTINUOUS
 62
     5
 10
37.082366999999998
 20
1.8141020000002419
 30
0.0
 40
0.214646
 50
195.653177
 51
223.76451399999999
  0
ARC
  5
1D27
  8
DETAIL
  6
CONTINUOUS
 62
     5
 10
37.310532000000002
 20
1.877335000000242
 30
0.0
 40
0.451399
 50
178.80783600000001
 51
195.56861499999999
  0
LINE
  5
1D28
  8
DETAIL
  6
CONTINUOUS
 62
     5
 10
36.859222000000003
 20
2.0419460000002418
 30
0.0
 11
36.859222000000003
 21
1.8867340000002419
 31
0.0
  0
ARC
  5
1D29
  8
DETAIL
  6
CONTINUOUS
 62
     5
 10
37.311171999999999
 20
2.051361000000242
 30
0.0
 40
0.4520430000000001
 50
164.442487
 51
181.19218699999999
  0
ARC
  5
1D2A
  8
DETAIL
  6
CONTINUOUS
 62
     5
 10
37.082504
 20
2.1147000000002421
 30
0.0
 40
0.214761
 50
136.25120899999999
 51
164.35960900000001
  0
ARC
  5
1D2B
  8
DETAIL
  6
CONTINUOUS
 62
     5
 10
37.076644999999999
 20
2.1113590000002418
 30
0.0
 40
0.212935
 50
106.083192
 51
134.51311699999999
  0
ARC
  5
1D2C
  8
DETAIL
  6
CONTINUOUS
 62
     5
 10
37.140396000000003
 20
1.886642000000242
 30
0.0
 40
0.446519
 50
88.769947000000002
 51
105.955871
  0
ARC
  5
1D2D
  8
DETAIL
  6
CONTINUOUS
 62
     5
 10
36.767043999999999
 20
2.656860000000242
 30
0.0
 40
0.090971
 50
218.292112
 51
271.648867
  0
ARC
  5
1D2E
  8
DETAIL
  6
CONTINUOUS
 62
     5
 10
36.794066999999998
 20
2.674454000000241
 30
0.0
 40
0.123118
 50
179.03401099999999
 51
216.921344
  0
ARC
  5
1D2F
  8
DETAIL
  6
CONTINUOUS
 62
     5
 10
36.794066999999998
 20
2.678604000000242
 30
0.0
 40
0.123118
 50
143.078666
 51
180.96599900000001
  0
ARC
  5
1D30
  8
DETAIL
  6
CONTINUOUS
 62
     5
 10
36.767043999999999
 20
2.6961980000002419
 30
0.0
 40
0.090971
 50
88.35113299999999
 51
141.707888
  0
ARC
  5
1D31
  8
DETAIL
  6
CONTINUOUS
 62
     5
 10
37.167099
 20
2.0411680000002419
 30
0.0
 40
0.082443
 50
88.483256999999995
 51
107.176159
  0
ARC
  5
1D32
  8
DETAIL
  6
CONTINUOUS
 62
     5
 10
37.153884999999988
 20
2.0846860000002421
 30
0.0
 40
0.036972
 50
107.52613100000001
 51
138.857268
  0
ARC
  5
1D33
  8
DETAIL
  6
CONTINUOUS
 62
     5
 10
37.159545999999999
 20
2.0818180000002422
 30
0.0
 40
0.04315
 50
140.93301700000001
 51
167.95972
  0
ARC
  5
1D34
  8
DETAIL
  6
CONTINUOUS
 62
     5
 10
37.224014000000011
 20
2.0675050000002422
 30
0.0
 40
0.109184
 50
167.67065299999999
 51
181.11374900000001
  0
LINE
  5
1D35
  8
DETAIL
  6
CONTINUOUS
 62
     5
 10
37.114852999999997
 20
1.8634800000002421
 30
0.0
 11
37.114852999999997
 21
2.0653840000002419
 31
0.0
  0
ARC
  5
1D36
  8
DETAIL
  6
CONTINUOUS
 62
     5
 10
37.224014000000011
 20
1.861359000000242
 30
0.0
 40
0.109184
 50
178.88626099999999
 51
192.32935699999999
  0
ARC
  5
1D37
  8
DETAIL
  6
CONTINUOUS
 62
     5
 10
37.159545999999999
 20
1.847046000000242
 30
0.0
 40
0.04315
 50
192.04028
 51
219.06698299999999
  0
ARC
  5
1D38
  8
DETAIL
  6
CONTINUOUS
 62
     5
 10
37.153884999999988
 20
1.844177000000242
 30
0.0
 40
0.036972
 50
221.142732
 51
252.47386900000001
  0
ARC
  5
1D39
  8
DETAIL
  6
CONTINUOUS
 62
     5
 10
37.167099
 20
1.8876800000002421
 30
0.0
 40
0.082443
 50
252.82384099999999
 51
271.51674300000002
  0
ARC
  5
1D3A
  8
DETAIL
  6
CONTINUOUS
 62
     5
 10
37.404114
 20
-0.2744749999997577
 30
0.0
 40
0.142871
 50
211.732699
 51
258.36341800000002
  0
ARC
  5
1D3B
  8
DETAIL
  6
CONTINUOUS
 62
     5
 10
36.274521
 20
-0.3601839999997578
 30
0.0
 40
0.110755
 50
311.30556999999999
 51
2.0668060000000001
  0
ARC
  5
1D3C
  8
DETAIL
  6
CONTINUOUS
 62
     5
 10
36.266708000000001
 20
-0.3453519999997577
 30
0.0
 40
0.127113
 50
269.2079819999999
 51
309.53341899999998
  0
ARC
  5
1D3D
  8
DETAIL
  6
CONTINUOUS
 62
     5
 10
36.263199
 20
-0.3453519999997577
 30
0.0
 40
0.127113
 50
230.46656899999999
 51
270.792013
  0
ARC
  5
1D3E
  8
DETAIL
  6
CONTINUOUS
 62
     5
 10
36.255386000000001
 20
-0.3601839999997578
 30
0.0
 40
0.110755
 50
177.93320299999999
 51
228.69443199999989
  0
ARC
  5
1D3F
  8
DETAIL
  6
CONTINUOUS
 62
     5
 10
37.417740000000002
 20
-0.2708889999997577
 30
0.0
 40
0.156395
 50
172.82776000000001
 51
210.22289499999999
  0
LINE
  5
1D40
  8
DETAIL
  6
CONTINUOUS
 62
     5
 10
36.385193000000001
 20
-0.3562009999997577
 30
0.0
 11
36.385193000000001
 21
2.0576170000002421
 31
0.0
  0
LINE
  5
1D41
  8
DETAIL
  6
CONTINUOUS
 62
     5
 10
36.144714
 20
1.5840760000002421
 30
0.0
 11
36.144714
 21
-0.3562009999997577
 31
0.0
  0
ARC
  5
1D42
  8
DETAIL
  6
CONTINUOUS
 62
     5
 10
34.644134999999999
 20
2.8297880000002422
 30
0.0
 40
0.110964
 50
339.484849
 51
74.012647000000001
  0
ARC
  5
1D43
  8
DETAIL
  6
CONTINUOUS
 62
     5
 10
34.637390000000003
 20
2.8330540000002422
 30
0.0
 40
0.10993
 50
70.160809999999984
 51
165.351203
  0
LINE
  5
1D44
  8
DETAIL
  6
CONTINUOUS
 62
     5
 10
29.37236
 20
0.8701020000002422
 30
0.0
 11
29.131882000000001
 21
0.8701020000002422
 31
0.0
  0
LINE
  5
1D45
  8
DETAIL
  6
CONTINUOUS
 62
     5
 10
29.37236
 20
1.331909000000242
 30
0.0
 11
29.37236
 21
0.8701020000002422
 31
0.0
  0
LINE
  5
1D46
  8
DETAIL
  6
CONTINUOUS
 62
     5
 10
29.023009999999999
 20
1.331909000000242
 30
0.0
 11
29.37236
 21
1.331909000000242
 31
0.0
  0
LINE
  5
1D47
  8
DETAIL
  6
CONTINUOUS
 62
     5
 10
29.023009999999999
 20
0.9748380000002423
 30
0.0
 11
29.023009999999999
 21
1.331909000000242
 31
0.0
  0
ARC
  5
1D48
  8
DETAIL
  6
CONTINUOUS
 62
     5
 10
29.174088000000001
 20
0.9718320000002421
 30
0.0
 40
0.151112
 50
178.864486
 51
196.45695000000001
  0
ARC
  5
1D49
  8
DETAIL
  6
CONTINUOUS
 62
     5
 10
29.104873999999999
 20
0.9516750000002421
 30
0.0
 40
0.079015
 50
196.65542500000001
 51
224.49794
  0
ARC
  5
1D4A
  8
DETAIL
  6
CONTINUOUS
 62
     5
 10
29.105377000000001
 20
0.9552310000002423
 30
0.0
 40
0.081903
 50
226.02260200000001
 51
253.64369600000001
  0
ARC
  5
1D4B
  8
DETAIL
  6
CONTINUOUS
 62
     5
 10
29.128494
 20
1.0352170000002421
 30
0.0
 40
0.165151
 50
253.76283499999991
 51
271.17294600000002
  0
LINE
  5
1D4C
  8
DETAIL
  6
CONTINUOUS
 62
     5
 10
29.37236
 20
1.5336300000002421
 30
0.0
 11
29.023009999999999
 21
1.5336300000002421
 31
0.0
  0
LINE
  5
1D4D
  8
DETAIL
  6
CONTINUOUS
 62
     5
 10
29.37236
 20
1.956680000000242
 30
0.0
 11
29.37236
 21
1.5336300000002421
 31
0.0
  0
LINE
  5
1D4E
  8
DETAIL
  6
CONTINUOUS
 62
     5
 10
29.131882000000001
 20
1.956680000000242
 30
0.0
 11
29.37236
 21
1.956680000000242
 31
0.0
  0
ARC
  5
1D4F
  8
DETAIL
  6
CONTINUOUS
 62
     5
 10
29.128494
 20
1.7915650000002421
 30
0.0
 40
0.165151
 50
88.827054000000004
 51
106.237165
  0
ARC
  5
1D50
  8
DETAIL
  6
CONTINUOUS
 62
     5
 10
29.105377000000001
 20
1.8715520000002419
 30
0.0
 40
0.081903
 50
106.35630399999999
 51
133.97739799999999
  0
ARC
  5
1D51
  8
DETAIL
  6
CONTINUOUS
 62
     5
 10
29.104873999999999
 20
1.8751070000002421
 30
0.0
 40
0.079015
 50
135.50206
 51
163.34457499999999
  0
ARC
  5
1D52
  8
DETAIL
  6
CONTINUOUS
 62
     5
 10
29.174088000000001
 20
1.854935000000242
 30
0.0
 40
0.151112
 50
163.54306
 51
181.135524
  0
LINE
  5
1D53
  8
DETAIL
  6
CONTINUOUS
 62
     5
 10
29.023009999999999
 20
1.5336300000002421
 30
0.0
 11
29.023009999999999
 21
1.8519440000002421
 31
0.0
  0
LINE
  5
1D54
  8
DETAIL
  6
CONTINUOUS
 62
     5
 10
29.997313999999999
 20
1.5336300000002421
 30
0.0
 11
29.609359999999999
 21
1.5336300000002421
 31
0.0
  0
LINE
  5
1D55
  8
DETAIL
  6
CONTINUOUS
 62
     5
 10
29.997313999999999
 20
1.8519440000002421
 30
0.0
 11
29.997313999999999
 21
1.5336300000002421
 31
0.0
  0
ARC
  5
1D56
  8
DETAIL
  6
CONTINUOUS
 62
     5
 10
29.844315000000002
 20
1.8549960000002419
 30
0.0
 40
0.153028
 50
358.85602599999999
 51
16.221509999999999
  0
ARC
  5
1D57
  8
DETAIL
  6
CONTINUOUS
 62
     5
 10
29.915832999999999
 20
1.8755490000002419
 30
0.0
 40
0.078619
 50
16.400292
 51
44.323040999999989
  0
ARC
  5
1D58
  8
DETAIL
  6
CONTINUOUS
 62
     5
 10
29.915512
 20
1.8721160000002419
 30
0.0
 40
0.081279
 50
45.900544999999987
 51
73.717022999999983
  0
ARC
  5
1D59
  8
DETAIL
  6
CONTINUOUS
 62
     5
 10
29.891907
 20
1.7901610000002419
 30
0.0
 40
0.166566
 50
73.830485999999993
 51
91.194227000000012
  0
LINE
  5
1D5A
  8
DETAIL
  6
CONTINUOUS
 62
     5
 10
29.609359999999999
 20
1.956680000000242
 30
0.0
 11
29.888442999999999
 21
1.956680000000242
 31
0.0
  0
LINE
  5
1D5B
  8
DETAIL
  6
CONTINUOUS
 62
     5
 10
29.609359999999999
 20
1.5336300000002421
 30
0.0
 11
29.609359999999999
 21
1.956680000000242
 31
0.0
  0
ARC
  5
1D5C
  8
DETAIL
  6
CONTINUOUS
 62
     5
 10
30.357285000000001
 20
-0.2314449999997577
 30
0.0
 40
0.128642
 50
146.14367300000001
 51
187.78577899999999
  0
ARC
  5
1D5D
  8
DETAIL
  6
CONTINUOUS
 62
     5
 10
30.338744999999999
 20
-0.2253719999997577
 30
0.0
 40
0.109985
 50
89.84021700000001
 51
143.38596999999999
  0
ARC
  5
1D5E
  8
DETAIL
  6
CONTINUOUS
 62
     5
 10
30.47551
 20
-2.099807999999757
 30
0.0
 40
1.9890969999999999
 50
91.745921999999965
 51
93.934115999999975
  0
ARC
  5
1D5F
  8
DETAIL
  6
CONTINUOUS
 62
     5
 10
30.364409999999999
 20
1.618118000000242
 30
0.0
 40
1.730483
 50
271.67238300000002
 51
274.15952099999998
  0
ARC
  5
1D60
  8
DETAIL
  6
CONTINUOUS
 62
     5
 10
22.127251000000001
 20
2.3842160000002419
 30
0.0
 40
8.7260860000000005
 50
343.40626700000001
 51
354.68792100000002
  0
LINE
  5
1D61
  8
DETAIL
  6
CONTINUOUS
 62
     5
 10
30.432068000000001
 20
1.576355000000242
 30
0.0
 11
30.815857000000001
 21
1.576355000000242
 31
0.0
  0
ARC
  5
1D62
  8
DETAIL
  6
CONTINUOUS
 62
     5
 10
30.428757000000001
 20
1.6821440000002419
 30
0.0
 40
0.105843
 50
219.25881600000011
 51
271.79467799999998
  0
ARC
  5
1D63
  8
DETAIL
  6
CONTINUOUS
 62
     5
 10
30.4543
 20
1.698380000000242
 30
0.0
 40
0.135944
 50
179.08309299999999
 51
217.74020200000001
  0
ARC
  5
1D64
  8
DETAIL
  6
CONTINUOUS
 62
     5
 10
30.4543
 20
1.702728000000242
 30
0.0
 40
0.135944
 50
142.25980799999999
 51
180.91691700000001
  0
ARC
  5
1D65
  8
DETAIL
  6
CONTINUOUS
 62
     5
 10
30.428757000000001
 20
1.7189480000002419
 30
0.0
 40
0.105843
 50
88.205321999999995
 51
140.741184
  0
LINE
  5
1D66
  8
DETAIL
  6
CONTINUOUS
 62
     5
 10
32.080886999999997
 20
1.8247530000002421
 30
0.0
 11
30.432068000000001
 21
1.8247530000002421
 31
0.0
  0
ARC
  5
1D67
  8
DETAIL
  6
CONTINUOUS
 62
     5
 10
32.084198000000001
 20
1.7189480000002419
 30
0.0
 40
0.105843
 50
39.258828000000001
 51
91.794682999999978
  0
ARC
  5
1D68
  8
DETAIL
  6
CONTINUOUS
 62
     5
 10
32.058655000000002
 20
1.702728000000242
 30
0.0
 40
0.135944
 50
359.08309000000003
 51
37.740197000000002
  0
ARC
  5
1D69
  8
DETAIL
  6
CONTINUOUS
 62
     5
 10
32.058655000000002
 20
1.698380000000242
 30
0.0
 40
0.135944
 50
322.25980299999998
 51
0.91691
  0
ARC
  5
1D6A
  8
DETAIL
  6
CONTINUOUS
 62
     5
 10
32.084198000000001
 20
1.6821440000002419
 30
0.0
 40
0.105843
 50
268.20531699999998
 51
320.74117200000001
  0
LINE
  5
1D6B
  8
DETAIL
  6
CONTINUOUS
 62
     5
 10
31.079742
 20
1.576355000000242
 30
0.0
 11
32.080886999999997
 21
1.576355000000242
 31
0.0
  0
ARC
  5
1D6C
  8
DETAIL
  6
CONTINUOUS
 62
     5
 10
18.562881000000001
 20
3.131958000000242
 30
0.0
 40
12.613153000000001
 50
345.20706200000001
 51
352.91554200000002
  0
ARC
  5
1D6D
  8
DETAIL
  6
CONTINUOUS
 62
     5
 10
29.736754999999999
 20
9.8736420000002418
 30
0.0
 40
10.014359000000001
 50
275.85291599999999
 51
282.21894600000002
  0
ARC
  5
1D6E
  8
DETAIL
  6
CONTINUOUS
 62
     5
 10
25.012160999999999
 20
-1.329650999999757
 30
0.0
 40
6.989018999999999
 50
11.68764799999999
 51
20.708309
  0
ARC
  5
1D6F
  8
DETAIL
  6
CONTINUOUS
 62
     5
 10
31.627136
 20
1.1737520000002419
 30
0.0
 40
0.083845
 50
144.125584
 51
202.44680700000001
  0
ARC
  5
1D70
  8
DETAIL
  6
CONTINUOUS
 62
     5
 10
31.662414999999999
 20
1.144272000000242
 30
0.0
 40
0.12975
 50
104.6263339999999
 51
142.71263599999989
  0
ARC
  5
1D71
  8
DETAIL
  6
CONTINUOUS
 62
     5
 10
31.670151000000001
 20
1.134552000000242
 30
0.0
 40
0.141207
 50
70.048384999999996
 51
106.6668929999999
  0
ARC
  5
1D72
  8
DETAIL
  6
CONTINUOUS
 62
     5
 10
31.679137999999998
 20
1.1656040000002419
 30
0.0
 40
0.108972
 50
18.385985999999999
 51
68.912716000000003
  0
ARC
  5
1D73
  8
DETAIL
  6
CONTINUOUS
 62
     5
 10
30.222594999999998
 20
0.1966090000002423
 30
0.0
 40
0.107005
 50
42.556925
 51
92.209841999999995
  0
ARC
  5
1D74
  8
DETAIL
  6
CONTINUOUS
 62
     5
 10
30.214569000000001
 20
0.1943510000002422
 30
0.0
 40
0.114502
 50
359.30021299999999
 51
40.671871000000003
  0
ARC
  5
1D75
  8
DETAIL
  6
CONTINUOUS
 62
     5
 10
30.214569000000001
 20
0.1915590000002423
 30
0.0
 40
0.114502
 50
319.32812899999999
 51
0.6997869999999999
  0
ARC
  5
1D76
  8
DETAIL
  6
CONTINUOUS
 62
     5
 10
30.222594999999998
 20
0.1893010000002422
 30
0.0
 40
0.107005
 50
267.79015800000002
 51
317.44307500000002
  0
LINE
  5
1D77
  8
DETAIL
  6
CONTINUOUS
 62
     5
 10
29.609359999999999
 20
0.0823820000002423
 30
0.0
 11
30.21846
 21
0.0823820000002423
 31
0.0
  0
LINE
  5
1D78
  8
DETAIL
  6
CONTINUOUS
 62
     5
 10
28.810103999999999
 20
0.0823820000002423
 30
0.0
 11
29.37236
 21
0.0823820000002423
 31
0.0
  0
ARC
  5
1D79
  8
DETAIL
  6
CONTINUOUS
 62
     5
 10
28.805983999999999
 20
0.1893010000002422
 30
0.0
 40
0.107005
 50
222.55692300000001
 51
272.20983699999999
  0
ARC
  5
1D7A
  8
DETAIL
  6
CONTINUOUS
 62
     5
 10
28.814011000000001
 20
0.1915590000002423
 30
0.0
 40
0.114502
 50
179.30021099999999
 51
220.67188300000001
  0
ARC
  5
1D7B
  8
DETAIL
  6
CONTINUOUS
 62
     5
 10
28.814011000000001
 20
0.1943510000002422
 30
0.0
 40
0.114502
 50
139.32812699999999
 51
180.69978499999999
  0
ARC
  5
1D7C
  8
DETAIL
  6
CONTINUOUS
 62
     5
 10
28.805983999999999
 20
0.1966090000002423
 30
0.0
 40
0.107005
 50
87.790163000000007
 51
137.44307699999999
  0
LINE
  5
1D7D
  8
DETAIL
  6
CONTINUOUS
 62
     5
 10
29.37236
 20
0.3035280000002423
 30
0.0
 11
28.810103999999999
 21
0.3035280000002423
 31
0.0
  0
LINE
  5
1D7E
  8
DETAIL
  6
CONTINUOUS
 62
     5
 10
29.37236
 20
0.6566620000002424
 30
0.0
 11
29.37236
 21
0.3035280000002423
 31
0.0
  0
LINE
  5
1D7F
  8
DETAIL
  6
CONTINUOUS
 62
     5
 10
29.093323000000002
 20
0.6566620000002424
 30
0.0
 11
29.37236
 21
0.6566620000002424
 31
0.0
  0
ARC
  5
1D80
  8
DETAIL
  6
CONTINUOUS
 62
     5
 10
29.088028000000001
 20
0.9875340000002422
 30
0.0
 40
0.330909
 50
248.44366099999999
 51
270.91597400000001
  0
ARC
  5
1D81
  8
DETAIL
  6
CONTINUOUS
 62
     5
 10
29.058288999999998
 20
0.9064180000002421
 30
0.0
 40
0.24455
 50
222.07768999999999
 51
247.93929900000001
  0
ARC
  5
1D82
  8
DETAIL
  6
CONTINUOUS
 62
     5
 10
29.074265000000011
 20
0.9176480000002424
 30
0.0
 40
0.263935
 50
198.21535800000001
 51
221.56470100000001
  0
ARC
  5
1D83
  8
DETAIL
  6
CONTINUOUS
 62
     5
 10
29.157668999999999
 20
0.9449460000002423
 30
0.0
 40
0.351703
 50
179.53978699999999
 51
198.19375700000001
  0
LINE
  5
1D84
  8
DETAIL
  6
CONTINUOUS
 62
     5
 10
28.805983999999999
 20
1.878998000000242
 30
0.0
 11
28.805983999999999
 21
0.9477690000002422
 31
0.0
  0
ARC
  5
1D85
  8
DETAIL
  6
CONTINUOUS
 62
     5
 10
29.105620999999999
 20
1.8870390000002419
 30
0.0
 40
0.299744
 50
138.85993099999999
 51
181.535268
  0
ARC
  5
1D86
  8
DETAIL
  6
CONTINUOUS
 62
     5
 10
29.066649999999999
 20
1.912277000000242
 30
0.0
 40
0.253869
 50
112.393597
 51
137.36483000000001
  0
ARC
  5
1D87
  8
DETAIL
  6
CONTINUOUS
 62
     5
 10
29.089157
 20
1.8513490000002419
 30
0.0
 40
0.318793
 50
89.252104000000003
 51
111.962237
  0
LINE
  5
1D88
  8
DETAIL
  6
CONTINUOUS
 62
     5
 10
29.37236
 20
2.1701200000002419
 30
0.0
 11
29.093323000000002
 21
2.1701200000002419
 31
0.0
  0
LINE
  5
1D89
  8
DETAIL
  6
CONTINUOUS
 62
     5
 10
29.37236
 20
2.4999690000002421
 30
0.0
 11
29.37236
 21
2.1701200000002419
 31
0.0
  0
LINE
  5
1D8A
  8
DETAIL
  6
CONTINUOUS
 62
     5
 10
28.856276999999999
 20
2.4999690000002421
 30
0.0
 11
29.37236
 21
2.4999690000002421
 31
0.0
  0
ARC
  5
1D8B
  8
DETAIL
  6
CONTINUOUS
 62
     5
 10
28.850876
 20
2.6050720000002419
 30
0.0
 40
0.105241
 50
178.09337099999999
 51
272.94859300000002
  0
ARC
  5
1D8C
  8
DETAIL
  6
CONTINUOUS
 62
     5
 10
28.850876
 20
2.6120610000002422
 30
0.0
 40
0.105241
 50
87.051410000000004
 51
181.90663900000001
  0
LINE
  5
1D8D
  8
DETAIL
  6
CONTINUOUS
 62
     5
 10
29.37236
 20
2.7171630000002418
 30
0.0
 11
28.856276999999999
 21
2.7171630000002418
 31
0.0
  0
LINE
  5
1D8E
  8
DETAIL
  6
CONTINUOUS
 62
     5
 10
29.37236
 20
2.9073490000002411
 30
0.0
 11
29.37236
 21
2.7171630000002418
 31
0.0
  0
ARC
  5
1D8F
  8
DETAIL
  6
CONTINUOUS
 62
     5
 10
29.476089000000002
 20
2.9107820000002418
 30
0.0
 40
0.103775
 50
129.98728399999999
 51
181.89711699999989
  0
ARC
  5
1D90
  8
DETAIL
  6
CONTINUOUS
 62
     5
 10
29.488907000000001
 20
2.8898770000002418
 30
0.0
 40
0.128092
 50
89.124119999999991
 51
128.36895200000001
  0
ARC
  5
1D91
  8
DETAIL
  6
CONTINUOUS
 62
     5
 10
29.492813000000002
 20
2.8898770000002418
 30
0.0
 40
0.128092
 50
51.631056000000001
 51
90.875884999999982
  0
ARC
  5
1D92
  8
DETAIL
  6
CONTINUOUS
 62
     5
 10
29.505645999999999
 20
2.9107820000002418
 30
0.0
 40
0.103775
 50
358.10288300000002
 51
50.012725000000003
  0
LINE
  5
1D93
  8
DETAIL
  6
CONTINUOUS
 62
     5
 10
29.609359999999999
 20
2.7171630000002418
 30
0.0
 11
29.609359999999999
 21
2.9073490000002411
 31
0.0
  0
LINE
  5
1D94
  8
DETAIL
  6
CONTINUOUS
 62
     5
 10
30.168151999999999
 20
2.7171630000002418
 30
0.0
 11
29.609359999999999
 21
2.7171630000002418
 31
0.0
  0
ARC
  5
1D95
  8
DETAIL
  6
CONTINUOUS
 62
     5
 10
30.173569000000001
 20
2.6120610000002422
 30
0.0
 40
0.105241
 50
358.09337299999999
 51
92.948594999999969
  0
ARC
  5
1D96
  8
DETAIL
  6
CONTINUOUS
 62
     5
 10
30.173569000000001
 20
2.6050720000002419
 30
0.0
 40
0.105241
 50
267.05140499999999
 51
1.9066270000000001
  0
LINE
  5
1D97
  8
DETAIL
  6
CONTINUOUS
 62
     5
 10
29.609359999999999
 20
2.4999690000002421
 30
0.0
 11
30.168151999999999
 21
2.4999690000002421
 31
0.0
  0
LINE
  5
1D98
  8
DETAIL
  6
CONTINUOUS
 62
     5
 10
29.609359999999999
 20
2.1701200000002419
 30
0.0
 11
29.609359999999999
 21
2.4999690000002421
 31
0.0
  0
LINE
  5
1D99
  8
DETAIL
  6
CONTINUOUS
 62
     5
 10
29.927703999999999
 20
2.1701200000002419
 30
0.0
 11
29.609359999999999
 21
2.1701200000002419
 31
0.0
  0
ARC
  5
1D9A
  8
DETAIL
  6
CONTINUOUS
 62
     5
 10
29.932281
 20
1.8328090000002419
 30
0.0
 40
0.337338
 50
69.698338000000007
 51
90.778431999999995
  0
ARC
  5
1D9B
  8
DETAIL
  6
CONTINUOUS
 62
     5
 10
29.962172999999989
 20
1.917770000000242
 30
0.0
 40
0.247284
 50
44.161923000000002
 51
69.361301999999995
  0
ARC
  5
1D9C
  8
DETAIL
  6
CONTINUOUS
 62
     5
 10
29.954650999999998
 20
1.9140170000002421
 30
0.0
 40
0.255315
 50
19.247247999999999
 51
43.592500999999992
  0
ARC
  5
1D9D
  8
DETAIL
  6
CONTINUOUS
 62
     5
 10
29.862639999999999
 20
1.883057000000242
 30
0.0
 40
0.352386
 50
359.34180800000001
 51
19.068380000000001
  0
LINE
  5
1D9E
  8
DETAIL
  6
CONTINUOUS
 62
     5
 10
30.215012000000002
 20
0.9477690000002422
 30
0.0
 11
30.215012000000002
 21
1.878998000000242
 31
0.0
  0
ARC
  5
1D9F
  8
DETAIL
  6
CONTINUOUS
 62
     5
 10
29.862639999999999
 20
0.9437260000002421
 30
0.0
 40
0.352386
 50
340.93162000000001
 51
0.6581920000000001
  0
ARC
  5
1DA0
  8
DETAIL
  6
CONTINUOUS
 62
     5
 10
29.954650999999998
 20
0.9127660000002421
 30
0.0
 40
0.255315
 50
316.40749899999997
 51
340.75275199999999
  0
ARC
  5
1DA1
  8
DETAIL
  6
CONTINUOUS
 62
     5
 10
29.962172999999989
 20
0.9089970000002423
 30
0.0
 40
0.247284
 50
290.63869799999998
 51
315.838077
  0
ARC
  5
1DA2
  8
DETAIL
  6
CONTINUOUS
 62
     5
 10
29.932281
 20
0.9939730000002423
 30
0.0
 40
0.337338
 50
269.22156799999988
 51
290.30166200000002
  0
LINE
  5
1DA3
  8
DETAIL
  6
CONTINUOUS
 62
     5
 10
29.609359999999999
 20
0.6566620000002424
 30
0.0
 11
29.927703999999999
 21
0.6566620000002424
 31
0.0
  0
LINE
  5
1DA4
  8
DETAIL
  6
CONTINUOUS
 62
     5
 10
29.609359999999999
 20
0.3035280000002423
 30
0.0
 11
29.609359999999999
 21
0.6566620000002424
 31
0.0
  0
LINE
  5
1DA5
  8
DETAIL
  6
CONTINUOUS
 62
     5
 10
30.21846
 20
0.3035280000002423
 30
0.0
 11
29.609359999999999
 21
0.3035280000002423
 31
0.0
  0
ARC
  5
1DA6
  8
DETAIL
  6
CONTINUOUS
 62
     5
 10
31.9758
 20
2.7950900000002421
 30
0.0
 40
0.104541
 50
38.511747999999997
 51
91.683001999999988
  0
ARC
  5
1DA7
  8
DETAIL
  6
CONTINUOUS
 62
     5
 10
31.946090999999999
 20
2.775833000000242
 30
0.0
 40
0.139818
 50
359.04463900000002
 51
37.105856000000003
  0
ARC
  5
1DA8
  8
DETAIL
  6
CONTINUOUS
 62
     5
 10
31.946090999999999
 20
2.7711790000002421
 30
0.0
 40
0.139818
 50
322.89414399999998
 51
0.9553609999999997
  0
ARC
  5
1DA9
  8
DETAIL
  6
CONTINUOUS
 62
     5
 10
31.9758
 20
2.7519230000002421
 30
0.0
 40
0.104541
 50
268.31699800000001
 51
321.48825199999999
  0
LINE
  5
1DAA
  8
DETAIL
  6
CONTINUOUS
 62
     5
 10
30.498214999999998
 20
2.647430000000242
 30
0.0
 11
31.972716999999999
 21
2.647430000000242
 31
0.0
  0
ARC
  5
1DAB
  8
DETAIL
  6
CONTINUOUS
 62
     5
 10
30.495070999999999
 20
2.7525940000002418
 30
0.0
 40
0.105218
 50
218.68856299999999
 51
271.71004499999998
  0
ARC
  5
1DAC
  8
DETAIL
  6
CONTINUOUS
 62
     5
 10
30.523895
 20
2.771210000000242
 30
0.0
 40
0.139386
 50
179.05342300000001
 51
217.255067
  0
ARC
  5
1DAD
  8
DETAIL
  6
CONTINUOUS
 62
     5
 10
30.523895
 20
2.7758030000002418
 30
0.0
 40
0.139386
 50
142.74494300000001
 51
180.94658699999999
  0
ARC
  5
1DAE
  8
DETAIL
  6
CONTINUOUS
 62
     5
 10
30.495070999999999
 20
2.7944180000002419
 30
0.0
 40
0.105218
 50
88.289955000000006
 51
141.31143700000001
  0
LINE
  5
1DAF
  8
DETAIL
  6
CONTINUOUS
 62
     5
 10
31.972716999999999
 20
2.8995970000002411
 30
0.0
 11
30.498214999999998
 21
2.8995970000002411
 31
0.0
  0
ARC
  5
1DB0
  8
DETAIL
  6
CONTINUOUS
 62
     5
 10
29.891907
 20
1.036621000000242
 30
0.0
 40
0.166566
 50
268.80577299999999
 51
286.16951399999999
  0
ARC
  5
1DB1
  8
DETAIL
  6
CONTINUOUS
 62
     5
 10
29.915512
 20
0.9546660000002422
 30
0.0
 40
0.081279
 50
286.28297700000002
 51
314.09945499999998
  0
ARC
  5
1DB2
  8
DETAIL
  6
CONTINUOUS
 62
     5
 10
29.915832999999999
 20
0.9512330000002421
 30
0.0
 40
0.078619
 50
315.67695900000001
 51
343.59970800000002
  0
ARC
  5
1DB3
  8
DETAIL
  6
CONTINUOUS
 62
     5
 10
29.844315000000002
 20
0.9717710000002423
 30
0.0
 40
0.153028
 50
343.77848999999998
 51
1.1439739999999989
  0
LINE
  5
1DB4
  8
DETAIL
  6
CONTINUOUS
 62
     5
 10
29.997313999999999
 20
1.331909000000242
 30
0.0
 11
29.997313999999999
 21
0.9748380000002423
 31
0.0
  0
LINE
  5
1DB5
  8
DETAIL
  6
CONTINUOUS
 62
     5
 10
29.609359999999999
 20
1.331909000000242
 30
0.0
 11
29.997313999999999
 21
1.331909000000242
 31
0.0
  0
LINE
  5
1DB6
  8
DETAIL
  6
CONTINUOUS
 62
     5
 10
29.609359999999999
 20
0.8701020000002422
 30
0.0
 11
29.609359999999999
 21
1.331909000000242
 31
0.0
  0
LINE
  5
1DB7
  8
DETAIL
  6
CONTINUOUS
 62
     5
 10
29.888442999999999
 20
0.8701020000002422
 30
0.0
 11
29.609359999999999
 21
0.8701020000002422
 31
0.0
  0
ARC
  5
1DB8
  8
DETAIL
  6
CONTINUOUS
 62
     5
 10
27.817017
 20
1.211533000000242
 30
0.0
 40
0.20957
 50
268.55001700000003
 51
281.65482700000001
  0
ARC
  5
1DB9
  8
DETAIL
  6
CONTINUOUS
 62
     5
 10
27.847899999999999
 20
1.0649260000002421
 30
0.0
 40
0.059752
 50
281.03978899999998
 51
313.314977
  0
ARC
  5
1DBA
  8
DETAIL
  6
CONTINUOUS
 62
     5
 10
27.844757000000001
 20
1.0625310000002419
 30
0.0
 40
0.060291
 50
317.05414100000002
 51
349.12630000000001
  0
ARC
  5
1DBB
  8
DETAIL
  6
CONTINUOUS
 62
     5
 10
27.695312000000001
 20
1.0936740000002421
 30
0.0
 40
0.212943
 50
348.48235399999999
 51
1.4348620000000001
  0
LINE
  5
1DBC
  8
DETAIL
  6
CONTINUOUS
 62
     5
 10
27.908187999999999
 20
1.2931520000002421
 30
0.0
 11
27.908187999999999
 21
1.099014000000242
 31
0.0
  0
LINE
  5
1DBD
  8
DETAIL
  6
CONTINUOUS
 62
     5
 10
27.908187999999999
 20
1.6617580000002421
 30
0.0
 11
27.908187999999999
 21
1.4871060000002421
 31
0.0
  0
ARC
  5
1DBE
  8
DETAIL
  6
CONTINUOUS
 62
     5
 10
27.687346999999988
 20
1.6669460000002421
 30
0.0
 40
0.220912
 50
358.65723500000001
 51
11.299232
  0
ARC
  5
1DBF
  8
DETAIL
  6
CONTINUOUS
 62
     5
 10
27.839538999999998
 20
1.6980740000002419
 30
0.0
 40
0.065574
 50
10.682617
 51
41.169473999999987
  0
ARC
  5
1DC0
  8
DETAIL
  6
CONTINUOUS
 62
     5
 10
27.846024
 20
1.6990510000002419
 30
0.0
 40
0.060146
 50
44.527731000000003
 51
77.195132999999998
  0
ARC
  5
1DC1
  8
DETAIL
  6
CONTINUOUS
 62
     5
 10
27.816666000000001
 20
1.574692000000242
 30
0.0
 40
0.187927
 50
76.874442000000002
 51
91.513531000000015
  0
ARC
  5
1DC2
  8
DETAIL
  6
CONTINUOUS
 62
     5
 10
28.226714999999999
 20
-0.1483149999997577
 30
0.0
 40
0.084086
 50
33.777522000000012
 51
98.147441000000001
  0
ARC
  5
1DC3
  8
DETAIL
  6
CONTINUOUS
 62
     5
 10
28.182677999999999
 20
-0.1675259999997578
 30
0.0
 40
0.131631
 50
348.53335399999997
 51
30.067118000000011
  0
ARC
  5
1DC4
  8
DETAIL
  6
CONTINUOUS
 62
     5
 10
28.156738000000001
 20
0.4323270000002423
 30
0.0
 40
0.104179
 50
42.317580999999997
 51
92.183805000000007
  0
ARC
  5
1DC5
  8
DETAIL
  6
CONTINUOUS
 62
     5
 10
28.147797000000001
 20
0.4291690000002423
 30
0.0
 40
0.11299
 50
359.28155600000002
 51
40.451555999999997
  0
ARC
  5
1DC6
  8
DETAIL
  6
CONTINUOUS
 62
     5
 10
28.147797000000001
 20
0.4263310000002423
 30
0.0
 40
0.11299
 50
319.54844400000002
 51
0.718444
  0
ARC
  5
1DC7
  8
DETAIL
  6
CONTINUOUS
 62
     5
 10
28.156738000000001
 20
0.4231570000002423
 30
0.0
 40
0.104179
 50
267.81619499999999
 51
317.68241899999998
  0
ARC
  5
1DC8
  8
DETAIL
  6
CONTINUOUS
 62
     5
 10
27.762267999999999
 20
2.3189700000002418
 30
0.0
 40
0.103427
 50
43.955174
 51
92.762881999999991
  0
ARC
  5
1DC9
  8
DETAIL
  6
CONTINUOUS
 62
     5
 10
27.763884999999998
 20
2.326355000000242
 30
0.0
 40
0.09723
 50
357.09465699999998
 51
41.489007000000001
  0
ARC
  5
1DCA
  8
DETAIL
  6
CONTINUOUS
 62
     5
 10
27.756546000000011
 20
2.3248900000002419
 30
0.0
 40
0.104506
 50
315.84348999999997
 51
358.10266899999999
  0
ARC
  5
1DCB
  8
DETAIL
  6
CONTINUOUS
 62
     5
 10
27.753830000000001
 20
2.3318020000002422
 30
0.0
 40
0.111311
 50
267.88796000000002
 51
314.261304
  0
ARC
  5
1DCC
  8
DETAIL
  6
CONTINUOUS
 62
     5
 10
27.820511
 20
1.3137050000002419
 30
0.0
 40
0.654648
 50
77.823141000000007
 51
91.13158
  0
ARC
  5
1DCD
  8
DETAIL
  6
CONTINUOUS
 62
     5
 10
27.907699999999998
 20
1.710556000000242
 30
0.0
 40
0.248341
 50
51.073405000000001
 51
78.174943999999996
  0
ARC
  5
1DCE
  8
DETAIL
  6
CONTINUOUS
 62
     5
 10
27.928008999999999
 20
1.7480320000002421
 30
0.0
 40
0.206563
 50
17.309562
 51
48.921936999999993
  0
ARC
  5
1DCF
  8
DETAIL
  6
CONTINUOUS
 62
     5
 10
27.680923
 20
1.674118000000242
 30
0.0
 40
0.464469
 50
358.47650599999997
 51
16.946681000000002
  0
LINE
  5
1DD0
  8
DETAIL
  6
CONTINUOUS
 62
     5
 10
28.145233000000001
 20
1.0912930000002421
 30
0.0
 11
28.145233000000001
 21
1.6617580000002421
 31
0.0
  0
ARC
  5
1DD1
  8
DETAIL
  6
CONTINUOUS
 62
     5
 10
27.733276
 20
1.080811000000242
 30
0.0
 40
0.4120890000000001
 50
342.01396399999999
 51
1.4576690000000001
  0
ARC
  5
1DD2
  8
DETAIL
  6
CONTINUOUS
 62
     5
 10
27.929672
 20
1.019058000000242
 30
0.0
 40
0.20623
 50
310.54982000000001
 51
341.48005000000001
  0
ARC
  5
1DD3
  8
DETAIL
  6
CONTINUOUS
 62
     5
 10
27.902847000000001
 20
1.0628200000002419
 30
0.0
 40
0.2570489999999999
 50
282.52534200000002
 51
308.75037900000001
  0
ARC
  5
1DD4
  8
DETAIL
  6
CONTINUOUS
 62
     5
 10
27.819351000000001
 20
1.423859000000242
 30
0.0
 40
0.627609
 50
268.9258549999999
 51
282.818917
  0
LINE
  5
1DD5
  8
DETAIL
  6
CONTINUOUS
 62
     5
 10
28.249924
 20
2.375778000000242
 30
0.0
 11
28.249924
 21
2.592987000000242
 31
0.0
  0
ARC
  5
1DD6
  8
DETAIL
  6
CONTINUOUS
 62
     5
 10
28.171264999999998
 20
2.375610000000242
 30
0.0
 40
0.078661
 50
300.94175799999999
 51
0.131755
  0
ARC
  5
1DD7
  8
DETAIL
  6
CONTINUOUS
 62
     5
 10
28.130859000000001
 20
2.441589000000242
 30
0.0
 40
0.156036
 50
268.81728900000002
 51
301.20989100000003
  0
ARC
  5
1DD8
  8
DETAIL
  6
CONTINUOUS
 62
     5
 10
28.124420000000001
 20
2.441589000000242
 30
0.0
 40
0.156036
 50
238.790111
 51
271.182706
  0
ARC
  5
1DD9
  8
DETAIL
  6
CONTINUOUS
 62
     5
 10
28.084015000000001
 20
2.375610000000242
 30
0.0
 40
0.078661
 50
179.86825099999999
 51
239.058233
  0
LINE
  5
1DDA
  8
DETAIL
  6
CONTINUOUS
 62
     5
 10
28.005355999999999
 20
2.5969390000002419
 30
0.0
 11
28.005355999999999
 21
2.375778000000242
 31
0.0
  0
ARC
  5
1DDB
  8
DETAIL
  6
CONTINUOUS
 62
     5
 10
27.814682000000001
 20
2.6016080000002422
 30
0.0
 40
0.190728
 50
358.59634599999998
 51
11.217921
  0
ARC
  5
1DDC
  8
DETAIL
  6
CONTINUOUS
 62
     5
 10
27.94595300000001
 20
2.6281430000002421
 30
0.0
 40
0.056807
 50
10.720841999999999
 51
42.196593999999997
  0
ARC
  5
1DDD
  8
DETAIL
  6
CONTINUOUS
 62
     5
 10
27.947448999999999
 20
2.6247250000002418
 30
0.0
 40
0.058101
 50
45.688145999999982
 51
77.819569000000001
  0
ARC
  5
1DDE
  8
DETAIL
  6
CONTINUOUS
 62
     5
 10
27.917266999999999
 20
2.4936370000002421
 30
0.0
 40
0.192617
 50
77.273133000000001
 51
91.471880999999996
  0
ARC
  5
1DDF
  8
DETAIL
  6
CONTINUOUS
 62
     5
 10
27.927154999999999
 20
2.379791000000242
 30
0.0
 40
0.5276610000000001
 50
74.49063000000001
 51
91.163224999999983
  0
ARC
  5
1DE0
  8
DETAIL
  6
CONTINUOUS
 62
     5
 10
28.001266000000001
 20
2.6473240000002418
 30
0.0
 40
0.250055
 50
46.999997000000022
 51
74.46272900000001
  0
ARC
  5
1DE1
  8
DETAIL
  6
CONTINUOUS
 62
     5
 10
28.008300999999999
 20
2.6644900000002418
 30
0.0
 40
0.2328
 50
16.895618999999989
 51
45.384489999999992
  0
ARC
  5
1DE2
  8
DETAIL
  6
CONTINUOUS
 62
     5
 10
27.797348
 20
2.6024630000002422
 30
0.0
 40
0.452687
 50
358.80015600000002
 51
16.646677
  0
ARC
  5
1DE3
  8
DETAIL
  6
CONTINUOUS
 62
     5
 10
33.552536000000003
 20
-0.6162409999997579
 30
0.0
 40
0.110964
 50
159.484849
 51
254.01265900000001
  0
ARC
  5
1DE4
  8
DETAIL
  6
CONTINUOUS
 62
     5
 10
33.559280000000001
 20
-0.6195069999997579
 30
0.0
 40
0.10993
 50
250.16080500000001
 51
345.351201
  0
ARC
  5
1DE5
  8
DETAIL
  6
CONTINUOUS
 62
     5
 10
32.039185000000003
 20
-0.3346559999997577
 30
0.0
 40
0.146715
 50
326.881553
 51
12.958524000000001
  0
ARC
  5
1DE6
  8
DETAIL
  6
CONTINUOUS
 62
     5
 10
32.049652000000002
 20
-0.3363649999997578
 30
0.0
 40
0.137096
 50
283.58016199999997
 51
325.08739600000001
  0
ARC
  5
1DE7
  8
DETAIL
  6
CONTINUOUS
 62
     5
 10
32.049712999999997
 20
-0.3493799999997577
 30
0.0
 40
0.124458
 50
241.65974600000001
 51
284.96123299999999
  0
ARC
  5
1DE8
  8
DETAIL
  6
CONTINUOUS
 62
     5
 10
32.046447999999998
 20
-0.3648679999997577
 30
0.0
 40
0.109379
 50
185.577022
 51
239.312524
  0
LINE
  5
1DE9
  8
DETAIL
  6
CONTINUOUS
 62
     5
 10
31.937315999999999
 20
-0.3737629999997578
 30
0.0
 11
31.937578999999999
 21
-0.3754979999997578
 31
0.0
  0
ARC
  5
1DEA
  8
DETAIL
  6
CONTINUOUS
 62
     5
 10
30.351593000000001
 20
-0.2528689999997578
 30
0.0
 40
0.115547
 50
224.844066
 51
275.40156400000001
  0
ARC
  5
1DEB
  8
DETAIL
  6
CONTINUOUS
 62
     5
 10
39.5
 20
-5.9999849999997581
 30
0.0
 40
3.0
 50
270.00001800000001
 51
0.0
  0
ARC
  5
1DED
  8
DETAIL
  6
CONTINUOUS
 62
     5
 10
39.5
 20
-5.9999849999997581
 30
0.0
 40
3.5
 50
270.00001800000001
 51
0.0
  0
LINE
  5
1DEE
  8
DETAIL
  6
CONTINUOUS
 62
     5
 10
42.5
 20
-14.49999999999976
 30
0.0
 11
54.500014999999998
 21
-14.49999999999976
 31
0.0
  0
LINE
  5
1DEF
  8
DETAIL
  6
CONTINUOUS
 62
     5
 10
42.5
 20
-14.49999999999976
 30
0.0
 11
42.5
 21
-12.99999999999976
 31
0.0
  0
LINE
  5
1DF0
  8
DETAIL
  6
CONTINUOUS
 62
     5
 10
54.5
 20
-14.49999999999976
 30
0.0
 11
54.5
 21
-12.99999999999976
 31
0.0
  0
LINE
  5
1DF1
  8
DETAIL
  6
CONTINUOUS
 62
     5
 10
53.489975000000001
 20
-12.99999999999976
 30
0.0
 11
53.489975000000001
 21
-11.200011999999751
 31
0.0
  0
LINE
  5
1DF2
  8
DETAIL
  6
CONTINUOUS
 62
     5
 10
57.5
 20
-11.200011999999751
 30
0.0
 11
57.5
 21
-12.73231499999976
 31
0.0
  0
ARC
  5
1DF3
  8
DETAIL
  6
CONTINUOUS
 62
     5
 10
43.063201999999997
 20
-0.1781009999997577
 30
0.0
 40
0.136918
 50
323.38383099999999
 51
0.9830640000000001
  0
ARC
  5
1DF4
  8
DETAIL
  6
CONTINUOUS
 62
     5
 10
43.063201999999997
 20
-0.1734009999997577
 30
0.0
 40
0.136918
 50
359.01693599999999
 51
36.616168999999999
  0
ARC
  5
1DF5
  8
DETAIL
  6
CONTINUOUS
 62
     5
 10
43.094849000000004
 20
-0.1527099999997577
 30
0.0
 40
0.099199
 50
37.926534000000011
 51
91.590732999999986
  0
LINE
  5
1DF6
  8
DETAIL
  6
CONTINUOUS
 62
     5
 10
41.780898999999991
 20
-0.0535429999997578
 30
0.0
 11
43.092101999999997
 21
-0.0535429999997578
 31
0.0
  0
LINE
  5
1DF7
  8
DETAIL
  6
CONTINUOUS
 62
     5
 10
41.780898999999991
 20
1.7237850000002419
 30
0.0
 11
41.780898999999991
 21
-0.0535429999997578
 31
0.0
  0
LINE
  5
1DF8
  8
DETAIL
  6
CONTINUOUS
 62
     5
 10
42.906052000000003
 20
1.7237850000002419
 30
0.0
 11
41.780898999999991
 21
1.7237850000002419
 31
0.0
  0
ARC
  5
1DF9
  8
DETAIL
  6
CONTINUOUS
 62
     5
 10
42.908538999999998
 20
1.8217470000002409
 30
0.0
 40
0.098
 50
268.54154
 51
322.86861199999998
  0
ARC
  5
1DFA
  8
DETAIL
  6
CONTINUOUS
 62
     5
 10
42.872436999999998
 20
1.8454740000002421
 30
0.0
 40
0.141134
 50
324.03930300000002
 51
1.017501999999999
  0
ARC
  5
1DFB
  8
DETAIL
  6
CONTINUOUS
 62
     5
 10
42.872436999999998
 20
1.8504790000002409
 30
0.0
 40
0.141134
 50
358.98249800000002
 51
35.960696999999989
  0
ARC
  5
1DFC
  8
DETAIL
  6
CONTINUOUS
 62
     5
 10
42.908538999999998
 20
1.874207000000242
 30
0.0
 40
0.098
 50
37.131388000000001
 51
91.458460000000017
  0
LINE
  5
1DFD
  8
DETAIL
  6
CONTINUOUS
 62
     5
 10
41.780898999999991
 20
1.9721680000002419
 30
0.0
 11
42.906052000000003
 21
1.9721680000002419
 31
0.0
  0
LINE
  5
1DFE
  8
DETAIL
  6
CONTINUOUS
 62
     5
 10
41.780898999999991
 20
2.9073490000002411
 30
0.0
 11
41.780898999999991
 21
1.9721680000002419
 31
0.0
  0
ARC
  5
1DFF
  8
DETAIL
  6
CONTINUOUS
 62
     5
 10
41.679504000000001
 20
2.909119000000242
 30
0.0
 40
0.101411
 50
359.00413600000002
 51
55.332264000000002
  0
ARC
  5
1E00
  8
DETAIL
  6
CONTINUOUS
 62
     5
 10
41.644226000000003
 20
2.8546910000002419
 30
0.0
 40
0.166254
 50
56.001587999999991
 51
91.103153000000006
  0
ARC
  5
1E01
  8
DETAIL
  6
CONTINUOUS
 62
     5
 10
41.637816999999998
 20
2.8546910000002419
 30
0.0
 40
0.166254
 50
88.896851999999996
 51
123.99841000000001
  0
ARC
  5
1E02
  8
DETAIL
  6
CONTINUOUS
 62
     5
 10
41.602538999999993
 20
2.909119000000242
 30
0.0
 40
0.101411
 50
124.66774100000001
 51
180.99587399999999
  0
LINE
  5
1E03
  8
DETAIL
  6
CONTINUOUS
 62
     5
 10
41.501143999999996
 20
-0.0535429999997578
 30
0.0
 11
41.501143999999996
 21
2.9073490000002411
 31
0.0
  0
LINE
  5
1E04
  8
DETAIL
  6
CONTINUOUS
 62
     5
 10
40.54272499999999
 20
-0.0535429999997578
 30
0.0
 11
41.501143999999996
 21
-0.0535429999997578
 31
0.0
  0
LINE
  5
1E05
  8
DETAIL
  6
CONTINUOUS
 62
     5
 10
40.54272499999999
 20
2.437805000000242
 30
0.0
 11
40.54272499999999
 21
-0.0535429999997578
 31
0.0
  0
ARC
  5
1E06
  8
DETAIL
  6
CONTINUOUS
 62
     5
 10
40.437057000000003
 20
2.4397890000002418
 30
0.0
 40
0.105686
 50
358.92738500000002
 51
52.872050000000002
  0
ARC
  5
1E07
  8
DETAIL
  6
CONTINUOUS
 62
     5
 10
40.408859
 20
2.3990780000002419
 30
0.0
 40
0.155173
 50
53.645392000000001
 51
90.052935999999988
  0
ARC
  5
1E08
  8
DETAIL
  6
CONTINUOUS
 62
     5
 10
40.403595000000003
 20
2.405624000000242
 30
0.0
 40
0.148713
 50
88.026343999999995
 51
125.8067979999999
  0
ARC
  5
1E09
  8
DETAIL
  6
CONTINUOUS
 62
     5
 10
40.381591999999991
 20
2.4413150000002419
 30
0.0
 40
0.106937
 50
127.43553799999999
 51
181.88176300000001
  0
LINE
  5
1E0A
  8
DETAIL
  6
CONTINUOUS
 62
     5
 10
40.274718999999997
 20
-0.0535429999997578
 30
0.0
 11
40.274718999999997
 21
2.437805000000242
 31
0.0
  0
LINE
  5
1E0B
  8
DETAIL
  6
CONTINUOUS
 62
     5
 10
39.840622000000003
 20
-0.0535429999997578
 30
0.0
 11
40.274718999999997
 21
-0.0535429999997578
 31
0.0
  0
ARC
  5
1E0C
  8
DETAIL
  6
CONTINUOUS
 62
     5
 10
39.837859999999999
 20
-0.1527099999997577
 30
0.0
 40
0.099199
 50
88.409272000000016
 51
142.07346699999999
  0
ARC
  5
1E0D
  8
DETAIL
  6
CONTINUOUS
 62
     5
 10
39.869522000000003
 20
-0.1734009999997577
 30
0.0
 40
0.136918
 50
143.38383899999999
 51
180.98307399999999
  0
ARC
  5
1E0E
  8
DETAIL
  6
CONTINUOUS
 62
     5
 10
39.869522000000003
 20
-0.1781009999997577
 30
0.0
 40
0.136918
 50
179.01693599999999
 51
216.61617100000001
  0
ARC
  5
1E0F
  8
DETAIL
  6
CONTINUOUS
 62
     5
 10
38.744690000000013
 20
0.6937710000002423
 30
0.0
 40
0.102663
 50
41.509114999999987
 51
92.091249000000005
  0
ARC
  5
1E10
  8
DETAIL
  6
CONTINUOUS
 62
     5
 10
38.731949
 20
0.6873630000002422
 30
0.0
 40
0.116498
 50
359.22211199999998
 51
39.716361999999997
  0
ARC
  5
1E11
  8
DETAIL
  6
CONTINUOUS
 62
     5
 10
38.731949
 20
0.6842040000002423
 30
0.0
 40
0.116498
 50
320.283638
 51
0.777888
  0
ARC
  5
1E12
  8
DETAIL
  6
CONTINUOUS
 62
     5
 10
38.744690000000013
 20
0.6777950000002423
 30
0.0
 40
0.102663
 50
267.908751
 51
318.49088499999999
  0
LINE
  5
1E13
  8
DETAIL
  6
CONTINUOUS
 62
     5
 10
38.158721999999997
 20
0.5752110000002423
 30
0.0
 11
38.740935999999998
 21
0.5752110000002423
 31
0.0
  0
LINE
  5
1E14
  8
DETAIL
  6
CONTINUOUS
 62
     5
 10
38.158721999999997
 20
0.0318910000002423
 30
0.0
 11
38.158721999999997
 21
0.5752110000002423
 31
0.0
  0
ARC
  5
1E15
  8
DETAIL
  6
CONTINUOUS
 62
     5
 10
37.128967000000003
 20
-0.0008849999997577
 30
0.0
 40
1.0302789999999999
 50
346.09308300000009
 51
1.8231479999999991
  0
ARC
  5
1E16
  8
DETAIL
  6
CONTINUOUS
 62
     5
 10
37.749008000000011
 20
0.2801060000002422
 30
0.0
 40
0.5003320000000001
 50
260.423587
 51
270.82564400000001
  0
ARC
  5
1E17
  8
DETAIL
  6
CONTINUOUS
 62
     5
 10
37.755614999999999
 20
-0.0515289999997578
 30
0.0
 40
0.168646
 50
270.20645400000001
 51
292.155642
  0
ARC
  5
1E18
  8
DETAIL
  6
CONTINUOUS
 62
     5
 10
37.781342000000002
 20
-0.1202999999997577
 30
0.0
 40
0.095264
 50
293.42329100000001
 51
325.29742099999999
  0
ARC
  5
1E19
  8
DETAIL
  6
CONTINUOUS
 62
     5
 10
37.727539
 20
-0.0876619999997578
 30
0.0
 40
0.158128
 50
326.67039799999998
 51
348.46362299999998
  0
ARC
  5
1E1A
  8
DETAIL
  6
CONTINUOUS
 62
     5
 10
37.028793
 20
0.0301510000002423
 30
0.0
 40
0.8666599999999998
 50
350.07155299999999
 51
2.1662210000000002
  0
LINE
  5
1E1B
  8
DETAIL
  6
CONTINUOUS
 62
     5
 10
37.894835999999998
 20
0.5752110000002423
 30
0.0
 11
37.894835999999998
 21
0.0628970000002423
 31
0.0
  0
LINE
  5
1E1C
  8
DETAIL
  6
CONTINUOUS
 62
     5
 10
39.272857999999999
 20
0.6062160000002425
 30
0.0
 11
39.272857999999999
 21
1.0215000000002421
 31
0.0
  0
ARC
  5
1E1D
  8
DETAIL
  6
CONTINUOUS
 62
     5
 10
39.16209400000001
 20
0.6022340000002422
 30
0.0
 40
0.110836
 50
311.252861
 51
2.0603999999999991
  0
ARC
  5
1E1E
  8
DETAIL
  6
CONTINUOUS
 62
     5
 10
39.154053000000012
 20
0.6173710000002423
 30
0.0
 40
0.12758
 50
269.20437600000002
 51
309.48618499999998
  0
ARC
  5
1E1F
  8
DETAIL
  6
CONTINUOUS
 62
     5
 10
39.150512999999997
 20
0.6173710000002423
 30
0.0
 40
0.12758
 50
230.51380599999999
 51
270.79561899999999
  0
ARC
  5
1E20
  8
DETAIL
  6
CONTINUOUS
 62
     5
 10
39.142471
 20
0.6022340000002422
 30
0.0
 40
0.110836
 50
177.93960999999999
 51
228.74714700000001
  0
LINE
  5
1E21
  8
DETAIL
  6
CONTINUOUS
 62
     5
 10
39.031708000000002
 20
1.0215000000002421
 30
0.0
 11
39.031708000000002
 21
0.6062160000002425
 31
0.0
  0
ARC
  5
1E22
  8
DETAIL
  6
CONTINUOUS
 62
     5
 10
38.888809000000002
 20
1.0235290000002419
 30
0.0
 40
0.142908
 50
359.18651299999999
 51
17.409215
  0
ARC
  5
1E23
  8
DETAIL
  6
CONTINUOUS
 62
     5
 10
38.938918999999999
 20
1.0390170000002421
 30
0.0
 40
0.090456
 50
17.550626999999992
 51
42.823240000000013
  0
ARC
  5
1E24
  8
DETAIL
  6
CONTINUOUS
 62
     5
 10
38.942337000000002
 20
1.0402830000002421
 30
0.0
 40
0.087096
 50
43.736795000000001
 51
70.408307999999991
  0
ARC
  5
1E25
  8
DETAIL
  6
CONTINUOUS
 62
     5
 10
38.926040999999998
 20
0.9917600000002423
 30
0.0
 40
0.138287
 50
70.788593000000006
 51
91.036503999999994
  0
ARC
  5
1E26
  8
DETAIL
  6
CONTINUOUS
 62
     5
 10
38.941696
 20
0.8208770000002422
 30
0.0
 40
0.534386
 50
74.693685000000002
 51
91.133444999999995
  0
ARC
  5
1E27
  8
DETAIL
  6
CONTINUOUS
 62
     5
 10
39.01477100000001
 20
1.0885160000002421
 30
0.0
 40
0.256953
 50
47.212541999999992
 51
74.657417000000009
  0
ARC
  5
1E28
  8
DETAIL
  6
CONTINUOUS
 62
     5
 10
39.017715000000003
 20
1.102020000000242
 30
0.0
 40
0.245146
 50
16.949414999999998
 51
45.572306000000012
  0
ARC
  5
1E29
  8
DETAIL
  6
CONTINUOUS
 62
     5
 10
38.781784000000002
 20
1.032181000000242
 30
0.0
 40
0.491188
 50
358.75472100000002
 51
16.719467999999999
  0
LINE
  5
1E2A
  8
DETAIL
  6
CONTINUOUS
 62
     5
 10
39.059296000000003
 20
1.8867340000002419
 30
0.0
 11
39.059296000000003
 21
2.0419460000002418
 31
0.0
  0
ARC
  5
1E2B
  8
DETAIL
  6
CONTINUOUS
 62
     5
 10
38.610030999999999
 20
1.8773960000002421
 30
0.0
 40
0.4493600000000001
 50
344.35134500000009
 51
1.190297999999999
  0
ARC
  5
1E2C
  8
DETAIL
  6
CONTINUOUS
 62
     5
 10
38.835814999999997
 20
1.814514000000242
 30
0.0
 40
0.214981
 50
316.17014
 51
344.25862699999999
  0
ARC
  5
1E2D
  8
DETAIL
  6
CONTINUOUS
 62
     5
 10
38.841324
 20
1.818085000000242
 30
0.0
 40
0.21358
 50
286.10264000000001
 51
314.45226200000002
  0
ARC
  5
1E2E
  8
DETAIL
  6
CONTINUOUS
 62
     5
 10
38.777985000000001
 20
2.0410770000002421
 30
0.0
 40
0.445378
 50
268.77802200000002
 51
285.97436900000002
  0
ARC
  5
1E2F
  8
DETAIL
  6
CONTINUOUS
 62
     5
 10
38.777999999999999
 20
1.887878000000242
 30
0.0
 40
0.445282
 50
74.022551000000007
 51
91.222708999999981
  0
ARC
  5
1E30
  8
DETAIL
  6
CONTINUOUS
 62
     5
 10
38.841324
 20
2.1108250000002422
 30
0.0
 40
0.213524
 50
45.533493999999997
 51
73.893350999999996
  0
ARC
  5
1E31
  8
DETAIL
  6
CONTINUOUS
 62
     5
 10
38.835692999999999
 20
2.1142880000002422
 30
0.0
 40
0.215097
 50
15.728532
 51
43.814143999999992
  0
ARC
  5
1E32
  8
DETAIL
  6
CONTINUOUS
 62
     5
 10
38.609390000000012
 20
2.0513000000002419
 30
0.0
 40
0.45
 50
358.80968200000001
 51
15.637510000000001
  0
ARC
  5
1E33
  8
DETAIL
  6
CONTINUOUS
 62
     5
 10
39.182251000000001
 20
2.6915130000002421
 30
0.0
 40
0.095657
 50
39.655850000000001
 51
91.851290999999975
  0
ARC
  5
1E34
  8
DETAIL
  6
CONTINUOUS
 62
     5
 10
39.161254999999997
 20
2.6784060000002419
 30
0.0
 40
0.120231
 50
359.1050029999999
 51
38.081609999999998
  0
ARC
  5
1E35
  8
DETAIL
  6
CONTINUOUS
 62
     5
 10
39.161254999999997
 20
2.6746520000002421
 30
0.0
 40
0.120231
 50
321.91838999999999
 51
0.8949969999999998
  0
ARC
  5
1E36
  8
DETAIL
  6
CONTINUOUS
 62
     5
 10
39.182251000000001
 20
2.6615450000002419
 30
0.0
 40
0.095657
 50
268.148709
 51
320.34415000000001
  0
LINE
  5
1E37
  8
DETAIL
  6
CONTINUOUS
 62
     5
 10
37.825240999999998
 20
2.9190670000002421
 30
0.0
 11
37.825240999999998
 21
2.7871250000002421
 31
0.0
  0
ARC
  5
1E38
  8
DETAIL
  6
CONTINUOUS
 62
     5
 10
37.921706999999998
 20
2.9199830000002418
 30
0.0
 40
0.096473
 50
123.61051
 51
180.54678899999999
  0
ARC
  5
1E39
  8
DETAIL
  6
CONTINUOUS
 62
     5
 10
37.961136000000003
 20
2.8595280000002421
 30
0.0
 40
0.168647
 50
89.348388999999997
 51
123.39652
  0
ARC
  5
1E3A
  8
DETAIL
  6
CONTINUOUS
 62
     5
 10
37.967682000000011
 20
2.8632200000002421
 30
0.0
 40
0.165016
 50
56.899591000000001
 51
91.607739999999993
  0
ARC
  5
1E3B
  8
DETAIL
  6
CONTINUOUS
 62
     5
 10
38.003859999999989
 20
2.920807000000242
 30
0.0
 40
0.097021
 50
358.971676
 51
56.223886999999991
  0
LINE
  5
1E3C
  8
DETAIL
  6
CONTINUOUS
 62
     5
 10
38.100861000000002
 20
2.7871250000002421
 30
0.0
 11
38.100861000000002
 21
2.9190670000002421
 31
0.0
  0
LINE
  5
1E3D
  8
DETAIL
  6
CONTINUOUS
 62
     5
 10
39.179169000000002
 20
2.7871250000002421
 30
0.0
 11
38.100861000000002
 21
2.7871250000002421
 31
0.0
  0
ARC
  5
1E3E
  8
DETAIL
  6
CONTINUOUS
 62
     5
 10
38.747070000000001
 20
1.8927000000002421
 30
0.0
 40
0.087448
 50
268.690719
 51
286.659942
  0
ARC
  5
1E3F
  8
DETAIL
  6
CONTINUOUS
 62
     5
 10
38.760024999999999
 20
1.8488770000002419
 30
0.0
 40
0.041759
 50
286.87150000000003
 51
315.95635800000002
  0
ARC
  5
1E40
  8
DETAIL
  6
CONTINUOUS
 62
     5
 10
38.757874000000001
 20
1.849121000000242
 30
0.0
 40
0.043489
 50
317.70585999999997
 51
345.25069999999999
  0
ARC
  5
1E41
  8
DETAIL
  6
CONTINUOUS
 62
     5
 10
38.710236000000002
 20
1.8616490000002419
 30
0.0
 40
0.092737
 50
345.25079199999999
 51
1.1285849999999991
  0
LINE
  5
1E42
  8
DETAIL
  6
CONTINUOUS
 62
     5
 10
38.802962999999998
 20
2.0653840000002419
 30
0.0
 11
38.802962999999998
 21
1.8634800000002421
 31
0.0
  0
ARC
  5
1E43
  8
DETAIL
  6
CONTINUOUS
 62
     5
 10
38.710236000000002
 20
2.0672000000002422
 30
0.0
 40
0.092737
 50
358.87141500000001
 51
14.749207999999999
  0
ARC
  5
1E44
  8
DETAIL
  6
CONTINUOUS
 62
     5
 10
38.757874000000001
 20
2.079742000000242
 30
0.0
 40
0.043489
 50
14.7493
 51
42.294140000000013
  0
ARC
  5
1E45
  8
DETAIL
  6
CONTINUOUS
 62
     5
 10
38.760024999999999
 20
2.079971000000242
 30
0.0
 40
0.041759
 50
44.043641999999991
 51
73.128500000000003
  0
ARC
  5
1E46
  8
DETAIL
  6
CONTINUOUS
 62
     5
 10
38.747070000000001
 20
2.0361630000002422
 30
0.0
 40
0.087448
 50
73.340057999999985
 51
91.309281000000013
  0
LINE
  5
1E47
  8
DETAIL
  6
CONTINUOUS
 62
     5
 10
43.092101999999997
 20
-0.2979579999997577
 30
0.0
 11
39.840622000000003
 21
-0.2979579999997577
 31
0.0
  0
ARC
  5
1E48
  8
DETAIL
  6
CONTINUOUS
 62
     5
 10
37.845734
 20
-0.1585689999997577
 30
0.0
 40
0.30963
 50
282.53892000000002
 51
302.98095599999999
  0
ARC
  5
1E49
  8
DETAIL
  6
CONTINUOUS
 62
     5
 10
37.786712999999999
 20
0.1071170000002423
 30
0.0
 40
0.581807
 50
268.93591600000002
 51
282.53321699999998
  0
ARC
  5
1E4A
  8
DETAIL
  6
CONTINUOUS
 62
     5
 10
39.5
 20
-5.9999849999997581
 30
0.0
 40
3.0
 50
0.0
 51
89.999981999999974
  0
ARC
  5
1E4C
  8
DETAIL
  6
CONTINUOUS
 62
     5
 10
39.5
 20
-5.9999849999997581
 30
0.0
 40
3.5
 50
0.0
 51
89.999981999999974
  0
ARC
  5
1E4D
  8
DETAIL
  6
CONTINUOUS
 62
     5
 10
43.094849000000004
 20
-0.1987919999997577
 30
0.0
 40
0.099199
 50
268.409267
 51
322.073466
  0
ARC
  5
1E4E
  8
DETAIL
  6
CONTINUOUS
 62
     5
 10
39.837859999999999
 20
-0.1987919999997577
 30
0.0
 40
0.099199
 50
217.92653300000001
 51
271.59072800000001
  0
ARC
  5
1E4F
  8
DETAIL
  6
CONTINUOUS
 62
     5
 10
37.846572999999999
 20
-0.1813049999997577
 30
0.0
 40
0.290344
 50
305.283638
 51
346.61611199999999
  0
LINE
  5
2535
  8
DETAIL
  6
CONTINUOUS
 62
     5
 10
45.300049000000001
 20
27.800003000000249
 30
0.0
 11
45.300049000000001
 21
6.8000030000002409
 31
0.0
  0
ARC
  5
2557
  8
DETAIL
  6
CONTINUOUS
 62
     5
 10
44.300049000000001
 20
6.8000030000002409
 30
0.0
 40
1.0
 50
270.00001800000001
 51
0.00001
  0
ARC
  5
2619
  8
DETAIL
  6
CONTINUOUS
 62
     5
 10
44.300049000000001
 20
27.800003000000249
 30
0.0
 40
1.0
 50
0.0
 51
89.999981999999974
  0
LINE
  5
2838
  8
SIZE
  6
CONTINUOUS
 62
    30
 10
65.0
 20
60.000000000000242
 30
0.0
 11
65.0
 21
113.5909740000002
 31
0.0
  0
LINE
  5
2839
  8
SIZE
  6
CONTINUOUS
 62
    30
 10
-65.0
 20
60.000000000000242
 30
0.0
 11
-65.0
 21
113.5909740000002
 31
0.0
  0
LINE
  5
283A
  8
SIZE
  6
CONTINUOUS
 62
    30
 10
60.0
 20
98.590974000000244
 30
0.0
 11
-60.0
 21
98.590974000000244
 31
0.0
  0
CIRCLE
  5
283B
  8
SIZE
  6
CONTINUOUS
 62
    30
 10
65.0
 20
98.590974000000244
 30
0.0
 40
2.5
  0
LINE
  5
283C
  8
SIZE
  6
CONTINUOUS
 62
    30
 10
62.5
 20
98.590974000000244
 30
0.0
 11
60.0
 21
98.590974000000244
 31
0.0
  0
CIRCLE
  5
283D
  8
SIZE
  6
CONTINUOUS
 62
    30
 10
-65.0
 20
98.590974000000244
 30
0.0
 40
2.5
  0
LINE
  5
283E
  8
SIZE
  6
CONTINUOUS
 62
    30
 10
-62.5
 20
98.590974000000244
 30
0.0
 11
-60.0
 21
98.590974000000244
 31
0.0
  0
TEXT
  5
283F
  8
SIZE
  6
CONTINUOUS
 62
    30
 10
-24.411516285714288
 20
103.5909740000002
 30
0.0
 40
25.0
  1
130
 41
0.9
 72
     1
 11
2.3741979999999989
 21
103.5909740000002
 31
0.0
  0
POINT
  5
2840
  8
DEFPOINTS
  6
CONTINUOUS
 62
     7
 10
65.0
 20
55.000000000000242
 30
0.0
  0
POINT
  5
2841
  8
DEFPOINTS
  6
CONTINUOUS
 62
     7
 10
-65.0
 20
55.000000000000242
 30
0.0
  0
POINT
  5
2842
  8
DEFPOINTS
  6
CONTINUOUS
 62
     7
 10
-65.0
 20
98.590974000000244
 30
0.0
  0
ARC
  5
2843
  8
DETAIL
  6
CONTINUOUS
 62
     5
 10
-60.0
 20
55.000000000000242
 30
0.0
 40
5.0
 50
89.999981999999974
 51
179.99996400000001
  0
LINE
  5
2844
  8
DETAIL
  6
CONTINUOUS
 62
     5
 10
-54.5
 20
48.500000000000242
 30
0.0
 11
54.5
 21
48.500000000000242
 31
0.0
  0
LINE
  5
2845
  8
DETAIL
  6
CONTINUOUS
 62
     5
 10
-51.5
 20
36.500000000000242
 30
0.0
 11
51.5
 21
36.500000000000242
 31
0.0
  0
LINE
  5
2846
  8
DETAIL
  6
CONTINUOUS
 62
     5
 10
-60.0
 20
60.000000000000242
 30
0.0
 11
60.0
 21
60.000000000000242
 31
0.0
  0
LINE
  5
2847
  8
DETAIL
  6
CONTINUOUS
 62
     5
 10
-42.702502000000003
 20
32.631121000000242
 30
0.0
 11
-43.372565999999992
 21
30.30015000000024
 31
0.0
  0
LINE
  5
2848
  8
DETAIL
  6
CONTINUOUS
 62
     5
 10
-43.033584999999988
 20
33.515472000000251
 30
0.0
 11
-42.09787
 21
33.515472000000251
 31
0.0
  0
ARC
  5
2849
  8
DETAIL
  6
CONTINUOUS
 62
     5
 10
-51.5
 20
34.500000000000242
 30
0.0
 40
2.0
 50
89.999981999999974
 51
179.99996400000001
  0
LINE
  5
284A
  8
DETAIL
  6
CONTINUOUS
 62
     5
 10
-45.299759000000002
 20
33.515472000000251
 30
0.0
 11
-44.358184999999992
 21
33.515472000000251
 31
0.0
  0
LINE
  5
284B
  8
DETAIL
  6
CONTINUOUS
 62
     5
 10
-45.299759000000002
 20
30.300156000000239
 30
0.0
 11
-45.299759000000002
 21
33.515472000000251
 31
0.0
  0
LINE
  5
284C
  8
DETAIL
  6
CONTINUOUS
 62
     5
 10
-44.68997199999999
 20
30.300156000000239
 30
0.0
 11
-45.299759000000002
 21
30.300156000000239
 31
0.0
  0
LINE
  5
284D
  8
DETAIL
  6
CONTINUOUS
 62
     5
 10
-44.68997199999999
 20
32.623550000000243
 30
0.0
 11
-44.68997199999999
 21
30.300156000000239
 31
0.0
  0
LINE
  5
284E
  8
DETAIL
  6
CONTINUOUS
 62
     5
 10
-44.006122999999988
 20
30.300165000000248
 30
0.0
 11
-44.689979999999998
 21
32.623550000000243
 31
0.0
  0
LINE
  5
284F
  8
DETAIL
  6
CONTINUOUS
 62
     5
 10
-43.372559000000003
 20
30.300156000000239
 30
0.0
 11
-44.006118999999998
 21
30.300156000000239
 31
0.0
  0
LINE
  5
2850
  8
DETAIL
  6
CONTINUOUS
 62
     5
 10
-43.695031999999991
 20
31.235865000000249
 30
0.0
 11
-43.033572999999997
 21
33.515481000000243
 31
0.0
  0
LINE
  5
2851
  8
DETAIL
  6
CONTINUOUS
 62
     5
 10
-44.358189000000003
 20
33.515474000000239
 30
0.0
 11
-43.695036999999999
 21
31.235858000000238
 31
0.0
  0
ARC
  5
2852
  8
DETAIL
  6
CONTINUOUS
 62
     5
 10
-54.5
 20
45.500000000000242
 30
0.0
 40
3.0
 50
89.999981999999974
 51
179.99996400000001
  0
LINE
  5
2853
  8
DETAIL
  6
CONTINUOUS
 62
     5
 10
-33.220534999999998
 20
32.58358800000024
 30
0.0
 11
-32.587691999999997
 21
32.58358800000024
 31
0.0
  0
LINE
  5
2854
  8
DETAIL
  6
CONTINUOUS
 62
     5
 10
-33.220534999999998
 20
31.342651000000242
 30
0.0
 11
-32.587691999999997
 21
31.342651000000242
 31
0.0
  0
LINE
  5
2855
  8
DETAIL
  6
CONTINUOUS
 62
     5
 10
-31.638580000000001
 20
30.290527000000239
 30
0.0
 11
-33.220534999999998
 21
30.290527000000239
 31
0.0
  0
LINE
  5
2856
  8
DETAIL
  6
CONTINUOUS
 62
     5
 10
-33.220534999999998
 20
33.50825500000024
 30
0.0
 11
-31.747101000000001
 21
33.50825500000024
 31
0.0
  0
ARC
  5
2857
  8
DETAIL
  6
CONTINUOUS
 62
     5
 10
-37.506577
 20
32.042404000000239
 30
0.0
 40
1.814743999999999
 50
252.292124
 51
270.81522799999999
  0
ARC
  5
2858
  8
DETAIL
  6
CONTINUOUS
 62
     5
 10
-37.455261
 20
31.747360000000239
 30
0.0
 40
1.5197350000000001
 50
269.038928
 51
306.16216099999991
  0
ARC
  5
2859
  8
DETAIL
  6
CONTINUOUS
 62
     5
 10
-37.177551000000001
 20
31.344589000000251
 30
0.0
 40
1.0307679999999999
 50
306.91000200000002
 51
330.56071700000001
  0
ARC
  5
285A
  8
DETAIL
  6
CONTINUOUS
 62
     5
 10
-36.980164000000002
 20
31.229523000000238
 30
0.0
 40
0.8023360000000001
 50
330.78828199999998
 51
359.81257299999999
  0
ARC
  5
285B
  8
DETAIL
  6
CONTINUOUS
 62
     5
 10
-37.145538000000002
 20
31.258118000000241
 30
0.0
 40
0.968209
 50
358.15228400000001
 51
24.254951000000009
  0
ARC
  5
285C
  8
DETAIL
  6
CONTINUOUS
 62
     5
 10
-36.900742000000001
 20
31.340622000000248
 30
0.0
 40
0.711579
 50
26.296576999999999
 51
56.944578
  0
ARC
  5
285D
  8
DETAIL
  6
CONTINUOUS
 62
     5
 10
-37.330795000000002
 20
30.653915000000239
 30
0.0
 40
1.5217670000000001
 50
57.475905000000012
 51
74.324929999999995
  0
ARC
  5
285E
  8
DETAIL
  6
CONTINUOUS
 62
     5
 10
-38.471237000000002
 20
26.802475000000239
 30
0.0
 40
5.538405
 50
73.730710000000002
 51
79.650708999999992
  0
ARC
  5
285F
  8
DETAIL
  6
CONTINUOUS
 62
     5
 10
-36.859741
 20
35.549606000000239
 30
0.0
 40
3.3559449999999988
 50
255.46863999999999
 51
259.41404399999999
  0
ARC
  5
2860
  8
DETAIL
  6
CONTINUOUS
 62
     5
 10
-37.477386000000003
 20
33.194504000000236
 30
0.0
 40
0.9212419999999999
 50
243.51511300000001
 51
255.90181799999999
  0
ARC
  5
2861
  8
DETAIL
  6
CONTINUOUS
 62
     5
 10
-37.736359
 20
32.682053000000252
 30
0.0
 40
0.347092
 50
216.57161500000001
 51
244.05178799999999
  0
ARC
  5
2862
  8
DETAIL
  6
CONTINUOUS
 62
     5
 10
-37.791930999999998
 20
32.627411000000237
 30
0.0
 40
0.2701280000000001
 50
178.48347100000001
 51
214.28624300000001
  0
ARC
  5
2863
  8
DETAIL
  6
CONTINUOUS
 62
     5
 10
-37.647368999999998
 20
32.640839000000241
 30
0.0
 40
0.4146270000000001
 50
157.7499399999999
 51
180.86693399999999
  0
ARC
  5
2864
  8
DETAIL
  6
CONTINUOUS
 62
     5
 10
-37.725250000000003
 20
32.668091000000238
 30
0.0
 40
0.33226
 50
128.91484800000001
 51
157.01481999999999
  0
ARC
  5
2865
  8
DETAIL
  6
CONTINUOUS
 62
     5
 10
-37.646178999999997
 20
32.559952000000237
 30
0.0
 40
0.466116
 50
104.569322
 51
128.12870699999999
  0
ARC
  5
2866
  8
DETAIL
  6
CONTINUOUS
 62
     5
 10
-37.527434999999997
 20
32.112198000000241
 30
0.0
 40
0.929334
 50
89.076731999999993
 51
104.70966900000001
  0
ARC
  5
2867
  8
DETAIL
  6
CONTINUOUS
 62
     5
 10
-37.503844999999998
 20
32.233673000000238
 30
0.0
 40
0.807783
 50
71.928155000000004
 51
90.611747999999992
  0
ARC
  5
2868
  8
DETAIL
  6
CONTINUOUS
 62
     5
 10
-37.431914999999996
 20
32.456253000000252
 30
0.0
 40
0.5738780000000001
 50
50.074657999999992
 51
71.862777000000008
  0
ARC
  5
2869
  8
DETAIL
  6
CONTINUOUS
 62
     5
 10
-37.331177000000011
 20
32.567780000000241
 30
0.0
 40
0.423734
 50
0.877045
 51
50.841234000000007
  0
LINE
  5
286A
  8
DETAIL
  6
CONTINUOUS
 62
     5
 10
-36.282898000000003
 20
32.574265000000253
 30
0.0
 11
-36.907501000000011
 21
32.574265000000253
 31
0.0
  0
ARC
  5
286B
  8
DETAIL
  6
CONTINUOUS
 62
     5
 10
-37.345947000000002
 20
32.51226800000024
 30
0.0
 40
1.0648649999999991
 50
3.337539
 51
46.98903099999999
  0
ARC
  5
286C
  8
DETAIL
  6
CONTINUOUS
 62
     5
 10
-37.327086999999999
 20
32.497757000000242
 30
0.0
 40
1.0628770000000001
 50
48.266140000000007
 51
71.300733999999991
  0
ARC
  5
286D
  8
DETAIL
  6
CONTINUOUS
 62
     5
 10
-37.465392999999999
 20
32.070297000000238
 30
0.0
 40
1.5121269999999991
 50
71.530276000000001
 51
90.738755999999995
  0
ARC
  5
286E
  8
DETAIL
  6
CONTINUOUS
 62
     5
 10
-36.886992999999997
 20
35.106171000000252
 30
0.0
 40
3.5499819999999991
 50
250.768855
 51
259.51270599999998
  0
ARC
  5
286F
  8
DETAIL
  6
CONTINUOUS
 62
     5
 10
-27.655242999999999
 20
81.525070000000255
 30
0.0
 40
50.877685999999997
 50
258.804935
 51
258.84493300000003
  0
ARC
  5
2870
  8
DETAIL
  6
CONTINUOUS
 62
     5
 10
-38.355834999999999
 20
27.00364700000025
 30
0.0
 40
4.684124999999999
 50
76.177216000000001
 51
79.451301000000001
  0
ARC
  5
2871
  8
DETAIL
  6
CONTINUOUS
 62
     5
 10
-37.442931999999999
 20
30.674774000000241
 30
0.0
 40
0.9012589999999999
 50
63.034094999999994
 51
76.771647000000002
  0
ARC
  5
2872
  8
DETAIL
  6
CONTINUOUS
 62
     5
 10
-37.184173999999999
 20
31.18122900000024
 30
0.0
 40
0.332529
 50
32.442681
 51
63.200272999999989
  0
ARC
  5
2873
  8
DETAIL
  6
CONTINUOUS
 62
     5
 10
-37.213836999999998
 20
31.183273000000241
 30
0.0
 40
0.356902
 50
357.88067799999999
 51
29.610465000000008
  0
ARC
  5
2874
  8
DETAIL
  6
CONTINUOUS
 62
     5
 10
-37.191161999999998
 20
31.166290000000242
 30
0.0
 40
0.333994
 50
329.29350499999998
 51
0.648884
  0
ARC
  5
2875
  8
DETAIL
  6
CONTINUOUS
 62
     5
 10
-37.236084000000012
 20
31.20152300000024
 30
0.0
 40
0.390688
 50
301.15534500000001
 51
328.21626500000002
  0
ARC
  5
2876
  8
DETAIL
  6
CONTINUOUS
 62
     5
 10
-37.374985000000002
 20
31.429077000000252
 30
0.0
 40
0.65728
 50
282.6146470000001
 51
301.25433500000003
  0
ARC
  5
2877
  8
DETAIL
  6
CONTINUOUS
 62
     5
 10
-37.472518999999998
 20
31.839920000000252
 30
0.0
 40
1.079523
 50
269.563016
 51
282.904089
  0
ARC
  5
2878
  8
DETAIL
  6
CONTINUOUS
 62
     5
 10
-37.497481999999998
 20
31.775803000000248
 30
0.0
 40
1.0155149999999991
 50
253.16659300000001
 51
270.94377900000001
  0
ARC
  5
2879
  8
DETAIL
  6
CONTINUOUS
 62
     5
 10
-37.624237000000001
 20
31.354660000000241
 30
0.0
 40
0.5757180000000001
 50
229.20534699999999
 51
253.10279299999999
  0
ARC
  5
287A
  8
DETAIL
  6
CONTINUOUS
 62
     5
 10
-37.691955999999998
 20
31.263824000000241
 30
0.0
 40
0.462758
 50
178.85739599999999
 51
228.20560900000001
  0
LINE
  5
287B
  8
DETAIL
  6
CONTINUOUS
 62
     5
 10
-33.220534999999998
 20
31.342651000000242
 30
0.0
 11
-33.220534999999998
 21
32.58358800000024
 31
0.0
  0
LINE
  5
287C
  8
DETAIL
  6
CONTINUOUS
 62
     5
 10
-33.220534999999998
 20
30.290527000000239
 30
0.0
 11
-33.220534999999998
 21
31.342651000000242
 31
0.0
  0
LINE
  5
287D
  8
DETAIL
  6
CONTINUOUS
 62
     5
 10
-33.220534999999998
 20
32.58358800000024
 30
0.0
 11
-33.220534999999998
 21
33.50825500000024
 31
0.0
  0
ARC
  5
287E
  8
DETAIL
  6
CONTINUOUS
 62
     5
 10
-34.768828999999997
 20
32.105484000000253
 30
0.0
 40
1.8829979999999991
 50
253.991694
 51
270.766707
  0
ARC
  5
287F
  8
DETAIL
  6
CONTINUOUS
 62
     5
 10
-34.97984300000001
 20
31.372269000000241
 30
0.0
 40
1.120029999999999
 50
230.746894
 51
254.02435600000001
  0
ARC
  5
2880
  8
DETAIL
  6
CONTINUOUS
 62
     5
 10
-35.119720000000001
 20
31.185745000000239
 30
0.0
 40
0.8871379999999998
 50
203.118382
 51
230.11989600000001
  0
ARC
  5
2881
  8
DETAIL
  6
CONTINUOUS
 62
     5
 10
-34.908112000000003
 20
31.262756000000241
 30
0.0
 40
1.112063
 50
179.149674
 51
202.48627200000001
  0
LINE
  5
2882
  8
DETAIL
  6
CONTINUOUS
 62
     5
 10
-36.020049999999998
 20
33.50825500000024
 30
0.0
 11
-36.020049999999998
 21
31.27925100000024
 31
0.0
  0
LINE
  5
2883
  8
DETAIL
  6
CONTINUOUS
 62
     5
 10
-35.380629999999996
 20
33.50825500000024
 30
0.0
 11
-36.020049999999998
 21
33.50825500000024
 31
0.0
  0
LINE
  5
2884
  8
DETAIL
  6
CONTINUOUS
 62
     5
 10
-35.380629999999996
 20
31.375031000000241
 30
0.0
 11
-35.380629999999996
 21
33.50825500000024
 31
0.0
  0
ARC
  5
2885
  8
DETAIL
  6
CONTINUOUS
 62
     5
 10
-34.662444999999998
 20
31.361984000000241
 30
0.0
 40
0.7183130000000001
 50
178.95872900000001
 51
201.45343800000001
  0
ARC
  5
2886
  8
DETAIL
  6
CONTINUOUS
 62
     5
 10
-34.861480999999998
 20
31.28932200000024
 30
0.0
 40
0.5065140000000001
 50
202.039062
 51
228.885571
  0
ARC
  5
2887
  8
DETAIL
  6
CONTINUOUS
 62
     5
 10
-34.824874999999999
 20
31.341385000000241
 30
0.0
 40
0.5698400000000001
 50
229.55383699999999
 51
253.14556999999999
  0
ARC
  5
2888
  8
DETAIL
  6
CONTINUOUS
 62
     5
 10
-34.745117
 20
31.60432400000024
 30
0.0
 40
0.8446149999999999
 50
253.14012000000011
 51
270.59272800000002
  0
ARC
  5
2889
  8
DETAIL
  6
CONTINUOUS
 62
     5
 10
-34.730316000000002
 20
31.50910900000024
 30
0.0
 40
0.749371
 50
269.53631000000001
 51
289.21687800000001
  0
ARC
  5
288A
  8
DETAIL
  6
CONTINUOUS
 62
     5
 10
-34.677093999999997
 20
31.353912000000239
 30
0.0
 40
0.5852990000000001
 50
289.295794
 51
312.490208
  0
ARC
  5
288B
  8
DETAIL
  6
CONTINUOUS
 62
     5
 10
-34.653030000000001
 20
31.322342000000241
 30
0.0
 40
0.545791
 50
312.86596400000002
 51
337.74929600000002
  0
ARC
  5
288C
  8
DETAIL
  6
CONTINUOUS
 62
     5
 10
-34.774307
 20
31.366943000000241
 30
0.0
 40
0.6749430000000001
 50
338.14406200000002
 51
0.6870540000000001
  0
LINE
  5
288D
  8
DETAIL
  6
CONTINUOUS
 62
     5
 10
-34.099426000000001
 20
33.50825500000024
 30
0.0
 11
-34.099426000000001
 21
31.375031000000241
 31
0.0
  0
LINE
  5
288E
  8
DETAIL
  6
CONTINUOUS
 62
     5
 10
-33.463425000000001
 20
33.50825500000024
 30
0.0
 11
-34.099426000000001
 21
33.50825500000024
 31
0.0
  0
LINE
  5
288F
  8
DETAIL
  6
CONTINUOUS
 62
     5
 10
-33.463425000000001
 20
31.27925100000024
 30
0.0
 11
-33.463425000000001
 21
33.50825500000024
 31
0.0
  0
ARC
  5
2890
  8
DETAIL
  6
CONTINUOUS
 62
     5
 10
-34.577789000000003
 20
31.262085000000241
 30
0.0
 40
1.1144849999999991
 50
337.45729
 51
0.8826239999999999
  0
ARC
  5
2891
  8
DETAIL
  6
CONTINUOUS
 62
     5
 10
-34.359954999999999
 20
31.182693000000249
 30
0.0
 40
0.882929
 50
309.62758400000001
 51
336.79687899999999
  0
ARC
  5
2892
  8
DETAIL
  6
CONTINUOUS
 62
     5
 10
-34.50381500000001
 20
31.376038000000239
 30
0.0
 40
1.123658
 50
285.76249000000001
 51
308.98895399999998
  0
ARC
  5
2893
  8
DETAIL
  6
CONTINUOUS
 62
     5
 10
-34.718170000000001
 20
32.129547000000237
 30
0.0
 40
1.907073
 50
269.23537800000003
 51
285.81096300000002
  0
ARC
  5
2894
  8
DETAIL
  6
CONTINUOUS
 62
     5
 10
-37.824265000000011
 20
31.258820000000242
 30
0.0
 40
0.9602129999999998
 50
179.15060299999999
 51
228.13385099999999
  0
ARC
  5
2895
  8
DETAIL
  6
CONTINUOUS
 62
     5
 10
-38.022812000000002
 20
32.670227000000253
 30
0.0
 40
0.707836
 50
148.90160700000001
 51
179.874425
  0
ARC
  5
2896
  8
DETAIL
  6
CONTINUOUS
 62
     5
 10
-37.663269
 20
32.64431800000024
 30
0.0
 40
1.0677369999999999
 50
178.526747
 51
201.669094
  0
ARC
  5
2897
  8
DETAIL
  6
CONTINUOUS
 62
     5
 10
-37.963622999999998
 20
32.544342000000242
 30
0.0
 40
0.7518930000000001
 50
203.04064099999999
 51
231.60835800000001
  0
LINE
  5
2898
  8
DETAIL
  6
CONTINUOUS
 62
     5
 10
-41.829833999999998
 20
30.300156000000239
 30
0.0
 11
-41.829833999999998
 21
33.515472000000251
 31
0.0
  0
LINE
  5
2899
  8
DETAIL
  6
CONTINUOUS
 62
     5
 10
-41.174942000000001
 20
30.300156000000239
 30
0.0
 11
-41.829833999999998
 21
30.300156000000239
 31
0.0
  0
LINE
  5
289A
  8
DETAIL
  6
CONTINUOUS
 62
     5
 10
-41.174942000000001
 20
33.515472000000251
 30
0.0
 11
-41.174942000000001
 21
30.300156000000239
 31
0.0
  0
LINE
  5
289B
  8
DETAIL
  6
CONTINUOUS
 62
     5
 10
-41.829833999999998
 20
33.515472000000251
 30
0.0
 11
-41.174942000000001
 21
33.515472000000251
 31
0.0
  0
LINE
  5
289C
  8
DETAIL
  6
CONTINUOUS
 62
     5
 10
-42.702498999999989
 20
30.300156000000239
 30
0.0
 11
-42.702498999999989
 21
32.631134000000252
 31
0.0
  0
LINE
  5
289D
  8
DETAIL
  6
CONTINUOUS
 62
     5
 10
-42.09787
 20
30.300156000000239
 30
0.0
 11
-42.702498999999989
 21
30.300156000000239
 31
0.0
  0
LINE
  5
289E
  8
DETAIL
  6
CONTINUOUS
 62
     5
 10
-42.09787
 20
33.515472000000251
 30
0.0
 11
-42.09787
 21
30.300156000000239
 31
0.0
  0
LINE
  5
289F
  8
DETAIL
  6
CONTINUOUS
 62
     5
 10
-40.220275999999998
 20
30.300156000000239
 30
0.0
 11
-39.562637000000002
 21
30.300156000000239
 31
0.0
  0
LINE
  5
28A0
  8
DETAIL
  6
CONTINUOUS
 62
     5
 10
-40.220275999999998
 20
32.953217000000251
 30
0.0
 11
-40.220275999999998
 21
30.300156000000239
 31
0.0
  0
LINE
  5
28A1
  8
DETAIL
  6
CONTINUOUS
 62
     5
 10
-41.004761000000002
 20
32.953217000000251
 30
0.0
 11
-40.220275999999998
 21
32.953217000000251
 31
0.0
  0
LINE
  5
28A2
  8
DETAIL
  6
CONTINUOUS
 62
     5
 10
-41.004761000000002
 20
33.515472000000251
 30
0.0
 11
-41.004761000000002
 21
32.953217000000251
 31
0.0
  0
LINE
  5
28A3
  8
DETAIL
  6
CONTINUOUS
 62
     5
 10
-38.763702000000002
 20
33.515472000000251
 30
0.0
 11
-41.004761000000002
 21
33.515472000000251
 31
0.0
  0
ARC
  5
28A4
  8
DETAIL
  6
CONTINUOUS
 62
     5
 10
-52.634566999999997
 20
33.235214000000241
 30
0.0
 40
13.873702
 50
358.84248200000002
 51
1.157518
  0
LINE
  5
28A5
  8
DETAIL
  6
CONTINUOUS
 62
     5
 10
-39.562637000000002
 20
32.954956000000251
 30
0.0
 11
-38.763702000000002
 21
32.954956000000251
 31
0.0
  0
LINE
  5
28A6
  8
DETAIL
  6
CONTINUOUS
 62
     5
 10
-39.562637000000002
 20
30.300156000000239
 30
0.0
 11
-39.562637000000002
 21
32.954956000000251
 31
0.0
  0
LINE
  5
28A7
  8
DETAIL
  6
CONTINUOUS
 62
     5
 10
-38.784362999999999
 20
31.273041000000241
 30
0.0
 11
-38.154633000000011
 21
31.273041000000241
 31
0.0
  0
ARC
  5
28A8
  8
DETAIL
  6
CONTINUOUS
 62
     5
 10
-37.705779999999997
 20
31.411133000000252
 30
0.0
 40
1.152803
 50
228.801096
 51
252.18096299999999
  0
ARC
  5
28A9
  8
DETAIL
  6
CONTINUOUS
 62
     5
 10
-37.506378000000012
 20
32.057297000000247
 30
0.0
 40
1.525158
 50
89.192270999999977
 51
123.833406
  0
ARC
  5
28AA
  8
DETAIL
  6
CONTINUOUS
 62
     5
 10
-37.814940999999997
 20
32.537918000000239
 30
0.0
 40
0.9541909999999999
 50
124.511589
 51
148.54557700000001
  0
ARC
  5
28AB
  8
DETAIL
  6
CONTINUOUS
 62
     5
 10
-37.637405000000001
 20
32.984680000000239
 30
0.0
 40
1.2997339999999991
 50
232.39158900000001
 51
251.19945100000001
  0
LINE
  5
28AC
  8
DETAIL
  6
CONTINUOUS
 62
     5
 10
-29.697234999999999
 20
31.273041000000241
 30
0.0
 11
-29.067139000000001
 21
31.273041000000241
 31
0.0
  0
ARC
  5
28AD
  8
DETAIL
  6
CONTINUOUS
 62
     5
 10
-28.737259000000002
 20
31.258911000000239
 30
0.0
 40
0.960087
 50
179.15625800000001
 51
228.15087199999999
  0
ARC
  5
28AE
  8
DETAIL
  6
CONTINUOUS
 62
     5
 10
-28.618224999999999
 20
31.411774000000239
 30
0.0
 40
1.153456
 50
228.812051
 51
252.18339399999999
  0
ARC
  5
28AF
  8
DETAIL
  6
CONTINUOUS
 62
     5
 10
-28.419098000000002
 20
32.042786000000241
 30
0.0
 40
1.815134
 50
252.294084
 51
270.81426499999998
  0
ARC
  5
28B0
  8
DETAIL
  6
CONTINUOUS
 62
     5
 10
-28.367827999999999
 20
31.747437000000239
 30
0.0
 40
1.5198089999999991
 50
269.03920199999999
 51
306.16125599999998
  0
ARC
  5
28B1
  8
DETAIL
  6
CONTINUOUS
 62
     5
 10
-28.090088000000002
 20
31.344620000000241
 30
0.0
 40
1.0307969999999991
 50
306.90887099999998
 51
330.559371
  0
ARC
  5
28B2
  8
DETAIL
  6
CONTINUOUS
 62
     5
 10
-27.892654
 20
31.22953800000024
 30
0.0
 40
0.8023039999999999
 50
330.78689500000002
 51
359.8124390000001
  0
ARC
  5
28B3
  8
DETAIL
  6
CONTINUOUS
 62
     5
 10
-28.058043999999999
 20
31.258118000000241
 30
0.0
 40
0.9682019999999999
 50
358.152242
 51
24.255134000000002
  0
ARC
  5
28B4
  8
DETAIL
  6
CONTINUOUS
 62
     5
 10
-27.813262999999999
 20
31.340622000000248
 30
0.0
 40
0.7115770000000001
 50
26.296848000000001
 51
56.945182000000003
  0
ARC
  5
28B5
  8
DETAIL
  6
CONTINUOUS
 62
     5
 10
-28.243317000000001
 20
30.653885000000241
 30
0.0
 40
1.5218039999999999
 50
57.476486000000001
 51
74.325456000000003
  0
ARC
  5
28B6
  8
DETAIL
  6
CONTINUOUS
 62
     5
 10
-29.383789
 20
26.802231000000241
 30
0.0
 40
5.5386410000000001
 50
73.731201999999996
 51
79.651152999999994
  0
ARC
  5
28B7
  8
DETAIL
  6
CONTINUOUS
 62
     5
 10
-27.773865000000001
 20
35.544754000000239
 30
0.0
 40
3.3509000000000002
 50
255.47152299999999
 51
259.42500699999999
  0
ARC
  5
28B8
  8
DETAIL
  6
CONTINUOUS
 62
     5
 10
-28.390381000000001
 20
33.19348100000024
 30
0.0
 40
0.920165
 50
243.505933
 51
255.90559500000001
  0
ARC
  5
28B9
  8
DETAIL
  6
CONTINUOUS
 62
     5
 10
-28.649108999999999
 20
32.68170200000025
 30
0.0
 40
0.346749
 50
216.54422500000001
 51
244.040764
  0
ARC
  5
28BA
  8
DETAIL
  6
CONTINUOUS
 62
     5
 10
-28.704253999999999
 20
32.627396000000253
 30
0.0
 40
0.270305
 50
178.48057499999999
 51
214.255931
  0
ARC
  5
28BB
  8
DETAIL
  6
CONTINUOUS
 62
     5
 10
-28.559844999999999
 20
32.640839000000241
 30
0.0
 40
0.414674
 50
157.753027
 51
180.86720700000001
  0
ARC
  5
28BC
  8
DETAIL
  6
CONTINUOUS
 62
     5
 10
-28.637786999999999
 20
32.668106000000243
 30
0.0
 40
0.332233
 50
128.91646
 51
157.01790700000001
  0
ARC
  5
28BD
  8
DETAIL
  6
CONTINUOUS
 62
     5
 10
-28.558716
 20
32.55998200000024
 30
0.0
 40
0.4660770000000001
 50
104.568639
 51
128.129841
  0
ARC
  5
28BE
  8
DETAIL
  6
CONTINUOUS
 62
     5
 10
-28.439972000000001
 20
32.112122000000248
 30
0.0
 40
0.9294129999999999
 50
89.076526999999984
 51
104.70906100000001
  0
ARC
  5
28BF
  8
DETAIL
  6
CONTINUOUS
 62
     5
 10
-28.416350999999999
 20
32.233734000000247
 30
0.0
 40
0.8077329999999999
 50
71.927588
 51
90.611952999999971
  0
ARC
  5
28C0
  8
DETAIL
  6
CONTINUOUS
 62
     5
 10
-28.344421000000001
 20
32.456314000000241
 30
0.0
 40
0.5738050000000001
 50
50.07223299999999
 51
71.862093999999999
  0
ARC
  5
28C1
  8
DETAIL
  6
CONTINUOUS
 62
     5
 10
-28.243744
 20
32.567795000000253
 30
0.0
 40
0.423744
 50
0.8756579999999999
 51
50.837538999999992
  0
LINE
  5
28C2
  8
DETAIL
  6
CONTINUOUS
 62
     5
 10
-27.195404
 20
32.574265000000253
 30
0.0
 11
-27.820038
 21
32.574265000000253
 31
0.0
  0
ARC
  5
28C3
  8
DETAIL
  6
CONTINUOUS
 62
     5
 10
-28.258316000000001
 20
32.512283000000252
 30
0.0
 40
1.06471
 50
3.3372559999999991
 51
46.996820999999997
  0
ARC
  5
28C4
  8
DETAIL
  6
CONTINUOUS
 62
     5
 10
-28.239746000000011
 20
32.497467000000242
 30
0.0
 40
1.063153
 50
48.273868000000007
 51
71.307455000000004
  0
ARC
  5
28C5
  8
DETAIL
  6
CONTINUOUS
 62
     5
 10
-28.378235
 20
32.069260000000241
 30
0.0
 40
1.5131600000000001
 50
71.536620999999997
 51
90.739028999999974
  0
ARC
  5
28C6
  8
DETAIL
  6
CONTINUOUS
 62
     5
 10
-28.419159000000001
 20
32.057983000000242
 30
0.0
 40
1.5244569999999991
 50
89.195426999999995
 51
123.841329
  0
ARC
  5
28C7
  8
DETAIL
  6
CONTINUOUS
 62
     5
 10
-28.727385999999999
 20
32.537918000000239
 30
0.0
 40
0.9542519999999999
 50
124.517217
 51
148.548022
  0
ARC
  5
28C8
  8
DETAIL
  6
CONTINUOUS
 62
     5
 10
-28.935272000000001
 20
32.670227000000253
 30
0.0
 40
0.707883
 50
148.903547
 51
179.87409700000001
  0
ARC
  5
28C9
  8
DETAIL
  6
CONTINUOUS
 62
     5
 10
-28.575683999999999
 20
32.644333000000252
 30
0.0
 40
1.0678389999999991
 50
178.52717000000001
 51
201.66722300000001
  0
ARC
  5
28CA
  8
DETAIL
  6
CONTINUOUS
 62
     5
 10
-28.876083000000001
 20
32.544342000000242
 30
0.0
 40
0.7519540000000001
 50
203.03799100000001
 51
231.601528
  0
ARC
  5
28CB
  8
DETAIL
  6
CONTINUOUS
 62
     5
 10
-28.550018000000001
 20
32.984344000000242
 30
0.0
 40
1.299437
 50
232.38480000000001
 51
251.19287399999999
  0
ARC
  5
28CC
  8
DETAIL
  6
CONTINUOUS
 62
     5
 10
-27.799896
 20
35.104309000000242
 30
0.0
 40
3.548143
 50
250.76264699999999
 51
259.50784299999998
  0
ARC
  5
28CD
  8
DETAIL
  6
CONTINUOUS
 62
     5
 10
-18.439240000000002
 20
82.220001000000224
 30
0.0
 40
51.58441899999999
 50
258.81436099999991
 51
258.85340200000002
  0
ARC
  5
28CE
  8
DETAIL
  6
CONTINUOUS
 62
     5
 10
-29.269622999999999
 20
26.99690200000024
 30
0.0
 40
4.6909380000000001
 50
76.187221999999991
 51
79.459873000000002
  0
ARC
  5
28CF
  8
DETAIL
  6
CONTINUOUS
 62
     5
 10
-28.355743
 20
30.674667000000241
 30
0.0
 40
0.9013830000000001
 50
63.041260000000008
 51
76.782903000000005
  0
ARC
  5
28D0
  8
DETAIL
  6
CONTINUOUS
 62
     5
 10
-28.096924000000001
 20
31.181427000000252
 30
0.0
 40
0.332367
 50
32.431927000000002
 51
63.206639000000003
  0
ARC
  5
28D1
  8
DETAIL
  6
CONTINUOUS
 62
     5
 10
-28.126923000000001
 20
31.183289000000251
 30
0.0
 40
0.35711
 50
357.878153
 51
29.596527999999999
  0
ARC
  5
28D2
  8
DETAIL
  6
CONTINUOUS
 62
     5
 10
-28.104064999999999
 20
31.166290000000242
 30
0.0
 40
0.334038
 50
329.29722700000002
 51
0.648203
  0
ARC
  5
28D3
  8
DETAIL
  6
CONTINUOUS
 62
     5
 10
-28.148987000000002
 20
31.201508000000238
 30
0.0
 40
0.390711
 50
301.16567300000003
 51
328.221251
  0
ARC
  5
28D4
  8
DETAIL
  6
CONTINUOUS
 62
     5
 10
-28.287749999999999
 20
31.428726000000239
 30
0.0
 40
0.6569520000000001
 50
282.62329399999999
 51
301.264656
  0
ARC
  5
28D5
  8
DETAIL
  6
CONTINUOUS
 62
     5
 10
-28.385100999999999
 20
31.83851600000024
 30
0.0
 40
1.0781160000000001
 50
269.56371200000001
 51
282.91250400000001
  0
ARC
  5
28D6
  8
DETAIL
  6
CONTINUOUS
 62
     5
 10
-28.410034
 20
31.77568100000024
 30
0.0
 40
1.0153939999999999
 50
253.165582
 51
270.943759
  0
ARC
  5
28D7
  8
DETAIL
  6
CONTINUOUS
 62
     5
 10
-28.536757999999999
 20
31.354630000000238
 30
0.0
 40
0.575691
 50
229.20402200000001
 51
253.10169300000001
  0
ARC
  5
28D8
  8
DETAIL
  6
CONTINUOUS
 62
     5
 10
-28.604462000000002
 20
31.263824000000241
 30
0.0
 40
0.462769
 50
178.85753299999999
 51
228.20427000000001
  0
LINE
  5
28D9
  8
DETAIL
  6
CONTINUOUS
 62
     5
 10
-24.082428
 20
30.300156000000239
 30
0.0
 11
-24.082428
 21
33.515472000000251
 31
0.0
  0
LINE
  5
28DA
  8
DETAIL
  6
CONTINUOUS
 62
     5
 10
-23.427536
 20
30.300156000000239
 30
0.0
 11
-24.082428
 21
30.300156000000239
 31
0.0
  0
LINE
  5
28DB
  8
DETAIL
  6
CONTINUOUS
 62
     5
 10
-23.427536
 20
33.515472000000251
 30
0.0
 11
-23.427536
 21
30.300156000000239
 31
0.0
  0
LINE
  5
28DC
  8
DETAIL
  6
CONTINUOUS
 62
     5
 10
-24.082428
 20
33.515472000000251
 30
0.0
 11
-23.427536
 21
33.515472000000251
 31
0.0
  0
LINE
  5
28DD
  8
DETAIL
  6
CONTINUOUS
 62
     5
 10
-29.863296999999999
 20
33.515472000000251
 30
0.0
 11
-29.863296999999999
 21
30.300156000000239
 31
0.0
  0
LINE
  5
28DE
  8
DETAIL
  6
CONTINUOUS
 62
     5
 10
-24.344604
 20
33.515472000000251
 30
0.0
 11
-24.344604
 21
30.300156000000239
 31
0.0
  0
LINE
  5
28DF
  8
DETAIL
  6
CONTINUOUS
 62
     5
 10
-25.010909999999999
 20
33.515472000000251
 30
0.0
 11
-24.344604
 21
33.515472000000251
 31
0.0
  0
LINE
  5
28E0
  8
DETAIL
  6
CONTINUOUS
 62
     5
 10
-25.010909999999999
 20
32.279739000000241
 30
0.0
 11
-25.010909999999999
 21
33.515472000000251
 31
0.0
  0
LINE
  5
28E1
  8
DETAIL
  6
CONTINUOUS
 62
     5
 10
-26.287642999999999
 20
32.279739000000241
 30
0.0
 11
-25.010909999999999
 21
32.279739000000241
 31
0.0
  0
LINE
  5
28E2
  8
DETAIL
  6
CONTINUOUS
 62
     5
 10
-26.287642999999999
 20
33.515472000000251
 30
0.0
 11
-26.287642999999999
 21
32.279739000000241
 31
0.0
  0
LINE
  5
28E3
  8
DETAIL
  6
CONTINUOUS
 62
     5
 10
-26.926345999999999
 20
33.515472000000251
 30
0.0
 11
-26.287642999999999
 21
33.515472000000251
 31
0.0
  0
LINE
  5
28E4
  8
DETAIL
  6
CONTINUOUS
 62
     5
 10
-26.926345999999999
 20
30.300156000000239
 30
0.0
 11
-26.926345999999999
 21
33.515472000000251
 31
0.0
  0
LINE
  5
28E5
  8
DETAIL
  6
CONTINUOUS
 62
     5
 10
-26.276641999999999
 20
30.300156000000239
 30
0.0
 11
-26.926345999999999
 21
30.300156000000239
 31
0.0
  0
LINE
  5
28E6
  8
DETAIL
  6
CONTINUOUS
 62
     5
 10
-26.276641999999999
 20
31.720230000000239
 30
0.0
 11
-26.276641999999999
 21
30.300156000000239
 31
0.0
  0
LINE
  5
28E7
  8
DETAIL
  6
CONTINUOUS
 62
     5
 10
-25.010909999999999
 20
31.720230000000239
 30
0.0
 11
-26.276641999999999
 21
31.720230000000239
 31
0.0
  0
LINE
  5
28E8
  8
DETAIL
  6
CONTINUOUS
 62
     5
 10
-25.010909999999999
 20
30.300156000000239
 30
0.0
 11
-25.010909999999999
 21
31.720230000000239
 31
0.0
  0
LINE
  5
28E9
  8
DETAIL
  6
CONTINUOUS
 62
     5
 10
-24.344604
 20
30.300156000000239
 30
0.0
 11
-25.010909999999999
 21
30.300156000000239
 31
0.0
  0
LINE
  5
28EA
  8
DETAIL
  6
CONTINUOUS
 62
     5
 10
-32.587691999999997
 20
32.975266000000239
 30
0.0
 11
-32.587691999999997
 21
32.58358800000024
 31
0.0
  0
LINE
  5
28EB
  8
DETAIL
  6
CONTINUOUS
 62
     5
 10
-31.804625999999999
 20
32.975266000000239
 30
0.0
 11
-32.587691999999997
 21
32.975266000000239
 31
0.0
  0
ARC
  5
28EC
  8
DETAIL
  6
CONTINUOUS
 62
     5
 10
-31.806792999999999
 20
32.53869600000025
 30
0.0
 40
0.436574
 50
50.361487999999987
 51
89.715913999999984
  0
ARC
  5
28ED
  8
DETAIL
  6
CONTINUOUS
 62
     5
 10
-31.732468000000001
 20
32.617065000000252
 30
0.0
 40
0.328892
 50
1.007058999999999
 51
51.623972999999992
  0
ARC
  5
28EE
  8
DETAIL
  6
CONTINUOUS
 62
     5
 10
-31.855896000000001
 20
32.617935000000237
 30
0.0
 40
0.4522880000000001
 50
341.53229499999998
 51
0.621821
  0
ARC
  5
28EF
  8
DETAIL
  6
CONTINUOUS
 62
     5
 10
-31.742279
 20
32.581558000000243
 30
0.0
 40
0.333014
 50
314.93696999999997
 51
341.27675399999998
  0
ARC
  5
28F0
  8
DETAIL
  6
CONTINUOUS
 62
     5
 10
-31.777923999999999
 20
32.626938000000237
 30
0.0
 40
0.390364
 50
287.625089
 51
313.93423300000001
  0
ARC
  5
28F1
  8
DETAIL
  6
CONTINUOUS
 62
     5
 10
-31.884948999999999
 20
32.970840000000251
 30
0.0
 40
0.750528
 50
268.81999400000001
 51
287.4639029999999
  0
LINE
  5
28F2
  8
DETAIL
  6
CONTINUOUS
 62
     5
 10
-32.587691999999997
 20
32.220474000000237
 30
0.0
 11
-31.900421000000001
 21
32.220474000000237
 31
0.0
  0
LINE
  5
28F3
  8
DETAIL
  6
CONTINUOUS
 62
     5
 10
-32.587691999999997
 20
32.58358800000024
 30
0.0
 11
-32.587691999999997
 21
32.220474000000237
 31
0.0
  0
LINE
  5
28F4
  8
DETAIL
  6
CONTINUOUS
 62
     5
 10
-32.587691999999997
 20
31.722977000000238
 30
0.0
 11
-32.587691999999997
 21
31.342651000000242
 31
0.0
  0
LINE
  5
28F5
  8
DETAIL
  6
CONTINUOUS
 62
     5
 10
-31.797713999999999
 20
31.722977000000238
 30
0.0
 11
-32.587691999999997
 21
31.722977000000238
 31
0.0
  0
ARC
  5
28F6
  8
DETAIL
  6
CONTINUOUS
 62
     5
 10
-31.800262
 20
31.22877500000024
 30
0.0
 40
0.494217
 50
48.103563999999992
 51
89.705143000000007
  0
ARC
  5
28F7
  8
DETAIL
  6
CONTINUOUS
 62
     5
 10
-31.743255999999999
 20
31.281662000000239
 30
0.0
 40
0.416844
 50
0.7129020000000002
 51
49.081972
  0
ARC
  5
28F8
  8
DETAIL
  6
CONTINUOUS
 62
     5
 10
-31.786743000000001
 20
31.290405000000241
 30
0.0
 40
0.460315
 50
315.20834300000001
 51
359.556287
  0
ARC
  5
28F9
  8
DETAIL
  6
CONTINUOUS
 62
     5
 10
-31.781493999999999
 20
31.27534500000024
 30
0.0
 40
0.446045
 50
270.52762999999999
 51
316.10688199999998
  0
LINE
  5
28FA
  8
DETAIL
  6
CONTINUOUS
 62
     5
 10
-32.587691999999997
 20
30.82933000000024
 30
0.0
 11
-31.777405000000002
 21
30.82933000000024
 31
0.0
  0
LINE
  5
28FB
  8
DETAIL
  6
CONTINUOUS
 62
     5
 10
-32.587691999999997
 20
31.342651000000242
 30
0.0
 11
-32.587691999999997
 21
30.82933000000024
 31
0.0
  0
ARC
  5
28FC
  8
DETAIL
  6
CONTINUOUS
 62
     5
 10
-31.611709999999999
 20
31.342590000000239
 30
0.0
 40
1.052405
 50
268.53690999999998
 51
310.001127
  0
ARC
  5
28FD
  8
DETAIL
  6
CONTINUOUS
 62
     5
 10
-31.474761999999998
 20
31.153183000000251
 30
0.0
 40
0.8194679999999999
 50
311.17926299999999
 51
0.6255470000000001
  0
ARC
  5
28FE
  8
DETAIL
  6
CONTINUOUS
 62
     5
 10
-31.562011999999999
 20
31.18148800000025
 30
0.0
 40
0.9068579999999998
 50
358.776814
 51
33.165633000000007
  0
ARC
  5
28FF
  8
DETAIL
  6
CONTINUOUS
 62
     5
 10
-31.578827
 20
31.133698000000241
 30
0.0
 40
0.947592
 50
35.028355000000012
 51
69.270925000000005
  0
ARC
  5
2900
  8
DETAIL
  6
CONTINUOUS
 62
     5
 10
-31.546203999999999
 20
32.778809000000237
 30
0.0
 40
0.8170249999999999
 50
291.75107000000003
 51
322.00815899999998
  0
ARC
  5
2901
  8
DETAIL
  6
CONTINUOUS
 62
     5
 10
-31.470946999999999
 20
32.688446000000241
 30
0.0
 40
0.702534
 50
324.03870599999999
 51
1.535529999999999
  0
ARC
  5
2902
  8
DETAIL
  6
CONTINUOUS
 62
     5
 10
-31.489837999999999
 20
32.709595000000242
 30
0.0
 40
0.72119
 50
359.81553600000001
 51
54.665391999999997
  0
ARC
  5
2903
  8
DETAIL
  6
CONTINUOUS
 62
     5
 10
-31.732254000000001
 20
32.36961400000024
 30
0.0
 40
1.1387279999999991
 50
54.608752000000003
 51
90.746787999999995
  0
LINE
  5
2904
  8
DETAIL
  6
CONTINUOUS
 62
     5
 10
-30.518218999999998
 20
30.300156000000239
 30
0.0
 11
-30.518218999999998
 21
33.515472000000251
 31
0.0
  0
LINE
  5
2905
  8
DETAIL
  6
CONTINUOUS
 62
     5
 10
-29.863296999999999
 20
30.300156000000239
 30
0.0
 11
-30.518218999999998
 21
30.300156000000239
 31
0.0
  0
LINE
  5
2906
  8
DETAIL
  6
CONTINUOUS
 62
     5
 10
-30.518218999999998
 20
33.515472000000251
 30
0.0
 11
-29.863296999999999
 21
33.515472000000251
 31
0.0
  0
ARC
  5
2907
  8
DETAIL
  6
CONTINUOUS
 62
     5
 10
54.5
 20
45.500000000000242
 30
0.0
 40
3.0
 50
0.0
 51
89.999981999999974
  0
ARC
  5
2908
  8
DETAIL
  6
CONTINUOUS
 62
     5
 10
51.5
 20
34.500000000000242
 30
0.0
 40
2.0
 50
0.0
 51
89.999981999999974
  0
ARC
  5
2909
  8
DETAIL
  6
CONTINUOUS
 62
     5
 10
60.0
 20
55.000000000000242
 30
0.0
 40
5.0
 50
0.0
 51
89.999981999999974
  0
LINE
  5
290A
  8
BASIS
  6
DASHDOT
 62
     6
 10
0.0
 20
70.0
 30
0.0
 11
0.0
 21
-70.0
 31
0.0
  0
LINE
  5
290B
  8
SIZE
  6
CONTINUOUS
 62
    30
 10
65.0
 20
60.000000000000242
 30
0.0
 11
135.07682399999999
 21
60.000000000000242
 31
0.0
  0
LINE
  5
290C
  8
SIZE
  6
CONTINUOUS
 62
    30
 10
65.0
 20
-59.999999999999751
 30
0.0
 11
135.07682399999999
 21
-59.999999999999751
 31
0.0
  0
LINE
  5
290D
  8
SIZE
  6
CONTINUOUS
 62
    30
 10
120.076824
 20
55.000000000000242
 30
0.0
 11
120.076824
 21
-54.999999999999751
 31
0.0
  0
CIRCLE
  5
290E
  8
SIZE
  6
CONTINUOUS
 62
    30
 10
120.076824
 20
60.000000000000242
 30
0.0
 40
2.5
  0
LINE
  5
290F
  8
SIZE
  6
CONTINUOUS
 62
    30
 10
120.076824
 20
57.500000000000242
 30
0.0
 11
120.076824
 21
55.000000000000242
 31
0.0
  0
CIRCLE
  5
2910
  8
SIZE
  6
CONTINUOUS
 62
    30
 10
120.076824
 20
-59.999999999999751
 30
0.0
 40
2.5
  0
LINE
  5
2911
  8
SIZE
  6
CONTINUOUS
 62
    30
 10
120.076824
 20
-57.499999999999751
 30
0.0
 11
120.076824
 21
-54.999999999999751
 31
0.0
  0
TEXT
  5
2912
  8
SIZE
  6
CONTINUOUS
 62
    30
 10
115.076824
 20
-26.78571428571405
 30
0.0
 40
25.0
  1
120
 50
90.0
 41
0.9
 72
     1
 11
115.076824
 21
0.0000000000002423
 31
0.0
  0
POINT
  5
2913
  8
DEFPOINTS
  6
CONTINUOUS
 62
     7
 10
60.0
 20
60.000000000000242
 30
0.0
  0
POINT
  5
2914
  8
DEFPOINTS
  6
CONTINUOUS
 62
     7
 10
60.0
 20
-59.999999999999751
 30
0.0
  0
POINT
  5
2915
  8
DEFPOINTS
  6
CONTINUOUS
 62
     7
 10
120.076824
 20
-59.999999999999751
 30
0.0
  0
LINE
  5
2916
  8
OUTLINE
  6
CONTINUOUS
 62
     3
 10
-34.75
 20
-59.745101999999761
 30
0.0
 11
-24.25
 21
-59.745101999999761
 31
0.0
  0
LINE
  5
2917
  8
OUTLINE
  6
CONTINUOUS
 62
     3
 10
-60.0
 20
60.0
 30
0.0
 11
60.0
 21
60.0
 31
0.0
  0
LINE
  5
2918
  8
OUTLINE
  6
CONTINUOUS
 62
     3
 10
34.75
 20
-59.999999999999751
 30
0.0
 11
60.0
 21
-59.999999999999751
 31
0.0
  0
LINE
  5
2919
  8
OUTLINE
  6
CONTINUOUS
 62
     3
 10
-65.0
 20
-54.999999999999751
 30
0.0
 11
-65.0
 21
55.000000000000242
 31
0.0
  0
LINE
  5
291A
  8
OUTLINE
  6
CONTINUOUS
 62
     3
 10
-60.0
 20
-59.999999999999751
 30
0.0
 11
-34.75
 21
-59.999999999999751
 31
0.0
  0
ARC
  5
291B
  8
OUTLINE
  6
CONTINUOUS
 62
     3
 10
-60.0
 20
-54.999999999999751
 30
0.0
 40
5.0
 50
180.00003599999999
 51
270.00001800000001
  0
LINE
  5
291C
  8
OUTLINE
  6
CONTINUOUS
 62
     3
 10
-24.25
 20
-59.745101999999761
 30
0.0
 11
-24.25
 21
-59.999999999999751
 31
0.0
  0
LINE
  5
291D
  8
OUTLINE
  6
CONTINUOUS
 62
     3
 10
-34.75
 20
-59.745101999999761
 30
0.0
 11
-34.75
 21
-59.999999999999751
 31
0.0
  0
LINE
  5
291E
  8
OUTLINE
  6
CONTINUOUS
 62
     3
 10
-24.25
 20
-59.999999999999751
 30
0.0
 11
24.25
 21
-59.999999999999751
 31
0.0
  0
LINE
  5
291F
  8
OUTLINE
  6
CONTINUOUS
 62
     3
 10
34.75
 20
-59.745101999999761
 30
0.0
 11
34.75
 21
-59.999999999999751
 31
0.0
  0
LINE
  5
2920
  8
OUTLINE
  6
CONTINUOUS
 62
     3
 10
24.25
 20
-59.745101999999761
 30
0.0
 11
24.25
 21
-59.999999999999751
 31
0.0
  0
ARC
  5
2921
  8
OUTLINE
  6
CONTINUOUS
 62
     3
 10
-60.0
 20
55.000000000000242
 30
0.0
 40
5.0
 50
89.999981999999974
 51
179.99996400000001
  0
LINE
  5
2922
  8
OUTLINE
  6
CONTINUOUS
 62
     3
 10
65.0
 20
-54.999999999999751
 30
0.0
 11
65.0
 21
55.000000000000242
 31
0.0
  0
ARC
  5
2923
  8
OUTLINE
  6
CONTINUOUS
 62
     3
 10
60.0
 20
-54.999999999999751
 30
0.0
 40
5.0
 50
270.00001800000001
 51
0.00001
  0
ARC
  5
2924
  8
OUTLINE
  6
CONTINUOUS
 62
     3
 10
60.0
 20
55.000000000000242
 30
0.0
 40
5.0
 50
0.0
 51
89.999981999999974
  0
LINE
  5
2925
  8
OUTLINE
  6
CONTINUOUS
 62
     3
 10
24.25
 20
-59.745101999999761
 30
0.0
 11
34.75
 21
-59.745101999999761
 31
0.0
  0
CIRCLE
  5
2926
  8
ARRANGE
  6
CONTINUOUS
 62
     1
 10
0.0
 20
0.0
 30
0.0
 40
8.9011700000000005
  0
LINE
  5
2927
  8
ARRANGE
  6
CONTINUOUS
 62
     1
 10
-11.224170000000001
 20
11.224170000000001
 30
0.0
 11
11.224170000000001
 21
-11.224170000000001
 31
0.0
  0
LINE
  5
2928
  8
ARRANGE
  6
CONTINUOUS
 62
     1
 10
11.224170000000001
 20
11.224170000000001
 30
0.0
 11
-11.224170000000001
 21
-11.224170000000001
 31
0.0
  0
LINE
  5
2929
  8
BASIS
  6
DASHDOT
 62
     6
 10
70.0
 20
0.0
 30
0.0
 11
-70.0
 21
0.0
 31
0.0
  0
ENDSEC
  0
EOF
