  0
SECTION
  2
HEADER
  9
$ACADVER
  1
AC1009
  9
$INSBASE
 10
0.0
 20
0.0
 30
0.0
  9
$EXTMIN
 10
-112.1857981675594
 20
-92.009714583432526
 30
0.0
  9
$EXTMAX
 10
64.26397269792254
 20
152.1278261294336
 30
0.0
  9
$LIMMIN
 10
-4267.1522210604826
 20
-2696.083210198412
  9
$LIMMAX
 10
7190.7174225864646
 20
5141.155363923066
  9
$ORTHOMODE
 70
     0
  9
$REGENMODE
 70
     1
  9
$FILLMODE
 70
     1
  9
$QTEXTMODE
 70
     0
  9
$MIRRTEXT
 70
     0
  9
$DRAGMODE
 70
     2
  9
$LTSCALE
 40
20.0
  9
$OSMODE
 70
   431
  9
$ATTMODE
 70
     1
  9
$TEXTSIZE
 40
64.0
  9
$TRACEWID
 40
0.05
  9
$TEXTSTYLE
  7
STANDARD
  9
$CLAYER
  8
SYMBOLLINE
  9
$CELTYPE
  6
CONTINUOUS
  9
$CECOLOR
 62
     7
  9
$DIMSCALE
 40
1.0
  9
$DIMASZ
 40
10.0
  9
$DIMEXO
 40
4.0
  9
$DIMDLI
 40
300.0
  9
$DIMRND
 40
0.0
  9
$DIMDLE
 40
0.0
  9
$DIMEXE
 40
20.0
  9
$DIMTP
 40
0.0
  9
$DIMTM
 40
0.0
  9
$DIMTXT
 40
25.0
  9
$DIMCEN
 40
0.0
  9
$DIMTSZ
 40
0.0
  9
$DIMTOL
 70
     0
  9
$DIMLIM
 70
     0
  9
$DIMTIH
 70
     0
  9
$DIMTOH
 70
     0
  9
$DIMSE1
 70
     0
  9
$DIMSE2
 70
     0
  9
$DIMTAD
 70
     1
  9
$DIMZIN
 70
     8
  9
$DIMBLK
  1
DOTBLANK
  9
$DIMASO
 70
     1
  9
$DIMSHO
 70
     0
  9
$DIMPOST
  1

  9
$DIMAPOST
  1

  9
$DIMALT
 70
     0
  9
$DIMALTD
 70
     2
  9
$DIMALTF
 40
25.399999999999999
  9
$DIMLFAC
 40
1.0
  9
$DIMTOFL
 70
     1
  9
$DIMTVP
 40
0.0
  9
$DIMTIX
 70
     1
  9
$DIMSOXD
 70
     0
  9
$DIMSAH
 70
     0
  9
$DIMBLK1
  1

  9
$DIMBLK2
  1

  9
$DIMSTYLE
  2
STANDARD
  9
$DIMCLRD
 70
     0
  9
$DIMCLRE
 70
     0
  9
$DIMCLRT
 70
     0
  9
$DIMTFAC
 40
1.0
  9
$DIMGAP
 40
0.09
  9
$LUNITS
 70
     2
  9
$LUPREC
 70
     4
  9
$SKETCHINC
 40
0.1
  9
$FILLETRAD
 40
1.0
  9
$AUNITS
 70
     1
  9
$AUPREC
 70
     3
  9
$MENU
  1
ACAD
  9
$ELEVATION
 40
0.0
  9
$PELEVATION
 40
0.0
  9
$THICKNESS
 40
0.0
  9
$LIMCHECK
 70
     0
  9
$BLIPMODE
 70
     0
  9
$CHAMFERA
 40
0.0
  9
$CHAMFERB
 40
0.0
  9
$SKPOLY
 70
     0
  9
$TDCREATE
 40
2450330.4399309959
  9
$TDUPDATE
 40
2455181.4535797802
  9
$TDINDWG
 40
3.5134136343
  9
$TDUSRTIMER
 40
3.5134127314999999
  9
$USRTIMER
 70
     1
  9
$ANGBASE
 50
0.0
  9
$ANGDIR
 70
     0
  9
$PDMODE
 70
     3
  9
$PDSIZE
 40
-2.0
  9
$PLINEWID
 40
0.0
  9
$COORDS
 70
     0
  9
$SPLFRAME
 70
     0
  9
$SPLINETYPE
 70
     6
  9
$SPLINESEGS
 70
     8
  9
$ATTDIA
 70
     0
  9
$ATTREQ
 70
     1
  9
$HANDLING
 70
     1
  9
$HANDSEED
  5
157
  9
$SURFTAB1
 70
     6
  9
$SURFTAB2
 70
     6
  9
$SURFTYPE
 70
     6
  9
$SURFU
 70
     6
  9
$SURFV
 70
     6
  9
$UCSNAME
  2

  9
$UCSORG
 10
0.0
 20
0.0
 30
0.0
  9
$UCSXDIR
 10
1.0
 20
0.0
 30
0.0
  9
$UCSYDIR
 10
0.0
 20
1.0
 30
0.0
  9
$PUCSNAME
  2

  9
$PUCSORG
 10
0.0
 20
0.0
 30
0.0
  9
$PUCSXDIR
 10
1.0
 20
0.0
 30
0.0
  9
$PUCSYDIR
 10
0.0
 20
1.0
 30
0.0
  9
$USERI1
 70
     0
  9
$USERI2
 70
     0
  9
$USERI3
 70
     0
  9
$USERI4
 70
     0
  9
$USERI5
 70
     0
  9
$USERR1
 40
20.0
  9
$USERR2
 40
0.0
  9
$USERR3
 40
0.0
  9
$USERR4
 40
0.0
  9
$USERR5
 40
0.0
  9
$WORLDVIEW
 70
     1
  9
$SHADEDGE
 70
     3
  9
$SHADEDIF
 70
    70
  9
$TILEMODE
 70
     1
  9
$MAXACTVP
 70
    64
  9
$PLIMCHECK
 70
     0
  9
$PEXTMIN
 10
1.0000000000000000E+020
 20
1.0000000000000000E+020
 30
1.0000000000000000E+020
  9
$PEXTMAX
 10
-1.0000000000000000E+020
 20
-1.0000000000000000E+020
 30
-1.0000000000000000E+020
  9
$PLIMMIN
 10
0.0
 20
0.0
  9
$PLIMMAX
 10
12.0
 20
9.0
  9
$UNITMODE
 70
     0
  9
$VISRETAIN
 70
     1
  9
$PLINEGEN
 70
     0
  9
$PSLTSCALE
 70
     1
  0
ENDSEC
  0
SECTION
  2
TABLES
  0
TABLE
  2
VPORT
 70
     1
  0
VPORT
  2
*ACTIVE
 70
     0
 10
0.0
 20
0.0
 11
1.0
 21
1.0
 12
1461.782600762991
 22
1222.536076862327
 13
0.0
 23
0.0
 14
50.0
 24
50.0
 15
100.0
 25
100.0
 16
0.0
 26
0.0
 36
1.0
 17
0.0
 27
0.0
 37
0.0
 40
7896.6866543297328
 41
1.548101265822784
 42
50.0
 43
0.0
 44
0.0
 50
0.0
 51
0.0
 71
     0
 72
  1000
 73
     1
 74
     0
 75
     0
 76
     0
 77
     0
 78
     0
  0
ENDTAB
  0
TABLE
  2
LTYPE
 70
     3
  0
LTYPE
  2
CONTINUOUS
 70
     0
  3
実線
 72
    65
 73
     0
 40
0.0
  0
LTYPE
  2
DASHDOT
 70
     0
  3
____ _ ____ _ ____ _ ____ _ ____ _ ____ _ ____
 72
    65
 73
     4
 40
5.5
 49
4.0
 49
-0.6
 49
0.3
 49
-0.6
  0
ENDTAB
  0
TABLE
  2
LAYER
 70
    12
  0
LAYER
  2
0
 70
     0
 62
    -7
  6
CONTINUOUS
  0
LAYER
  2
DETAIL
 70
     0
 62
     5
  6
CONTINUOUS
  0
LAYER
  2
OUTLINE
 70
     0
 62
     3
  6
CONTINUOUS
  0
LAYER
  2
BASIS
 70
     0
 62
     6
  6
DASHDOT
  0
LAYER
  2
SIZE
 70
     0
 62
    30
  6
CONTINUOUS
  0
LAYER
  2
NOTE
 70
     0
 62
     4
  6
CONTINUOUS
  0
LAYER
  2
ARRANGE
 70
     0
 62
     1
  6
CONTINUOUS
  0
LAYER
  2
FIX
 70
     0
 62
    11
  6
CONTINUOUS
  0
LAYER
  2
SERVICESPACE
 70
     0
 62
     2
  6
DASHDOT
  0
LAYER
  2
ETC
 70
     0
 62
    61
  6
CONTINUOUS
  0
LAYER
  2
SYMBOLLINE
 70
     0
 62
    15
  6
CONTINUOUS
  0
LAYER
  2
DEFPOINTS
 70
     0
 62
     7
  6
CONTINUOUS
  0
ENDTAB
  0
TABLE
  2
STYLE
 70
     2
  0
STYLE
  2
STANDARD
 70
     0
 40
0.0
 41
0.9
 50
0.0
 71
     0
 42
64.0
  3
SIMPLEX
  4
BIGFONT
  0
STYLE
  2
ANNOTATIVE
 70
     0
 40
0.0
 41
1.0
 50
0.0
 71
     0
 42
0.2
  3
txt
  4

  0
ENDTAB
  0
TABLE
  2
VIEW
 70
     4
  0
VIEW
  2
ALL
 70
     0
 40
9000.0
 10
241.50664699999999
 20
0.0
 41
12483.01
 11
0.0
 21
0.0
 31
1.0
 12
0.0
 22
0.0
 32
0.0
 42
50.0
 43
0.0
 44
0.0
 50
0.0
 71
     0
  0
ENDTAB
  0
TABLE
  2
UCS
 70
     0
  0
ENDTAB
  0
TABLE
  2
APPID
 70
     3
  0
APPID
  2
ACAD
 70
     0
  0
APPID
  2
ACADANNOTATIVE
 70
     0
  0
APPID
  2
ACAD_MLEADERVER
 70
     0
  0
ENDTAB
  0
TABLE
  2
DIMSTYLE
 70
     3
  0
DIMSTYLE
  2
STANDARD
 70
     0
  3

  4

  5

  6

  7

 40
1.0
 41
0.18
 42
0.0625
 43
0.38
 44
0.18
 45
0.0
 46
0.0
 47
0.0
 48
0.0
140
0.18
141
0.09
142
0.0
143
25.399999999999999
144
1.0
145
0.0
146
1.0
147
0.09
 71
     0
 72
     0
 73
     1
 74
     1
 75
     0
 76
     0
 77
     0
 78
     0
170
     0
171
     2
172
     0
173
     0
174
     0
175
     0
176
     0
177
     0
178
     0
  0
DIMSTYLE
  2
ANNOTATIVE
 70
     0
  3

  4

  5

  6

  7

 40
1.0
 41
0.18
 42
0.0625
 43
0.38
 44
0.18
 45
0.0
 46
0.0
 47
0.0
 48
0.0
140
0.18
141
0.09
142
0.0
143
25.399999999999999
144
1.0
145
0.0
146
1.0
147
0.09
 71
     0
 72
     0
 73
     1
 74
     1
 75
     0
 76
     0
 77
     0
 78
     0
170
     0
171
     2
172
     0
173
     0
174
     0
175
     0
176
     0
177
     0
178
     0
  0
ENDTAB
  0
ENDSEC
  0
SECTION
  2
BLOCKS
  0
BLOCK
  8
0
  2
$MODEL_SPACE
 70
     0
 10
0.0
 20
0.0
 30
0.0
  3
$MODEL_SPACE
  1

  0
ENDBLK
  5
76
  8
0
  0
BLOCK
 67
     1
  8
0
  2
$PAPER_SPACE
 70
     0
 10
0.0
 20
0.0
 30
0.0
  3
$PAPER_SPACE
  1

  0
ENDBLK
  5
72
 67
     1
  8
0
  0
BLOCK
  8
0
  2
_DOTBLANK
 70
     0
 10
0.0
 20
0.0
 30
0.0
  3
_DOTBLANK
  1

  0
CIRCLE
  5
8A
  8
0
  6
CONTINUOUS
 62
     7
 10
0.0
 20
0.0
 30
0.0
 40
0.5
  0
LINE
  5
8B
  8
0
  6
CONTINUOUS
 62
     7
 10
-0.5
 20
0.0
 30
0.0
 11
-1.0
 21
0.0
 31
0.0
  0
ENDBLK
  5
8C
  8
0
  0
ENDSEC
  0
SECTION
  2
ENTITIES
  0
LINE
  5
8D
  8
DETAIL
  6
CONTINUOUS
 62
     5
 10
1.0607224288974051
 20
-59.998003186098991
 30
0.0
 11
1.0607224288974051
 21
60.001996813901073
 31
0.0
  0
LINE
  5
8E
  8
DETAIL
  6
CONTINUOUS
 62
     5
 10
0.0
 20
59.281647999948603
 30
0.0
 11
0.0
 21
-59.171730135176922
 31
0.0
  0
LINE
  5
8F
  8
DETAIL
  6
CONTINUOUS
 62
     5
 10
19.0
 20
-58.998003186098998
 30
0.0
 11
19.0
 21
59.001996813901052
 31
0.0
  0
LINE
  5
90
  8
DETAIL
  6
CONTINUOUS
 62
     5
 10
19.0
 20
-57.446861140416857
 30
0.0
 11
0.0
 21
-57.446861140416857
 31
0.0
  0
LINE
  5
91
  8
DETAIL
  6
CONTINUOUS
 62
     5
 10
1.0607224288974051
 20
-59.998003186098991
 30
0.0
 11
19.0
 21
-58.998003186098998
 31
0.0
  0
LINE
  5
92
  8
DETAIL
  6
CONTINUOUS
 62
     5
 10
1.0607224288974051
 20
-59.171730135176922
 30
0.0
 11
0.0
 21
-59.171730135176922
 31
0.0
  0
POLYLINE
  5
93
  8
DETAIL
  6
CONTINUOUS
 62
     5
 66
     1
 10
0.0
 20
0.0
 30
0.0
  0
VERTEX
  5
13E
  8
DETAIL
  6
CONTINUOUS
 62
     5
 10
18.999999999999488
 20
-41.78631128511514
 30
0.0
 42
0.0750497170038875
  0
VERTEX
  5
13F
  8
DETAIL
  6
CONTINUOUS
 62
     5
 10
19.09280371214799
 20
-41.800475284982717
 30
0.0
 42
0.1756465790552658
  0
VERTEX
  5
140
  8
DETAIL
  6
CONTINUOUS
 62
     5
 10
19.318780836777279
 20
-41.712567625023723
 30
0.0
 42
0.0835881755966691
  0
VERTEX
  5
141
  8
DETAIL
  6
CONTINUOUS
 62
     5
 10
19.450104918612649
 20
-41.556590919925718
 30
0.0
 42
0.0623359464788055
  0
VERTEX
  5
142
  8
DETAIL
  6
CONTINUOUS
 62
     5
 10
19.544757961406571
 20
-41.340184801537077
 30
0.0
 42
0.0730734498399923
  0
VERTEX
  5
143
  8
DETAIL
  6
CONTINUOUS
 62
     5
 10
19.598103924156469
 20
-40.967801978050453
 30
0.0
 42
0.0730734498399923
  0
VERTEX
  5
144
  8
DETAIL
  6
CONTINUOUS
 62
     5
 10
19.544757961406571
 20
-40.595419154563807
 30
0.0
 42
0.0623359464788055
  0
VERTEX
  5
145
  8
DETAIL
  6
CONTINUOUS
 62
     5
 10
19.450104918612649
 20
-40.379013036175188
 30
0.0
 42
0.0835881755966691
  0
VERTEX
  5
146
  8
DETAIL
  6
CONTINUOUS
 62
     5
 10
19.318780836777279
 20
-40.223036331077168
 30
0.0
 42
0.1756465790552658
  0
VERTEX
  5
147
  8
DETAIL
  6
CONTINUOUS
 62
     5
 10
19.09280371214799
 20
-40.135128671118167
 30
0.0
 42
0.1756465790552658
  0
VERTEX
  5
148
  8
DETAIL
  6
CONTINUOUS
 62
     5
 10
18.999999999999488
 20
-40.149292670985751
 30
0.0
 42
0.0979443443122814
  0
SEQEND
  5
149
  8
DETAIL
  6
CONTINUOUS
 62
     5
  0
POLYLINE
  5
A0
  8
DETAIL
  6
CONTINUOUS
 62
     5
 66
     1
 10
0.0
 20
0.0
 30
0.0
  0
VERTEX
  5
14A
  8
DETAIL
  6
CONTINUOUS
 62
     5
 10
19.000000000000131
 20
-20.42296592733517
 30
0.0
 42
0.0070197895601187
  0
VERTEX
  5
14B
  8
DETAIL
  6
CONTINUOUS
 62
     5
 10
19.033111842604661
 20
-20.388320161792979
 30
0.0
 42
0.0771086919204007
  0
VERTEX
  5
14C
  8
DETAIL
  6
CONTINUOUS
 62
     5
 10
19.465935691059059
 20
-19.71703752025692
 30
0.0
 42
0.0511003079961407
  0
VERTEX
  5
14D
  8
DETAIL
  6
CONTINUOUS
 62
     5
 10
19.777877488835461
 20
-18.78569549089449
 30
0.0
 42
0.0564259472781016
  0
VERTEX
  5
14E
  8
DETAIL
  6
CONTINUOUS
 62
     5
 10
19.953638143865721
 20
-17.183096226541419
 30
0.0
 42
0.0564259472781016
  0
VERTEX
  5
14F
  8
DETAIL
  6
CONTINUOUS
 62
     5
 10
19.777734374760328
 20
-15.58051266429694
 30
0.0
 42
0.0511003079961407
  0
VERTEX
  5
150
  8
DETAIL
  6
CONTINUOUS
 62
     5
 10
19.465709407837739
 20
-14.64919849556876
 30
0.0
 42
0.0771086919204007
  0
VERTEX
  5
151
  8
DETAIL
  6
CONTINUOUS
 62
     5
 10
19.03282561445441
 20
-13.977954508597881
 30
0.0
 42
0.2089520709820557
  0
VERTEX
  5
152
  8
DETAIL
  6
CONTINUOUS
 62
     5
 10
19.000000000000121
 20
-13.94360598175173
 30
0.0
 42
0.2021195723698587
  0
SEQEND
  5
153
  8
DETAIL
  6
CONTINUOUS
 62
     5
  0
LINE
  5
AB
  8
DETAIL
  6
CONTINUOUS
 62
     5
 10
19.0
 20
57.350050736058023
 30
0.0
 11
0.0
 21
57.350050736058023
 31
0.0
  0
LINE
  5
AC
  8
DETAIL
  6
CONTINUOUS
 62
     5
 10
19.0
 20
59.001996813901052
 30
0.0
 11
1.0607224288974051
 21
60.001996813901073
 31
0.0
  0
LINE
  5
AD
  8
DETAIL
  6
CONTINUOUS
 62
     5
 10
1.0607224288974051
 20
59.281647999948603
 30
0.0
 11
0.0
 21
59.281647999948603
 31
0.0
  0
LINE
  5
AE
  8
OUTLINE
  6
CONTINUOUS
 62
     3
 10
1.0607224288974051
 20
59.281647999948603
 30
0.0
 11
1.0607224288974051
 21
60.001996813901073
 31
0.0
  0
LINE
  5
AF
  8
OUTLINE
  6
CONTINUOUS
 62
     3
 10
1.0607224288974051
 20
60.001996813901073
 30
0.0
 11
19.0
 21
59.001996813901052
 31
0.0
  0
LINE
  5
B0
  8
OUTLINE
  6
CONTINUOUS
 62
     3
 10
19.0
 20
59.001996813901052
 30
0.0
 11
19.0
 21
-58.998003186098998
 31
0.0
  0
LINE
  5
B1
  8
OUTLINE
  6
CONTINUOUS
 62
     3
 10
19.0
 20
-58.998003186098998
 30
0.0
 11
1.0607224288974051
 21
-59.998003186098991
 31
0.0
  0
LINE
  5
B2
  8
OUTLINE
  6
CONTINUOUS
 62
     3
 10
1.0607224288974051
 20
-59.998003186098991
 30
0.0
 11
1.0607224288974051
 21
-59.171730135176922
 31
0.0
  0
LINE
  5
B3
  8
OUTLINE
  6
CONTINUOUS
 62
     3
 10
1.0607224288974051
 20
-59.171730135176922
 30
0.0
 11
0.0
 21
-59.171730135176922
 31
0.0
  0
LINE
  5
B4
  8
OUTLINE
  6
CONTINUOUS
 62
     3
 10
0.0
 20
-59.171730135176922
 30
0.0
 11
0.0
 21
59.281647999948603
 31
0.0
  0
LINE
  5
B5
  8
OUTLINE
  6
CONTINUOUS
 62
     3
 10
0.0
 20
59.281647999948603
 30
0.0
 11
1.0607224288974051
 21
59.281647999948603
 31
0.0
  0
LINE
  5
B6
  8
BASIS
  6
DASHDOT
 62
     6
 10
34.67081909434949
 20
-0.0000000000000213
 30
0.0
 11
-14.836181236725221
 21
-0.0000000000000213
 31
0.0
  0
CIRCLE
  5
B7
  8
ARRANGE
  6
CONTINUOUS
 62
     1
 10
0.0
 20
-0.0000000000014424
 30
0.0
 40
11.89999999999999
  0
LINE
  5
B8
  8
ARRANGE
  6
CONTINUOUS
 62
     1
 10
11.908889307455009
 20
-11.786320049778359
 30
0.0
 11
-11.908889307455921
 21
11.78632004977637
 31
0.0
  0
LINE
  5
B9
  8
ARRANGE
  6
CONTINUOUS
 62
     1
 10
11.89137566789759
 20
11.80398956191916
 30
0.0
 11
-11.89137566789941
 21
-11.80398956192097
 31
0.0
  0
TEXT
  5
BA
  8
ETC
  6
CONTINUOUS
 62
    61
 10
-75.736027302077446
 20
132.1278261294336
 30
0.0
 40
20.0
  1
PAR-31MA_5
 41
0.7
  0
LINE
  5
BB
  8
SIZE
  6
CONTINUOUS
 62
    30
 10
-2.9392775711025929
 20
60.001996813901073
 30
0.0
 11
-97.185798167559369
 21
60.001996813901087
 31
0.0
  0
LINE
  5
BC
  8
SIZE
  6
CONTINUOUS
 62
    30
 10
-2.9392775711025929
 20
-59.998003186098991
 30
0.0
 11
-97.185798167559412
 21
-59.998003186098963
 31
0.0
  0
LINE
  5
BD
  8
SIZE
  6
CONTINUOUS
 62
    30
 10
-77.185798167559369
 20
50.001996813901087
 30
0.0
 11
-77.185798167559398
 21
-49.99800318609897
 31
0.0
  0
CIRCLE
  5
BE
  8
SIZE
  6
CONTINUOUS
 62
    30
 10
-77.185798167559369
 20
60.001996813901087
 30
0.0
 40
5.0
  0
LINE
  5
BF
  8
SIZE
  6
CONTINUOUS
 62
    30
 10
-77.185798167559369
 20
55.001996813901087
 30
0.0
 11
-77.185798167559369
 21
50.001996813901087
 31
0.0
  0
CIRCLE
  5
C0
  8
SIZE
  6
CONTINUOUS
 62
    30
 10
-77.185798167559398
 20
-59.99800318609897
 30
0.0
 40
5.0
  0
LINE
  5
C1
  8
SIZE
  6
CONTINUOUS
 62
    30
 10
-77.185798167559398
 20
-54.99800318609897
 30
0.0
 11
-77.185798167559398
 21
-49.99800318609897
 31
0.0
  0
TEXT
  5
C2
  8
SIZE
  6
CONTINUOUS
 62
    30
 10
-87.185798167559412
 20
-26.783717471813269
 30
0.0
 40
25.0
  1
120
 50
90.0
 41
0.9
 72
     1
 11
-87.185798167559412
 21
0.001996813901025
 31
0.0
  0
POINT
  5
C3
  8
DEFPOINTS
  6
CONTINUOUS
 62
     7
 10
1.0607224288974051
 20
60.001996813901073
 30
0.0
  0
POINT
  5
C4
  8
DEFPOINTS
  6
CONTINUOUS
 62
     7
 10
1.0607224288974051
 20
-59.998003186098991
 30
0.0
  0
POINT
  5
C5
  8
DEFPOINTS
  6
CONTINUOUS
 62
     7
 10
-77.185798167559398
 20
-59.99800318609897
 30
0.0
  0
LINE
  5
C6
  8
SIZE
  6
CONTINUOUS
 62
    30
 10
19.0
 20
63.001996813901073
 30
0.0
 11
19.0
 21
106.7393391957589
 31
0.0
  0
LINE
  5
C7
  8
SIZE
  6
CONTINUOUS
 62
    30
 10
0.0000000000000002
 20
63.281647999948603
 30
0.0
 11
0.0000000000000029
 21
106.7393391957589
 31
0.0
  0
LINE
  5
C8
  8
SIZE
  6
CONTINUOUS
 62
    30
 10
29.0
 20
86.739339195758959
 30
0.0
 11
39.0
 21
86.739339195758959
 31
0.0
  0
LINE
  5
C9
  8
SIZE
  6
CONTINUOUS
 62
    30
 10
-9.9999999999999982
 20
86.739339195758959
 30
0.0
 11
-71.071428571428612
 21
86.739339195758959
 31
0.0
  0
LINE
  5
CA
  8
SIZE
  6
CONTINUOUS
 62
    30
 10
19.0
 20
86.739339195758959
 30
0.0
 11
0.0000000000000017
 21
86.739339195758959
 31
0.0
  0
CIRCLE
  5
CB
  8
SIZE
  6
CONTINUOUS
 62
    30
 10
19.0
 20
86.739339195758959
 30
0.0
 40
5.0
  0
LINE
  5
CC
  8
SIZE
  6
CONTINUOUS
 62
    30
 10
24.0
 20
86.739339195758959
 30
0.0
 11
29.0
 21
86.739339195758959
 31
0.0
  0
CIRCLE
  5
CD
  8
SIZE
  6
CONTINUOUS
 62
    30
 10
0.0000000000000017
 20
86.739339195758959
 30
0.0
 40
5.0
  0
LINE
  5
CE
  8
SIZE
  6
CONTINUOUS
 62
    30
 10
-4.9999999999999982
 20
86.739339195758959
 30
0.0
 11
-9.9999999999999982
 21
86.739339195758959
 31
0.0
  0
TEXT
  5
CF
  8
SIZE
  6
CONTINUOUS
 62
    30
 10
-61.071428571428619
 20
96.739339195758916
 30
0.0
 40
25.0
  1
19
 41
0.9
 72
     1
 11
-45.535714285714342
 21
96.739339195758916
 31
0.0
  0
POINT
  5
D0
  8
DEFPOINTS
  6
CONTINUOUS
 62
     7
 10
19.0
 20
59.001996813901052
 30
0.0
  0
POINT
  5
D1
  8
DEFPOINTS
  6
CONTINUOUS
 62
     7
 10
0.0
 20
59.281647999948603
 30
0.0
  0
POINT
  5
D2
  8
DEFPOINTS
  6
CONTINUOUS
 62
     7
 10
0.0000000000000017
 20
86.739339195758959
 30
0.0
  0
CIRCLE
  5
D3
  8
FIX
  6
CONTINUOUS
 62
    11
 10
-0.0000000000001137
 20
-41.750000000000071
 30
0.0
 40
4.6414611125688099
  0
LINE
  5
D4
  8
NOTE
  6
CONTINUOUS
 62
     4
 10
0.0000000000000853
 20
-33.889704387306161
 30
0.0
 11
0.0000000000000853
 21
-49.610295612694998
 31
0.0
  0
LINE
  5
D5
  8
NOTE
  6
CONTINUOUS
 62
     4
 10
-7.8602956126943004
 20
-41.750000000000533
 30
0.0
 11
7.860295612694471
 21
-41.750000000000533
 31
0.0
  0
CIRCLE
  5
D6
  8
FIX
  6
CONTINUOUS
 62
    11
 10
-0.0000000000001137
 20
41.750000000000028
 30
0.0
 40
4.6414611125688099
  0
LINE
  5
D7
  8
NOTE
  6
CONTINUOUS
 62
     4
 10
0.0
 20
49.610295612693939
 30
0.0
 11
0.0
 21
33.889704387305109
 31
0.0
  0
LINE
  5
D8
  8
NOTE
  6
CONTINUOUS
 62
     4
 10
-7.8602956126943004
 20
41.749999999999581
 30
0.0
 11
7.860295612694415
 21
41.749999999999581
 31
0.0
  0
LINE
  5
D9
  8
SIZE
  6
CONTINUOUS
 62
    30
 10
-8.6414611125689191
 20
41.749999999999538
 30
0.0
 11
-49.127536048997221
 21
41.749999999999567
 31
0.0
  0
LINE
  5
DA
  8
SIZE
  6
CONTINUOUS
 62
    30
 10
-8.6414611125689191
 20
-41.75000000000054
 30
0.0
 11
-49.127536048997221
 21
-41.750000000000533
 31
0.0
  0
LINE
  5
DB
  8
SIZE
  6
CONTINUOUS
 62
    30
 10
-29.127536048997221
 20
31.749999999999559
 30
0.0
 11
-29.127536048997229
 21
-31.75000000000054
 31
0.0
  0
CIRCLE
  5
DC
  8
SIZE
  6
CONTINUOUS
 62
    30
 10
-29.127536048997211
 20
41.749999999999559
 30
0.0
 40
5.0
  0
LINE
  5
DD
  8
SIZE
  6
CONTINUOUS
 62
    30
 10
-29.127536048997211
 20
36.749999999999559
 30
0.0
 11
-29.127536048997211
 21
31.749999999999559
 31
0.0
  0
CIRCLE
  5
DE
  8
SIZE
  6
CONTINUOUS
 62
    30
 10
-29.127536048997229
 20
-41.75000000000054
 30
0.0
 40
5.0
  0
LINE
  5
DF
  8
SIZE
  6
CONTINUOUS
 62
    30
 10
-29.127536048997229
 20
-36.75000000000054
 30
0.0
 11
-29.127536048997229
 21
-31.75000000000054
 31
0.0
  0
TEXT
  5
E0
  8
SIZE
  6
CONTINUOUS
 62
    30
 10
-39.127536048997229
 20
-34.285714285714761
 30
0.0
 40
25.0
  1
83.5
 50
90.0
 41
0.9
 72
     1
 11
-39.127536048997229
 21
-0.0000000000004865
 31
0.0
  0
POINT
  5
E1
  8
DEFPOINTS
  6
CONTINUOUS
 62
     7
 10
-4.6414611125689191
 20
41.749999999999538
 30
0.0
  0
POINT
  5
E2
  8
DEFPOINTS
  6
CONTINUOUS
 62
     7
 10
-4.6414611125689191
 20
-41.75000000000054
 30
0.0
  0
POINT
  5
E3
  8
DEFPOINTS
  6
CONTINUOUS
 62
     7
 10
-29.127536048997229
 20
-41.75000000000054
 30
0.0
  0
LINE
  5
E4
  8
NOTE
  6
CONTINUOUS
 62
     4
 10
-7.0516011825594944
 20
-49.3298811074593
 30
0.0
 11
-0.0000000001054161
 21
-41.749999999831182
 31
0.0
  0
LINE
  5
E5
  8
NOTE
  6
CONTINUOUS
 62
     4
 10
-0.0000000001054161
 20
-41.749999999831182
 30
0.0
 11
-2.3169252534274261
 21
-51.840170177419061
 31
0.0
  0
LINE
  5
E6
  8
NOTE
  6
CONTINUOUS
 62
     4
 10
-0.0000000001159037
 20
-41.749999999842451
 30
0.0
 11
-26.647317380842221
 21
-92.009714583432526
 31
0.0
  0
TEXT
  5
E7
  8
NOTE
  6
CONTINUOUS
 62
     4
 10
-97.361743010636204
 20
-88.376894909567511
 30
0.0
 40
20.0
  1
AH ×4
 41
0.7
  0
LINE
  5
E8
  8
NOTE
  6
CONTINUOUS
 62
     4
 10
-103.0913195149196
 20
-92.009714583432526
 30
0.0
 11
-26.647317380842221
 21
-92.009714583432526
 31
0.0
  0
ENDSEC
  0
EOF
