  0
SECTION
  2
HEADER
  9
$ACADVER
  1
AC1009
  9
$INSBASE
 10
0.0
 20
0.0
 30
0.0
  9
$EXTMIN
 10
-65.000000000000028
 20
-90.071428571430047
 30
0.0
  9
$EXTMAX
 10
148.37747960217229
 20
158.1017397953882
 30
0.0
  9
$LIMMIN
 10
-4267.1522210604826
 20
-2696.083210198412
  9
$LIMMAX
 10
7190.7174225864646
 20
5141.155363923066
  9
$ORTHOMODE
 70
     0
  9
$REGENMODE
 70
     1
  9
$FILLMODE
 70
     1
  9
$QTEXTMODE
 70
     0
  9
$MIRRTEXT
 70
     0
  9
$DRAGMODE
 70
     2
  9
$LTSCALE
 40
20.0
  9
$OSMODE
 70
   959
  9
$ATTMODE
 70
     1
  9
$TEXTSIZE
 40
64.0
  9
$TRACEWID
 40
0.05
  9
$TEXTSTYLE
  7
STANDARD
  9
$CLAYER
  8
SYMBOLLINE
  9
$CELTYPE
  6
CONTINUOUS
  9
$CECOLOR
 62
     7
  9
$DIMSCALE
 40
1.0
  9
$DIMASZ
 40
10.0
  9
$DIMEXO
 40
4.0
  9
$DIMDLI
 40
300.0
  9
$DIMRND
 40
0.0
  9
$DIMDLE
 40
0.0
  9
$DIMEXE
 40
20.0
  9
$DIMTP
 40
0.0
  9
$DIMTM
 40
0.0
  9
$DIMTXT
 40
25.0
  9
$DIMCEN
 40
0.0
  9
$DIMTSZ
 40
0.0
  9
$DIMTOL
 70
     0
  9
$DIMLIM
 70
     0
  9
$DIMTIH
 70
     0
  9
$DIMTOH
 70
     0
  9
$DIMSE1
 70
     0
  9
$DIMSE2
 70
     0
  9
$DIMTAD
 70
     1
  9
$DIMZIN
 70
     8
  9
$DIMBLK
  1
DOTBLANK
  9
$DIMASO
 70
     1
  9
$DIMSHO
 70
     0
  9
$DIMPOST
  1

  9
$DIMAPOST
  1

  9
$DIMALT
 70
     0
  9
$DIMALTD
 70
     2
  9
$DIMALTF
 40
25.399999999999999
  9
$DIMLFAC
 40
1.0
  9
$DIMTOFL
 70
     1
  9
$DIMTVP
 40
0.0
  9
$DIMTIX
 70
     1
  9
$DIMSOXD
 70
     0
  9
$DIMSAH
 70
     0
  9
$DIMBLK1
  1

  9
$DIMBLK2
  1

  9
$DIMSTYLE
  2
STANDARD
  9
$DIMCLRD
 70
     0
  9
$DIMCLRE
 70
     0
  9
$DIMCLRT
 70
     0
  9
$DIMTFAC
 40
1.0
  9
$DIMGAP
 40
0.09
  9
$LUNITS
 70
     2
  9
$LUPREC
 70
     4
  9
$SKETCHINC
 40
0.1
  9
$FILLETRAD
 40
1.0
  9
$AUNITS
 70
     1
  9
$AUPREC
 70
     3
  9
$MENU
  1
ACAD
  9
$ELEVATION
 40
0.0
  9
$PELEVATION
 40
0.0
  9
$THICKNESS
 40
0.0
  9
$LIMCHECK
 70
     0
  9
$BLIPMODE
 70
     0
  9
$CHAMFERA
 40
0.0
  9
$CHAMFERB
 40
0.0
  9
$SKPOLY
 70
     0
  9
$TDCREATE
 40
2450330.4399309959
  9
$TDUPDATE
 40
2455573.6095120609
  9
$TDINDWG
 40
3.5489083565000001
  9
$TDUSRTIMER
 40
3.5488774420999998
  9
$USRTIMER
 70
     1
  9
$ANGBASE
 50
0.0
  9
$ANGDIR
 70
     0
  9
$PDMODE
 70
     3
  9
$PDSIZE
 40
-2.0
  9
$PLINEWID
 40
0.0
  9
$COORDS
 70
     0
  9
$SPLFRAME
 70
     0
  9
$SPLINETYPE
 70
     6
  9
$SPLINESEGS
 70
     8
  9
$ATTDIA
 70
     0
  9
$ATTREQ
 70
     1
  9
$HANDLING
 70
     1
  9
$HANDSEED
  5
397
  9
$SURFTAB1
 70
     6
  9
$SURFTAB2
 70
     6
  9
$SURFTYPE
 70
     6
  9
$SURFU
 70
     6
  9
$SURFV
 70
     6
  9
$UCSNAME
  2

  9
$UCSORG
 10
0.0
 20
0.0
 30
0.0
  9
$UCSXDIR
 10
1.0
 20
0.0
 30
0.0
  9
$UCSYDIR
 10
0.0
 20
1.0
 30
0.0
  9
$PUCSNAME
  2

  9
$PUCSORG
 10
0.0
 20
0.0
 30
0.0
  9
$PUCSXDIR
 10
1.0
 20
0.0
 30
0.0
  9
$PUCSYDIR
 10
0.0
 20
1.0
 30
0.0
  9
$USERI1
 70
     0
  9
$USERI2
 70
     0
  9
$USERI3
 70
     0
  9
$USERI4
 70
     0
  9
$USERI5
 70
     0
  9
$USERR1
 40
20.0
  9
$USERR2
 40
0.0
  9
$USERR3
 40
0.0
  9
$USERR4
 40
0.0
  9
$USERR5
 40
0.0
  9
$WORLDVIEW
 70
     1
  9
$SHADEDGE
 70
     3
  9
$SHADEDIF
 70
    70
  9
$TILEMODE
 70
     1
  9
$MAXACTVP
 70
    64
  9
$PLIMCHECK
 70
     0
  9
$PEXTMIN
 10
1.0000000000000000E+020
 20
1.0000000000000000E+020
 30
1.0000000000000000E+020
  9
$PEXTMAX
 10
-1.0000000000000000E+020
 20
-1.0000000000000000E+020
 30
-1.0000000000000000E+020
  9
$PLIMMIN
 10
0.0
 20
0.0
  9
$PLIMMAX
 10
12.0
 20
9.0
  9
$UNITMODE
 70
     0
  9
$VISRETAIN
 70
     1
  9
$PLINEGEN
 70
     0
  9
$PSLTSCALE
 70
     1
  0
ENDSEC
  0
SECTION
  2
TABLES
  0
TABLE
  2
VPORT
 70
     1
  0
VPORT
  2
*ACTIVE
 70
     0
 10
0.0
 20
0.0
 11
1.0
 21
1.0
 12
1461.782600762991
 22
1222.536076862327
 13
0.0
 23
0.0
 14
50.0
 24
50.0
 15
100.0
 25
100.0
 16
0.0
 26
0.0
 36
1.0
 17
0.0
 27
0.0
 37
0.0
 40
7897.2940421224084
 41
1.5639386189258311
 42
50.0
 43
0.0
 44
0.0
 50
0.0
 51
0.0
 71
     0
 72
  1000
 73
     1
 74
     0
 75
     0
 76
     0
 77
     0
 78
     0
  0
ENDTAB
  0
TABLE
  2
LTYPE
 70
     3
  0
LTYPE
  2
CONTINUOUS
 70
     0
  3
実線
 72
    65
 73
     0
 40
0.0
  0
LTYPE
  2
DASHDOT
 70
     0
  3
____ _ ____ _ ____ _ ____ _ ____ _ ____ _ ____
 72
    65
 73
     4
 40
5.5
 49
4.0
 49
-0.6
 49
0.3
 49
-0.6
  0
ENDTAB
  0
TABLE
  2
LAYER
 70
    12
  0
LAYER
  2
0
 70
     0
 62
     7
  6
CONTINUOUS
  0
LAYER
  2
SYMBOLLINE
 70
     0
 62
    15
  6
CONTINUOUS
  0
LAYER
  2
DETAIL
 70
     0
 62
     5
  6
CONTINUOUS
  0
LAYER
  2
OUTLINE
 70
     0
 62
     3
  6
CONTINUOUS
  0
LAYER
  2
BASIS
 70
     0
 62
     6
  6
DASHDOT
  0
LAYER
  2
SIZE
 70
     0
 62
    30
  6
CONTINUOUS
  0
LAYER
  2
NOTE
 70
     0
 62
     4
  6
CONTINUOUS
  0
LAYER
  2
ARRANGE
 70
     0
 62
     1
  6
CONTINUOUS
  0
LAYER
  2
FIX
 70
     0
 62
    11
  6
CONTINUOUS
  0
LAYER
  2
SERVICESPACE
 70
     0
 62
     2
  6
DASHDOT
  0
LAYER
  2
ETC
 70
     0
 62
    61
  6
CONTINUOUS
  0
LAYER
  2
DEFPOINTS
 70
     0
 62
     7
  6
CONTINUOUS
  0
ENDTAB
  0
TABLE
  2
STYLE
 70
     2
  0
STYLE
  2
STANDARD
 70
     0
 40
0.0
 41
0.9
 50
0.0
 71
     0
 42
64.0
  3
SIMPLEX
  4
BIGFONT
  0
STYLE
  2
ANNOTATIVE
 70
     0
 40
0.0
 41
1.0
 50
0.0
 71
     0
 42
0.2
  3
txt
  4

  0
ENDTAB
  0
TABLE
  2
VIEW
 70
     7
  0
VIEW
  2
ALL
 70
     0
 40
9000.0
 10
241.50664699999999
 20
0.0
 41
12483.01
 11
0.0
 21
0.0
 31
1.0
 12
0.0
 22
0.0
 32
0.0
 42
50.0
 43
0.0
 44
0.0
 50
0.0
 71
     0
  0
ENDTAB
  0
TABLE
  2
UCS
 70
     0
  0
ENDTAB
  0
TABLE
  2
APPID
 70
     4
  0
APPID
  2
ACAD
 70
     0
  0
APPID
  2
ACADANNOTATIVE
 70
     0
  0
APPID
  2
ACAD_MLEADERVER
 70
     0
  0
APPID
  2
ACAD_EXEMPT_FROM_CAD_STANDARDS
 70
     0
  0
ENDTAB
  0
TABLE
  2
DIMSTYLE
 70
     3
  0
DIMSTYLE
  2
STANDARD
 70
     0
  3

  4

  5

  6

  7

 40
1.0
 41
0.18
 42
0.0625
 43
0.38
 44
0.18
 45
0.0
 46
0.0
 47
0.0
 48
0.0
140
0.18
141
0.09
142
0.0
143
25.399999999999999
144
1.0
145
0.0
146
1.0
147
0.09
 71
     0
 72
     0
 73
     1
 74
     1
 75
     0
 76
     0
 77
     0
 78
     0
170
     0
171
     2
172
     0
173
     0
174
     0
175
     0
176
     0
177
     0
178
     0
  0
DIMSTYLE
  2
ANNOTATIVE
 70
     0
  3

  4

  5

  6

  7

 40
1.0
 41
0.18
 42
0.0625
 43
0.38
 44
0.18
 45
0.0
 46
0.0
 47
0.0
 48
0.0
140
0.18
141
0.09
142
0.0
143
25.399999999999999
144
1.0
145
0.0
146
1.0
147
0.09
 71
     0
 72
     0
 73
     1
 74
     1
 75
     0
 76
     0
 77
     0
 78
     0
170
     0
171
     2
172
     0
173
     0
174
     0
175
     0
176
     0
177
     0
178
     0
  0
ENDTAB
  0
ENDSEC
  0
SECTION
  2
BLOCKS
  0
BLOCK
  8
0
  2
$MODEL_SPACE
 70
     0
 10
0.0
 20
0.0
 30
0.0
  3
$MODEL_SPACE
  1

  0
ENDBLK
  5
1CA
  8
0
  0
BLOCK
 67
     1
  8
0
  2
$PAPER_SPACE
 70
     0
 10
0.0
 20
0.0
 30
0.0
  3
$PAPER_SPACE
  1

  0
ENDBLK
  5
1C6
 67
     1
  8
0
  0
BLOCK
  8
0
  2
_DOTBLANK
 70
     0
 10
0.0
 20
0.0
 30
0.0
  3
_DOTBLANK
  1

  0
CIRCLE
  5
8A
  8
0
  6
CONTINUOUS
 62
     7
 10
0.0
 20
0.0
 30
0.0
 40
0.5
  0
LINE
  5
8B
  8
0
  6
CONTINUOUS
 62
     7
 10
-0.5
 20
0.0
 30
0.0
 11
-1.0
 21
0.0
 31
0.0
  0
ENDBLK
  5
8C
  8
0
  0
ENDSEC
  0
SECTION
  2
ENTITIES
  0
LINE
  5
8D
  8
DETAIL
  6
CONTINUOUS
 62
     5
 10
-60.000000000000071
 20
-1.000000000001477
 30
0.0
 11
-60.000000000000071
 21
-18.000000000001471
 31
0.0
  0
LINE
  5
8E
  8
DETAIL
  6
CONTINUOUS
 62
     5
 10
-59.00000000000027
 20
-0.0000000000014779
 30
0.0
 11
-59.00000000000027
 21
-1.000000000001477
 31
0.0
  0
LINE
  5
8F
  8
DETAIL
  6
CONTINUOUS
 62
     5
 10
59.999999999999929
 20
-1.000000000001477
 30
0.0
 11
59.999999999999929
 21
-18.000000000001471
 31
0.0
  0
LINE
  5
90
  8
DETAIL
  6
CONTINUOUS
 62
     5
 10
58.99999999999995
 20
-0.0000000000014779
 30
0.0
 11
58.99999999999995
 21
-1.000000000001477
 31
0.0
  0
LINE
  5
91
  8
DETAIL
  6
CONTINUOUS
 62
     5
 10
-60.000000000000071
 20
-18.000000000001471
 30
0.0
 11
59.999999999999929
 21
-18.000000000001471
 31
0.0
  0
LINE
  5
92
  8
DETAIL
  6
CONTINUOUS
 62
     5
 10
-60.000000000000071
 20
-18.000000000001471
 30
0.0
 11
59.999999999999929
 21
-18.000000000001471
 31
0.0
  0
LINE
  5
93
  8
DETAIL
  6
CONTINUOUS
 62
     5
 10
-59.00000000000027
 20
-19.000000000001471
 30
0.0
 11
58.99999999999995
 21
-19.000000000001471
 31
0.0
  0
LINE
  5
94
  8
DETAIL
  6
CONTINUOUS
 62
     5
 10
-59.00000000000027
 20
-0.0000000000014779
 30
0.0
 11
58.99999999999995
 21
-0.0000000000014779
 31
0.0
  0
LINE
  5
95
  8
DETAIL
  6
CONTINUOUS
 62
     5
 10
-60.000000000000071
 20
-18.000000000001471
 30
0.0
 11
-59.00000000000027
 21
-19.000000000001471
 31
0.0
  0
LINE
  5
96
  8
DETAIL
  6
CONTINUOUS
 62
     5
 10
58.99999999999995
 20
-19.000000000001471
 30
0.0
 11
59.999999999999929
 21
-18.000000000001471
 31
0.0
  0
LINE
  5
97
  8
DETAIL
  6
CONTINUOUS
 62
     5
 10
-60.000000000000071
 20
-1.000000000001477
 30
0.0
 11
59.999999999999929
 21
-1.000000000001477
 31
0.0
  0
LINE
  5
98
  8
SIZE
  6
CONTINUOUS
 62
    30
 10
62.999999999999972
 20
-0.0000000000014791
 30
0.0
 11
135.4393412244458
 21
-0.0000000000014996
 31
0.0
  0
LINE
  5
99
  8
SIZE
  6
CONTINUOUS
 62
    30
 10
62.999999999999972
 20
-19.000000000001471
 30
0.0
 11
135.4393412244458
 21
-19.000000000001489
 31
0.0
  0
LINE
  5
9A
  8
SIZE
  6
CONTINUOUS
 62
    30
 10
115.4393412244458
 20
9.9999999999985061
 30
0.0
 11
115.4393412244458
 21
19.999999999998501
 31
0.0
  0
LINE
  5
9B
  8
SIZE
  6
CONTINUOUS
 62
    30
 10
115.4393412244458
 20
-29.000000000001489
 30
0.0
 11
115.4393412244458
 21
-90.071428571430047
 31
0.0
  0
LINE
  5
9C
  8
SIZE
  6
CONTINUOUS
 62
    30
 10
115.4393412244458
 20
-0.0000000000014939
 30
0.0
 11
115.4393412244458
 21
-19.000000000001489
 31
0.0
  0
CIRCLE
  5
9D
  8
SIZE
  6
CONTINUOUS
 62
    30
 10
115.4393412244458
 20
-0.0000000000014939
 30
0.0
 40
5.0
  0
LINE
  5
9E
  8
SIZE
  6
CONTINUOUS
 62
    30
 10
115.4393412244458
 20
4.9999999999985052
 30
0.0
 11
115.4393412244458
 21
9.9999999999985061
 31
0.0
  0
CIRCLE
  5
9F
  8
SIZE
  6
CONTINUOUS
 62
    30
 10
115.4393412244458
 20
-19.000000000001489
 30
0.0
 40
5.0
  0
LINE
  5
A0
  8
SIZE
  6
CONTINUOUS
 62
    30
 10
115.4393412244458
 20
-24.000000000001489
 30
0.0
 11
115.4393412244458
 21
-29.000000000001489
 31
0.0
  0
TEXT
  5
A1
  8
SIZE
  6
CONTINUOUS
 62
    30
 10
105.4393412244458
 20
-80.071428571430033
 30
0.0
 40
25.0
  1
19
 50
90.0
 41
0.9
 72
     1
 11
105.4393412244458
 21
-64.535714285715756
 31
0.0
  0
POINT
  5
A2
  8
DEFPOINTS
  6
CONTINUOUS
 62
     7
 10
58.999999999999972
 20
-0.0000000000014779
 30
0.0
  0
POINT
  5
A3
  8
DEFPOINTS
  6
CONTINUOUS
 62
     7
 10
58.999999999999972
 20
-19.000000000001471
 30
0.0
  0
POINT
  5
A4
  8
DEFPOINTS
  6
CONTINUOUS
 62
     7
 10
115.4393412244458
 20
-19.000000000001489
 30
0.0
  0
LINE
  5
A5
  8
SIZE
  6
CONTINUOUS
 62
    30
 10
-60.000000000000021
 20
2.9999999999985221
 30
0.0
 11
-60.000000000000021
 21
98.048279083875371
 31
0.0
  0
LINE
  5
A6
  8
SIZE
  6
CONTINUOUS
 62
    30
 10
59.999999999999972
 20
2.9999999999985221
 30
0.0
 11
59.999999999999979
 21
98.048279083875371
 31
0.0
  0
LINE
  5
A7
  8
SIZE
  6
CONTINUOUS
 62
    30
 10
-50.000000000000021
 20
78.048279083875343
 30
0.0
 11
49.999999999999979
 21
78.048279083875343
 31
0.0
  0
CIRCLE
  5
A8
  8
SIZE
  6
CONTINUOUS
 62
    30
 10
-60.000000000000021
 20
78.048279083875343
 30
0.0
 40
5.0
  0
LINE
  5
A9
  8
SIZE
  6
CONTINUOUS
 62
    30
 10
-55.000000000000021
 20
78.048279083875343
 30
0.0
 11
-50.000000000000021
 21
78.048279083875343
 31
0.0
  0
CIRCLE
  5
AA
  8
SIZE
  6
CONTINUOUS
 62
    30
 10
59.999999999999979
 20
78.048279083875343
 30
0.0
 40
5.0
  0
LINE
  5
AB
  8
SIZE
  6
CONTINUOUS
 62
    30
 10
54.999999999999979
 20
78.048279083875343
 30
0.0
 11
49.999999999999979
 21
78.048279083875343
 31
0.0
  0
TEXT
  5
AC
  8
SIZE
  6
CONTINUOUS
 62
    30
 10
-26.78571428571431
 20
88.0482790838753
 30
0.0
 40
25.0
  1
120
 41
0.9
 72
     1
 11
-0.0000000000000213
 21
88.0482790838753
 31
0.0
  0
POINT
  5
AD
  8
DEFPOINTS
  6
CONTINUOUS
 62
     7
 10
-60.000000000000021
 20
-1.000000000001477
 30
0.0
  0
POINT
  5
AE
  8
DEFPOINTS
  6
CONTINUOUS
 62
     7
 10
59.999999999999972
 20
-1.000000000001477
 30
0.0
  0
POINT
  5
AF
  8
DEFPOINTS
  6
CONTINUOUS
 62
     7
 10
59.999999999999979
 20
78.048279083875343
 30
0.0
  0
LINE
  5
B0
  8
BASIS
  6
DASHDOT
 62
     6
 10
0.0
 20
-38.495716371299402
 30
0.0
 11
0.0
 21
23.326007428914121
 31
0.0
  0
CIRCLE
  5
B1
  8
ARRANGE
  6
CONTINUOUS
 62
     1
 10
0.0
 20
-0.0000000000014779
 30
0.0
 40
11.89999999999999
  0
LINE
  5
B2
  8
ARRANGE
  6
CONTINUOUS
 62
     1
 10
-11.90888930745494
 20
-11.78632004977838
 30
0.0
 11
11.90888930745586
 21
11.78632004977629
 31
0.0
  0
LINE
  5
B3
  8
ARRANGE
  6
CONTINUOUS
 62
     1
 10
-11.89137566789759
 20
11.80398956191919
 30
0.0
 11
11.8913756678994
 21
-11.803989561921011
 31
0.0
  0
CIRCLE
  5
B4
  8
FIX
  6
CONTINUOUS
 62
    11
 10
-23.000000000000039
 20
-0.0000000000014779
 30
0.0
 40
4.641461112568809
  0
LINE
  5
B5
  8
NOTE
  6
CONTINUOUS
 62
     4
 10
-22.99999999999994
 20
7.8602956126923669
 30
0.0
 11
-22.99999999999994
 21
-7.8602956126964019
 31
0.0
  0
LINE
  5
B6
  8
NOTE
  6
CONTINUOUS
 62
     4
 10
-30.860295612694291
 20
-0.0000000000018758
 30
0.0
 11
-15.13970438730547
 21
-0.0000000000018758
 31
0.0
  0
CIRCLE
  5
B7
  8
FIX
  6
CONTINUOUS
 62
    11
 10
22.99999999999994
 20
-0.0000000000014779
 30
0.0
 40
4.641461112568809
  0
LINE
  5
B8
  8
NOTE
  6
CONTINUOUS
 62
     4
 10
23.000000000000039
 20
7.8602956126923669
 30
0.0
 11
23.000000000000039
 21
-7.8602956126964019
 31
0.0
  0
LINE
  5
B9
  8
NOTE
  6
CONTINUOUS
 62
     4
 10
15.139704387305679
 20
-0.0000000000018758
 30
0.0
 11
30.860295612694522
 21
-0.0000000000018758
 31
0.0
  0
LINE
  5
BA
  8
SIZE
  6
CONTINUOUS
 62
    30
 10
-22.999999999999901
 20
8.6414611125673542
 30
0.0
 11
-22.999999999999901
 21
52.10676527703022
 31
0.0
  0
LINE
  5
BB
  8
SIZE
  6
CONTINUOUS
 62
    30
 10
22.999999999999972
 20
8.6414611125673542
 30
0.0
 11
22.999999999999972
 21
52.10676527703022
 31
0.0
  0
LINE
  5
BC
  8
SIZE
  6
CONTINUOUS
 62
    30
 10
-32.999999999999901
 20
32.106765277030199
 30
0.0
 11
-42.999999999999901
 21
32.106765277030199
 31
0.0
  0
LINE
  5
BD
  8
SIZE
  6
CONTINUOUS
 62
    30
 10
32.999999999999972
 20
32.106765277030199
 30
0.0
 11
42.999999999999972
 21
32.106765277030199
 31
0.0
  0
LINE
  5
BE
  8
SIZE
  6
CONTINUOUS
 62
    30
 10
-22.999999999999901
 20
32.106765277030199
 30
0.0
 11
22.999999999999972
 21
32.106765277030199
 31
0.0
  0
CIRCLE
  5
BF
  8
SIZE
  6
CONTINUOUS
 62
    30
 10
-22.999999999999901
 20
32.106765277030199
 30
0.0
 40
5.0
  0
LINE
  5
C0
  8
SIZE
  6
CONTINUOUS
 62
    30
 10
-27.999999999999901
 20
32.106765277030199
 30
0.0
 11
-32.999999999999901
 21
32.106765277030199
 31
0.0
  0
CIRCLE
  5
C1
  8
SIZE
  6
CONTINUOUS
 62
    30
 10
22.999999999999972
 20
32.106765277030199
 30
0.0
 40
5.0
  0
LINE
  5
C2
  8
SIZE
  6
CONTINUOUS
 62
    30
 10
27.999999999999972
 20
32.106765277030199
 30
0.0
 11
32.999999999999972
 21
32.106765277030199
 31
0.0
  0
TEXT
  5
C3
  8
SIZE
  6
CONTINUOUS
 62
    30
 10
-17.678571428571392
 20
42.106765277030213
 30
0.0
 40
25.0
  1
46
 41
0.9
 72
     1
 11
0.000000000000032
 21
42.106765277030213
 31
0.0
  0
POINT
  5
C4
  8
DEFPOINTS
  6
CONTINUOUS
 62
     7
 10
-22.999999999999901
 20
4.6414611125673551
 30
0.0
  0
POINT
  5
C5
  8
DEFPOINTS
  6
CONTINUOUS
 62
     7
 10
22.999999999999972
 20
4.6414611125673551
 30
0.0
  0
POINT
  5
C6
  8
DEFPOINTS
  6
CONTINUOUS
 62
     7
 10
22.999999999999972
 20
32.106765277030199
 30
0.0
  0
LINE
  5
E4
  8
OUTLINE
  6
CONTINUOUS
 62
     3
 10
-60.000000000000071
 20
-1.000000000001477
 30
0.0
 11
-60.000000000000071
 21
-18.000000000001471
 31
0.0
  0
LINE
  5
E5
  8
OUTLINE
  6
CONTINUOUS
 62
     3
 10
-59.00000000000027
 20
-0.0000000000014779
 30
0.0
 11
-59.00000000000027
 21
-1.000000000001477
 31
0.0
  0
LINE
  5
E6
  8
OUTLINE
  6
CONTINUOUS
 62
     3
 10
59.999999999999929
 20
-1.000000000001477
 30
0.0
 11
59.999999999999929
 21
-18.000000000001471
 31
0.0
  0
LINE
  5
E7
  8
OUTLINE
  6
CONTINUOUS
 62
     3
 10
58.99999999999995
 20
-0.0000000000014779
 30
0.0
 11
58.99999999999995
 21
-1.000000000001477
 31
0.0
  0
LINE
  5
E8
  8
OUTLINE
  6
CONTINUOUS
 62
     3
 10
-59.00000000000027
 20
-19.000000000001471
 30
0.0
 11
58.99999999999995
 21
-19.000000000001471
 31
0.0
  0
LINE
  5
E9
  8
OUTLINE
  6
CONTINUOUS
 62
     3
 10
-59.00000000000027
 20
-0.0000000000014779
 30
0.0
 11
58.99999999999995
 21
-0.0000000000014779
 31
0.0
  0
LINE
  5
EA
  8
OUTLINE
  6
CONTINUOUS
 62
     3
 10
-60.000000000000071
 20
-18.000000000001471
 30
0.0
 11
-59.00000000000027
 21
-19.000000000001471
 31
0.0
  0
LINE
  5
EB
  8
OUTLINE
  6
CONTINUOUS
 62
     3
 10
58.99999999999995
 20
-19.000000000001471
 30
0.0
 11
59.999999999999929
 21
-18.000000000001471
 31
0.0
  0
LINE
  5
EC
  8
OUTLINE
  6
CONTINUOUS
 62
     3
 10
-60.000000000000071
 20
-1.000000000001477
 30
0.0
 11
59.999999999999929
 21
-1.000000000001477
 31
0.0
  0
TEXT
  5
EE
  8
ETC
  6
CONTINUOUS
 62
    61
 10
5.5043815117790009
 20
138.1017397953882
 30
0.0
 40
20.0
  1
PAR-32MA_1
 41
0.7
  0
LINE
  5
EF
  8
NOTE
  6
CONTINUOUS
 62
     4
 10
32.09979744138689
 20
4.9369386635258339
 30
0.0
 11
22.999999999986521
 21
-0.00000000002359
 31
0.0
  0
LINE
  5
F0
  8
NOTE
  6
CONTINUOUS
 62
     4
 10
22.999999999986521
 20
-0.00000000002359
 30
0.0
 11
28.412186461793961
 21
8.8254129956833935
 31
0.0
  0
TEXT
  5
F1
  8
NOTE
  6
CONTINUOUS
 62
     4
 10
77.663053972378449
 20
51.738717809513368
 30
0.0
 40
20.0
  1
AH ×4
 41
0.7
  0
LINE
  5
F2
  8
NOTE
  6
CONTINUOUS
 62
     4
 10
23.000000000000039
 20
-0.0000000000163141
 30
0.0
 11
73.726215742678349
 21
48.105898135648488
 31
0.0
  0
LINE
  5
F3
  8
NOTE
  6
CONTINUOUS
 62
     4
 10
73.726215742678349
 20
48.105898135648488
 30
0.0
 11
148.37747960217229
 21
48.105898135648488
 31
0.0
  0
POLYLINE
  5
2FE
  8
DETAIL
  6
CONTINUOUS
 62
     5
 66
     1
 10
0.0
 20
0.0
 30
0.0
  0
VERTEX
  5
37B
  8
DETAIL
  6
CONTINUOUS
 62
     5
 10
-40.593983180539688
 20
-19.000000000001471
 30
0.0
 42
0.0543963289800428
  0
VERTEX
  5
37C
  8
DETAIL
  6
CONTINUOUS
 62
     5
 10
-31.376683492021691
 20
-20.00000000000146
 30
0.0
 42
0.0546238732020455
  0
VERTEX
  5
37D
  8
DETAIL
  6
CONTINUOUS
 62
     5
 10
-22.13567385163655
 20
-19.000000000001481
 30
0.0
 42
0.0585788944533119
  0
SEQEND
  5
37E
  8
DETAIL
  6
CONTINUOUS
 62
     5
  0
POLYLINE
  5
306
  8
DETAIL
  6
CONTINUOUS
 62
     5
 66
     1
 10
0.0
 20
0.0
 30
0.0
  0
VERTEX
  5
383
  8
DETAIL
  6
CONTINUOUS
 62
     5
 10
-19.88874531970286
 20
-18.999999929598399
 30
0.0
 42
0.0543963289800428
  0
VERTEX
  5
384
  8
DETAIL
  6
CONTINUOUS
 62
     5
 10
-10.671445631184859
 20
-19.999999929598388
 30
0.0
 42
0.0546238732020455
  0
VERTEX
  5
385
  8
DETAIL
  6
CONTINUOUS
 62
     5
 10
-1.4304359907997219
 20
-18.99999992959841
 30
0.0
 42
0.0585788944533119
  0
SEQEND
  5
386
  8
DETAIL
  6
CONTINUOUS
 62
     5
  0
POLYLINE
  5
30E
  8
DETAIL
  6
CONTINUOUS
 62
     5
 66
     1
 10
0.0
 20
0.0
 30
0.0
  0
VERTEX
  5
38B
  8
DETAIL
  6
CONTINUOUS
 62
     5
 10
0.9315556263812748
 20
-19.000000000001471
 30
0.0
 42
0.0543963289800428
  0
VERTEX
  5
38C
  8
DETAIL
  6
CONTINUOUS
 62
     5
 10
10.148855314899279
 20
-20.00000000000146
 30
0.0
 42
0.0546238732020455
  0
VERTEX
  5
38D
  8
DETAIL
  6
CONTINUOUS
 62
     5
 10
19.389864955284409
 20
-19.000000000001481
 30
0.0
 42
0.0585788944533119
  0
SEQEND
  5
38E
  8
DETAIL
  6
CONTINUOUS
 62
     5
  0
POLYLINE
  5
316
  8
DETAIL
  6
CONTINUOUS
 62
     5
 66
     1
 10
0.0
 20
0.0
 30
0.0
  0
VERTEX
  5
393
  8
DETAIL
  6
CONTINUOUS
 62
     5
 10
21.577887136416521
 20
-19.000000000001471
 30
0.0
 42
0.0543963289800428
  0
VERTEX
  5
394
  8
DETAIL
  6
CONTINUOUS
 62
     5
 10
30.795186824934529
 20
-20.00000000000146
 30
0.0
 42
0.0546238732020455
  0
VERTEX
  5
395
  8
DETAIL
  6
CONTINUOUS
 62
     5
 10
40.036196465319662
 20
-19.000000000001481
 30
0.0
 42
0.0585788944533119
  0
SEQEND
  5
396
  8
DETAIL
  6
CONTINUOUS
 62
     5
  0
ENDSEC
  0
EOF
