  0
SECTION
  2
HEADER
  9
$ACADVER
  1
AC1009
  9
$INSBASE
 10
0.0
 20
0.0
 30
0.0
  9
$EXTMIN
 10
-70.630505896922841
 20
-70.196888073678565
 30
-0.0015258207003583
  9
$EXTMAX
 10
230.08261263105311
 20
177.3477174772197
 30
0.0000000349246037
  9
$LIMMIN
 10
-4267.1522210604826
 20
-2696.083210198412
  9
$LIMMAX
 10
7190.7174225864646
 20
5141.155363923066
  9
$ORTHOMODE
 70
     0
  9
$REGENMODE
 70
     1
  9
$FILLMODE
 70
     1
  9
$QTEXTMODE
 70
     0
  9
$MIRRTEXT
 70
     0
  9
$DRAGMODE
 70
     2
  9
$LTSCALE
 40
20.0
  9
$OSMODE
 70
   959
  9
$ATTMODE
 70
     1
  9
$TEXTSIZE
 40
64.0
  9
$TRACEWID
 40
0.05
  9
$TEXTSTYLE
  7
STANDARD
  9
$CLAYER
  8
SYMBOLLINE
  9
$CELTYPE
  6
CONTINUOUS
  9
$CECOLOR
 62
     7
  9
$DIMSCALE
 40
1.0
  9
$DIMASZ
 40
10.0
  9
$DIMEXO
 40
4.0
  9
$DIMDLI
 40
300.0
  9
$DIMRND
 40
0.0
  9
$DIMDLE
 40
0.0
  9
$DIMEXE
 40
20.0
  9
$DIMTP
 40
0.0
  9
$DIMTM
 40
0.0
  9
$DIMTXT
 40
25.0
  9
$DIMCEN
 40
0.0
  9
$DIMTSZ
 40
0.0
  9
$DIMTOL
 70
     0
  9
$DIMLIM
 70
     0
  9
$DIMTIH
 70
     0
  9
$DIMTOH
 70
     0
  9
$DIMSE1
 70
     0
  9
$DIMSE2
 70
     0
  9
$DIMTAD
 70
     1
  9
$DIMZIN
 70
     8
  9
$DIMBLK
  1
DOTBLANK
  9
$DIMASO
 70
     1
  9
$DIMSHO
 70
     0
  9
$DIMPOST
  1

  9
$DIMAPOST
  1

  9
$DIMALT
 70
     0
  9
$DIMALTD
 70
     2
  9
$DIMALTF
 40
25.399999999999999
  9
$DIMLFAC
 40
1.0
  9
$DIMTOFL
 70
     1
  9
$DIMTVP
 40
0.0
  9
$DIMTIX
 70
     1
  9
$DIMSOXD
 70
     0
  9
$DIMSAH
 70
     0
  9
$DIMBLK1
  1

  9
$DIMBLK2
  1

  9
$DIMSTYLE
  2
STANDARD
  9
$DIMCLRD
 70
     0
  9
$DIMCLRE
 70
     0
  9
$DIMCLRT
 70
     0
  9
$DIMTFAC
 40
1.0
  9
$DIMGAP
 40
0.09
  9
$LUNITS
 70
     2
  9
$LUPREC
 70
     4
  9
$SKETCHINC
 40
0.1
  9
$FILLETRAD
 40
1.0
  9
$AUNITS
 70
     1
  9
$AUPREC
 70
     3
  9
$MENU
  1
ACAD
  9
$ELEVATION
 40
0.0
  9
$PELEVATION
 40
0.0
  9
$THICKNESS
 40
0.0
  9
$LIMCHECK
 70
     0
  9
$BLIPMODE
 70
     0
  9
$CHAMFERA
 40
0.0
  9
$CHAMFERB
 40
0.0
  9
$SKPOLY
 70
     0
  9
$TDCREATE
 40
2450330.4399309959
  9
$TDUPDATE
 40
2455573.6271401509
  9
$TDINDWG
 40
3.5151104514
  9
$TDUSRTIMER
 40
3.5151086457999998
  9
$USRTIMER
 70
     1
  9
$ANGBASE
 50
0.0
  9
$ANGDIR
 70
     0
  9
$PDMODE
 70
     3
  9
$PDSIZE
 40
-2.0
  9
$PLINEWID
 40
0.0
  9
$COORDS
 70
     0
  9
$SPLFRAME
 70
     0
  9
$SPLINETYPE
 70
     6
  9
$SPLINESEGS
 70
     8
  9
$ATTDIA
 70
     0
  9
$ATTREQ
 70
     1
  9
$HANDLING
 70
     1
  9
$HANDSEED
  5
299
  9
$SURFTAB1
 70
     6
  9
$SURFTAB2
 70
     6
  9
$SURFTYPE
 70
     6
  9
$SURFU
 70
     6
  9
$SURFV
 70
     6
  9
$UCSNAME
  2

  9
$UCSORG
 10
0.0
 20
0.0
 30
0.0
  9
$UCSXDIR
 10
1.0
 20
0.0
 30
0.0
  9
$UCSYDIR
 10
0.0
 20
1.0
 30
0.0
  9
$PUCSNAME
  2

  9
$PUCSORG
 10
0.0
 20
0.0
 30
0.0
  9
$PUCSXDIR
 10
1.0
 20
0.0
 30
0.0
  9
$PUCSYDIR
 10
0.0
 20
1.0
 30
0.0
  9
$USERI1
 70
     0
  9
$USERI2
 70
     0
  9
$USERI3
 70
     0
  9
$USERI4
 70
     0
  9
$USERI5
 70
     0
  9
$USERR1
 40
20.0
  9
$USERR2
 40
0.0
  9
$USERR3
 40
0.0
  9
$USERR4
 40
0.0
  9
$USERR5
 40
0.0
  9
$WORLDVIEW
 70
     1
  9
$SHADEDGE
 70
     3
  9
$SHADEDIF
 70
    70
  9
$TILEMODE
 70
     1
  9
$MAXACTVP
 70
    64
  9
$PLIMCHECK
 70
     0
  9
$PEXTMIN
 10
1.0000000000000000E+020
 20
1.0000000000000000E+020
 30
1.0000000000000000E+020
  9
$PEXTMAX
 10
-1.0000000000000000E+020
 20
-1.0000000000000000E+020
 30
-1.0000000000000000E+020
  9
$PLIMMIN
 10
0.0
 20
0.0
  9
$PLIMMAX
 10
12.0
 20
9.0
  9
$UNITMODE
 70
     0
  9
$VISRETAIN
 70
     1
  9
$PLINEGEN
 70
     0
  9
$PSLTSCALE
 70
     1
  0
ENDSEC
  0
SECTION
  2
TABLES
  0
TABLE
  2
VPORT
 70
     1
  0
VPORT
  2
*ACTIVE
 70
     0
 10
0.0
 20
0.0
 11
1.0
 21
1.0
 12
1461.782600762991
 22
1222.536076862327
 13
0.0
 23
0.0
 14
50.0
 24
50.0
 15
100.0
 25
100.0
 16
0.0
 26
0.0
 36
1.0
 17
0.0
 27
0.0
 37
0.0
 40
7897.2940421224084
 41
1.5639386189258311
 42
50.0
 43
0.0
 44
0.0
 50
0.0
 51
0.0
 71
     0
 72
  1000
 73
     1
 74
     0
 75
     0
 76
     0
 77
     0
 78
     0
  0
ENDTAB
  0
TABLE
  2
LTYPE
 70
     2
  0
LTYPE
  2
CONTINUOUS
 70
     0
  3
実線
 72
    65
 73
     0
 40
0.0
  0
LTYPE
  2
DASHDOT
 70
     0
  3
____ _ ____ _ ____ _ ____ _ ____ _ ____ _ ____
 72
    65
 73
     4
 40
5.5
 49
4.0
 49
-0.6
 49
0.3
 49
-0.6
  0
ENDTAB
  0
TABLE
  2
LAYER
 70
    12
  0
LAYER
  2
0
 70
     0
 62
     7
  6
CONTINUOUS
  0
LAYER
  2
SYMBOLLINE
 70
     0
 62
    15
  6
CONTINUOUS
  0
LAYER
  2
DETAIL
 70
     0
 62
     5
  6
CONTINUOUS
  0
LAYER
  2
OUTLINE
 70
     0
 62
     3
  6
CONTINUOUS
  0
LAYER
  2
BASIS
 70
     0
 62
     6
  6
DASHDOT
  0
LAYER
  2
SIZE
 70
     0
 62
    30
  6
CONTINUOUS
  0
LAYER
  2
NOTE
 70
     0
 62
     4
  6
CONTINUOUS
  0
LAYER
  2
ARRANGE
 70
     0
 62
     1
  6
CONTINUOUS
  0
LAYER
  2
FIX
 70
     0
 62
    11
  6
CONTINUOUS
  0
LAYER
  2
SERVICESPACE
 70
     0
 62
     2
  6
DASHDOT
  0
LAYER
  2
ETC
 70
     0
 62
    61
  6
CONTINUOUS
  0
LAYER
  2
DEFPOINTS
 70
     0
 62
     7
  6
CONTINUOUS
  0
ENDTAB
  0
TABLE
  2
STYLE
 70
     2
  0
STYLE
  2
STANDARD
 70
     0
 40
0.0
 41
0.9
 50
0.0
 71
     0
 42
64.0
  3
SIMPLEX
  4
BIGFONT
  0
STYLE
  2
ANNOTATIVE
 70
     0
 40
0.0
 41
1.0
 50
0.0
 71
     0
 42
0.2
  3
txt
  4

  0
ENDTAB
  0
TABLE
  2
VIEW
 70
     5
  0
VIEW
  2
ALL
 70
     0
 40
9000.0
 10
241.50664699999999
 20
0.0
 41
12483.01
 11
0.0
 21
0.0
 31
1.0
 12
0.0
 22
0.0
 32
0.0
 42
50.0
 43
0.0
 44
0.0
 50
0.0
 71
     0
  0
ENDTAB
  0
TABLE
  2
UCS
 70
     0
  0
ENDTAB
  0
TABLE
  2
APPID
 70
     3
  0
APPID
  2
ACAD
 70
     0
  0
APPID
  2
ACADANNOTATIVE
 70
     0
  0
APPID
  2
ACAD_MLEADERVER
 70
     0
  0
ENDTAB
  0
TABLE
  2
DIMSTYLE
 70
     2
  0
DIMSTYLE
  2
STANDARD
 70
     0
  3

  4

  5

  6

  7

 40
1.0
 41
0.18
 42
0.0625
 43
0.38
 44
0.18
 45
0.0
 46
0.0
 47
0.0
 48
0.0
140
0.18
141
0.09
142
0.0
143
25.399999999999999
144
1.0
145
0.0
146
1.0
147
0.09
 71
     0
 72
     0
 73
     1
 74
     1
 75
     0
 76
     0
 77
     0
 78
     0
170
     0
171
     2
172
     0
173
     0
174
     0
175
     0
176
     0
177
     0
178
     0
  0
DIMSTYLE
  2
ANNOTATIVE
 70
     0
  3

  4

  5

  6

  7

 40
1.0
 41
0.18
 42
0.0625
 43
0.38
 44
0.18
 45
0.0
 46
0.0
 47
0.0
 48
0.0
140
0.18
141
0.09
142
0.0
143
25.399999999999999
144
1.0
145
0.0
146
1.0
147
0.09
 71
     0
 72
     0
 73
     1
 74
     1
 75
     0
 76
     0
 77
     0
 78
     0
170
     0
171
     2
172
     0
173
     0
174
     0
175
     0
176
     0
177
     0
178
     0
  0
ENDTAB
  0
ENDSEC
  0
SECTION
  2
BLOCKS
  0
BLOCK
  8
0
  2
$MODEL_SPACE
 70
     0
 10
0.0
 20
0.0
 30
0.0
  3
$MODEL_SPACE
  1

  0
ENDBLK
  5
220
  8
0
  0
BLOCK
 67
     1
  8
0
  2
$PAPER_SPACE
 70
     0
 10
0.0
 20
0.0
 30
0.0
  3
$PAPER_SPACE
  1

  0
ENDBLK
  5
21C
 67
     1
  8
0
  0
BLOCK
  8
0
  2
_DOTBLANK
 70
     0
 10
0.0
 20
0.0
 30
0.0
  3
_DOTBLANK
  1

  0
CIRCLE
  5
8A
  8
0
  6
CONTINUOUS
 62
     7
 10
0.0
 20
0.0
 30
0.0
 40
0.5
  0
LINE
  5
8B
  8
0
  6
CONTINUOUS
 62
     7
 10
-0.5
 20
0.0
 30
0.0
 11
-1.0
 21
0.0
 31
0.0
  0
ENDBLK
  5
8C
  8
0
  0
ENDSEC
  0
SECTION
  2
ENTITIES
  0
LINE
  5
8D
  8
NOTE
  6
CONTINUOUS
 62
     4
 10
26.673471248295169
 20
-34.800909692133658
 30
0.0
 11
18.99700418961265
 21
-49.322450553768249
 31
0.0
  0
LINE
  5
8E
  8
NOTE
  6
CONTINUOUS
 62
     4
 10
14.97828344078254
 20
-37.627582759056523
 30
0.0
 11
37.896960187852983
 21
-49.405653881901372
 31
0.0
  0
LINE
  5
8F
  8
BASIS
  6
DASHDOT
 62
     6
 10
0.0
 20
70.0
 30
0.0
 11
0.0
 21
-70.0
 31
0.0
  0
LINE
  5
90
  8
BASIS
  6
DASHDOT
 62
     6
 10
70.0
 20
-0.0000000000014424
 30
0.0
 11
-70.0
 21
-0.0000000000014424
 31
0.0
  0
CIRCLE
  5
91
  8
ARRANGE
  6
CONTINUOUS
 62
     1
 10
0.0
 20
-0.0000000000014424
 30
0.0
 40
11.89999999999999
  0
LINE
  5
92
  8
ARRANGE
  6
CONTINUOUS
 62
     1
 10
11.908889307454951
 20
-11.78632004977835
 30
0.0
 11
-11.90888930745597
 21
11.78632004977637
 31
0.0
  0
LINE
  5
93
  8
ARRANGE
  6
CONTINUOUS
 62
     1
 10
11.89137566789759
 20
11.80398956191916
 30
0.0
 11
-11.89137566789941
 21
-11.80398956192097
 31
0.0
  0
LINE
  5
94
  8
DETAIL
  6
CONTINUOUS
 62
     5
 10
-60.0
 20
57.99999999999855
 30
0.0
 11
-60.0
 21
-58.000000000001492
 31
0.0
  0
LINE
  5
95
  8
DETAIL
  6
CONTINUOUS
 62
     5
 10
59.999999999999432
 20
57.99999999999855
 30
0.0
 11
60.0
 21
-58.000000000001492
 31
0.0
  0
LINE
  5
96
  8
DETAIL
  6
CONTINUOUS
 62
     5
 10
57.999999999999417
 20
59.999999999998558
 30
0.0
 11
-58.0
 21
59.999999999998558
 31
0.0
  0
LINE
  5
97
  8
DETAIL
  6
CONTINUOUS
 62
     5
 10
58.0
 20
-60.000000000001499
 30
0.0
 11
-58.0
 21
-60.000000000001499
 31
0.0
  0
ARC
  5
98
  8
DETAIL
  6
CONTINUOUS
 62
     5
 10
57.999999999999417
 20
57.99999999999855
 30
0.0
 40
2.0
 50
0.0000000000001088
 51
90.0
  0
ARC
  5
99
  8
DETAIL
  6
CONTINUOUS
 62
     5
 10
-58.0
 20
57.99999999999855
 30
0.0
 40
2.0
 50
90.0
 51
180.0
  0
ARC
  5
9A
  8
DETAIL
  6
CONTINUOUS
 62
     5
 10
-58.0
 20
-58.000000000001492
 30
0.0
 40
2.0
 50
180.0
 51
270.0
  0
ARC
  5
9B
  8
DETAIL
  6
CONTINUOUS
 62
     5
 10
58.0
 20
-58.000000000001492
 30
0.0
 40
2.0
 50
270.0
 51
0.0000000000001088
  0
LINE
  5
9C
  8
DETAIL
  6
CONTINUOUS
 62
     5
 10
57.199999999999697
 20
58.999999999998558
 30
0.0
 11
-57.199999999999811
 21
58.9999999999986
 31
0.0
  0
LINE
  5
9D
  8
DETAIL
  6
CONTINUOUS
 62
     5
 10
58.99999999999941
 20
57.199999999998539
 30
0.0
 11
59.000000000000448
 21
-57.200000000001552
 31
0.0
  0
LINE
  5
9E
  8
DETAIL
  6
CONTINUOUS
 62
     5
 10
57.200000000000152
 20
-59.000000000001471
 30
0.0
 11
-57.199999999999811
 21
-59.00000000000162
 31
0.0
  0
LINE
  5
9F
  8
DETAIL
  6
CONTINUOUS
 62
     5
 10
-59.0
 20
57.199999999998603
 30
0.0
 11
-59.0
 21
-57.200000000001651
 31
0.0
  0
ARC
  5
A0
  8
DETAIL
  6
CONTINUOUS
 62
     5
 10
57.199999999999697
 20
57.199999999998539
 30
0.0
 40
1.8
 50
0.0000000000001088
 51
90.0
  0
ARC
  5
A1
  8
DETAIL
  6
CONTINUOUS
 62
     5
 10
-57.199999999999811
 20
57.199999999998603
 30
0.0
 40
1.8
 50
90.0
 51
180.0
  0
ARC
  5
A2
  8
DETAIL
  6
CONTINUOUS
 62
     5
 10
57.200000000000152
 20
-57.200000000001552
 30
0.0
 40
1.8
 50
270.0
 51
0.0000000000001088
  0
ARC
  5
A3
  8
DETAIL
  6
CONTINUOUS
 62
     5
 10
-57.199999999999811
 20
-57.200000000001651
 30
0.0
 40
1.8
 50
180.0
 51
270.0
  0
LINE
  5
A4
  8
OUTLINE
  6
CONTINUOUS
 62
     3
 10
-60.0
 20
57.99999999999855
 30
0.0
 11
-60.0
 21
-58.000000000001492
 31
0.0
  0
LINE
  5
A5
  8
OUTLINE
  6
CONTINUOUS
 62
     3
 10
59.999999999999432
 20
57.99999999999855
 30
0.0
 11
60.0
 21
-58.000000000001492
 31
0.0
  0
LINE
  5
A6
  8
OUTLINE
  6
CONTINUOUS
 62
     3
 10
57.999999999999417
 20
59.999999999998558
 30
0.0
 11
-58.0
 21
59.999999999998558
 31
0.0
  0
LINE
  5
A7
  8
OUTLINE
  6
CONTINUOUS
 62
     3
 10
58.0
 20
-60.000000000001499
 30
0.0
 11
-58.0
 21
-60.000000000001499
 31
0.0
  0
ARC
  5
A8
  8
OUTLINE
  6
CONTINUOUS
 62
     3
 10
57.999999999999417
 20
57.99999999999855
 30
0.0
 40
2.0
 50
0.0000000000001088
 51
90.0
  0
ARC
  5
A9
  8
OUTLINE
  6
CONTINUOUS
 62
     3
 10
-58.0
 20
57.99999999999855
 30
0.0
 40
2.0
 50
90.0
 51
180.0
  0
ARC
  5
AA
  8
OUTLINE
  6
CONTINUOUS
 62
     3
 10
-58.0
 20
-58.000000000001492
 30
0.0
 40
2.0
 50
180.0
 51
270.0
  0
ARC
  5
AB
  8
OUTLINE
  6
CONTINUOUS
 62
     3
 10
58.0
 20
-58.000000000001492
 30
0.0
 40
2.0
 50
270.0
 51
0.0000000000001088
  0
LINE
  5
AC
  8
DETAIL
  6
CONTINUOUS
 62
     5
 10
-40.75
 20
-56.100006103517252
 30
0.0
 11
-43.25
 21
-56.100006103517252
 31
0.0
  0
LINE
  5
AD
  8
DETAIL
  6
CONTINUOUS
 62
     5
 10
-40.25
 20
-57.000000000001613
 30
0.0
 11
-40.25
 21
-56.600006103517231
 31
0.0
  0
LINE
  5
AE
  8
DETAIL
  6
CONTINUOUS
 62
     5
 10
-43.75
 20
-57.000000000001613
 30
0.0
 11
-43.75
 21
-56.600006103517231
 31
0.0
  0
ARC
  5
AF
  8
DETAIL
  6
CONTINUOUS
 62
     5
 10
-43.25
 20
-56.600006103517231
 30
0.0
 40
0.5
 50
90.000017986098811
 51
180.0
  0
ARC
  5
B0
  8
DETAIL
  6
CONTINUOUS
 62
     5
 10
-40.75
 20
-56.600006103517231
 30
0.0
 40
0.5
 50
0.000035972178482
 51
90.000017986098811
  0
ARC
  5
B1
  8
DETAIL
  6
CONTINUOUS
 62
     5
 10
-39.75
 20
-57.000000000001613
 30
0.0
 40
0.5
 50
179.9999899820892
 51
269.9999820139011
  0
ARC
  5
B2
  8
DETAIL
  6
CONTINUOUS
 62
     5
 10
-44.249999999999993
 20
-57.000000000001613
 30
0.0
 40
0.5
 50
269.9999820139011
 51
359.99996402782142
  0
LINE
  5
B3
  8
DETAIL
  6
CONTINUOUS
 62
     5
 10
-34.75
 20
-57.500000000001613
 30
0.0
 11
-34.75
 21
-59.00000000000162
 31
0.0
  0
LINE
  5
B4
  8
DETAIL
  6
CONTINUOUS
 62
     5
 10
-34.75
 20
-57.500000000001613
 30
0.0
 11
-39.75
 21
-57.500000000001613
 31
0.0
  0
LINE
  5
B5
  8
DETAIL
  6
CONTINUOUS
 62
     5
 10
-24.25
 20
-57.500000000001613
 30
0.0
 11
-24.25
 21
-59.00000000000162
 31
0.0
  0
LINE
  5
B6
  8
DETAIL
  6
CONTINUOUS
 62
     5
 10
-15.75
 20
-56.100006103517252
 30
0.0
 11
-18.25
 21
-56.100006103517252
 31
0.0
  0
LINE
  5
B7
  8
DETAIL
  6
CONTINUOUS
 62
     5
 10
-15.25
 20
-57.000000000001613
 30
0.0
 11
-15.25
 21
-56.600006103517231
 31
0.0
  0
LINE
  5
B8
  8
DETAIL
  6
CONTINUOUS
 62
     5
 10
-18.75
 20
-57.000000000001613
 30
0.0
 11
-18.75
 21
-56.600006103517231
 31
0.0
  0
ARC
  5
B9
  8
DETAIL
  6
CONTINUOUS
 62
     5
 10
-15.75
 20
-56.600006103517231
 30
0.0
 40
0.5
 50
0.000035972178482
 51
90.000017986098811
  0
ARC
  5
BA
  8
DETAIL
  6
CONTINUOUS
 62
     5
 10
-18.25
 20
-56.600006103517231
 30
0.0
 40
0.5
 50
90.000017986098811
 51
180.0
  0
ARC
  5
BB
  8
DETAIL
  6
CONTINUOUS
 62
     5
 10
-19.25
 20
-57.000000000001613
 30
0.0
 40
0.5
 50
269.9999820139011
 51
359.99996402782142
  0
ARC
  5
BC
  8
DETAIL
  6
CONTINUOUS
 62
     5
 10
-14.75
 20
-57.000000000001613
 30
0.0
 40
0.5
 50
179.9999899820892
 51
269.9999820139011
  0
LINE
  5
BD
  8
DETAIL
  6
CONTINUOUS
 62
     5
 10
-19.25
 20
-57.500000000001613
 30
0.0
 11
-24.25
 21
-57.500000000001613
 31
0.0
  0
LINE
  5
BE
  8
DETAIL
  6
CONTINUOUS
 62
     5
 10
0.0
 20
-57.500000000001613
 30
0.0
 11
-14.75
 21
-57.500000000001613
 31
0.0
  0
LINE
  5
BF
  8
DETAIL
  6
CONTINUOUS
 62
     5
 10
-44.249999999999993
 20
-57.500000000001613
 30
0.0
 11
-56.5
 21
-57.500000000001613
 31
0.0
  0
ARC
  5
C0
  8
DETAIL
  6
CONTINUOUS
 62
     5
 10
14.75
 20
-57.000000000001613
 30
0.0
 40
0.5
 50
270.00001798609878
 51
0.0000100179106335
  0
ARC
  5
C1
  8
DETAIL
  6
CONTINUOUS
 62
     5
 10
19.25
 20
-57.000000000001613
 30
0.0
 40
0.5
 50
180.00003597217849
 51
270.00001798609878
  0
ARC
  5
C2
  8
DETAIL
  6
CONTINUOUS
 62
     5
 10
18.25
 20
-56.600006103517231
 30
0.0
 40
0.5
 50
0.0
 51
89.999982013901175
  0
ARC
  5
C3
  8
DETAIL
  6
CONTINUOUS
 62
     5
 10
15.75
 20
-56.600006103517231
 30
0.0
 40
0.5
 50
89.999982013901175
 51
179.99996402782151
  0
LINE
  5
C4
  8
DETAIL
  6
CONTINUOUS
 62
     5
 10
18.75
 20
-57.000000000001613
 30
0.0
 11
18.75
 21
-56.600006103517231
 31
0.0
  0
LINE
  5
C5
  8
DETAIL
  6
CONTINUOUS
 62
     5
 10
15.25
 20
-57.000000000001613
 30
0.0
 11
15.25
 21
-56.600006103517231
 31
0.0
  0
ARC
  5
C6
  8
DETAIL
  6
CONTINUOUS
 62
     5
 10
44.249999999999993
 20
-57.000000000001513
 30
0.0
 40
0.5
 50
180.00003597217849
 51
270.00001798609878
  0
ARC
  5
C7
  8
DETAIL
  6
CONTINUOUS
 62
     5
 10
39.75
 20
-57.000000000001513
 30
0.0
 40
0.5
 50
270.00001798609878
 51
0.0000100179106335
  0
ARC
  5
C8
  8
DETAIL
  6
CONTINUOUS
 62
     5
 10
40.75
 20
-56.60000610351711
 30
0.0
 40
0.5
 50
89.999982013901175
 51
179.99996402782151
  0
ARC
  5
C9
  8
DETAIL
  6
CONTINUOUS
 62
     5
 10
43.25
 20
-56.60000610351711
 30
0.0
 40
0.5
 50
0.0
 51
89.999982013901175
  0
LINE
  5
CA
  8
DETAIL
  6
CONTINUOUS
 62
     5
 10
43.75
 20
-57.000000000001513
 30
0.0
 11
43.75
 21
-56.60000610351711
 31
0.0
  0
LINE
  5
CB
  8
DETAIL
  6
CONTINUOUS
 62
     5
 10
40.25
 20
-57.000000000001513
 30
0.0
 11
40.25
 21
-56.60000610351711
 31
0.0
  0
LINE
  5
CC
  8
DETAIL
  6
CONTINUOUS
 62
     5
 10
15.75
 20
-56.100006103517252
 30
0.0
 11
18.25
 21
-56.100006103517252
 31
0.0
  0
LINE
  5
CD
  8
DETAIL
  6
CONTINUOUS
 62
     5
 10
40.75
 20
-56.10000610351711
 30
0.0
 11
43.25
 21
-56.10000610351711
 31
0.0
  0
LINE
  5
CE
  8
DETAIL
  6
CONTINUOUS
 62
     5
 10
-37.999786376953118
 20
57.499999999998607
 30
0.0
 11
38.0
 21
57.499999999998607
 31
0.0
  0
LINE
  5
CF
  8
DETAIL
  6
CONTINUOUS
 62
     5
 10
34.75
 20
-57.500000000001499
 30
0.0
 11
39.75
 21
-57.500000000001499
 31
0.0
  0
LINE
  5
D0
  8
DETAIL
  6
CONTINUOUS
 62
     5
 10
0.0
 20
-57.500000000001613
 30
0.0
 11
14.75
 21
-57.500000000001613
 31
0.0
  0
LINE
  5
D1
  8
DETAIL
  6
CONTINUOUS
 62
     5
 10
38.0
 20
55.499999999998622
 30
0.0
 11
38.0
 21
57.499999999998607
 31
0.0
  0
LINE
  5
D2
  8
DETAIL
  6
CONTINUOUS
 62
     5
 10
38.0
 20
55.499999999998622
 30
0.0
 11
46.0
 21
55.499999999998622
 31
0.0
  0
LINE
  5
D3
  8
DETAIL
  6
CONTINUOUS
 62
     5
 10
46.0
 20
55.499999999998622
 30
0.0
 11
46.0
 21
57.499999999998607
 31
0.0
  0
LINE
  5
D4
  8
DETAIL
  6
CONTINUOUS
 62
     5
 10
-37.999786376953118
 20
55.499999999998622
 30
0.0
 11
-37.999786376953118
 21
57.499999999998607
 31
0.0
  0
LINE
  5
D5
  8
DETAIL
  6
CONTINUOUS
 62
     5
 10
-45.999786376953097
 20
55.499999999998622
 30
0.0
 11
-37.999786376953118
 21
55.499999999998622
 31
0.0
  0
LINE
  5
D6
  8
DETAIL
  6
CONTINUOUS
 62
     5
 10
-45.999786376953097
 20
55.499999999998622
 30
0.0
 11
-45.999786376953097
 21
57.499999999998607
 31
0.0
  0
LINE
  5
D7
  8
DETAIL
  6
CONTINUOUS
 62
     5
 10
19.25
 20
-57.500000000001613
 30
0.0
 11
24.25
 21
-57.500000000001613
 31
0.0
  0
LINE
  5
D8
  8
DETAIL
  6
CONTINUOUS
 62
     5
 10
46.0
 20
58.9999999999986
 30
0.0
 11
57.199999999999697
 21
58.999999999998558
 31
0.0
  0
LINE
  5
D9
  8
DETAIL
  6
CONTINUOUS
 62
     5
 10
44.249999999999993
 20
-57.500000000001499
 30
0.0
 11
56.5
 21
-57.500000000001499
 31
0.0
  0
LINE
  5
DA
  8
DETAIL
  6
CONTINUOUS
 62
     5
 10
34.75
 20
-57.500000000001499
 30
0.0
 11
34.75
 21
-59.000000000001471
 31
0.0
  0
LINE
  5
DB
  8
DETAIL
  6
CONTINUOUS
 62
     5
 10
24.25
 20
-57.500000000001613
 30
0.0
 11
24.25
 21
-59.00000000000162
 31
0.0
  0
LINE
  5
DC
  8
DETAIL
  6
CONTINUOUS
 62
     5
 10
56.49999999999941
 20
57.499999999998472
 30
0.0
 11
46.0
 21
57.499999999998607
 31
0.0
  0
LINE
  5
DD
  8
DETAIL
  6
CONTINUOUS
 62
     5
 10
-57.499999999999538
 20
56.4999999999986
 30
0.0
 11
-57.5
 21
-56.50000000000162
 31
0.0
  0
LINE
  5
DE
  8
DETAIL
  6
CONTINUOUS
 62
     5
 10
57.499999999999432
 20
56.499999999998437
 30
0.0
 11
57.5
 21
-56.500000000001471
 31
0.0
  0
LINE
  5
DF
  8
DETAIL
  6
CONTINUOUS
 62
     5
 10
38.0
 20
57.499999999998607
 30
0.0
 11
-37.999786376953118
 21
57.499999999998607
 31
0.0
  0
LINE
  5
E0
  8
DETAIL
  6
CONTINUOUS
 62
     5
 10
-45.999786376953097
 20
57.499999999998607
 30
0.0
 11
-56.499999999999552
 21
57.499999999998607
 31
0.0
  0
ARC
  5
E1
  8
DETAIL
  6
CONTINUOUS
 62
     5
 10
-56.499999999999552
 20
56.4999999999986
 30
0.0
 40
1.0
 50
90.0
 51
180.0
  0
ARC
  5
E2
  8
DETAIL
  6
CONTINUOUS
 62
     5
 10
-56.5
 20
-56.50000000000162
 30
0.0
 40
1.0
 50
179.9999999999996
 51
270.0
  0
ARC
  5
E3
  8
DETAIL
  6
CONTINUOUS
 62
     5
 10
56.49999999999941
 20
56.499999999998437
 30
0.0
 40
1.0
 50
0.000000000000458
 51
89.999999999999687
  0
ARC
  5
E4
  8
DETAIL
  6
CONTINUOUS
 62
     5
 10
56.5
 20
-56.500000000001471
 30
0.0
 40
1.0
 50
270.0
 51
0.000000000000458
  0
ARC
  5
E5
  8
DETAIL
  6
CONTINUOUS
 62
     5
 10
23.0
 20
-41.750000000001727
 30
0.0
 40
6.4846611583208942
 50
62.137896197872458
 51
242.13789619787229
  0
ARC
  5
E6
  8
DETAIL
  6
CONTINUOUS
 62
     5
 10
23.0
 20
-41.750000000001371
 30
0.0
 40
2.268234219181815
 50
62.137896197862283
 51
242.13789619788659
  0
LINE
  5
E7
  8
NOTE
  6
CONTINUOUS
 62
     4
 10
33.625094752748169
 20
-38.373398494968001
 30
0.0
 11
25.948627694065632
 21
-52.894939356602571
 31
0.0
  0
ARC
  5
E8
  8
DETAIL
  6
CONTINUOUS
 62
     5
 10
29.951623504452868
 20
-45.32248880283602
 30
0.0
 40
6.4846611583208942
 50
242.13789619787229
 51
62.137896197872458
  0
ARC
  5
E9
  8
DETAIL
  6
CONTINUOUS
 62
     5
 10
29.951623504452868
 20
-45.322488802835679
 30
0.0
 40
2.268234219181815
 50
242.13789619787519
 51
62.137896197875129
  0
LINE
  5
EA
  8
DETAIL
  6
CONTINUOUS
 62
     5
 10
26.030575120044428
 20
-36.017073628592151
 30
0.0
 11
32.982198624497521
 21
-39.589562431426437
 31
0.0
  0
LINE
  5
EB
  8
DETAIL
  6
CONTINUOUS
 62
     5
 10
19.969424879955451
 20
-47.482926371411288
 30
0.0
 11
26.921048384408429
 21
-51.055415174245589
 31
0.0
  0
LINE
  5
EC
  8
DETAIL
  6
CONTINUOUS
 62
     5
 10
21.939951676231878
 20
-43.755289012673423
 30
0.0
 11
28.891575180684409
 21
-47.327777815507623
 31
0.0
  0
LINE
  5
ED
  8
DETAIL
  6
CONTINUOUS
 62
     5
 10
31.011671828221431
 20
-43.317199790163748
 30
0.0
 11
24.06004832376891
 21
-39.744710987329682
 31
0.0
  0
LINE
  5
EE
  8
NOTE
  6
CONTINUOUS
 62
     4
 10
26.673471248295169
 20
34.80090969213078
 30
0.0
 11
18.99700418961265
 21
49.322450553765378
 31
0.0
  0
LINE
  5
EF
  8
NOTE
  6
CONTINUOUS
 62
     4
 10
14.97828344078254
 20
37.627582759053638
 30
0.0
 11
37.896960187852983
 21
49.405653881898481
 31
0.0
  0
ARC
  5
F0
  8
DETAIL
  6
CONTINUOUS
 62
     5
 10
23.0
 20
41.749999999998849
 30
0.0
 40
6.4846611583208942
 50
117.86210380212739
 51
297.86210380212748
  0
ARC
  5
F1
  8
DETAIL
  6
CONTINUOUS
 62
     5
 10
23.0
 20
41.749999999998487
 30
0.0
 40
2.268234219181815
 50
117.8621038021133
 51
297.86210380213771
  0
LINE
  5
F2
  8
NOTE
  6
CONTINUOUS
 62
     4
 10
33.625094752748169
 20
38.373398494965123
 30
0.0
 11
25.948627694065632
 21
52.894939356599693
 31
0.0
  0
ARC
  5
F3
  8
DETAIL
  6
CONTINUOUS
 62
     5
 10
29.951623504452868
 20
45.322488802833128
 30
0.0
 40
6.4846611583208942
 50
297.86210380212748
 51
117.86210380212739
  0
ARC
  5
F4
  8
DETAIL
  6
CONTINUOUS
 62
     5
 10
29.951623504452868
 20
45.322488802832787
 30
0.0
 40
2.268234219181815
 50
297.86210380212481
 51
117.86210380212481
  0
LINE
  5
F5
  8
DETAIL
  6
CONTINUOUS
 62
     5
 10
26.030575120044428
 20
36.01707362858928
 30
0.0
 11
32.982198624497521
 21
39.589562431423559
 31
0.0
  0
LINE
  5
F6
  8
DETAIL
  6
CONTINUOUS
 62
     5
 10
19.969424879955451
 20
47.482926371408389
 30
0.0
 11
26.921048384408429
 21
51.055415174242711
 31
0.0
  0
LINE
  5
F7
  8
DETAIL
  6
CONTINUOUS
 62
     5
 10
21.939951676231878
 20
43.755289012670517
 30
0.0
 11
28.891575180684409
 21
47.327777815504717
 31
0.0
  0
LINE
  5
F8
  8
DETAIL
  6
CONTINUOUS
 62
     5
 10
31.011671828221431
 20
43.317199790160849
 30
0.0
 11
24.06004832376891
 21
39.744710987326783
 31
0.0
  0
LINE
  5
F9
  8
NOTE
  6
CONTINUOUS
 62
     4
 10
-26.673471248295311
 20
34.80090969213078
 30
0.0
 11
-18.99700418961265
 21
49.322450553765378
 31
0.0
  0
LINE
  5
FA
  8
NOTE
  6
CONTINUOUS
 62
     4
 10
-14.97828344078254
 20
37.627582759053638
 30
0.0
 11
-37.896960187853097
 21
49.405653881898481
 31
0.0
  0
ARC
  5
FB
  8
DETAIL
  6
CONTINUOUS
 62
     5
 10
-23.0
 20
41.749999999998849
 30
0.0
 40
6.4846611583208942
 50
242.13789619787229
 51
62.137896197872458
  0
ARC
  5
FC
  8
DETAIL
  6
CONTINUOUS
 62
     5
 10
-23.0
 20
41.749999999998487
 30
0.0
 40
2.268234219181815
 50
242.1378961978622
 51
62.137896197886633
  0
LINE
  5
FD
  8
NOTE
  6
CONTINUOUS
 62
     4
 10
-33.625094752748289
 20
38.373398494965123
 30
0.0
 11
-25.948627694065632
 21
52.894939356599693
 31
0.0
  0
ARC
  5
FE
  8
DETAIL
  6
CONTINUOUS
 62
     5
 10
-29.951623504452979
 20
45.322488802833128
 30
0.0
 40
6.4846611583208942
 50
62.137896197872458
 51
242.13789619787229
  0
ARC
  5
FF
  8
DETAIL
  6
CONTINUOUS
 62
     5
 10
-29.951623504452979
 20
45.322488802832787
 30
0.0
 40
2.268234219181815
 50
62.137896197875108
 51
242.13789619787519
  0
LINE
  5
100
  8
DETAIL
  6
CONTINUOUS
 62
     5
 10
-26.030575120044539
 20
36.01707362858928
 30
0.0
 11
-32.982198624497521
 21
39.589562431423559
 31
0.0
  0
LINE
  5
101
  8
DETAIL
  6
CONTINUOUS
 62
     5
 10
-19.96942487995555
 20
47.482926371408389
 30
0.0
 11
-26.92104838440855
 21
51.055415174242711
 31
0.0
  0
LINE
  5
102
  8
DETAIL
  6
CONTINUOUS
 62
     5
 10
-21.939951676231878
 20
43.755289012670517
 30
0.0
 11
-28.89157518068453
 21
47.327777815504717
 31
0.0
  0
LINE
  5
103
  8
DETAIL
  6
CONTINUOUS
 62
     5
 10
-31.011671828221552
 20
43.317199790160849
 30
0.0
 11
-24.060048323769021
 21
39.744710987326783
 31
0.0
  0
LINE
  5
104
  8
NOTE
  6
CONTINUOUS
 62
     4
 10
-26.673471248295311
 20
-34.800909692133658
 30
0.0
 11
-18.99700418961265
 21
-49.322450553768249
 31
0.0
  0
LINE
  5
105
  8
NOTE
  6
CONTINUOUS
 62
     4
 10
-14.97828344078254
 20
-37.627582759056523
 30
0.0
 11
-37.896960187853097
 21
-49.405653881901372
 31
0.0
  0
ARC
  5
106
  8
DETAIL
  6
CONTINUOUS
 62
     5
 10
-23.0
 20
-41.750000000001727
 30
0.0
 40
6.4846611583208942
 50
297.86210380212748
 51
117.86210380212739
  0
ARC
  5
107
  8
DETAIL
  6
CONTINUOUS
 62
     5
 10
-23.0
 20
-41.750000000001371
 30
0.0
 40
2.268234219181815
 50
297.86210380211332
 51
117.8621038021377
  0
LINE
  5
108
  8
NOTE
  6
CONTINUOUS
 62
     4
 10
-33.625094752748289
 20
-38.373398494968001
 30
0.0
 11
-25.948627694065632
 21
-52.894939356602571
 31
0.0
  0
ARC
  5
109
  8
DETAIL
  6
CONTINUOUS
 62
     5
 10
-29.951623504452979
 20
-45.32248880283602
 30
0.0
 40
6.4846611583208942
 50
117.86210380212739
 51
297.86210380212748
  0
ARC
  5
10A
  8
DETAIL
  6
CONTINUOUS
 62
     5
 10
-29.951623504452979
 20
-45.322488802835679
 30
0.0
 40
2.268234219181815
 50
117.86210380212481
 51
297.86210380212481
  0
LINE
  5
10B
  8
DETAIL
  6
CONTINUOUS
 62
     5
 10
-26.030575120044539
 20
-36.017073628592151
 30
0.0
 11
-32.982198624497521
 21
-39.589562431426437
 31
0.0
  0
LINE
  5
10C
  8
DETAIL
  6
CONTINUOUS
 62
     5
 10
-19.96942487995555
 20
-47.482926371411288
 30
0.0
 11
-26.92104838440855
 21
-51.055415174245589
 31
0.0
  0
LINE
  5
10D
  8
DETAIL
  6
CONTINUOUS
 62
     5
 10
-21.939951676231878
 20
-43.755289012673423
 30
0.0
 11
-28.89157518068453
 21
-47.327777815507623
 31
0.0
  0
LINE
  5
10E
  8
DETAIL
  6
CONTINUOUS
 62
     5
 10
-31.011671828221552
 20
-43.317199790163748
 30
0.0
 11
-24.060048323769021
 21
-39.744710987329682
 31
0.0
  0
CIRCLE
  5
10F
  8
FIX
  6
CONTINUOUS
 62
    11
 10
-23.0
 20
41.749999999998487
 30
0.0
 40
4.641461112568809
  0
CIRCLE
  5
110
  8
FIX
  6
CONTINUOUS
 62
    11
 10
23.0
 20
41.749999999998153
 30
0.0
 40
4.641461112568809
  0
CIRCLE
  5
111
  8
FIX
  6
CONTINUOUS
 62
    11
 10
-23.0
 20
-41.750000000001371
 30
0.0
 40
4.641461112568809
  0
CIRCLE
  5
112
  8
FIX
  6
CONTINUOUS
 62
    11
 10
23.0
 20
-41.750000000001023
 30
0.0
 40
4.641461112568809
  0
LINE
  5
113
  8
SIZE
  6
CONTINUOUS
 62
    30
 10
-60.0
 20
61.999999999998558
 30
0.0
 11
-60.0
 21
161.98806024809519
 31
0.0
  0
LINE
  5
114
  8
SIZE
  6
CONTINUOUS
 62
    30
 10
59.999999999999432
 20
61.999999999998558
 30
0.0
 11
59.999999999999439
 21
161.98806024809519
 31
0.0
  0
LINE
  5
115
  8
SIZE
  6
CONTINUOUS
 62
    30
 10
-50.0
 20
141.98806024809519
 30
0.0
 11
49.999999999999439
 21
141.98806024809519
 31
0.0
  0
CIRCLE
  5
116
  8
SIZE
  6
CONTINUOUS
 62
    30
 10
-60.0
 20
141.98806024809519
 30
0.0
 40
5.0
  0
LINE
  5
117
  8
SIZE
  6
CONTINUOUS
 62
    30
 10
-55.0
 20
141.98806024809519
 30
0.0
 11
-50.0
 21
141.98806024809519
 31
0.0
  0
CIRCLE
  5
118
  8
SIZE
  6
CONTINUOUS
 62
    30
 10
59.999999999999439
 20
141.98806024809519
 30
0.0
 40
5.0
  0
LINE
  5
119
  8
SIZE
  6
CONTINUOUS
 62
    30
 10
54.999999999999439
 20
141.98806024809519
 30
0.0
 11
49.999999999999439
 21
141.98806024809519
 31
0.0
  0
TEXT
  5
11A
  8
SIZE
  6
CONTINUOUS
 62
    30
 10
-26.785714285714519
 20
151.98806024809519
 30
0.0
 40
25.0
  1
120
 41
0.9
 72
     1
 11
-0.0000000000002274
 21
151.98806024809519
 31
0.0
  0
POINT
  5
11B
  8
DEFPOINTS
  6
CONTINUOUS
 62
     7
 10
-60.0
 20
57.99999999999855
 30
0.0
  0
POINT
  5
11C
  8
DEFPOINTS
  6
CONTINUOUS
 62
     7
 10
59.999999999999432
 20
57.99999999999855
 30
0.0
  0
POINT
  5
11D
  8
DEFPOINTS
  6
CONTINUOUS
 62
     7
 10
59.999999999999439
 20
141.98806024809519
 30
0.0
  0
LINE
  5
11E
  8
SIZE
  6
CONTINUOUS
 62
    30
 10
61.999999999999417
 20
59.999999999998558
 30
0.0
 11
186.66316383193271
 21
59.999999999998522
 31
0.0
  0
LINE
  5
11F
  8
SIZE
  6
CONTINUOUS
 62
    30
 10
62.0
 20
-60.000000000001499
 30
0.0
 11
186.66316383193271
 21
-60.000000000001528
 31
0.0
  0
LINE
  5
120
  8
SIZE
  6
CONTINUOUS
 62
    30
 10
166.66316383193271
 20
49.999999999998529
 30
0.0
 11
166.66316383193271
 21
-50.000000000001528
 31
0.0
  0
CIRCLE
  5
121
  8
SIZE
  6
CONTINUOUS
 62
    30
 10
166.66316383193271
 20
59.999999999998529
 30
0.0
 40
5.0
  0
LINE
  5
122
  8
SIZE
  6
CONTINUOUS
 62
    30
 10
166.66316383193271
 20
54.999999999998529
 30
0.0
 11
166.66316383193271
 21
49.999999999998529
 31
0.0
  0
CIRCLE
  5
123
  8
SIZE
  6
CONTINUOUS
 62
    30
 10
166.66316383193271
 20
-60.000000000001528
 30
0.0
 40
5.0
  0
LINE
  5
124
  8
SIZE
  6
CONTINUOUS
 62
    30
 10
166.66316383193271
 20
-55.000000000001528
 30
0.0
 11
166.66316383193271
 21
-50.000000000001528
 31
0.0
  0
TEXT
  5
125
  8
SIZE
  6
CONTINUOUS
 62
    30
 10
156.66316383193271
 20
-26.78571428571577
 30
0.0
 40
25.0
  1
120
 50
90.0
 41
0.9
 72
     1
 11
156.66316383193271
 21
-0.0000000000014755
 31
0.0
  0
POINT
  5
126
  8
DEFPOINTS
  6
CONTINUOUS
 62
     7
 10
57.999999999999417
 20
59.999999999998558
 30
0.0
  0
POINT
  5
127
  8
DEFPOINTS
  6
CONTINUOUS
 62
     7
 10
58.0
 20
-60.000000000001499
 30
0.0
  0
POINT
  5
128
  8
DEFPOINTS
  6
CONTINUOUS
 62
     7
 10
166.66316383193271
 20
-60.000000000001528
 30
0.0
  0
LINE
  5
129
  8
SIZE
  6
CONTINUOUS
 62
    30
 10
27.0
 20
41.749999999998153
 30
0.0
 11
140.5845207908954
 21
41.749999999998131
 31
0.0
  0
LINE
  5
12A
  8
SIZE
  6
CONTINUOUS
 62
    30
 10
27.0
 20
-41.750000000001492
 30
0.0
 11
140.5845207908954
 21
-41.750000000001521
 31
0.0
  0
LINE
  5
12B
  8
SIZE
  6
CONTINUOUS
 62
    30
 10
120.5845207908954
 20
51.749999999998131
 30
0.0
 11
120.5845207908954
 21
61.749999999998131
 31
0.0
  0
LINE
  5
12C
  8
SIZE
  6
CONTINUOUS
 62
    30
 10
120.5845207908954
 20
-51.750000000001528
 30
0.0
 11
120.5845207908954
 21
-61.750000000001528
 31
0.0
  0
LINE
  5
12D
  8
SIZE
  6
CONTINUOUS
 62
    30
 10
120.5845207908954
 20
41.749999999998131
 30
0.0
 11
120.5845207908954
 21
-41.750000000001521
 31
0.0
  0
CIRCLE
  5
12E
  8
SIZE
  6
CONTINUOUS
 62
    30
 10
120.5845207908954
 20
41.749999999998131
 30
0.0
 40
5.0
  0
LINE
  5
12F
  8
SIZE
  6
CONTINUOUS
 62
    30
 10
120.5845207908954
 20
46.749999999998131
 30
0.0
 11
120.5845207908954
 21
51.749999999998131
 31
0.0
  0
CIRCLE
  5
130
  8
SIZE
  6
CONTINUOUS
 62
    30
 10
120.5845207908954
 20
-41.750000000001521
 30
0.0
 40
5.0
  0
LINE
  5
131
  8
SIZE
  6
CONTINUOUS
 62
    30
 10
120.5845207908954
 20
-46.750000000001528
 30
0.0
 11
120.5845207908954
 21
-51.750000000001528
 31
0.0
  0
TEXT
  5
132
  8
SIZE
  6
CONTINUOUS
 62
    30
 10
110.5845207908955
 20
-34.285714285715962
 30
0.0
 40
25.0
  1
83.5
 50
90.0
 41
0.9
 72
     1
 11
110.5845207908955
 21
-0.0000000000016788
 31
0.0
  0
POINT
  5
133
  8
DEFPOINTS
  6
CONTINUOUS
 62
     7
 10
23.0
 20
41.749999999998153
 30
0.0
  0
POINT
  5
134
  8
DEFPOINTS
  6
CONTINUOUS
 62
     7
 10
23.0
 20
-41.750000000001492
 30
0.0
  0
POINT
  5
135
  8
DEFPOINTS
  6
CONTINUOUS
 62
     7
 10
120.5845207908954
 20
-41.750000000001521
 30
0.0
  0
LINE
  5
136
  8
SIZE
  6
CONTINUOUS
 62
    30
 10
-23.0
 20
45.749999999998487
 30
0.0
 11
-22.999999999999989
 21
110.1155989892695
 31
0.0
  0
LINE
  5
137
  8
SIZE
  6
CONTINUOUS
 62
    30
 10
23.0
 20
45.749999999998842
 30
0.0
 11
23.0
 21
110.1155989892695
 31
0.0
  0
LINE
  5
138
  8
SIZE
  6
CONTINUOUS
 62
    30
 10
-33.0
 20
90.1155989892695
 30
0.0
 11
-43.0
 21
90.1155989892695
 31
0.0
  0
LINE
  5
139
  8
SIZE
  6
CONTINUOUS
 62
    30
 10
33.0
 20
90.1155989892695
 30
0.0
 11
43.0
 21
90.1155989892695
 31
0.0
  0
LINE
  5
13A
  8
SIZE
  6
CONTINUOUS
 62
    30
 10
-22.999999999999989
 20
90.1155989892695
 30
0.0
 11
23.0
 21
90.1155989892695
 31
0.0
  0
CIRCLE
  5
13B
  8
SIZE
  6
CONTINUOUS
 62
    30
 10
-22.999999999999989
 20
90.1155989892695
 30
0.0
 40
5.0
  0
LINE
  5
13C
  8
SIZE
  6
CONTINUOUS
 62
    30
 10
-27.999999999999989
 20
90.1155989892695
 30
0.0
 11
-32.999999999999993
 21
90.1155989892695
 31
0.0
  0
CIRCLE
  5
13D
  8
SIZE
  6
CONTINUOUS
 62
    30
 10
23.0
 20
90.1155989892695
 30
0.0
 40
5.0
  0
LINE
  5
13E
  8
SIZE
  6
CONTINUOUS
 62
    30
 10
28.0
 20
90.1155989892695
 30
0.0
 11
33.0
 21
90.1155989892695
 31
0.0
  0
TEXT
  5
13F
  8
SIZE
  6
CONTINUOUS
 62
    30
 10
-17.67857142857142
 20
100.1155989892694
 30
0.0
 40
25.0
  1
46
 41
0.9
 72
     1
 11
0.0000000000000036
 21
100.1155989892694
 31
0.0
  0
POINT
  5
140
  8
DEFPOINTS
  6
CONTINUOUS
 62
     7
 10
-23.0
 20
41.749999999998487
 30
0.0
  0
POINT
  5
141
  8
DEFPOINTS
  6
CONTINUOUS
 62
     7
 10
23.0
 20
41.749999999998849
 30
0.0
  0
POINT
  5
142
  8
DEFPOINTS
  6
CONTINUOUS
 62
     7
 10
23.0
 20
90.1155989892695
 30
0.0
  0
TEXT
  5
143
  8
ETC
  6
CONTINUOUS
 62
    61
 10
87.077889674597813
 20
135.08682053060409
 30
0.0
 40
20.0
  1
PAR-32MA_3
 41
0.7
  0
LINE
  5
144
  8
NOTE
  6
CONTINUOUS
 62
     4
 10
32.099797441400369
 20
46.686938663547529
 30
0.0
 11
23.0
 21
41.749999999998153
 31
0.0
  0
LINE
  5
145
  8
NOTE
  6
CONTINUOUS
 62
     4
 10
23.0
 20
41.749999999998153
 30
0.0
 11
28.41218646180744
 21
50.575412995705122
 31
0.0
  0
TEXT
  5
146
  8
NOTE
  6
CONTINUOUS
 62
     4
 10
77.663053972392049
 20
93.488717809535217
 30
0.0
 40
20.0
  1
AH ×4
 41
0.7
  0
LINE
  5
147
  8
NOTE
  6
CONTINUOUS
 62
     4
 10
23.000000000013411
 20
41.750000000005457
 30
0.0
 11
73.726215742691807
 21
89.855898135670188
 31
0.0
  0
LINE
  5
148
  8
NOTE
  6
CONTINUOUS
 62
     4
 10
73.726215742691807
 20
89.855898135670188
 30
0.0
 11
148.3774796021859
 21
89.855898135670188
 31
0.0
  0
POLYLINE
  5
149
  8
DETAIL
  6
CONTINUOUS
 62
     5
 66
     1
 10
0.0
 20
0.0
 30
0.0
 70
     1
  0
VERTEX
  5
283
  8
DETAIL
  6
CONTINUOUS
 62
     5
 10
42.434624594041111
 20
31.692343927492772
 30
0.0
  0
VERTEX
  5
284
  8
DETAIL
  6
CONTINUOUS
 62
     5
 10
49.470410299315972
 20
31.692343927492772
 30
0.0
  0
VERTEX
  5
285
  8
DETAIL
  6
CONTINUOUS
 62
     5
 10
49.470410299315972
 20
6.1644485889036451
 30
0.0
  0
VERTEX
  5
286
  8
DETAIL
  6
CONTINUOUS
 62
     5
 10
42.434624594041111
 20
6.1644485889036451
 30
0.0
  0
SEQEND
  5
287
  8
DETAIL
  6
CONTINUOUS
 62
     5
  0
POLYLINE
  5
14F
  8
DETAIL
  6
CONTINUOUS
 62
     5
 66
     1
 10
0.0
 20
0.0
 30
0.0
 70
     1
  0
VERTEX
  5
288
  8
DETAIL
  6
CONTINUOUS
 62
     5
 10
42.934624594041111
 20
31.192343927492772
 30
0.0
  0
VERTEX
  5
289
  8
DETAIL
  6
CONTINUOUS
 62
     5
 10
48.970410299315958
 20
31.192343927492772
 30
0.0
  0
VERTEX
  5
28A
  8
DETAIL
  6
CONTINUOUS
 62
     5
 10
48.970410299315958
 20
6.664448588903646
 30
0.0
  0
VERTEX
  5
28B
  8
DETAIL
  6
CONTINUOUS
 62
     5
 10
42.934624594041111
 20
6.6644485889036451
 30
0.0
  0
SEQEND
  5
28C
  8
DETAIL
  6
CONTINUOUS
 62
     5
  0
ENDSEC
  0
EOF
