  0
SECTION
  2
HEADER
  9
$ACADVER
  1
AC1009
  9
$INSBASE
 10
0.0
 20
0.0
 30
0.0
  9
$EXTMIN
 10
-65.385509410873055
 20
-90.526639037296263
 30
-0.0000000000000058
  9
$EXTMAX
 10
160.14932615042559
 20
142.06962021682551
 30
0.0000000000000104
  9
$LIMMIN
 10
-4267.1522210604817
 20
-2696.083210198412
  9
$LIMMAX
 10
7190.7174225864646
 20
5141.155363923066
  9
$ORTHOMODE
 70
     0
  9
$REGENMODE
 70
     1
  9
$FILLMODE
 70
     1
  9
$QTEXTMODE
 70
     0
  9
$MIRRTEXT
 70
     0
  9
$DRAGMODE
 70
     2
  9
$LTSCALE
 40
20.0
  9
$OSMODE
 70
   431
  9
$ATTMODE
 70
     1
  9
$TEXTSIZE
 40
64.0
  9
$TRACEWID
 40
0.05
  9
$TEXTSTYLE
  7
STANDARD
  9
$CLAYER
  8
SYMBOLLINE
  9
$CELTYPE
  6
CONTINUOUS
  9
$CECOLOR
 62
     7
  9
$DIMSCALE
 40
1.0
  9
$DIMASZ
 40
10.0
  9
$DIMEXO
 40
4.0
  9
$DIMDLI
 40
300.0
  9
$DIMRND
 40
0.0
  9
$DIMDLE
 40
0.0
  9
$DIMEXE
 40
20.0
  9
$DIMTP
 40
0.0
  9
$DIMTM
 40
0.0
  9
$DIMTXT
 40
25.0
  9
$DIMCEN
 40
0.0
  9
$DIMTSZ
 40
0.0
  9
$DIMTOL
 70
     0
  9
$DIMLIM
 70
     0
  9
$DIMTIH
 70
     0
  9
$DIMTOH
 70
     0
  9
$DIMSE1
 70
     0
  9
$DIMSE2
 70
     0
  9
$DIMTAD
 70
     1
  9
$DIMZIN
 70
     8
  9
$DIMBLK
  1
DOTBLANK
  9
$DIMASO
 70
     1
  9
$DIMSHO
 70
     0
  9
$DIMPOST
  1

  9
$DIMAPOST
  1

  9
$DIMALT
 70
     0
  9
$DIMALTD
 70
     2
  9
$DIMALTF
 40
25.399999999999999
  9
$DIMLFAC
 40
1.0
  9
$DIMTOFL
 70
     1
  9
$DIMTVP
 40
0.0
  9
$DIMTIX
 70
     1
  9
$DIMSOXD
 70
     0
  9
$DIMSAH
 70
     0
  9
$DIMBLK1
  1

  9
$DIMBLK2
  1

  9
$DIMSTYLE
  2
STANDARD
  9
$DIMCLRD
 70
     0
  9
$DIMCLRE
 70
     0
  9
$DIMCLRT
 70
     0
  9
$DIMTFAC
 40
1.0
  9
$DIMGAP
 40
0.09
  9
$LUNITS
 70
     2
  9
$LUPREC
 70
     4
  9
$SKETCHINC
 40
0.1
  9
$FILLETRAD
 40
1.0
  9
$AUNITS
 70
     1
  9
$AUPREC
 70
     3
  9
$MENU
  1
ACAD
  9
$ELEVATION
 40
0.0
  9
$PELEVATION
 40
0.0
  9
$THICKNESS
 40
0.0
  9
$LIMCHECK
 70
     0
  9
$BLIPMODE
 70
     0
  9
$CHAMFERA
 40
0.0
  9
$CHAMFERB
 40
0.0
  9
$SKPOLY
 70
     0
  9
$TDCREATE
 40
2450330.4399309959
  9
$TDUPDATE
 40
2456773.5706579979
  9
$TDINDWG
 40
3.5153333449000002
  9
$TDUSRTIMER
 40
3.5153286342999999
  9
$USRTIMER
 70
     1
  9
$ANGBASE
 50
0.0
  9
$ANGDIR
 70
     0
  9
$PDMODE
 70
     3
  9
$PDSIZE
 40
-2.0
  9
$PLINEWID
 40
0.0
  9
$COORDS
 70
     1
  9
$SPLFRAME
 70
     0
  9
$SPLINETYPE
 70
     6
  9
$SPLINESEGS
 70
     8
  9
$ATTDIA
 70
     0
  9
$ATTREQ
 70
     1
  9
$HANDLING
 70
     1
  9
$HANDSEED
  5
4B3
  9
$SURFTAB1
 70
     6
  9
$SURFTAB2
 70
     6
  9
$SURFTYPE
 70
     6
  9
$SURFU
 70
     6
  9
$SURFV
 70
     6
  9
$UCSNAME
  2

  9
$UCSORG
 10
0.0
 20
0.0
 30
0.0
  9
$UCSXDIR
 10
1.0
 20
0.0
 30
0.0
  9
$UCSYDIR
 10
0.0
 20
1.0
 30
0.0
  9
$PUCSNAME
  2

  9
$PUCSORG
 10
0.0
 20
0.0
 30
0.0
  9
$PUCSXDIR
 10
1.0
 20
0.0
 30
0.0
  9
$PUCSYDIR
 10
0.0
 20
1.0
 30
0.0
  9
$USERI1
 70
     0
  9
$USERI2
 70
     0
  9
$USERI3
 70
     0
  9
$USERI4
 70
     0
  9
$USERI5
 70
     0
  9
$USERR1
 40
20.0
  9
$USERR2
 40
0.0
  9
$USERR3
 40
0.0
  9
$USERR4
 40
0.0
  9
$USERR5
 40
0.0
  9
$WORLDVIEW
 70
     1
  9
$SHADEDGE
 70
     3
  9
$SHADEDIF
 70
    70
  9
$TILEMODE
 70
     1
  9
$MAXACTVP
 70
    64
  9
$PLIMCHECK
 70
     0
  9
$PEXTMIN
 10
1.0000000000000000E+020
 20
1.0000000000000000E+020
 30
1.0000000000000000E+020
  9
$PEXTMAX
 10
-1.0000000000000000E+020
 20
-1.0000000000000000E+020
 30
-1.0000000000000000E+020
  9
$PLIMMIN
 10
0.0
 20
0.0
  9
$PLIMMAX
 10
12.0
 20
9.0
  9
$UNITMODE
 70
     0
  9
$VISRETAIN
 70
     1
  9
$PLINEGEN
 70
     0
  9
$PSLTSCALE
 70
     1
  0
ENDSEC
  0
SECTION
  2
TABLES
  0
TABLE
  2
VPORT
 70
     1
  0
VPORT
  2
*ACTIVE
 70
     0
 10
0.0
 20
0.0
 11
1.0
 21
1.0
 12
47.381908369776284
 22
25.771490589764671
 13
0.0
 23
0.0
 14
50.0
 24
50.0
 15
100.0
 25
100.0
 16
0.0
 26
0.0
 36
1.0
 17
0.0
 27
0.0
 37
0.0
 40
234.36729676113291
 41
1.5540025412960601
 42
50.0
 43
0.0
 44
0.0
 50
0.0
 51
0.0
 71
     0
 72
  1000
 73
     1
 74
     0
 75
     0
 76
     0
 77
     0
 78
     0
  0
ENDTAB
  0
TABLE
  2
LTYPE
 70
     2
  0
LTYPE
  2
CONTINUOUS
 70
     0
  3
実線
 72
    65
 73
     0
 40
0.0
  0
LTYPE
  2
DASHDOT
 70
     0
  3
____ _ ____ _ ____ _ ____ _ ____ _ ____ _ ____
 72
    65
 73
     4
 40
5.5
 49
4.0
 49
-0.6
 49
0.3
 49
-0.6
  0
ENDTAB
  0
TABLE
  2
LAYER
 70
    12
  0
LAYER
  2
0
 70
     0
 62
    -7
  6
CONTINUOUS
  0
LAYER
  2
SYMBOLLINE
 70
     0
 62
    15
  6
CONTINUOUS
  0
LAYER
  2
DETAIL
 70
     0
 62
     5
  6
CONTINUOUS
  0
LAYER
  2
OUTLINE
 70
     0
 62
     3
  6
CONTINUOUS
  0
LAYER
  2
BASIS
 70
     0
 62
     6
  6
DASHDOT
  0
LAYER
  2
SIZE
 70
     0
 62
    30
  6
CONTINUOUS
  0
LAYER
  2
NOTE
 70
     0
 62
     4
  6
CONTINUOUS
  0
LAYER
  2
ARRANGE
 70
     0
 62
     1
  6
CONTINUOUS
  0
LAYER
  2
FIX
 70
     0
 62
    11
  6
CONTINUOUS
  0
LAYER
  2
SERVICESPACE
 70
     0
 62
     2
  6
DASHDOT
  0
LAYER
  2
ETC
 70
     0
 62
    61
  6
CONTINUOUS
  0
LAYER
  2
DEFPOINTS
 70
     0
 62
     7
  6
CONTINUOUS
  0
ENDTAB
  0
TABLE
  2
STYLE
 70
     2
  0
STYLE
  2
STANDARD
 70
     0
 40
0.0
 41
0.9
 50
0.0
 71
     0
 42
64.0
  3
SIMPLEX
  4
BIGFONT
  0
STYLE
  2
ANNOTATIVE
 70
     0
 40
0.0
 41
1.0
 50
0.0
 71
     0
 42
0.2
  3
txt
  4

  0
ENDTAB
  0
TABLE
  2
VIEW
 70
     1
  0
VIEW
  2
ALL
 70
     0
 40
9000.0
 10
241.50664699999999
 20
0.0
 41
12483.01
 11
0.0
 21
0.0
 31
1.0
 12
0.0
 22
0.0
 32
0.0
 42
50.0
 43
0.0
 44
0.0
 50
0.0
 71
     0
  0
ENDTAB
  0
TABLE
  2
UCS
 70
     0
  0
ENDTAB
  0
TABLE
  2
APPID
 70
     4
  0
APPID
  2
ACAD
 70
     0
  0
APPID
  2
ACADANNOTATIVE
 70
     0
  0
APPID
  2
ACAD_MLEADERVER
 70
     0
  0
APPID
  2
ACAD_EXEMPT_FROM_CAD_STANDARDS
 70
     0
  0
ENDTAB
  0
TABLE
  2
DIMSTYLE
 70
     2
  0
DIMSTYLE
  2
STANDARD
 70
     0
  3

  4

  5

  6

  7

 40
1.0
 41
0.18
 42
0.0625
 43
0.38
 44
0.18
 45
0.0
 46
0.0
 47
0.0
 48
0.0
140
0.18
141
0.09
142
0.0
143
25.399999999999999
144
1.0
145
0.0
146
1.0
147
0.09
 71
     0
 72
     0
 73
     1
 74
     1
 75
     0
 76
     0
 77
     0
 78
     0
170
     0
171
     2
172
     0
173
     0
174
     0
175
     0
176
     0
177
     0
178
     0
  0
DIMSTYLE
  2
ANNOTATIVE
 70
     0
  3

  4

  5

  6

  7

 40
1.0
 41
0.18
 42
0.0625
 43
0.38
 44
0.18
 45
0.0
 46
0.0
 47
0.0
 48
0.0
140
0.18
141
0.09
142
0.0
143
25.399999999999999
144
1.0
145
0.0
146
1.0
147
0.09
 71
     0
 72
     0
 73
     1
 74
     1
 75
     0
 76
     0
 77
     0
 78
     0
170
     0
171
     2
172
     0
173
     0
174
     0
175
     0
176
     0
177
     0
178
     0
  0
ENDTAB
  0
ENDSEC
  0
SECTION
  2
BLOCKS
  0
BLOCK
  8
0
  2
$MODEL_SPACE
 70
     0
 10
0.0
 20
0.0
 30
0.0
  3
$MODEL_SPACE
  1

  0
ENDBLK
  5
46C
  8
0
  0
BLOCK
 67
     1
  8
0
  2
$PAPER_SPACE
 70
     0
 10
0.0
 20
0.0
 30
0.0
  3
$PAPER_SPACE
  1

  0
ENDBLK
  5
468
 67
     1
  8
0
  0
BLOCK
  8
0
  2
_DOTBLANK
 70
     0
 10
0.0
 20
0.0
 30
0.0
  3
_DOTBLANK
  1

  0
CIRCLE
  5
8A
  8
0
  6
CONTINUOUS
 62
     7
 10
0.0
 20
0.0
 30
0.0
 40
0.5
  0
LINE
  5
8B
  8
0
  6
CONTINUOUS
 62
     7
 10
-0.5
 20
0.0
 30
0.0
 11
-1.0
 21
0.0
 31
0.0
  0
ENDBLK
  5
8C
  8
0
  0
ENDSEC
  0
SECTION
  2
ENTITIES
  0
LINE
  5
8D
  8
DETAIL
  6
CONTINUOUS
 62
     5
 10
-60.000000000001563
 20
-1.0
 30
0.0
 11
-60.000000000001563
 21
-18.0
 31
0.0
  0
LINE
  5
8E
  8
DETAIL
  6
CONTINUOUS
 62
     5
 10
-59.000000000001791
 20
0.0
 30
0.0
 11
-59.000000000001791
 21
-1.0
 31
0.0
  0
LINE
  5
8F
  8
DETAIL
  6
CONTINUOUS
 62
     5
 10
59.99999999999843
 20
-1.0
 30
0.0
 11
59.99999999999843
 21
-18.0
 31
0.0
  0
LINE
  5
90
  8
DETAIL
  6
CONTINUOUS
 62
     5
 10
58.999999999998437
 20
0.0
 30
0.0
 11
58.999999999998437
 21
-1.0
 31
0.0
  0
LINE
  5
91
  8
DETAIL
  6
CONTINUOUS
 62
     5
 10
-60.000000000001563
 20
-18.0
 30
0.0
 11
59.99999999999843
 21
-18.0
 31
0.0
  0
LINE
  5
92
  8
DETAIL
  6
CONTINUOUS
 62
     5
 10
-60.000000000001563
 20
-18.0
 30
0.0
 11
59.99999999999843
 21
-18.0
 31
0.0
  0
LINE
  5
93
  8
DETAIL
  6
CONTINUOUS
 62
     5
 10
-59.000000000001791
 20
-19.0
 30
0.0
 11
58.999999999998437
 21
-19.0
 31
0.0
  0
LINE
  5
94
  8
DETAIL
  6
CONTINUOUS
 62
     5
 10
-59.000000000001791
 20
0.0
 30
0.0
 11
58.999999999998437
 21
0.0
 31
0.0
  0
LINE
  5
95
  8
DETAIL
  6
CONTINUOUS
 62
     5
 10
-60.000000000001563
 20
-18.0
 30
0.0
 11
-59.000000000001791
 21
-19.0
 31
0.0
  0
LINE
  5
96
  8
DETAIL
  6
CONTINUOUS
 62
     5
 10
58.999999999998437
 20
-19.0
 30
0.0
 11
59.99999999999843
 21
-18.0
 31
0.0
  0
LINE
  5
97
  8
DETAIL
  6
CONTINUOUS
 62
     5
 10
-60.000000000001563
 20
-1.0
 30
0.0
 11
59.99999999999843
 21
-1.0
 31
0.0
  0
LINE
  5
98
  8
SIZE
  6
CONTINUOUS
 62
    30
 10
62.999999999998472
 20
-0.0000000000000011
 30
0.0
 11
135.43934122444421
 21
-0.0000000000000217
 31
0.0
  0
LINE
  5
99
  8
SIZE
  6
CONTINUOUS
 62
    30
 10
62.999999999998472
 20
-19.0
 30
0.0
 11
135.43934122444421
 21
-19.000000000000011
 31
0.0
  0
LINE
  5
9A
  8
SIZE
  6
CONTINUOUS
 62
    30
 10
115.43934122444431
 20
9.999999999999984
 30
0.0
 11
115.43934122444431
 21
19.999999999999972
 31
0.0
  0
LINE
  5
9B
  8
SIZE
  6
CONTINUOUS
 62
    30
 10
115.43934122444431
 20
-29.000000000000011
 30
0.0
 11
115.43934122444431
 21
-90.071428571428584
 31
0.0
  0
LINE
  5
9C
  8
SIZE
  6
CONTINUOUS
 62
    30
 10
115.43934122444431
 20
-0.000000000000016
 30
0.0
 11
115.43934122444431
 21
-19.000000000000011
 31
0.0
  0
CIRCLE
  5
9D
  8
SIZE
  6
CONTINUOUS
 62
    30
 10
115.43934122444431
 20
-0.000000000000016
 30
0.0
 40
5.0
  0
LINE
  5
9E
  8
SIZE
  6
CONTINUOUS
 62
    30
 10
115.43934122444431
 20
4.9999999999999831
 30
0.0
 11
115.43934122444431
 21
9.999999999999984
 31
0.0
  0
CIRCLE
  5
9F
  8
SIZE
  6
CONTINUOUS
 62
    30
 10
115.43934122444431
 20
-19.000000000000011
 30
0.0
 40
5.0
  0
LINE
  5
A0
  8
SIZE
  6
CONTINUOUS
 62
    30
 10
115.43934122444431
 20
-24.000000000000011
 30
0.0
 11
115.43934122444431
 21
-29.000000000000011
 31
0.0
  0
TEXT
  5
A1
  8
SIZE
  6
CONTINUOUS
 62
    30
 10
105.43934122444431
 20
-80.071428571428555
 30
0.0
 40
25.0
  1
19
 50
90.0
 41
0.9
 72
     1
 11
105.43934122444431
 21
-64.535714285714278
 31
0.0
  0
POINT
  5
A2
  8
DEFPOINTS
  6
CONTINUOUS
 62
     7
 10
58.999999999998458
 20
0.0
 30
0.0
  0
POINT
  5
A3
  8
DEFPOINTS
  6
CONTINUOUS
 62
     7
 10
58.999999999998458
 20
-19.0
 30
0.0
  0
POINT
  5
A4
  8
DEFPOINTS
  6
CONTINUOUS
 62
     7
 10
115.43934122444431
 20
-19.000000000000011
 30
0.0
  0
LINE
  5
A5
  8
SIZE
  6
CONTINUOUS
 62
    30
 10
-60.000000000001528
 20
3.0
 30
0.0
 11
-60.000000000001521
 21
98.048279083876935
 31
0.0
  0
LINE
  5
A6
  8
SIZE
  6
CONTINUOUS
 62
    30
 10
59.999999999998472
 20
3.0
 30
0.0
 11
59.999999999998472
 21
98.048279083876935
 31
0.0
  0
LINE
  5
A7
  8
SIZE
  6
CONTINUOUS
 62
    30
 10
-50.000000000001521
 20
78.048279083876864
 30
0.0
 11
49.999999999998472
 21
78.048279083876864
 31
0.0
  0
CIRCLE
  5
A8
  8
SIZE
  6
CONTINUOUS
 62
    30
 10
-60.000000000001521
 20
78.048279083876864
 30
0.0
 40
5.0
  0
LINE
  5
A9
  8
SIZE
  6
CONTINUOUS
 62
    30
 10
-55.000000000001521
 20
78.048279083876864
 30
0.0
 11
-50.000000000001521
 21
78.048279083876864
 31
0.0
  0
CIRCLE
  5
AA
  8
SIZE
  6
CONTINUOUS
 62
    30
 10
59.999999999998472
 20
78.048279083876864
 30
0.0
 40
5.0
  0
LINE
  5
AB
  8
SIZE
  6
CONTINUOUS
 62
    30
 10
54.999999999998472
 20
78.048279083876864
 30
0.0
 11
49.999999999998472
 21
78.048279083876864
 31
0.0
  0
TEXT
  5
AC
  8
SIZE
  6
CONTINUOUS
 62
    30
 10
-26.785714285715819
 20
88.048279083876807
 30
0.0
 40
25.0
  1
120
 41
0.9
 72
     1
 11
-0.0000000000015277
 21
88.048279083876807
 31
0.0
  0
POINT
  5
AD
  8
DEFPOINTS
  6
CONTINUOUS
 62
     7
 10
-60.000000000001528
 20
-1.0
 30
0.0
  0
POINT
  5
AE
  8
DEFPOINTS
  6
CONTINUOUS
 62
     7
 10
59.999999999998472
 20
-1.0
 30
0.0
  0
POINT
  5
AF
  8
DEFPOINTS
  6
CONTINUOUS
 62
     7
 10
59.999999999998472
 20
78.048279083876864
 30
0.0
  0
LINE
  5
B0
  8
BASIS
  6
DASHDOT
 62
     6
 10
-0.0000000000015667
 20
-38.495716371297931
 30
0.0
 11
-0.0000000000015667
 21
23.326007428915531
 31
0.0
  0
CIRCLE
  5
B1
  8
ARRANGE
  6
CONTINUOUS
 62
     1
 10
-0.0000000000014531
 20
0.0
 30
0.0
 40
11.89999999999999
  0
LINE
  5
B2
  8
ARRANGE
  6
CONTINUOUS
 62
     1
 10
-11.9088893074564
 20
-11.78632004977691
 30
0.0
 11
11.908889307454411
 21
11.786320049777821
 31
0.0
  0
LINE
  5
B3
  8
ARRANGE
  6
CONTINUOUS
 62
     1
 10
-11.891375667899039
 20
11.8039895619206
 30
0.0
 11
11.89137566789795
 21
-11.803989561919529
 31
0.0
  0
CIRCLE
  5
B4
  8
FIX
  6
CONTINUOUS
 62
    11
 10
-23.00000000000156
 20
0.0
 30
0.0
 40
4.6414611125688081
  0
LINE
  5
B5
  8
NOTE
  6
CONTINUOUS
 62
     4
 10
-23.00000000000145
 20
7.8602956126938999
 30
0.0
 11
-23.00000000000145
 21
-7.8602956126949239
 31
0.0
  0
LINE
  5
B6
  8
NOTE
  6
CONTINUOUS
 62
     4
 10
-30.860295612695811
 20
-0.0000000000004547
 30
0.0
 11
-15.139704387306979
 21
-0.0000000000004547
 31
0.0
  0
CIRCLE
  5
B7
  8
FIX
  6
CONTINUOUS
 62
    11
 10
22.99999999999843
 20
0.0
 30
0.0
 40
4.6414611125688081
  0
LINE
  5
B8
  8
NOTE
  6
CONTINUOUS
 62
     4
 10
22.99999999999854
 20
7.8602956126938999
 30
0.0
 11
22.99999999999854
 21
-7.8602956126949239
 31
0.0
  0
LINE
  5
B9
  8
NOTE
  6
CONTINUOUS
 62
     4
 10
15.13970438730418
 20
-0.0000000000004547
 30
0.0
 11
30.860295612693019
 21
-0.0000000000004547
 31
0.0
  0
LINE
  5
BA
  8
SIZE
  6
CONTINUOUS
 62
    30
 10
-23.000000000001421
 20
8.6414611125688356
 30
0.0
 11
-23.00000000000141
 21
52.10676527703162
 31
0.0
  0
LINE
  5
BB
  8
SIZE
  6
CONTINUOUS
 62
    30
 10
22.999999999998469
 20
8.6414611125688356
 30
0.0
 11
22.999999999998469
 21
52.10676527703162
 31
0.0
  0
LINE
  5
BC
  8
SIZE
  6
CONTINUOUS
 62
    30
 10
-33.000000000001421
 20
32.10676527703162
 30
0.0
 11
-43.0000000000014
 21
32.10676527703162
 31
0.0
  0
LINE
  5
BD
  8
SIZE
  6
CONTINUOUS
 62
    30
 10
32.999999999998458
 20
32.10676527703162
 30
0.0
 11
42.999999999998472
 21
32.10676527703162
 31
0.0
  0
LINE
  5
BE
  8
SIZE
  6
CONTINUOUS
 62
    30
 10
-23.000000000001421
 20
32.10676527703162
 30
0.0
 11
22.999999999998469
 21
32.10676527703162
 31
0.0
  0
CIRCLE
  5
BF
  8
SIZE
  6
CONTINUOUS
 62
    30
 10
-23.000000000001421
 20
32.10676527703162
 30
0.0
 40
5.0
  0
LINE
  5
C0
  8
SIZE
  6
CONTINUOUS
 62
    30
 10
-28.000000000001421
 20
32.10676527703162
 30
0.0
 11
-33.000000000001421
 21
32.10676527703162
 31
0.0
  0
CIRCLE
  5
C1
  8
SIZE
  6
CONTINUOUS
 62
    30
 10
22.999999999998469
 20
32.10676527703162
 30
0.0
 40
5.0
  0
LINE
  5
C2
  8
SIZE
  6
CONTINUOUS
 62
    30
 10
27.999999999998469
 20
32.10676527703162
 30
0.0
 11
32.999999999998472
 21
32.10676527703162
 31
0.0
  0
TEXT
  5
C3
  8
SIZE
  6
CONTINUOUS
 62
    30
 10
-17.678571428572901
 20
42.106765277031627
 30
0.0
 40
25.0
  1
46
 41
0.9
 72
     1
 11
-0.0000000000014779
 21
42.106765277031627
 31
0.0
  0
POINT
  5
C4
  8
DEFPOINTS
  6
CONTINUOUS
 62
     7
 10
-23.000000000001421
 20
4.6414611125688321
 30
0.0
  0
POINT
  5
C5
  8
DEFPOINTS
  6
CONTINUOUS
 62
     7
 10
22.999999999998469
 20
4.6414611125688321
 30
0.0
  0
POINT
  5
C6
  8
DEFPOINTS
  6
CONTINUOUS
 62
     7
 10
22.999999999998469
 20
32.10676527703162
 30
0.0
  0
LINE
  5
E6
  8
OUTLINE
  6
CONTINUOUS
 62
     3
 10
-60.000000000001563
 20
-1.0
 30
0.0
 11
-60.000000000001563
 21
-18.0
 31
0.0
  0
LINE
  5
E7
  8
OUTLINE
  6
CONTINUOUS
 62
     3
 10
-59.000000000001791
 20
0.0
 30
0.0
 11
-59.000000000001791
 21
-1.0
 31
0.0
  0
LINE
  5
E8
  8
OUTLINE
  6
CONTINUOUS
 62
     3
 10
59.99999999999843
 20
-1.0
 30
0.0
 11
59.99999999999843
 21
-18.0
 31
0.0
  0
LINE
  5
E9
  8
OUTLINE
  6
CONTINUOUS
 62
     3
 10
58.999999999998437
 20
0.0
 30
0.0
 11
58.999999999998437
 21
-1.0
 31
0.0
  0
LINE
  5
EB
  8
OUTLINE
  6
CONTINUOUS
 62
     3
 10
-59.000000000001791
 20
0.0
 30
0.0
 11
58.999999999998437
 21
0.0
 31
0.0
  0
LINE
  5
EC
  8
OUTLINE
  6
CONTINUOUS
 62
     3
 10
-60.000000000001563
 20
-18.0
 30
0.0
 11
-59.000000000001791
 21
-19.0
 31
0.0
  0
LINE
  5
ED
  8
OUTLINE
  6
CONTINUOUS
 62
     3
 10
58.999999999998437
 20
-19.0
 30
0.0
 11
59.99999999999843
 21
-18.0
 31
0.0
  0
LINE
  5
EE
  8
OUTLINE
  6
CONTINUOUS
 62
     3
 10
-60.000000000001563
 20
-1.0
 30
0.0
 11
59.99999999999843
 21
-1.0
 31
0.0
  0
TEXT
  5
F0
  8
ETC
  6
CONTINUOUS
 62
    61
 10
17.556616087798261
 20
122.063764003909
 30
0.0
 40
20.0
  1
PAR-35MA_6
 41
0.7
  0
LINE
  5
F1
  8
NOTE
  6
CONTINUOUS
 62
     4
 10
32.099797441358092
 20
4.9369386635272541
 30
0.0
 11
22.99999999995773
 21
-0.0000000000221121
 31
0.0
  0
LINE
  5
F2
  8
NOTE
  6
CONTINUOUS
 62
     4
 10
22.99999999995773
 20
-0.0000000000221121
 30
0.0
 11
28.412186461765049
 21
8.8254129956848661
 31
0.0
  0
TEXT
  5
F3
  8
NOTE
  6
CONTINUOUS
 62
     4
 10
77.66305397234963
 20
51.738717809514917
 30
0.0
 40
20.0
  1
AH ×4
 41
0.7
  0
LINE
  5
F4
  8
NOTE
  6
CONTINUOUS
 62
     4
 10
22.999999999971148
 20
-0.0000000000147793
 30
0.0
 11
73.726215742649444
 21
48.105898135649909
 31
0.0
  0
LINE
  5
F5
  8
NOTE
  6
CONTINUOUS
 62
     4
 10
73.726215742649444
 20
48.105898135649909
 30
0.0
 11
148.3774796021435
 21
48.105898135649909
 31
0.0
  0
LINE
  5
1FD
  8
OUTLINE
  6
CONTINUOUS
 62
     3
 10
-59.000000000001791
 20
-19.0
 30
0.0
 11
58.99999999999843
 21
-19.0
 31
0.0
  0
ENDSEC
  0
EOF
