  0
SECTION
  2
HEADER
  9
$ACADVER
  1
AC1009
  9
$INSBASE
 10
0.0
 20
0.0
 30
0.0
  9
$EXTMIN
 10
-39.000000000001421
 20
-90.494238061118736
 30
0.0
  9
$EXTMAX
 10
154.274483873002
 20
156.3722351515276
 30
0.0
  9
$LIMMIN
 10
-4267.1522210604826
 20
-2696.083210198412
  9
$LIMMAX
 10
7190.7174225864646
 20
5141.155363923066
  9
$ORTHOMODE
 70
     0
  9
$REGENMODE
 70
     1
  9
$FILLMODE
 70
     1
  9
$QTEXTMODE
 70
     0
  9
$MIRRTEXT
 70
     0
  9
$DRAGMODE
 70
     2
  9
$LTSCALE
 40
20.0
  9
$OSMODE
 70
   431
  9
$ATTMODE
 70
     1
  9
$TEXTSIZE
 40
64.0
  9
$TRACEWID
 40
0.05
  9
$TEXTSTYLE
  7
STANDARD
  9
$CLAYER
  8
SYMBOLLINE
  9
$CELTYPE
  6
CONTINUOUS
  9
$CECOLOR
 62
     7
  9
$DIMSCALE
 40
1.0
  9
$DIMASZ
 40
10.0
  9
$DIMEXO
 40
4.0
  9
$DIMDLI
 40
300.0
  9
$DIMRND
 40
0.0
  9
$DIMDLE
 40
0.0
  9
$DIMEXE
 40
20.0
  9
$DIMTP
 40
0.0
  9
$DIMTM
 40
0.0
  9
$DIMTXT
 40
25.0
  9
$DIMCEN
 40
0.0
  9
$DIMTSZ
 40
0.0
  9
$DIMTOL
 70
     0
  9
$DIMLIM
 70
     0
  9
$DIMTIH
 70
     0
  9
$DIMTOH
 70
     0
  9
$DIMSE1
 70
     0
  9
$DIMSE2
 70
     0
  9
$DIMTAD
 70
     1
  9
$DIMZIN
 70
     8
  9
$DIMBLK
  1
DOTBLANK
  9
$DIMASO
 70
     1
  9
$DIMSHO
 70
     0
  9
$DIMPOST
  1

  9
$DIMAPOST
  1

  9
$DIMALT
 70
     0
  9
$DIMALTD
 70
     2
  9
$DIMALTF
 40
25.399999999999999
  9
$DIMLFAC
 40
1.0
  9
$DIMTOFL
 70
     1
  9
$DIMTVP
 40
0.0
  9
$DIMTIX
 70
     1
  9
$DIMSOXD
 70
     0
  9
$DIMSAH
 70
     0
  9
$DIMBLK1
  1

  9
$DIMBLK2
  1

  9
$DIMSTYLE
  2
STANDARD
  9
$DIMCLRD
 70
     0
  9
$DIMCLRE
 70
     0
  9
$DIMCLRT
 70
     0
  9
$DIMTFAC
 40
1.0
  9
$DIMGAP
 40
0.09
  9
$LUNITS
 70
     2
  9
$LUPREC
 70
     4
  9
$SKETCHINC
 40
0.1
  9
$FILLETRAD
 40
1.0
  9
$AUNITS
 70
     1
  9
$AUPREC
 70
     3
  9
$MENU
  1
ACAD
  9
$ELEVATION
 40
0.0
  9
$PELEVATION
 40
0.0
  9
$THICKNESS
 40
0.0
  9
$LIMCHECK
 70
     0
  9
$BLIPMODE
 70
     0
  9
$CHAMFERA
 40
0.0
  9
$CHAMFERB
 40
0.0
  9
$SKPOLY
 70
     0
  9
$TDCREATE
 40
2450330.4399309959
  9
$TDUPDATE
 40
2456990.5478119329
  9
$TDINDWG
 40
3.5164348611
  9
$TDUSRTIMER
 40
3.5164259722
  9
$USRTIMER
 70
     1
  9
$ANGBASE
 50
0.0
  9
$ANGDIR
 70
     0
  9
$PDMODE
 70
     3
  9
$PDSIZE
 40
-2.0
  9
$PLINEWID
 40
0.0
  9
$COORDS
 70
     1
  9
$SPLFRAME
 70
     0
  9
$SPLINETYPE
 70
     6
  9
$SPLINESEGS
 70
     8
  9
$ATTDIA
 70
     1
  9
$ATTREQ
 70
     1
  9
$HANDLING
 70
     1
  9
$HANDSEED
  5
720
  9
$SURFTAB1
 70
     6
  9
$SURFTAB2
 70
     6
  9
$SURFTYPE
 70
     6
  9
$SURFU
 70
     6
  9
$SURFV
 70
     6
  9
$UCSNAME
  2

  9
$UCSORG
 10
0.0
 20
0.0
 30
0.0
  9
$UCSXDIR
 10
1.0
 20
0.0
 30
0.0
  9
$UCSYDIR
 10
0.0
 20
1.0
 30
0.0
  9
$PUCSNAME
  2

  9
$PUCSORG
 10
0.0
 20
0.0
 30
0.0
  9
$PUCSXDIR
 10
1.0
 20
0.0
 30
0.0
  9
$PUCSYDIR
 10
0.0
 20
1.0
 30
0.0
  9
$USERI1
 70
     0
  9
$USERI2
 70
     0
  9
$USERI3
 70
     0
  9
$USERI4
 70
     0
  9
$USERI5
 70
     0
  9
$USERR1
 40
20.0
  9
$USERR2
 40
0.0
  9
$USERR3
 40
0.0
  9
$USERR4
 40
0.0
  9
$USERR5
 40
0.0
  9
$WORLDVIEW
 70
     1
  9
$SHADEDGE
 70
     3
  9
$SHADEDIF
 70
    70
  9
$TILEMODE
 70
     1
  9
$MAXACTVP
 70
    64
  9
$PLIMCHECK
 70
     0
  9
$PEXTMIN
 10
1.0000000000000000E+020
 20
1.0000000000000000E+020
 30
1.0000000000000000E+020
  9
$PEXTMAX
 10
-1.0000000000000000E+020
 20
-1.0000000000000000E+020
 30
-1.0000000000000000E+020
  9
$PLIMMIN
 10
0.0
 20
0.0
  9
$PLIMMAX
 10
12.0
 20
9.0
  9
$UNITMODE
 70
     0
  9
$VISRETAIN
 70
     1
  9
$PLINEGEN
 70
     0
  9
$PSLTSCALE
 70
     1
  0
ENDSEC
  0
SECTION
  2
TABLES
  0
TABLE
  2
VPORT
 70
     1
  0
VPORT
  2
*ACTIVE
 70
     0
 10
0.0
 20
0.0
 11
1.0
 21
1.0
 12
65.829676080010586
 22
32.946696812217851
 13
0.0
 23
0.0
 14
50.0
 24
50.0
 15
100.0
 25
100.0
 16
0.0
 26
0.0
 36
1.0
 17
0.0
 27
0.0
 37
0.0
 40
248.84012603594971
 41
1.6159895150720831
 42
50.0
 43
0.0
 44
0.0
 50
0.0
 51
0.0
 71
     0
 72
  1000
 73
     1
 74
     0
 75
     0
 76
     0
 77
     0
 78
     0
  0
ENDTAB
  0
TABLE
  2
LTYPE
 70
     3
  0
LTYPE
  2
CONTINUOUS
 70
     0
  3
実線
 72
    65
 73
     0
 40
0.0
  0
LTYPE
  2
DASHDOT
 70
     0
  3
____ _ ____ _ ____ _ ____ _ ____ _ ____ _ ____
 72
    65
 73
     4
 40
5.5
 49
4.0
 49
-0.6
 49
0.3
 49
-0.6
  0
ENDTAB
  0
TABLE
  2
LAYER
 70
    12
  0
LAYER
  2
0
 70
     0
 62
     7
  6
CONTINUOUS
  0
LAYER
  2
SYMBOLLINE
 70
     0
 62
    15
  6
CONTINUOUS
  0
LAYER
  2
DETAIL
 70
     0
 62
     5
  6
CONTINUOUS
  0
LAYER
  2
OUTLINE
 70
     0
 62
     3
  6
CONTINUOUS
  0
LAYER
  2
BASIS
 70
     0
 62
     6
  6
DASHDOT
  0
LAYER
  2
SIZE
 70
     0
 62
    30
  6
CONTINUOUS
  0
LAYER
  2
NOTE
 70
     0
 62
     4
  6
CONTINUOUS
  0
LAYER
  2
ARRANGE
 70
     0
 62
     1
  6
CONTINUOUS
  0
LAYER
  2
FIX
 70
     0
 62
    11
  6
CONTINUOUS
  0
LAYER
  2
SERVICESPACE
 70
     0
 62
     2
  6
DASHDOT
  0
LAYER
  2
ETC
 70
     0
 62
    61
  6
CONTINUOUS
  0
LAYER
  2
DEFPOINTS
 70
     0
 62
     7
  6
CONTINUOUS
  0
ENDTAB
  0
TABLE
  2
STYLE
 70
     2
  0
STYLE
  2
STANDARD
 70
     0
 40
0.0
 41
0.9
 50
0.0
 71
     0
 42
64.0
  3
SIMPLEX
  4
BIGFONT
  0
STYLE
  2
ANNOTATIVE
 70
     0
 40
0.0
 41
1.0
 50
0.0
 71
     0
 42
0.2
  3
txt
  4

  0
ENDTAB
  0
TABLE
  2
VIEW
 70
     1
  0
VIEW
  2
ALL
 70
     0
 40
9000.0
 10
241.50664699999999
 20
0.0
 41
12483.01
 11
0.0
 21
0.0
 31
1.0
 12
0.0
 22
0.0
 32
0.0
 42
50.0
 43
0.0
 44
0.0
 50
0.0
 71
     0
  0
ENDTAB
  0
TABLE
  2
UCS
 70
     0
  0
ENDTAB
  0
TABLE
  2
APPID
 70
     5
  0
APPID
  2
ACAD
 70
     0
  0
APPID
  2
ACADANNOTATIVE
 70
     0
  0
APPID
  2
ACAD_MLEADERVER
 70
     0
  0
APPID
  2
ACAD_EXEMPT_FROM_CAD_STANDARDS
 70
     0
  0
APPID
  2
ACAD_NAV_VCDISPLAY
 70
     0
  0
ENDTAB
  0
TABLE
  2
DIMSTYLE
 70
     2
  0
DIMSTYLE
  2
STANDARD
 70
     0
  3

  4

  5

  6

  7

 40
1.0
 41
0.18
 42
0.0625
 43
0.38
 44
0.18
 45
0.0
 46
0.0
 47
0.0
 48
0.0
140
0.18
141
0.09
142
0.0
143
25.399999999999999
144
1.0
145
0.0
146
1.0
147
0.09
 71
     0
 72
     0
 73
     1
 74
     1
 75
     0
 76
     0
 77
     0
 78
     0
170
     0
171
     2
172
     0
173
     0
174
     0
175
     0
176
     0
177
     0
178
     0
  0
DIMSTYLE
  2
ANNOTATIVE
 70
     0
  3

  4

  5

  6

  7

 40
1.0
 41
0.18
 42
0.0625
 43
0.38
 44
0.18
 45
0.0
 46
0.0
 47
0.0
 48
0.0
140
0.18
141
0.09
142
0.0
143
25.399999999999999
144
1.0
145
0.0
146
1.0
147
0.09
 71
     0
 72
     0
 73
     1
 74
     1
 75
     0
 76
     0
 77
     0
 78
     0
170
     0
171
     2
172
     0
173
     0
174
     0
175
     0
176
     0
177
     0
178
     0
  0
ENDTAB
  0
ENDSEC
  0
SECTION
  2
BLOCKS
  0
BLOCK
  8
0
  2
$MODEL_SPACE
 70
     0
 10
0.0
 20
0.0
 30
0.0
  3
$MODEL_SPACE
  1

  0
ENDBLK
  5
65C
  8
0
  0
BLOCK
 67
     1
  8
0
  2
$PAPER_SPACE
 70
     0
 10
0.0
 20
0.0
 30
0.0
  3
$PAPER_SPACE
  1

  0
ENDBLK
  5
658
 67
     1
  8
0
  0
BLOCK
  8
0
  2
_DOTBLANK
 70
     0
 10
0.0
 20
0.0
 30
0.0
  3
_DOTBLANK
  1

  0
CIRCLE
  5
8A
  8
0
  6
CONTINUOUS
 62
     7
 10
0.0
 20
0.0
 30
0.0
 40
0.5
  0
LINE
  5
8B
  8
0
  6
CONTINUOUS
 62
     7
 10
-0.5
 20
0.0
 30
0.0
 11
-1.0
 21
0.0
 31
0.0
  0
ENDBLK
  5
8C
  8
0
  0
ENDSEC
  0
SECTION
  2
ENTITIES
  0
LINE
  5
8D
  8
DETAIL
  6
CONTINUOUS
 62
     5
 10
-1.0607224288988271
 20
-59.99800318609897
 30
0.0
 11
-1.0607224288988271
 21
60.001996813901087
 31
0.0
  0
LINE
  5
8E
  8
DETAIL
  6
CONTINUOUS
 62
     5
 10
-0.0000000000014211
 20
59.281647999948632
 30
0.0
 11
-0.0000000000014211
 21
-59.171730135176901
 31
0.0
  0
LINE
  5
8F
  8
DETAIL
  6
CONTINUOUS
 62
     5
 10
-19.000000000001421
 20
-58.99800318609897
 30
0.0
 11
-19.000000000001421
 21
59.001996813901087
 31
0.0
  0
LINE
  5
90
  8
DETAIL
  6
CONTINUOUS
 62
     5
 10
-19.000000000001421
 20
-57.446861140416843
 30
0.0
 11
-0.0000000000014211
 21
-57.446861140416843
 31
0.0
  0
LINE
  5
91
  8
DETAIL
  6
CONTINUOUS
 62
     5
 10
-1.0607224288988271
 20
-59.99800318609897
 30
0.0
 11
-19.000000000001421
 21
-58.99800318609897
 31
0.0
  0
LINE
  5
92
  8
DETAIL
  6
CONTINUOUS
 62
     5
 10
-1.0607224288988271
 20
-59.171730135176901
 30
0.0
 11
-0.0000000000014211
 21
-59.171730135176901
 31
0.0
  0
LINE
  5
93
  8
DETAIL
  6
CONTINUOUS
 62
     5
 10
-6.8356734269382811
 20
-55.254773456909732
 30
0.0
 11
-12.037801512062281
 21
-55.254773456909732
 31
0.0
  0
LINE
  5
94
  8
DETAIL
  6
CONTINUOUS
 62
     5
 10
-12.037801512062281
 20
-52.97180213805683
 30
0.0
 11
-6.8356734269382811
 21
-52.97180213805683
 31
0.0
  0
LINE
  5
95
  8
DETAIL
  6
CONTINUOUS
 62
     5
 10
-12.037801512062281
 20
-49.453901422028181
 30
0.0
 11
-6.8356734269382811
 21
-49.453901422028181
 31
0.0
  0
LINE
  5
96
  8
DETAIL
  6
CONTINUOUS
 62
     5
 10
-6.8356734269382811
 20
-51.73687274088109
 30
0.0
 11
-12.037801512062281
 21
-51.73687274088109
 31
0.0
  0
POLYLINE
  5
97
  8
DETAIL
  6
CONTINUOUS
 62
     5
 66
     1
 10
0.0
 20
0.0
 30
0.0
  0
VERTEX
  5
69E
  8
DETAIL
  6
CONTINUOUS
 62
     5
 10
-12.037801512061881
 20
-49.453901422028331
 30
0.0
 42
0.004439820178927
  0
VERTEX
  5
69F
  8
DETAIL
  6
CONTINUOUS
 62
     5
 10
-12.04984316402931
 20
-49.453921520817801
 30
0.0
 42
0.1457732960059066
  0
VERTEX
  5
6A0
  8
DETAIL
  6
CONTINUOUS
 62
     5
 10
-12.44199248553724
 20
-49.578579554564293
 30
0.0
 42
0.0847440260533289
  0
VERTEX
  5
6A1
  8
DETAIL
  6
CONTINUOUS
 62
     5
 10
-12.66836882123452
 20
-49.794811256414022
 30
0.0
 42
0.0721177132070231
  0
VERTEX
  5
6A2
  8
DETAIL
  6
CONTINUOUS
 62
     5
 10
-12.83002788759555
 20
-50.093208780277607
 30
0.0
 42
0.0916891604525773
  0
VERTEX
  5
6A3
  8
DETAIL
  6
CONTINUOUS
 62
     5
 10
-12.917516700669429
 20
-50.604667452669531
 30
0.0
 42
0.0916891604525773
  0
VERTEX
  5
6A4
  8
DETAIL
  6
CONTINUOUS
 62
     5
 10
-12.81925750665085
 20
-51.114166615346782
 30
0.0
 42
0.0721177132070231
  0
VERTEX
  5
6A5
  8
DETAIL
  6
CONTINUOUS
 62
     5
 10
-12.651339353707931
 20
-51.409087333331982
 30
0.0
 42
0.0847440260533289
  0
VERTEX
  5
6A6
  8
DETAIL
  6
CONTINUOUS
 62
     5
 10
-12.42045172364784
 20
-51.620495224702637
 30
0.0
 42
0.1457732960059066
  0
VERTEX
  5
6A7
  8
DETAIL
  6
CONTINUOUS
 62
     5
 10
-12.037801512061881
 20
-51.73687274088109
 30
0.0
 42
0.004439820178927
  0
SEQEND
  5
6A8
  8
DETAIL
  6
CONTINUOUS
 62
     5
  0
POLYLINE
  5
A3
  8
DETAIL
  6
CONTINUOUS
 62
     5
 66
     1
 10
0.0
 20
0.0
 30
0.0
  0
VERTEX
  5
6A9
  8
DETAIL
  6
CONTINUOUS
 62
     5
 10
-12.037801512061881
 20
-52.971802138056958
 30
0.0
 42
0.004439820178927
  0
VERTEX
  5
6AA
  8
DETAIL
  6
CONTINUOUS
 62
     5
 10
-12.04984316402931
 20
-52.971822236846421
 30
0.0
 42
0.1457732960059066
  0
VERTEX
  5
6AB
  8
DETAIL
  6
CONTINUOUS
 62
     5
 10
-12.44199248553724
 20
-53.096480270592899
 30
0.0
 42
0.0847440260533289
  0
VERTEX
  5
6AC
  8
DETAIL
  6
CONTINUOUS
 62
     5
 10
-12.66836882123452
 20
-53.312711972442628
 30
0.0
 42
0.0721177132070231
  0
VERTEX
  5
6AD
  8
DETAIL
  6
CONTINUOUS
 62
     5
 10
-12.83002788759555
 20
-53.611109496306241
 30
0.0
 42
0.0916891604525773
  0
VERTEX
  5
6AE
  8
DETAIL
  6
CONTINUOUS
 62
     5
 10
-12.917516700669429
 20
-54.12256816869818
 30
0.0
 42
0.0916891604525773
  0
VERTEX
  5
6AF
  8
DETAIL
  6
CONTINUOUS
 62
     5
 10
-12.81925750665085
 20
-54.632067331375417
 30
0.0
 42
0.0721177132070231
  0
VERTEX
  5
6B0
  8
DETAIL
  6
CONTINUOUS
 62
     5
 10
-12.651339353707931
 20
-54.926988049360602
 30
0.0
 42
0.0847440260533289
  0
VERTEX
  5
6B1
  8
DETAIL
  6
CONTINUOUS
 62
     5
 10
-12.42045172364784
 20
-55.13839594073125
 30
0.0
 42
0.1457732960059066
  0
VERTEX
  5
6B2
  8
DETAIL
  6
CONTINUOUS
 62
     5
 10
-12.037801512061881
 20
-55.254773456909732
 30
0.0
 42
0.004439820178927
  0
SEQEND
  5
6B3
  8
DETAIL
  6
CONTINUOUS
 62
     5
  0
POLYLINE
  5
AF
  8
DETAIL
  6
CONTINUOUS
 62
     5
 66
     1
 10
0.0
 20
0.0
 30
0.0
  0
VERTEX
  5
6B4
  8
DETAIL
  6
CONTINUOUS
 62
     5
 10
-19.00000000000092
 20
-40.149292670985723
 30
0.0
 42
0.0750497170038875
  0
VERTEX
  5
6B5
  8
DETAIL
  6
CONTINUOUS
 62
     5
 10
-19.092803712149401
 20
-40.135128671118117
 30
0.0
 42
0.1756465790552658
  0
VERTEX
  5
6B6
  8
DETAIL
  6
CONTINUOUS
 62
     5
 10
-19.318780836778711
 20
-40.223036331077132
 30
0.0
 42
0.0835881755966691
  0
VERTEX
  5
6B7
  8
DETAIL
  6
CONTINUOUS
 62
     5
 10
-19.450104918614091
 20
-40.379013036175131
 30
0.0
 42
0.0623359464788055
  0
VERTEX
  5
6B8
  8
DETAIL
  6
CONTINUOUS
 62
     5
 10
-19.544757961407999
 20
-40.595419154563771
 30
0.0
 42
0.0730734498399923
  0
VERTEX
  5
6B9
  8
DETAIL
  6
CONTINUOUS
 62
     5
 10
-19.59810392415789
 20
-40.96780197805041
 30
0.0
 42
0.0730734498399923
  0
VERTEX
  5
6BA
  8
DETAIL
  6
CONTINUOUS
 62
     5
 10
-19.544757961407999
 20
-41.340184801537049
 30
0.0
 42
0.0623359464788055
  0
VERTEX
  5
6BB
  8
DETAIL
  6
CONTINUOUS
 62
     5
 10
-19.450104918614091
 20
-41.556590919925689
 30
0.0
 42
0.0835881755966691
  0
VERTEX
  5
6BC
  8
DETAIL
  6
CONTINUOUS
 62
     5
 10
-19.318780836778711
 20
-41.712567625023688
 30
0.0
 42
0.1756465790552658
  0
VERTEX
  5
6BD
  8
DETAIL
  6
CONTINUOUS
 62
     5
 10
-19.092803712149401
 20
-41.800475284982703
 30
0.0
 42
0.1756465790552658
  0
VERTEX
  5
6BE
  8
DETAIL
  6
CONTINUOUS
 62
     5
 10
-19.00000000000092
 20
-41.786311285115097
 30
0.0
 42
0.0979443443122814
  0
SEQEND
  5
6BF
  8
DETAIL
  6
CONTINUOUS
 62
     5
  0
POLYLINE
  5
BC
  8
DETAIL
  6
CONTINUOUS
 62
     5
 66
     1
 10
0.0
 20
0.0
 30
0.0
  0
VERTEX
  5
6C0
  8
DETAIL
  6
CONTINUOUS
 62
     5
 10
-6.8356734269382571
 20
-51.73687274088109
 30
0.0
 42
0.1411443610928375
  0
VERTEX
  5
6C1
  8
DETAIL
  6
CONTINUOUS
 62
     5
 10
-6.4530232153523031
 20
-51.620495224702637
 30
0.0
 42
0.0847440260533278
  0
VERTEX
  5
6C2
  8
DETAIL
  6
CONTINUOUS
 62
     5
 10
-6.2221355852922091
 20
-51.409087333331939
 30
0.0
 42
0.0721177132070274
  0
VERTEX
  5
6C3
  8
DETAIL
  6
CONTINUOUS
 62
     5
 10
-6.0542174323493043
 20
-51.114166615346782
 30
0.0
 42
0.0916891604525755
  0
VERTEX
  5
6C4
  8
DETAIL
  6
CONTINUOUS
 62
     5
 10
-5.9559582383307372
 20
-50.604667452669531
 30
0.0
 42
0.0916891604525755
  0
VERTEX
  5
6C5
  8
DETAIL
  6
CONTINUOUS
 62
     5
 10
-6.043447051404617
 20
-50.093208780277607
 30
0.0
 42
0.0721177132070274
  0
VERTEX
  5
6C6
  8
DETAIL
  6
CONTINUOUS
 62
     5
 10
-6.2051061177656521
 20
-49.794811256413993
 30
0.0
 42
0.0847440260533278
  0
VERTEX
  5
6C7
  8
DETAIL
  6
CONTINUOUS
 62
     5
 10
-6.4314824534629427
 20
-49.578579554564293
 30
0.0
 42
0.1457732960059065
  0
VERTEX
  5
6C8
  8
DETAIL
  6
CONTINUOUS
 62
     5
 10
-6.823631774970881
 20
-49.453921520817801
 30
0.0
 42
0.1457732960059065
  0
VERTEX
  5
6C9
  8
DETAIL
  6
CONTINUOUS
 62
     5
 10
-6.8356734269383113
 20
-49.453901422028331
 30
0.0
 42
0.1411443610928375
  0
SEQEND
  5
6CA
  8
DETAIL
  6
CONTINUOUS
 62
     5
  0
POLYLINE
  5
C8
  8
DETAIL
  6
CONTINUOUS
 62
     5
 66
     1
 10
0.0
 20
0.0
 30
0.0
  0
VERTEX
  5
6CB
  8
DETAIL
  6
CONTINUOUS
 62
     5
 10
-6.8356734269382571
 20
-55.254773456909732
 30
0.0
 42
0.1411443610928375
  0
VERTEX
  5
6CC
  8
DETAIL
  6
CONTINUOUS
 62
     5
 10
-6.4530232153523031
 20
-55.13839594073125
 30
0.0
 42
0.0847440260533278
  0
VERTEX
  5
6CD
  8
DETAIL
  6
CONTINUOUS
 62
     5
 10
-6.2221355852922091
 20
-54.926988049360581
 30
0.0
 42
0.0721177132070274
  0
VERTEX
  5
6CE
  8
DETAIL
  6
CONTINUOUS
 62
     5
 10
-6.0542174323493043
 20
-54.63206733137541
 30
0.0
 42
0.0916891604525755
  0
VERTEX
  5
6CF
  8
DETAIL
  6
CONTINUOUS
 62
     5
 10
-5.9559582383307372
 20
-54.122568168698159
 30
0.0
 42
0.0916891604525755
  0
VERTEX
  5
6D0
  8
DETAIL
  6
CONTINUOUS
 62
     5
 10
-6.043447051404617
 20
-53.611109496306227
 30
0.0
 42
0.0721177132070274
  0
VERTEX
  5
6D1
  8
DETAIL
  6
CONTINUOUS
 62
     5
 10
-6.2051061177656521
 20
-53.312711972442621
 30
0.0
 42
0.0847440260533278
  0
VERTEX
  5
6D2
  8
DETAIL
  6
CONTINUOUS
 62
     5
 10
-6.4314824534629427
 20
-53.096480270592899
 30
0.0
 42
0.1457732960059065
  0
VERTEX
  5
6D3
  8
DETAIL
  6
CONTINUOUS
 62
     5
 10
-6.823631774970881
 20
-52.971822236846421
 30
0.0
 42
0.1457732960059065
  0
VERTEX
  5
6D4
  8
DETAIL
  6
CONTINUOUS
 62
     5
 10
-6.8356734269383113
 20
-52.971802138056958
 30
0.0
 42
0.1411443610928375
  0
SEQEND
  5
6D5
  8
DETAIL
  6
CONTINUOUS
 62
     5
  0
POLYLINE
  5
D4
  8
DETAIL
  6
CONTINUOUS
 62
     5
 66
     1
 10
0.0
 20
0.0
 30
0.0
  0
VERTEX
  5
6D6
  8
DETAIL
  6
CONTINUOUS
 62
     5
 10
-19.000000000001549
 20
-13.9436059817517
 30
0.0
 42
0.0069576558169091
  0
VERTEX
  5
6D7
  8
DETAIL
  6
CONTINUOUS
 62
     5
 10
-19.032825614455831
 20
-13.977954508597859
 30
0.0
 42
0.0771086919204007
  0
VERTEX
  5
6D8
  8
DETAIL
  6
CONTINUOUS
 62
     5
 10
-19.46570940783916
 20
-14.64919849556872
 30
0.0
 42
0.0511003079961407
  0
VERTEX
  5
6D9
  8
DETAIL
  6
CONTINUOUS
 62
     5
 10
-19.777734374761732
 20
-15.58051266429692
 30
0.0
 42
0.0564259472781016
  0
VERTEX
  5
6DA
  8
DETAIL
  6
CONTINUOUS
 62
     5
 10
-19.953638143867149
 20
-17.183096226541391
 30
0.0
 42
0.0564259472781016
  0
VERTEX
  5
6DB
  8
DETAIL
  6
CONTINUOUS
 62
     5
 10
-19.777877488836879
 20
-18.785695490894469
 30
0.0
 42
0.0511003079961407
  0
VERTEX
  5
6DC
  8
DETAIL
  6
CONTINUOUS
 62
     5
 10
-19.465935691060491
 20
-19.717037520256891
 30
0.0
 42
0.0771086919204007
  0
VERTEX
  5
6DD
  8
DETAIL
  6
CONTINUOUS
 62
     5
 10
-19.03311184260609
 20
-20.388320161792969
 30
0.0
 42
0.2089520709820557
  0
VERTEX
  5
6DE
  8
DETAIL
  6
CONTINUOUS
 62
     5
 10
-19.00000000000156
 20
-20.422965927335149
 30
0.0
 42
0.2020580854791619
  0
SEQEND
  5
6DF
  8
DETAIL
  6
CONTINUOUS
 62
     5
  0
LINE
  5
DF
  8
DETAIL
  6
CONTINUOUS
 62
     5
 10
-19.000000000001421
 20
57.350050736058051
 30
0.0
 11
-0.0000000000014211
 21
57.350050736058051
 31
0.0
  0
LINE
  5
E0
  8
DETAIL
  6
CONTINUOUS
 62
     5
 10
-19.000000000001421
 20
59.001996813901087
 30
0.0
 11
-1.0607224288988271
 21
60.001996813901087
 31
0.0
  0
LINE
  5
E1
  8
DETAIL
  6
CONTINUOUS
 62
     5
 10
-1.0607224288988271
 20
59.281647999948632
 30
0.0
 11
-0.0000000000014211
 21
59.281647999948632
 31
0.0
  0
LINE
  5
E2
  8
OUTLINE
  6
CONTINUOUS
 62
     3
 10
-1.0607224288988271
 20
-59.99800318609897
 30
0.0
 11
-1.0607224288988271
 21
60.001996813901087
 31
0.0
  0
LINE
  5
E3
  8
OUTLINE
  6
CONTINUOUS
 62
     3
 10
-1.0607224288988271
 20
60.001996813901087
 30
0.0
 11
-19.000000000001421
 21
59.001996813901087
 31
0.0
  0
LINE
  5
E4
  8
OUTLINE
  6
CONTINUOUS
 62
     3
 10
-19.000000000001421
 20
59.001996813901087
 30
0.0
 11
-19.000000000001421
 21
-58.99800318609897
 31
0.0
  0
LINE
  5
E5
  8
OUTLINE
  6
CONTINUOUS
 62
     3
 10
-19.000000000001421
 20
-58.99800318609897
 30
0.0
 11
-1.0607224288988271
 21
-59.99800318609897
 31
0.0
  0
LINE
  5
E7
  8
OUTLINE
  6
CONTINUOUS
 62
     3
 10
-1.0607224288988271
 20
-59.171730135176901
 30
0.0
 11
-0.0000000000014211
 21
-59.171730135176901
 31
0.0
  0
LINE
  5
E8
  8
OUTLINE
  6
CONTINUOUS
 62
     3
 10
-0.0000000000014211
 20
-59.171730135176901
 30
0.0
 11
-0.0000000000014211
 21
59.281647999948632
 31
0.0
  0
LINE
  5
E9
  8
OUTLINE
  6
CONTINUOUS
 62
     3
 10
-0.0000000000014211
 20
59.281647999948632
 30
0.0
 11
-1.0607224288988271
 21
59.281647999948632
 31
0.0
  0
LINE
  5
EA
  8
BASIS
  6
DASHDOT
 62
     6
 10
-34.670819094350911
 20
-0.0000000000000018
 30
0.0
 11
14.8361812367238
 21
-0.0000000000000018
 31
0.0
  0
CIRCLE
  5
EB
  8
ARRANGE
  6
CONTINUOUS
 62
     1
 10
-0.0000000000014211
 20
-0.0000000000014229
 30
0.0
 40
11.89999999999999
  0
LINE
  5
EC
  8
ARRANGE
  6
CONTINUOUS
 62
     1
 10
-11.90888930745643
 20
-11.78632004977834
 30
0.0
 11
11.908889307454441
 21
11.786320049776389
 31
0.0
  0
LINE
  5
ED
  8
ARRANGE
  6
CONTINUOUS
 62
     1
 10
-11.891375667899061
 20
11.803989561919179
 30
0.0
 11
11.891375667897931
 21
-11.80398956192095
 31
0.0
  0
CIRCLE
  5
EE
  8
FIX
  6
CONTINUOUS
 62
    11
 10
-0.0000000000015348
 20
-41.75000000000005
 30
0.0
 40
4.6414611125688081
  0
LINE
  5
EF
  8
NOTE
  6
CONTINUOUS
 62
     4
 10
-0.0000000000013074
 20
-33.889704387306132
 30
0.0
 11
-0.0000000000013074
 21
-49.610295612694941
 31
0.0
  0
LINE
  5
F0
  8
NOTE
  6
CONTINUOUS
 62
     4
 10
-7.8602956126957793
 20
-41.75000000000054
 30
0.0
 11
7.8602956126930499
 21
-41.75000000000054
 31
0.0
  0
CIRCLE
  5
F1
  8
FIX
  6
CONTINUOUS
 62
    11
 10
-0.0000000000015348
 20
41.749999999999993
 30
0.0
 40
4.6414611125688081
  0
LINE
  5
F2
  8
NOTE
  6
CONTINUOUS
 62
     4
 10
-0.0000000000014211
 20
49.610295612693967
 30
0.0
 11
-0.0000000000014211
 21
33.889704387305152
 31
0.0
  0
LINE
  5
F3
  8
NOTE
  6
CONTINUOUS
 62
     4
 10
-7.8602956126957793
 20
41.749999999999567
 30
0.0
 11
7.8602956126930499
 21
41.749999999999567
 31
0.0
  0
LINE
  5
F4
  8
SIZE
  6
CONTINUOUS
 62
    30
 10
8.6414611125672423
 20
41.749999999999567
 30
0.0
 11
84.200918463023683
 21
41.749999999999531
 31
0.0
  0
LINE
  5
F5
  8
SIZE
  6
CONTINUOUS
 62
    30
 10
8.6414611125672423
 20
-41.75000000000005
 30
0.0
 11
84.200918463023683
 21
-41.750000000000092
 31
0.0
  0
LINE
  5
F6
  8
SIZE
  6
CONTINUOUS
 62
    30
 10
64.200918463023726
 20
51.749999999999538
 30
0.0
 11
64.200918463023726
 21
61.749999999999538
 31
0.0
  0
LINE
  5
F7
  8
SIZE
  6
CONTINUOUS
 62
    30
 10
64.200918463023683
 20
-51.750000000000107
 30
0.0
 11
64.200918463023683
 21
-61.750000000000107
 31
0.0
  0
LINE
  5
F8
  8
SIZE
  6
CONTINUOUS
 62
    30
 10
64.200918463023726
 20
41.749999999999531
 30
0.0
 11
64.200918463023683
 21
-41.750000000000092
 31
0.0
  0
CIRCLE
  5
F9
  8
SIZE
  6
CONTINUOUS
 62
    30
 10
64.200918463023726
 20
41.749999999999531
 30
0.0
 40
5.0
  0
LINE
  5
FA
  8
SIZE
  6
CONTINUOUS
 62
    30
 10
64.200918463023726
 20
46.749999999999538
 30
0.0
 11
64.200918463023726
 21
51.749999999999538
 31
0.0
  0
CIRCLE
  5
FB
  8
SIZE
  6
CONTINUOUS
 62
    30
 10
64.200918463023683
 20
-41.750000000000092
 30
0.0
 40
5.0
  0
LINE
  5
FC
  8
SIZE
  6
CONTINUOUS
 62
    30
 10
64.200918463023683
 20
-46.750000000000099
 30
0.0
 11
64.200918463023683
 21
-51.750000000000107
 31
0.0
  0
TEXT
  5
FD
  8
SIZE
  6
CONTINUOUS
 62
    30
 10
54.200918463023712
 20
-34.28571428571454
 30
0.0
 40
25.0
  1
83.5
 50
90.0
 41
0.9
 72
     1
 11
54.200918463023712
 21
-0.0000000000002613
 31
0.0
  0
POINT
  5
FE
  8
DEFPOINTS
  6
CONTINUOUS
 62
     7
 10
4.6414611125672414
 20
41.749999999999567
 30
0.0
  0
POINT
  5
FF
  8
DEFPOINTS
  6
CONTINUOUS
 62
     7
 10
4.6414611125672414
 20
-41.75000000000005
 30
0.0
  0
POINT
  5
100
  8
DEFPOINTS
  6
CONTINUOUS
 62
     7
 10
64.200918463023683
 20
-41.750000000000092
 30
0.0
  0
LINE
  5
101
  8
SIZE
  6
CONTINUOUS
 62
    30
 10
2.9392775711011701
 20
60.001996813901087
 30
0.0
 11
142.63762496195841
 21
60.001996813901037
 31
0.0
  0
LINE
  5
102
  8
SIZE
  6
CONTINUOUS
 62
    30
 10
2.9392775711011701
 20
-59.99800318609897
 30
0.0
 11
142.63762496195841
 21
-59.998003186098998
 31
0.0
  0
LINE
  5
103
  8
SIZE
  6
CONTINUOUS
 62
    30
 10
122.63762496195839
 20
50.001996813901037
 30
0.0
 11
122.63762496195839
 21
-49.998003186098998
 31
0.0
  0
CIRCLE
  5
104
  8
SIZE
  6
CONTINUOUS
 62
    30
 10
122.63762496195839
 20
60.001996813901037
 30
0.0
 40
5.0
  0
LINE
  5
105
  8
SIZE
  6
CONTINUOUS
 62
    30
 10
122.63762496195839
 20
55.001996813901037
 30
0.0
 11
122.63762496195839
 21
50.001996813901037
 31
0.0
  0
CIRCLE
  5
106
  8
SIZE
  6
CONTINUOUS
 62
    30
 10
122.63762496195839
 20
-59.998003186098998
 30
0.0
 40
5.0
  0
LINE
  5
107
  8
SIZE
  6
CONTINUOUS
 62
    30
 10
122.63762496195839
 20
-54.998003186098998
 30
0.0
 11
122.63762496195839
 21
-49.998003186098998
 31
0.0
  0
TEXT
  5
108
  8
SIZE
  6
CONTINUOUS
 62
    30
 10
112.63762496195839
 20
-26.78371747181323
 30
0.0
 40
25.0
  1
120
 50
90.0
 41
0.9
 72
     1
 11
112.63762496195839
 21
0.0019968139010602
 31
0.0
  0
POINT
  5
109
  8
DEFPOINTS
  6
CONTINUOUS
 62
     7
 10
-1.0607224288988271
 20
60.001996813901087
 30
0.0
  0
POINT
  5
10A
  8
DEFPOINTS
  6
CONTINUOUS
 62
     7
 10
-1.0607224288988271
 20
-59.99800318609897
 30
0.0
  0
POINT
  5
10B
  8
DEFPOINTS
  6
CONTINUOUS
 62
     7
 10
122.63762496195839
 20
-59.998003186098998
 30
0.0
  0
LINE
  5
10C
  8
SIZE
  6
CONTINUOUS
 62
    30
 10
-0.0000000000014208
 20
63.281647999948632
 30
0.0
 11
-0.0000000000014179
 21
111.07321582137369
 31
0.0
  0
LINE
  5
10D
  8
SIZE
  6
CONTINUOUS
 62
    30
 10
-19.000000000001421
 20
63.001996813901073
 30
0.0
 11
-19.00000000000141
 21
111.07321582137369
 31
0.0
  0
LINE
  5
10E
  8
SIZE
  6
CONTINUOUS
 62
    30
 10
-29.000000000001421
 20
91.073215821373708
 30
0.0
 11
-39.000000000001421
 21
91.073215821373708
 31
0.0
  0
LINE
  5
10F
  8
SIZE
  6
CONTINUOUS
 62
    30
 10
9.9999999999985754
 20
91.073215821373708
 30
0.0
 11
71.071428571427177
 21
91.073215821373708
 31
0.0
  0
LINE
  5
110
  8
SIZE
  6
CONTINUOUS
 62
    30
 10
-19.00000000000141
 20
91.073215821373708
 30
0.0
 11
-0.0000000000014191
 21
91.073215821373708
 31
0.0
  0
CIRCLE
  5
111
  8
SIZE
  6
CONTINUOUS
 62
    30
 10
-19.00000000000141
 20
91.073215821373708
 30
0.0
 40
5.0
  0
LINE
  5
112
  8
SIZE
  6
CONTINUOUS
 62
    30
 10
-24.00000000000141
 20
91.073215821373708
 30
0.0
 11
-29.00000000000141
 21
91.073215821373708
 31
0.0
  0
CIRCLE
  5
113
  8
SIZE
  6
CONTINUOUS
 62
    30
 10
-0.0000000000014191
 20
91.073215821373708
 30
0.0
 40
5.0
  0
LINE
  5
114
  8
SIZE
  6
CONTINUOUS
 62
    30
 10
4.999999999998578
 20
91.073215821373708
 30
0.0
 11
9.9999999999985754
 21
91.073215821373708
 31
0.0
  0
TEXT
  5
115
  8
SIZE
  6
CONTINUOUS
 62
    30
 10
29.999999999998622
 20
101.07321582137369
 30
0.0
 40
25.0
  1
19
 41
0.9
 72
     1
 11
45.535714285712913
 21
101.07321582137369
 31
0.0
  0
POINT
  5
116
  8
DEFPOINTS
  6
CONTINUOUS
 62
     7
 10
-0.0000000000014211
 20
59.281647999948632
 30
0.0
  0
POINT
  5
117
  8
DEFPOINTS
  6
CONTINUOUS
 62
     7
 10
-19.000000000001421
 20
59.001996813901087
 30
0.0
  0
POINT
  5
118
  8
DEFPOINTS
  6
CONTINUOUS
 62
     7
 10
-19.00000000000141
 20
91.073215821373708
 30
0.0
  0
TEXT
  5
119
  8
ETC
  6
CONTINUOUS
 62
    61
 10
10.94115053966879
 20
136.3722351515276
 30
0.0
 40
20.0
  1
PAR-36MA_4
 41
0.7
  0
LINE
  5
11A
  8
NOTE
  6
CONTINUOUS
 62
     4
 10
2.8594960209175042
 20
-51.700023082692518
 30
0.0
 11
0.000000000041382
 21
-41.7499999998671
 31
0.0
  0
LINE
  5
11B
  8
NOTE
  6
CONTINUOUS
 62
     4
 10
0.000000000041382
 20
-41.7499999998671
 30
0.0
 11
7.451407704948223
 21
-48.937224781201003
 31
0.0
  0
LINE
  5
11C
  8
NOTE
  6
CONTINUOUS
 62
     4
 10
0.0000000000455884
 20
-41.749999999881943
 30
0.0
 11
29.327763116972221
 21
-90.494238061118736
 31
0.0
  0
TEXT
  5
11D
  8
NOTE
  6
CONTINUOUS
 62
     4
 10
35.057339621255657
 20
-86.861418387253707
 30
0.0
 40
20.0
  1
AH \U+00D74
 41
0.7
  0
LINE
  5
11E
  8
NOTE
  6
CONTINUOUS
 62
     4
 10
29.327763116972221
 20
-90.494238061118736
 30
0.0
 11
105.7717652510497
 21
-90.494238061118736
 31
0.0
  0
ENDSEC
  0
EOF
