  0
SECTION
  2
HEADER
  9
$ACADVER
  1
AC1009
  9
$INSBASE
 10
0.0
 20
0.0
 30
0.0
  9
$EXTMIN
 10
-68.008007464028196
 20
-80.361763397620962
 30
-0.0000000349181948
  9
$EXTMAX
 10
146.1626690507691
 20
134.29648029703819
 30
0.0000000814935747
  9
$LIMMIN
 10
-4267.1522210000003
 20
-2696.0832100000011
  9
$LIMMAX
 10
7190.7174229999991
 20
5141.1553640000002
  9
$ORTHOMODE
 70
     0
  9
$REGENMODE
 70
     1
  9
$FILLMODE
 70
     1
  9
$QTEXTMODE
 70
     0
  9
$MIRRTEXT
 70
     0
  9
$DRAGMODE
 70
     2
  9
$LTSCALE
 40
20.0
  9
$OSMODE
 70
  3071
  9
$ATTMODE
 70
     1
  9
$TEXTSIZE
 40
64.0
  9
$TRACEWID
 40
0.05
  9
$TEXTSTYLE
  7
STANDARD
  9
$CLAYER
  8
SYMBOLLINE
  9
$CELTYPE
  6
CONTINUOUS
  9
$CECOLOR
 62
     7
  9
$DIMSCALE
 40
1.0
  9
$DIMASZ
 40
5.0
  9
$DIMEXO
 40
5.0
  9
$DIMDLI
 40
200.0
  9
$DIMRND
 40
0.0
  9
$DIMDLE
 40
0.0
  9
$DIMEXE
 40
15.0
  9
$DIMTP
 40
0.0
  9
$DIMTM
 40
0.0
  9
$DIMTXT
 40
25.0
  9
$DIMCEN
 40
0.0
  9
$DIMTSZ
 40
0.0
  9
$DIMTOL
 70
     0
  9
$DIMLIM
 70
     0
  9
$DIMTIH
 70
     0
  9
$DIMTOH
 70
     0
  9
$DIMSE1
 70
     0
  9
$DIMSE2
 70
     0
  9
$DIMTAD
 70
     1
  9
$DIMZIN
 70
     8
  9
$DIMBLK
  1

  9
$DIMASO
 70
     1
  9
$DIMSHO
 70
     0
  9
$DIMPOST
  1

  9
$DIMAPOST
  1

  9
$DIMALT
 70
     0
  9
$DIMALTD
 70
     2
  9
$DIMALTF
 40
25.399999999999999
  9
$DIMLFAC
 40
1.0
  9
$DIMTOFL
 70
     1
  9
$DIMTVP
 40
0.0
  9
$DIMTIX
 70
     1
  9
$DIMSOXD
 70
     0
  9
$DIMSAH
 70
     1
  9
$DIMBLK1
  1
DOTBLANK
  9
$DIMBLK2
  1
DOTBLANK
  9
$DIMSTYLE
  2
STANDARD
  9
$DIMCLRD
 70
     0
  9
$DIMCLRE
 70
     0
  9
$DIMCLRT
 70
     0
  9
$DIMTFAC
 40
1.0
  9
$DIMGAP
 40
0.09
  9
$LUNITS
 70
     2
  9
$LUPREC
 70
     4
  9
$SKETCHINC
 40
0.1
  9
$FILLETRAD
 40
10.0
  9
$AUNITS
 70
     1
  9
$AUPREC
 70
     3
  9
$MENU
  1
ACAD
  9
$ELEVATION
 40
0.0
  9
$PELEVATION
 40
0.0
  9
$THICKNESS
 40
0.0
  9
$LIMCHECK
 70
     0
  9
$BLIPMODE
 70
     0
  9
$CHAMFERA
 40
0.0
  9
$CHAMFERB
 40
0.0
  9
$SKPOLY
 70
     0
  9
$TDCREATE
 40
2450330.4399309959
  9
$TDUPDATE
 40
2456036.5087424661
  9
$TDINDWG
 40
1.7331055207999999
  9
$TDUSRTIMER
 40
1.7331022684999999
  9
$USRTIMER
 70
     1
  9
$ANGBASE
 50
0.0
  9
$ANGDIR
 70
     0
  9
$PDMODE
 70
     3
  9
$PDSIZE
 40
-2.0
  9
$PLINEWID
 40
0.0
  9
$COORDS
 70
     1
  9
$SPLFRAME
 70
     0
  9
$SPLINETYPE
 70
     6
  9
$SPLINESEGS
 70
     8
  9
$ATTDIA
 70
     0
  9
$ATTREQ
 70
     1
  9
$HANDLING
 70
     1
  9
$HANDSEED
  5
40D
  9
$SURFTAB1
 70
     6
  9
$SURFTAB2
 70
     6
  9
$SURFTYPE
 70
     6
  9
$SURFU
 70
     6
  9
$SURFV
 70
     6
  9
$UCSNAME
  2

  9
$UCSORG
 10
0.0
 20
0.0
 30
0.0
  9
$UCSXDIR
 10
1.0
 20
0.0
 30
0.0
  9
$UCSYDIR
 10
0.0
 20
1.0
 30
0.0
  9
$PUCSNAME
  2

  9
$PUCSORG
 10
0.0
 20
0.0
 30
0.0
  9
$PUCSXDIR
 10
1.0
 20
0.0
 30
0.0
  9
$PUCSYDIR
 10
0.0
 20
1.0
 30
0.0
  9
$USERI1
 70
     0
  9
$USERI2
 70
     0
  9
$USERI3
 70
     0
  9
$USERI4
 70
     0
  9
$USERI5
 70
     0
  9
$USERR1
 40
20.0
  9
$USERR2
 40
0.0
  9
$USERR3
 40
0.0
  9
$USERR4
 40
0.0
  9
$USERR5
 40
0.0
  9
$WORLDVIEW
 70
     1
  9
$SHADEDGE
 70
     3
  9
$SHADEDIF
 70
    70
  9
$TILEMODE
 70
     1
  9
$MAXACTVP
 70
    48
  9
$PLIMCHECK
 70
     0
  9
$PEXTMIN
 10
1.0000000000000000E+020
 20
1.0000000000000000E+020
 30
1.0000000000000000E+020
  9
$PEXTMAX
 10
-1.0000000000000000E+020
 20
-1.0000000000000000E+020
 30
-1.0000000000000000E+020
  9
$PLIMMIN
 10
0.0
 20
0.0
  9
$PLIMMAX
 10
12.0
 20
9.0
  9
$UNITMODE
 70
     0
  9
$VISRETAIN
 70
     1
  9
$PLINEGEN
 70
     0
  9
$PSLTSCALE
 70
     1
  0
ENDSEC
  0
SECTION
  2
TABLES
  0
TABLE
  2
VPORT
 70
     1
  0
VPORT
  2
*ACTIVE
 70
     0
 10
0.0
 20
0.0
 11
1.0
 21
1.0
 12
1461.782600999999
 22
1222.536077
 13
0.0
 23
0.0
 14
50.0
 24
50.0
 15
100.0
 25
100.0
 16
0.0
 26
0.0
 36
1.0
 17
0.0
 27
0.0
 37
0.0
 40
7896.8373464258557
 41
1.552030456852791
 42
50.0
 43
0.0
 44
0.0
 50
0.0
 51
0.0
 71
     0
 72
  1000
 73
     1
 74
     0
 75
     0
 76
     0
 77
     0
 78
     0
  0
ENDTAB
  0
TABLE
  2
LTYPE
 70
     2
  0
LTYPE
  2
CONTINUOUS
 70
     0
  3
実線
 72
    65
 73
     0
 40
0.0
  0
LTYPE
  2
DASHDOT
 70
     0
  3
____ _ ____ _ ____ _ ____ _ ____ _ ____ _ ____
 72
    65
 73
     4
 40
5.5
 49
4.0
 49
-0.6
 49
0.3
 49
-0.6
  0
ENDTAB
  0
TABLE
  2
LAYER
 70
    12
  0
LAYER
  2
0
 70
     0
 62
     7
  6
CONTINUOUS
  0
LAYER
  2
SYMBOLLINE
 70
     0
 62
    15
  6
CONTINUOUS
  0
LAYER
  2
SIZE
 70
     0
 62
    30
  6
CONTINUOUS
  0
LAYER
  2
OUTLINE
 70
     0
 62
     3
  6
CONTINUOUS
  0
LAYER
  2
DETAIL
 70
     0
 62
     5
  6
CONTINUOUS
  0
LAYER
  2
BASIS
 70
     0
 62
     6
  6
DASHDOT
  0
LAYER
  2
NOTE
 70
     0
 62
     4
  6
CONTINUOUS
  0
LAYER
  2
ARRANGE
 70
     0
 62
     1
  6
CONTINUOUS
  0
LAYER
  2
FIX
 70
     0
 62
    11
  6
CONTINUOUS
  0
LAYER
  2
SERVICESPACE
 70
     0
 62
     2
  6
DASHDOT
  0
LAYER
  2
ETC
 70
     0
 62
    61
  6
CONTINUOUS
  0
LAYER
  2
DEFPOINTS
 70
     0
 62
     7
  6
CONTINUOUS
  0
ENDTAB
  0
TABLE
  2
STYLE
 70
     4
  0
STYLE
  2
STANDARD
 70
     0
 40
0.0
 41
0.9
 50
0.0
 71
     0
 42
64.0
  3
SIMPLEX
  4
BIGFONT
  0
STYLE
  2
ANNOTATIVE
 70
     0
 40
0.0
 41
1.0
 50
0.0
 71
     0
 42
0.2
  3
txt
  4

  0
STYLE
  2
STANDARD1
 70
     0
 40
0.0
 41
1.0
 50
0.0
 71
     0
 42
64.0
  3
MONOTXT
  4
BIGFONT
  0
STYLE
  2
NOTE
 70
     0
 40
0.0
 41
0.7
 50
0.0
 71
     0
 42
64.0
  3
SIMPLEX.shx
  4
BIGFONT.shx
  0
ENDTAB
  0
TABLE
  2
VIEW
 70
     1
  0
VIEW
  2
ALL
 70
     0
 40
9000.0
 10
241.50664699999999
 20
0.0
 41
12483.01
 11
0.0
 21
0.0
 31
1.0
 12
0.0
 22
0.0
 32
0.0
 42
50.0
 43
0.0
 44
0.0
 50
0.0
 71
     0
  0
ENDTAB
  0
TABLE
  2
UCS
 70
     0
  0
ENDTAB
  0
TABLE
  2
APPID
 70
     4
  0
APPID
  2
ACAD
 70
     0
  0
APPID
  2
ACADANNOTATIVE
 70
     0
  0
APPID
  2
ACAD_MLEADERVER
 70
     0
  0
APPID
  2
ACAD_EXEMPT_FROM_CAD_STANDARDS
 70
     0
  0
ENDTAB
  0
TABLE
  2
DIMSTYLE
 70
     2
  0
DIMSTYLE
  2
STANDARD
 70
     0
  3

  4

  5

  6

  7

 40
1.0
 41
0.18
 42
0.0625
 43
0.38
 44
0.18
 45
0.0
 46
0.0
 47
0.0
 48
0.0
140
0.18
141
0.09
142
0.0
143
25.399999999999999
144
1.0
145
0.0
146
1.0
147
0.09
 71
     0
 72
     0
 73
     1
 74
     1
 75
     0
 76
     0
 77
     0
 78
     0
170
     0
171
     2
172
     0
173
     0
174
     0
175
     0
176
     0
177
     0
178
     0
  0
DIMSTYLE
  2
ANNOTATIVE
 70
     0
  3

  4

  5

  6

  7

 40
1.0
 41
0.18
 42
0.0625
 43
0.38
 44
0.18
 45
0.0
 46
0.0
 47
0.0
 48
0.0
140
0.18
141
0.09
142
0.0
143
25.399999999999999
144
1.0
145
0.0
146
1.0
147
0.09
 71
     0
 72
     0
 73
     1
 74
     1
 75
     0
 76
     0
 77
     0
 78
     0
170
     0
171
     2
172
     0
173
     0
174
     0
175
     0
176
     0
177
     0
178
     0
  0
ENDTAB
  0
ENDSEC
  0
SECTION
  2
BLOCKS
  0
BLOCK
  8
0
  2
$MODEL_SPACE
 70
     0
 10
0.0
 20
0.0
 30
0.0
  3
$MODEL_SPACE
  1

  0
ENDBLK
  5
3BF
  8
0
  0
BLOCK
 67
     1
  8
0
  2
$PAPER_SPACE
 70
     0
 10
0.0
 20
0.0
 30
0.0
  3
$PAPER_SPACE
  1

  0
ENDBLK
  5
3BB
 67
     1
  8
0
  0
BLOCK
  8
0
  2
_DOTBLANK
 70
     0
 10
0.0
 20
0.0
 30
0.0
  3
_DOTBLANK
  1

  0
CIRCLE
  5
32
  8
0
  6
CONTINUOUS
 62
     7
 10
0.0
 20
0.0
 30
0.0
 40
0.5
  0
LINE
  5
33
  8
0
  6
CONTINUOUS
 62
     7
 10
-0.5
 20
0.0
 30
0.0
 11
-1.0
 21
0.0
 31
0.0
  0
ENDBLK
  5
34
  8
0
  0
BLOCK
  8
0
 62
     7
  2
A$C37D64422
 70
     0
 10
0.0
 20
0.0
 30
0.0
  3
A$C37D64422
  1

  0
LINE
  5
C6
  8
BASIS
  6
DASHDOT
 62
     6
 10
85.334781999999976
 20
55.563749000000001
 30
0.0
 11
85.334781999999976
 21
86.470549000000005
 31
0.0
  0
CIRCLE
  5
C7
  8
ARRANGE
  6
CONTINUOUS
 62
     1
 10
85.334781999999976
 20
80.071422999999982
 30
0.0
 40
8.9011700000000005
  0
LINE
  5
C8
  8
DETAIL
  6
CONTINUOUS
 62
     5
 10
150.33478199999999
 20
79.071422999999982
 30
0.0
 11
149.82242500000001
 21
66.582166000000001
 31
0.0
  0
LINE
  5
C9
  8
OUTLINE
  6
CONTINUOUS
 62
     3
 10
150.33478199999999
 20
79.071422999999982
 30
0.0
 11
149.82242500000001
 21
66.582166000000001
 31
0.0
  0
CIRCLE
  5
CA
  8
FIX
  6
CONTINUOUS
 62
    11
 10
108.334782
 20
80.071422999999982
 30
0.0
 40
3.3871069999999981
  0
LINE
  5
CB
  8
NOTE
  6
CONTINUOUS
 62
     4
 10
108.334782
 20
85.591122999999982
 30
0.0
 11
108.334782
 21
74.551722999999981
 31
0.0
  0
CIRCLE
  5
CC
  8
SIZE
  6
CONTINUOUS
 62
    30
 10
194.54372799999999
 20
80.071421999999998
 30
0.0
 40
2.5
  0
LINE
  5
CD
  8
SIZE
  6
CONTINUOUS
 62
    30
 10
194.54372799999999
 20
80.071421999999998
 30
0.0
 11
194.54372799999999
 21
61.071422999999989
 31
0.0
  0
LINE
  5
CE
  8
DETAIL
  6
CONTINUOUS
 62
     5
 10
20.334782000000001
 20
79.072034000000002
 30
0.0
 11
20.846910000000001
 21
66.584005000000005
 31
0.0
  0
LINE
  5
CF
  8
OUTLINE
  6
CONTINUOUS
 62
     3
 10
20.334782000000001
 20
79.072034000000002
 30
0.0
 11
20.846910000000001
 21
66.584005000000005
 31
0.0
  0
LINE
  5
D0
  8
NOTE
  6
CONTINUOUS
 62
     4
 10
62.334781999999997
 20
85.591122999999982
 30
0.0
 11
62.334781999999997
 21
74.551722999999981
 31
0.0
  0
CIRCLE
  5
D1
  8
FIX
  6
CONTINUOUS
 62
    11
 10
62.334781999999997
 20
80.071422999999982
 30
0.0
 40
3.3871069999999981
  0
LINE
  5
D2
  8
ARRANGE
  6
CONTINUOUS
 62
     1
 10
74.110612000000003
 20
68.847253000000009
 30
0.0
 11
96.558952000000005
 21
91.295593000000025
 31
0.0
  0
LINE
  5
D3
  8
ARRANGE
  6
CONTINUOUS
 62
     1
 10
74.110612000000003
 20
91.295593000000025
 30
0.0
 11
96.558952000000005
 21
68.847253000000009
 31
0.0
  0
LINE
  5
D4
  8
SIZE
  6
CONTINUOUS
 62
    30
 10
150.73243600000001
 20
61.071422999999989
 30
0.0
 11
209.54372799999999
 21
61.071422999999989
 31
0.0
  0
LINE
  5
D5
  8
OUTLINE
  6
CONTINUOUS
 62
     3
 10
24.863495
 20
61.071422999999989
 30
0.0
 11
145.73852600000001
 21
61.071422999999989
 31
0.0
  0
LINE
  5
D6
  8
DETAIL
  6
CONTINUOUS
 62
     5
 10
24.863495
 20
61.071422999999989
 30
0.0
 11
145.73852600000001
 21
61.071422999999989
 31
0.0
  0
LINE
  5
D7
  8
DETAIL
  6
CONTINUOUS
 62
     5
 10
27.834782000000001
 20
61.471426000000001
 30
0.0
 11
142.83478199999999
 21
61.471426000000001
 31
0.0
  0
ARC
  5
D8
  8
OUTLINE
  6
CONTINUOUS
 62
     3
 10
25.629299
 20
63.972033999999987
 30
0.0
 40
3.0
 50
207.954071
 51
255.16488799999999
  0
ARC
  5
D9
  8
DETAIL
  6
CONTINUOUS
 62
     5
 10
62.022684999999981
 20
64.977114
 30
0.0
 40
4.305693999999999
 50
270.0
 51
294.89250800000002
  0
ARC
  5
DA
  8
DETAIL
  6
CONTINUOUS
 62
     5
 10
52.647367000000003
 20
64.977114
 30
0.0
 40
4.305693999999999
 50
245.10749200000001
 51
270.0
  0
LINE
  5
DB
  8
DETAIL
  6
CONTINUOUS
 62
     5
 10
52.647367000000003
 20
60.671419999999998
 30
0.0
 11
62.022684999999981
 21
60.671419999999998
 31
0.0
  0
ARC
  5
DC
  8
DETAIL
  6
CONTINUOUS
 62
     5
 10
25.946497999999998
 20
65.377728000000005
 30
0.0
 40
4.305693999999999
 50
270.0
 51
294.89250800000002
  0
ARC
  5
DD
  8
DETAIL
  6
CONTINUOUS
 62
     5
 10
25.629299
 20
63.972033999999987
 30
0.0
 40
3.0
 50
207.954071
 51
255.16488799999999
  0
LINE
  5
DE
  8
DETAIL
  6
CONTINUOUS
 62
     5
 10
68.647367000000003
 20
60.671419999999998
 30
0.0
 11
78.022684999999981
 21
60.671419999999998
 31
0.0
  0
ARC
  5
DF
  8
DETAIL
  6
CONTINUOUS
 62
     5
 10
68.647367000000003
 20
64.977114
 30
0.0
 40
4.305693999999999
 50
245.10749200000001
 51
270.0
  0
ARC
  5
E0
  8
DETAIL
  6
CONTINUOUS
 62
     5
 10
78.022684999999981
 20
64.977114
 30
0.0
 40
4.305693999999999
 50
270.0
 51
294.89250800000002
  0
LINE
  5
E1
  8
DETAIL
  6
CONTINUOUS
 62
     5
 10
20.846910000000001
 20
66.584005000000005
 30
0.0
 11
22.979327999999999
 21
62.565742999999998
 31
0.0
  0
LINE
  5
E2
  8
OUTLINE
  6
CONTINUOUS
 62
     3
 10
20.846910000000001
 20
66.584005000000005
 30
0.0
 11
22.979327999999999
 21
62.565742999999998
 31
0.0
  0
ARC
  5
E3
  8
DETAIL
  6
CONTINUOUS
 62
     5
 10
144.64712299999999
 20
65.377116999999998
 30
0.0
 40
4.305693999999999
 50
245.10749200000001
 51
270.0
  0
ARC
  5
E4
  8
OUTLINE
  6
CONTINUOUS
 62
     3
 10
144.97041100000001
 20
63.971423000000001
 30
0.0
 40
3.0
 50
284.83511199999998
 51
331.272899
  0
LINE
  5
E5
  8
DETAIL
  6
CONTINUOUS
 62
     5
 10
112.14712299999999
 20
60.671419999999998
 30
0.0
 11
125.77238
 21
60.671419999999998
 31
0.0
  0
ARC
  5
E6
  8
DETAIL
  6
CONTINUOUS
 62
     5
 10
112.14712299999999
 20
64.977114
 30
0.0
 40
4.305693999999999
 50
245.10749200000001
 51
270.0
  0
LINE
  5
E7
  8
DETAIL
  6
CONTINUOUS
 62
     5
 10
116.39706200000001
 20
60.671419999999998
 30
0.0
 11
126.522441
 21
60.671419999999998
 31
0.0
  0
ARC
  5
E8
  8
DETAIL
  6
CONTINUOUS
 62
     5
 10
126.522441
 20
64.977114
 30
0.0
 40
4.305693999999999
 50
270.0
 51
294.89250800000002
  0
ARC
  5
E9
  8
DETAIL
  6
CONTINUOUS
 62
     5
 10
144.97041100000001
 20
63.971423000000001
 30
0.0
 40
3.0
 50
284.83511199999998
 51
331.272899
  0
LINE
  5
EA
  8
DETAIL
  6
CONTINUOUS
 62
     5
 10
149.82242500000001
 20
66.582166000000001
 30
0.0
 11
147.601168
 21
62.529507999999993
 31
0.0
  0
LINE
  5
EB
  8
OUTLINE
  6
CONTINUOUS
 62
     3
 10
149.82242500000001
 20
66.582166000000001
 30
0.0
 11
147.601168
 21
62.529507999999993
 31
0.0
  0
LINE
  5
EC
  8
DETAIL
  6
CONTINUOUS
 62
     5
 10
127.560185
 20
60.798347
 30
0.0
 11
127.560185
 21
59.251423000000003
 31
0.0
  0
LINE
  5
ED
  8
DETAIL
  6
CONTINUOUS
 62
     5
 10
139.56018499999999
 20
59.251423000000003
 30
0.0
 11
139.56018499999999
 21
61.071422999999989
 31
0.0
  0
LINE
  5
EE
  8
DETAIL
  6
CONTINUOUS
 62
     5
 10
127.560185
 20
59.251423000000003
 30
0.0
 11
139.56018499999999
 21
59.251423000000003
 31
0.0
  0
POINT
  5
EF
  8
DEFPOINTS
  6
CONTINUOUS
 62
     7
 10
194.54372799999999
 20
61.071422999999989
 30
0.0
  0
POINT
  5
F0
  8
DEFPOINTS
  6
CONTINUOUS
 62
     7
 10
145.73243600000001
 20
61.071422999999989
 30
0.0
  0
TEXT
  5
F1
  8
SIZE
  6
CONTINUOUS
 62
    30
 10
189.54372799999999
 20
4.9999947142857151
 30
0.0
 40
25.0
  1
19
 50
90.0
 41
0.9
 72
     1
 11
189.54372799999999
 21
20.535709000000001
 31
0.0
  0
LINE
  5
F2
  8
SIZE
  6
CONTINUOUS
 62
    30
 10
194.54372799999999
 20
58.571422999999989
 30
0.0
 11
194.54372799999999
 21
56.071422999999989
 31
0.0
  0
CIRCLE
  5
F3
  8
SIZE
  6
CONTINUOUS
 62
    30
 10
194.54372799999999
 20
61.071422999999989
 30
0.0
 40
2.5
  0
LINE
  5
F4
  8
SIZE
  6
CONTINUOUS
 62
    30
 10
194.54372799999999
 20
56.071422999999989
 30
0.0
 11
194.54372799999999
 21
-0.000006
 31
0.0
  0
LINE
  5
F5
  8
SIZE
  6
CONTINUOUS
 62
    30
 10
154.33415400000001
 20
80.071421999999998
 30
0.0
 11
209.54372799999999
 21
80.071421999999998
 31
0.0
  0
LINE
  5
F6
  8
OUTLINE
  6
CONTINUOUS
 62
     3
 10
21.258161000000001
 20
80.071422999999982
 30
0.0
 11
149.34024299999999
 21
80.071422999999982
 31
0.0
  0
TEXT
  5
F7
  8
ETC
  6
CONTINUOUS
 62
    61
 10
-0.000012
 20
183.102824
 30
0.0
 40
20.0
  1
PAR-F27_28ME_1
 50
359.99999700000001
 41
0.6030590000000001
  7
STANDARD1
  0
LINE
  5
F8
  8
DETAIL
  6
CONTINUOUS
 62
     5
 10
150.33478199999999
 20
79.071422999999982
 30
0.0
 11
20.334807000000001
 21
79.071422999999982
 31
0.0
  0
LINE
  5
F9
  8
DETAIL
  6
CONTINUOUS
 62
     5
 10
21.258161000000001
 20
80.071422999999982
 30
0.0
 11
149.34024299999999
 21
80.071422999999982
 31
0.0
  0
TEXT
  5
FA
  8
SIZE
  6
CONTINUOUS
 62
    30
 10
57.474564714285691
 20
145.31027599999999
 30
0.0
 40
25.0
  1
130
 41
0.9
 72
     1
 11
84.260278999999997
 21
145.31027599999999
 31
0.0
  0
LINE
  5
FB
  8
SIZE
  6
CONTINUOUS
 62
    30
 10
25.334782000000001
 20
140.31027599999999
 30
0.0
 11
145.33478199999999
 21
140.31027599999999
 31
0.0
  0
TEXT
  5
FC
  8
SIZE
  6
CONTINUOUS
 62
    30
 10
67.656210571428545
 20
108.824684
 30
0.0
 40
25.0
  1
46
 41
0.9
 72
     1
 11
85.334781999999976
 21
108.824684
 31
0.0
  0
LINE
  5
FD
  8
SIZE
  6
CONTINUOUS
 62
    30
 10
67.33478199999999
 20
103.824684
 30
0.0
 11
103.334782
 21
103.824684
 31
0.0
  0
LINE
  5
FE
  8
OUTLINE
  6
CONTINUOUS
 62
     3
 10
21.223262999999999
 20
79.072034000000002
 30
0.0
 11
20.334782000000001
 21
79.072034000000002
 31
0.0
  0
LINE
  5
FF
  8
OUTLINE
  6
CONTINUOUS
 62
     3
 10
21.223284
 20
79.07264499999998
 30
0.0
 11
21.258182999999999
 21
80.072035999999983
 31
0.0
  0
LINE
  5
100
  8
DETAIL
  6
CONTINUOUS
 62
     5
 10
21.223284
 20
79.07264499999998
 30
0.0
 11
21.258182999999999
 21
80.072035999999983
 31
0.0
  0
LINE
  5
101
  8
NOTE
  6
CONTINUOUS
 62
     4
 10
56.81508199999999
 20
80.071422999999982
 30
0.0
 11
67.85448199999999
 21
80.071422999999982
 31
0.0
  0
POINT
  5
102
  8
DEFPOINTS
  6
CONTINUOUS
 62
     7
 10
20.334782000000001
 20
79.072034000000002
 30
0.0
  0
LINE
  5
103
  8
SIZE
  6
CONTINUOUS
 62
    30
 10
22.834782000000001
 20
140.31027599999999
 30
0.0
 11
25.334782000000001
 21
140.31027599999999
 31
0.0
  0
CIRCLE
  5
104
  8
SIZE
  6
CONTINUOUS
 62
    30
 10
20.334782000000001
 20
140.31027599999999
 30
0.0
 40
2.5
  0
LINE
  5
105
  8
SIZE
  6
CONTINUOUS
 62
    30
 10
20.334782000000001
 20
84.072034000000002
 30
0.0
 11
20.334782000000001
 21
155.3102759999999
 31
0.0
  0
POINT
  5
106
  8
DEFPOINTS
  6
CONTINUOUS
 62
     7
 10
62.334781999999997
 20
85.591122999999982
 30
0.0
  0
LINE
  5
107
  8
SIZE
  6
CONTINUOUS
 62
    30
 10
64.83478199999999
 20
103.824684
 30
0.0
 11
67.33478199999999
 21
103.824684
 31
0.0
  0
CIRCLE
  5
108
  8
SIZE
  6
CONTINUOUS
 62
    30
 10
62.334781999999997
 20
103.824684
 30
0.0
 40
2.5
  0
LINE
  5
109
  8
SIZE
  6
CONTINUOUS
 62
    30
 10
62.334781999999997
 20
90.591122999999996
 30
0.0
 11
62.334781999999997
 21
118.824684
 31
0.0
  0
LINE
  5
10A
  8
OUTLINE
  6
CONTINUOUS
 62
     3
 10
149.37514300000001
 20
79.072031000000024
 30
0.0
 11
149.34024299999999
 21
80.071421999999998
 31
0.0
  0
LINE
  5
10B
  8
OUTLINE
  6
CONTINUOUS
 62
     3
 10
150.33478199999999
 20
79.071422999999982
 30
0.0
 11
149.37516400000001
 21
79.071422999999982
 31
0.0
  0
LINE
  5
10C
  8
DETAIL
  6
CONTINUOUS
 62
     5
 10
149.37514300000001
 20
79.072031000000024
 30
0.0
 11
149.34024299999999
 21
80.071421999999998
 31
0.0
  0
LINE
  5
10D
  8
NOTE
  6
CONTINUOUS
 62
     4
 10
102.815082
 20
80.071422999999982
 30
0.0
 11
113.854482
 21
80.071422999999982
 31
0.0
  0
POINT
  5
10E
  8
DEFPOINTS
  6
CONTINUOUS
 62
     7
 10
149.33415400000001
 20
80.071421999999998
 30
0.0
  0
LINE
  5
10F
  8
SIZE
  6
CONTINUOUS
 62
    30
 10
194.54372799999999
 20
82.571421999999998
 30
0.0
 11
194.54372799999999
 21
85.071421999999998
 31
0.0
  0
LINE
  5
110
  8
SIZE
  6
CONTINUOUS
 62
    30
 10
194.54372799999999
 20
85.071421999999998
 30
0.0
 11
194.54372799999999
 21
90.071421999999998
 31
0.0
  0
POINT
  5
111
  8
DEFPOINTS
  6
CONTINUOUS
 62
     7
 10
150.33478199999999
 20
140.31027599999999
 30
0.0
  0
POINT
  5
112
  8
DEFPOINTS
  6
CONTINUOUS
 62
     7
 10
150.33478199999999
 20
79.071422999999982
 30
0.0
  0
LINE
  5
113
  8
SIZE
  6
CONTINUOUS
 62
    30
 10
147.83478199999999
 20
140.31027599999999
 30
0.0
 11
145.33478199999999
 21
140.31027599999999
 31
0.0
  0
CIRCLE
  5
114
  8
SIZE
  6
CONTINUOUS
 62
    30
 10
150.33478199999999
 20
140.31027599999999
 30
0.0
 40
2.5
  0
LINE
  5
115
  8
SIZE
  6
CONTINUOUS
 62
    30
 10
150.33478199999999
 20
84.071422999999982
 30
0.0
 11
150.33478199999999
 21
155.3102759999999
 31
0.0
  0
POINT
  5
116
  8
DEFPOINTS
  6
CONTINUOUS
 62
     7
 10
108.334782
 20
103.824684
 30
0.0
  0
POINT
  5
117
  8
DEFPOINTS
  6
CONTINUOUS
 62
     7
 10
108.334782
 20
85.591122999999982
 30
0.0
  0
LINE
  5
118
  8
SIZE
  6
CONTINUOUS
 62
    30
 10
105.834782
 20
103.824684
 30
0.0
 11
103.334782
 21
103.824684
 31
0.0
  0
CIRCLE
  5
119
  8
SIZE
  6
CONTINUOUS
 62
    30
 10
108.334782
 20
103.824684
 30
0.0
 40
2.5
  0
LINE
  5
11A
  8
SIZE
  6
CONTINUOUS
 62
    30
 10
108.334782
 20
90.591122999999996
 30
0.0
 11
108.334782
 21
118.824684
 31
0.0
  0
ENDBLK
  5
11C
  8
0
 62
     7
  0
BLOCK
  8
0
  2
_SMALL
 70
     0
 10
0.0
 20
0.0
 30
0.0
  3
_SMALL
  1

  0
CIRCLE
  5
306
  8
0
  6
CONTINUOUS
 62
     7
 10
0.0
 20
0.0
 30
0.0
 40
0.25
  0
ENDBLK
  5
307
  8
0
  0
ENDSEC
  0
SECTION
  2
ENTITIES
  0
LINE
  5
11E
  8
BASIS
  6
DASHDOT
 62
     6
 10
0.0
 20
-24.507674000000002
 30
0.0
 11
0.0
 21
6.3991259999999981
 31
0.0
  0
CIRCLE
  5
11F
  8
ARRANGE
  6
CONTINUOUS
 62
     1
 10
0.0
 20
0.0
 30
0.0
 40
8.9011700000000005
  0
LINE
  5
120
  8
DETAIL
  6
CONTINUOUS
 62
     5
 10
65.0
 20
-1.0
 30
0.0
 11
64.487643000000006
 21
-13.489257
 31
0.0
  0
LINE
  5
121
  8
OUTLINE
  6
CONTINUOUS
 62
     3
 10
65.0
 20
-1.0
 30
0.0
 11
64.487643000000006
 21
-13.489257
 31
0.0
  0
CIRCLE
  5
122
  8
FIX
  6
CONTINUOUS
 62
    11
 10
23.0
 20
0.0
 30
0.0
 40
3.3871069999999981
  0
LINE
  5
123
  8
NOTE
  6
CONTINUOUS
 62
     4
 10
23.0
 20
5.5197000000000003
 30
0.0
 11
23.0
 21
-5.5197000000000003
 31
0.0
  0
CIRCLE
  5
124
  8
SIZE
  6
CONTINUOUS
 62
    30
 10
109.208946
 20
-0.000001
 30
0.0
 40
2.5
  0
LINE
  5
125
  8
SIZE
  6
CONTINUOUS
 62
    30
 10
109.208946
 20
-0.000001
 30
0.0
 11
109.208946
 21
-19.0
 31
0.0
  0
LINE
  5
126
  8
DETAIL
  6
CONTINUOUS
 62
     5
 10
-65.0
 20
-0.999389
 30
0.0
 11
-64.487871999999996
 21
-13.487418
 31
0.0
  0
LINE
  5
127
  8
OUTLINE
  6
CONTINUOUS
 62
     3
 10
-65.0
 20
-0.999389
 30
0.0
 11
-64.487871999999996
 21
-13.487418
 31
0.0
  0
LINE
  5
128
  8
NOTE
  6
CONTINUOUS
 62
     4
 10
-23.0
 20
5.5197000000000003
 30
0.0
 11
-23.0
 21
-5.5197000000000003
 31
0.0
  0
CIRCLE
  5
129
  8
FIX
  6
CONTINUOUS
 62
    11
 10
-23.0
 20
0.0
 30
0.0
 40
3.3871069999999981
  0
LINE
  5
12A
  8
ARRANGE
  6
CONTINUOUS
 62
     1
 10
-11.224170000000001
 20
-11.224170000000001
 30
0.0
 11
11.224170000000001
 21
11.224170000000001
 31
0.0
  0
LINE
  5
12B
  8
ARRANGE
  6
CONTINUOUS
 62
     1
 10
-11.224170000000001
 20
11.224170000000001
 30
0.0
 11
11.224170000000001
 21
-11.224170000000001
 31
0.0
  0
LINE
  5
12C
  8
SIZE
  6
CONTINUOUS
 62
    30
 10
65.397654000000003
 20
-19.0
 30
0.0
 11
124.208946
 21
-19.0
 31
0.0
  0
LINE
  5
12D
  8
OUTLINE
  6
CONTINUOUS
 62
     3
 10
-60.471286999999997
 20
-19.0
 30
0.0
 11
60.40374400000001
 21
-19.0
 31
0.0
  0
LINE
  5
12E
  8
DETAIL
  6
CONTINUOUS
 62
     5
 10
-60.471286999999997
 20
-19.0
 30
0.0
 11
60.40374400000001
 21
-19.0
 31
0.0
  0
LINE
  5
12F
  8
DETAIL
  6
CONTINUOUS
 62
     5
 10
-57.575943317520249
 20
-18.599385985250201
 30
0.0
 11
57.5
 21
-18.599996999999998
 31
0.0
  0
ARC
  5
130
  8
OUTLINE
  6
CONTINUOUS
 62
     3
 10
-59.705482999999987
 20
-16.099388999999999
 30
0.0
 40
3.0
 50
207.954071
 51
255.16488799999999
  0
ARC
  5
131
  8
DETAIL
  6
CONTINUOUS
 62
     5
 10
-23.312097000000001
 20
-15.094309000000001
 30
0.0
 40
4.305693999999999
 50
270.0
 51
294.89250800000002
  0
ARC
  5
132
  8
DETAIL
  6
CONTINUOUS
 62
     5
 10
-32.687415000000001
 20
-15.094309000000001
 30
0.0
 40
4.305693999999999
 50
245.10749200000001
 51
270.0
  0
LINE
  5
133
  8
DETAIL
  6
CONTINUOUS
 62
     5
 10
-32.687415000000001
 20
-19.400003000000002
 30
0.0
 11
-23.312097000000001
 21
-19.400003000000002
 31
0.0
  0
ARC
  5
134
  8
DETAIL
  6
CONTINUOUS
 62
     5
 10
-59.388283999999999
 20
-14.693695
 30
0.0
 40
4.305693999999999
 50
270.0
 51
294.89250800000002
  0
ARC
  5
135
  8
DETAIL
  6
CONTINUOUS
 62
     5
 10
-59.705482999999987
 20
-16.099388999999999
 30
0.0
 40
3.0
 50
207.954071
 51
255.16488799999999
  0
LINE
  5
136
  8
DETAIL
  6
CONTINUOUS
 62
     5
 10
-16.687415000000001
 20
-19.400003000000002
 30
0.0
 11
-7.3120969999999961
 21
-19.400003000000002
 31
0.0
  0
ARC
  5
137
  8
DETAIL
  6
CONTINUOUS
 62
     5
 10
-16.687415000000001
 20
-15.094309000000001
 30
0.0
 40
4.305693999999999
 50
245.10749200000001
 51
270.0
  0
ARC
  5
138
  8
DETAIL
  6
CONTINUOUS
 62
     5
 10
-7.3120969999999961
 20
-15.094309000000001
 30
0.0
 40
4.305693999999999
 50
270.0
 51
294.89250800000002
  0
LINE
  5
139
  8
DETAIL
  6
CONTINUOUS
 62
     5
 10
-64.487871999999996
 20
-13.487418
 30
0.0
 11
-62.355454000000002
 21
-17.505680000000002
 31
0.0
  0
LINE
  5
13A
  8
OUTLINE
  6
CONTINUOUS
 62
     3
 10
-64.487871999999996
 20
-13.487418
 30
0.0
 11
-62.355454000000002
 21
-17.505680000000002
 31
0.0
  0
ARC
  5
13B
  8
DETAIL
  6
CONTINUOUS
 62
     5
 10
59.312341000000011
 20
-14.694305999999999
 30
0.0
 40
4.305693999999999
 50
245.10749200000001
 51
270.0
  0
ARC
  5
13C
  8
OUTLINE
  6
CONTINUOUS
 62
     3
 10
59.635629000000002
 20
-16.100000000000001
 30
0.0
 40
3.0
 50
284.83511199999998
 51
331.272899
  0
LINE
  5
13D
  8
DETAIL
  6
CONTINUOUS
 62
     5
 10
26.812341
 20
-19.400003000000002
 30
0.0
 11
41.187658999999982
 21
-19.400003000000002
 31
0.0
  0
ARC
  5
13E
  8
DETAIL
  6
CONTINUOUS
 62
     5
 10
26.812341
 20
-15.094309000000001
 30
0.0
 40
4.305693999999999
 50
245.10749200000001
 51
270.0
  0
ARC
  5
140
  8
DETAIL
  6
CONTINUOUS
 62
     5
 10
41.187658999999982
 20
-15.094309000000001
 30
0.0
 40
4.305693999999999
 50
270.0
 51
294.89250800000002
  0
ARC
  5
141
  8
DETAIL
  6
CONTINUOUS
 62
     5
 10
59.635629000000002
 20
-16.100000000000001
 30
0.0
 40
3.0
 50
284.83511199999998
 51
331.272899
  0
LINE
  5
142
  8
DETAIL
  6
CONTINUOUS
 62
     5
 10
64.487643000000006
 20
-13.489257
 30
0.0
 11
62.266385999999997
 21
-17.541914999999999
 31
0.0
  0
LINE
  5
143
  8
OUTLINE
  6
CONTINUOUS
 62
     3
 10
64.487643000000006
 20
-13.489257
 30
0.0
 11
62.266385999999997
 21
-17.541914999999999
 31
0.0
  0
LINE
  5
144
  8
DETAIL
  6
CONTINUOUS
 62
     5
 10
42.225403
 20
-19.273076
 30
0.0
 11
42.225403
 21
-20.82
 31
0.0
  0
LINE
  5
145
  8
DETAIL
  6
CONTINUOUS
 62
     5
 10
54.225403
 20
-20.82
 30
0.0
 11
54.225403
 21
-19.0
 31
0.0
  0
LINE
  5
146
  8
DETAIL
  6
CONTINUOUS
 62
     5
 10
42.225403
 20
-20.82
 30
0.0
 11
54.225403
 21
-20.82
 31
0.0
  0
POINT
  5
147
  8
DEFPOINTS
  6
CONTINUOUS
 62
     7
 10
109.208946
 20
-19.0
 30
0.0
  0
POINT
  5
148
  8
DEFPOINTS
  6
CONTINUOUS
 62
     7
 10
60.397654000000003
 20
-19.0
 30
0.0
  0
TEXT
  5
149
  8
SIZE
  6
CONTINUOUS
 62
    30
 10
104.208946
 20
-75.07142828571429
 30
0.0
 40
25.0
  1
19
 50
90.0
 41
0.9
 72
     1
 11
104.208946
 21
-59.535713999999999
 31
0.0
  0
LINE
  5
14A
  8
SIZE
  6
CONTINUOUS
 62
    30
 10
109.208946
 20
-21.5
 30
0.0
 11
109.208946
 21
-24.0
 31
0.0
  0
CIRCLE
  5
14B
  8
SIZE
  6
CONTINUOUS
 62
    30
 10
109.208946
 20
-19.0
 30
0.0
 40
2.5
  0
LINE
  5
14C
  8
SIZE
  6
CONTINUOUS
 62
    30
 10
109.208946
 20
-24.0
 30
0.0
 11
109.208946
 21
-80.071429000000023
 31
0.0
  0
LINE
  5
14D
  8
SIZE
  6
CONTINUOUS
 62
    30
 10
68.999371999999994
 20
-0.000001
 30
0.0
 11
124.208946
 21
-0.000001
 31
0.0
  0
LINE
  5
14E
  8
OUTLINE
  6
CONTINUOUS
 62
     3
 10
-64.076621000000003
 20
0.0
 30
0.0
 11
64.005460999999997
 21
0.0
 31
0.0
  0
TEXT
  5
14F
  8
ETC
  6
CONTINUOUS
 62
    61
 10
6.9526763885453411
 20
113.80310806428859
 30
0.0
 40
20.0
  1
PAR-F29ME1_1
 50
359.99999700000001
 41
0.6030590000000001
  7
STANDARD1
  0
LINE
  5
150
  8
DETAIL
  6
CONTINUOUS
 62
     5
 10
65.0
 20
-1.0
 30
0.0
 11
-64.999975000000006
 21
-1.0
 31
0.0
  0
LINE
  5
151
  8
DETAIL
  6
CONTINUOUS
 62
     5
 10
-64.076621000000003
 20
0.0
 30
0.0
 11
64.005460999999997
 21
0.0
 31
0.0
  0
TEXT
  5
152
  8
SIZE
  6
CONTINUOUS
 62
    30
 10
-27.860217285714288
 20
65.238853000000006
 30
0.0
 40
25.0
  1
130
 41
0.9
 72
     1
 11
-1.0745029999999991
 21
65.238853000000006
 31
0.0
  0
LINE
  5
153
  8
SIZE
  6
CONTINUOUS
 62
    30
 10
-60.0
 20
60.238852999999992
 30
0.0
 11
60.0
 21
60.238852999999992
 31
0.0
  0
TEXT
  5
154
  8
SIZE
  6
CONTINUOUS
 62
    30
 10
-17.678571428571431
 20
28.753260999999998
 30
0.0
 40
25.0
  1
46
 41
0.9
 72
     1
 11
0.0
 21
28.753260999999998
 31
0.0
  0
LINE
  5
155
  8
SIZE
  6
CONTINUOUS
 62
    30
 10
-18.0
 20
23.753260999999998
 30
0.0
 11
18.0
 21
23.753260999999998
 31
0.0
  0
LINE
  5
157
  8
OUTLINE
  6
CONTINUOUS
 62
     3
 10
-64.111497999999997
 20
-0.9987780000000001
 30
0.0
 11
-64.076599000000002
 21
0.000613
 31
0.0
  0
LINE
  5
158
  8
DETAIL
  6
CONTINUOUS
 62
     5
 10
-64.111497999999997
 20
-0.9987780000000001
 30
0.0
 11
-64.076599000000002
 21
0.000613
 31
0.0
  0
LINE
  5
159
  8
NOTE
  6
CONTINUOUS
 62
     4
 10
-28.5197
 20
0.0
 30
0.0
 11
-17.4803
 21
0.0
 31
0.0
  0
LINE
  5
15B
  8
SIZE
  6
CONTINUOUS
 62
    30
 10
-62.5
 20
60.238852999999992
 30
0.0
 11
-60.0
 21
60.238852999999992
 31
0.0
  0
CIRCLE
  5
15C
  8
SIZE
  6
CONTINUOUS
 62
    30
 10
-65.0
 20
60.238852999999992
 30
0.0
 40
2.5
  0
LINE
  5
15D
  8
SIZE
  6
CONTINUOUS
 62
    30
 10
-65.0
 20
4.0006110000000001
 30
0.0
 11
-65.0
 21
75.238853000000006
 31
0.0
  0
POINT
  5
15E
  8
DEFPOINTS
  6
CONTINUOUS
 62
     7
 10
-23.0
 20
5.5197000000000003
 30
0.0
  0
LINE
  5
15F
  8
SIZE
  6
CONTINUOUS
 62
    30
 10
-20.5
 20
23.753260999999998
 30
0.0
 11
-18.0
 21
23.753260999999998
 31
0.0
  0
CIRCLE
  5
160
  8
SIZE
  6
CONTINUOUS
 62
    30
 10
-23.0
 20
23.753260999999998
 30
0.0
 40
2.5
  0
LINE
  5
161
  8
SIZE
  6
CONTINUOUS
 62
    30
 10
-23.0
 20
10.5197
 30
0.0
 11
-23.0
 21
38.753261000000002
 31
0.0
  0
LINE
  5
162
  8
OUTLINE
  6
CONTINUOUS
 62
     3
 10
64.040361000000004
 20
-0.9993920000000001
 30
0.0
 11
64.005460999999997
 21
-0.000001
 31
0.0
  0
LINE
  5
163
  8
OUTLINE
  6
CONTINUOUS
 62
     3
 10
65.0
 20
-1.0
 30
0.0
 11
-64.999974943186942
 21
-1.0
 31
0.0
  0
LINE
  5
164
  8
DETAIL
  6
CONTINUOUS
 62
     5
 10
64.040361000000004
 20
-0.9993920000000001
 30
0.0
 11
64.005460999999997
 21
-0.000001
 31
0.0
  0
LINE
  5
165
  8
NOTE
  6
CONTINUOUS
 62
     4
 10
17.4803
 20
0.0
 30
0.0
 11
28.5197
 21
0.0
 31
0.0
  0
POINT
  5
166
  8
DEFPOINTS
  6
CONTINUOUS
 62
     7
 10
63.999372000000001
 20
-0.000001
 30
0.0
  0
LINE
  5
167
  8
SIZE
  6
CONTINUOUS
 62
    30
 10
109.208946
 20
2.4999989999999981
 30
0.0
 11
109.208946
 21
4.9999989999999981
 31
0.0
  0
LINE
  5
168
  8
SIZE
  6
CONTINUOUS
 62
    30
 10
109.208946
 20
4.9999989999999981
 30
0.0
 11
109.208946
 21
9.9999990000000007
 31
0.0
  0
POINT
  5
169
  8
DEFPOINTS
  6
CONTINUOUS
 62
     7
 10
65.0
 20
60.238852999999992
 30
0.0
  0
POINT
  5
16A
  8
DEFPOINTS
  6
CONTINUOUS
 62
     7
 10
65.0
 20
-1.0
 30
0.0
  0
LINE
  5
16B
  8
SIZE
  6
CONTINUOUS
 62
    30
 10
62.5
 20
60.238852999999992
 30
0.0
 11
60.0
 21
60.238852999999992
 31
0.0
  0
CIRCLE
  5
16C
  8
SIZE
  6
CONTINUOUS
 62
    30
 10
65.0
 20
60.238852999999992
 30
0.0
 40
2.5
  0
LINE
  5
16D
  8
SIZE
  6
CONTINUOUS
 62
    30
 10
65.0
 20
4.0
 30
0.0
 11
65.0
 21
75.238853000000006
 31
0.0
  0
POINT
  5
16E
  8
DEFPOINTS
  6
CONTINUOUS
 62
     7
 10
23.0
 20
23.753260999999998
 30
0.0
  0
POINT
  5
16F
  8
DEFPOINTS
  6
CONTINUOUS
 62
     7
 10
23.0
 20
5.5197000000000003
 30
0.0
  0
LINE
  5
170
  8
SIZE
  6
CONTINUOUS
 62
    30
 10
20.5
 20
23.753260999999998
 30
0.0
 11
18.0
 21
23.753260999999998
 31
0.0
  0
CIRCLE
  5
171
  8
SIZE
  6
CONTINUOUS
 62
    30
 10
23.0
 20
23.753260999999998
 30
0.0
 40
2.5
  0
LINE
  5
172
  8
SIZE
  6
CONTINUOUS
 62
    30
 10
23.0
 20
10.5197
 30
0.0
 11
23.0
 21
38.753261000000002
 31
0.0
  0
LINE
  5
312
  8
NOTE
  6
CONTINUOUS
 62
     4
 10
23.0
 20
0.0
 30
0.0
 11
80.613455215338732
 21
31.687562410941549
 31
0.0
  0
LINE
  5
313
  8
NOTE
  6
CONTINUOUS
 62
     4
 10
23.0
 20
0.0
 30
0.0
 11
41.176591082526087
 21
4.2492329970310152
 31
0.0
  0
LINE
  5
314
  8
NOTE
  6
CONTINUOUS
 62
     4
 10
23.0
 20
0.0
 30
0.0
 11
36.616772947113532
 21
12.768239461694
 31
0.0
  0
LINE
  5
315
  8
NOTE
  6
CONTINUOUS
 62
     4
 10
115.6683172161855
 20
31.687562410941549
 30
0.0
 11
80.613455215338732
 21
31.687562410941549
 31
0.0
  0
TEXT
  5
316
  8
NOTE
  6
CONTINUOUS
 62
     4
 10
88.465648574369723
 20
38.354227115511087
 30
0.0
 40
20.0
  1
AH
 50
359.99999749553132
 41
0.7
  7
STANDARD1
  0
ENDSEC
  0
EOF
