  0
SECTION
  2
HEADER
  9
$ACADVER
  1
AC1009
  9
$INSBASE
 10
0.0
 20
0.0
 30
0.0
  9
$EXTMIN
 10
-1182.3623498114339
 20
-458.54185842739201
 30
-0.0000000000112498
  9
$EXTMAX
 10
1647.784436119003
 20
1089.7979822356681
 30
0.0000000000002956
  9
$LIMMIN
 10
-2970.0
 20
-2100.0
  9
$LIMMAX
 10
2970.0
 20
2100.0
  9
$ORTHOMODE
 70
     1
  9
$REGENMODE
 70
     0
  9
$FILLMODE
 70
     1
  9
$QTEXTMODE
 70
     0
  9
$MIRRTEXT
 70
     0
  9
$DRAGMODE
 70
     2
  9
$LTSCALE
 40
20.0
  9
$OSMODE
 70
   959
  9
$ATTMODE
 70
     1
  9
$TEXTSIZE
 40
64.0
  9
$TRACEWID
 40
0.05
  9
$TEXTSTYLE
  7
STANDARD
  9
$CLAYER
  8
SYMBOLLINE
  9
$CELTYPE
  6
CONTINUOUS
  9
$CECOLOR
 62
     7
  9
$DIMSCALE
 40
1.0
  9
$DIMASZ
 40
2.0
  9
$DIMEXO
 40
20.0
  9
$DIMDLI
 40
200.0
  9
$DIMRND
 40
0.0
  9
$DIMDLE
 40
0.0
  9
$DIMEXE
 40
30.0
  9
$DIMTP
 40
0.0
  9
$DIMTM
 40
0.0
  9
$DIMTXT
 40
64.0
  9
$DIMCEN
 40
0.09
  9
$DIMTSZ
 40
0.0
  9
$DIMTOL
 70
     0
  9
$DIMLIM
 70
     0
  9
$DIMTIH
 70
     0
  9
$DIMTOH
 70
     0
  9
$DIMSE1
 70
     0
  9
$DIMSE2
 70
     0
  9
$DIMTAD
 70
     1
  9
$DIMZIN
 70
     8
  9
$DIMBLK
  1

  9
$DIMASO
 70
     1
  9
$DIMSHO
 70
     0
  9
$DIMPOST
  1

  9
$DIMAPOST
  1

  9
$DIMALT
 70
     0
  9
$DIMALTD
 70
     2
  9
$DIMALTF
 40
25.399999999999999
  9
$DIMLFAC
 40
1.0
  9
$DIMTOFL
 70
     1
  9
$DIMTVP
 40
0.0
  9
$DIMTIX
 70
     1
  9
$DIMSOXD
 70
     0
  9
$DIMSAH
 70
     0
  9
$DIMBLK1
  1

  9
$DIMBLK2
  1

  9
$DIMSTYLE
  2
STANDARD
  9
$DIMCLRD
 70
     0
  9
$DIMCLRE
 70
     0
  9
$DIMCLRT
 70
     0
  9
$DIMTFAC
 40
1.0
  9
$DIMGAP
 40
0.09
  9
$LUNITS
 70
     2
  9
$LUPREC
 70
     4
  9
$SKETCHINC
 40
0.1
  9
$FILLETRAD
 40
0.0
  9
$AUNITS
 70
     1
  9
$AUPREC
 70
     3
  9
$MENU
  1
ACAD
  9
$ELEVATION
 40
0.0
  9
$PELEVATION
 40
0.0
  9
$THICKNESS
 40
0.0
  9
$LIMCHECK
 70
     1
  9
$BLIPMODE
 70
     0
  9
$CHAMFERA
 40
0.0
  9
$CHAMFERB
 40
0.0
  9
$SKPOLY
 70
     0
  9
$TDCREATE
 40
2450717.5722570028
  9
$TDUPDATE
 40
2455596.4126035762
  9
$TDINDWG
 40
0.083838912
  9
$TDUSRTIMER
 40
0.0838375579
  9
$USRTIMER
 70
     1
  9
$ANGBASE
 50
0.0
  9
$ANGDIR
 70
     0
  9
$PDMODE
 70
     3
  9
$PDSIZE
 40
-2.0
  9
$PLINEWID
 40
0.0
  9
$COORDS
 70
     0
  9
$SPLFRAME
 70
     0
  9
$SPLINETYPE
 70
     6
  9
$SPLINESEGS
 70
     8
  9
$ATTDIA
 70
     0
  9
$ATTREQ
 70
     1
  9
$HANDLING
 70
     1
  9
$HANDSEED
  5
44D
  9
$SURFTAB1
 70
     6
  9
$SURFTAB2
 70
     6
  9
$SURFTYPE
 70
     6
  9
$SURFU
 70
     6
  9
$SURFV
 70
     6
  9
$UCSNAME
  2

  9
$UCSORG
 10
0.0
 20
0.0
 30
0.0
  9
$UCSXDIR
 10
1.0
 20
0.0
 30
0.0
  9
$UCSYDIR
 10
0.0
 20
1.0
 30
0.0
  9
$PUCSNAME
  2

  9
$PUCSORG
 10
0.0
 20
0.0
 30
0.0
  9
$PUCSXDIR
 10
1.0
 20
0.0
 30
0.0
  9
$PUCSYDIR
 10
0.0
 20
1.0
 30
0.0
  9
$USERI1
 70
     0
  9
$USERI2
 70
     0
  9
$USERI3
 70
     0
  9
$USERI4
 70
     0
  9
$USERI5
 70
     0
  9
$USERR1
 40
20.0
  9
$USERR2
 40
0.0
  9
$USERR3
 40
0.0
  9
$USERR4
 40
0.0
  9
$USERR5
 40
0.0
  9
$WORLDVIEW
 70
     1
  9
$SHADEDGE
 70
     3
  9
$SHADEDIF
 70
    70
  9
$TILEMODE
 70
     1
  9
$MAXACTVP
 70
    48
  9
$PLIMCHECK
 70
     0
  9
$PEXTMIN
 10
1.0000000000000000E+020
 20
1.0000000000000000E+020
 30
1.0000000000000000E+020
  9
$PEXTMAX
 10
-1.0000000000000000E+020
 20
-1.0000000000000000E+020
 30
-1.0000000000000000E+020
  9
$PLIMMIN
 10
0.0
 20
0.0
  9
$PLIMMAX
 10
12.0
 20
9.0
  9
$UNITMODE
 70
     0
  9
$VISRETAIN
 70
     1
  9
$PLINEGEN
 70
     0
  9
$PSLTSCALE
 70
     1
  0
ENDSEC
  0
SECTION
  2
TABLES
  0
TABLE
  2
VPORT
 70
     1
  0
VPORT
  2
*ACTIVE
 70
     0
 10
0.0
 20
0.0
 11
1.0
 21
1.0
 12
0.0
 22
0.0
 13
0.0
 23
0.0
 14
400.0
 24
400.0
 15
400.0
 25
400.0
 16
0.0
 26
0.0
 36
1.0
 17
0.0
 27
0.0
 37
0.0
 40
4232.1839080459768
 41
1.5639386189258311
 42
50.0
 43
0.0
 44
0.0
 50
0.0
 51
0.0
 71
     0
 72
   500
 73
     1
 74
     0
 75
     0
 76
     0
 77
     0
 78
     0
  0
ENDTAB
  0
TABLE
  2
LTYPE
 70
     2
  0
LTYPE
  2
CONTINUOUS
 70
     0
  3
実線
 72
    65
 73
     0
 40
0.0
  0
LTYPE
  2
DASHDOT
 70
     0
  3
____ _ ____ _ ____ _ ____ _ ____ _ ____ _ ____
 72
    65
 73
     4
 40
5.5
 49
4.0
 49
-0.6
 49
0.3
 49
-0.6
  0
ENDTAB
  0
TABLE
  2
LAYER
 70
    12
  0
LAYER
  2
0
 70
     0
 62
     7
  6
CONTINUOUS
  0
LAYER
  2
SYMBOLLINE
 70
     0
 62
    15
  6
CONTINUOUS
  0
LAYER
  2
SIZE
 70
     0
 62
    30
  6
CONTINUOUS
  0
LAYER
  2
OUTLINE
 70
     0
 62
     3
  6
CONTINUOUS
  0
LAYER
  2
DETAIL
 70
     0
 62
     5
  6
CONTINUOUS
  0
LAYER
  2
BASIS
 70
     0
 62
     6
  6
DASHDOT
  0
LAYER
  2
NOTE
 70
     0
 62
     4
  6
CONTINUOUS
  0
LAYER
  2
ARRANGE
 70
     0
 62
     1
  6
CONTINUOUS
  0
LAYER
  2
FIX
 70
     0
 62
    11
  6
CONTINUOUS
  0
LAYER
  2
SERVICESPACE
 70
     0
 62
     2
  6
DASHDOT
  0
LAYER
  2
ETC
 70
     0
 62
    61
  6
CONTINUOUS
  0
LAYER
  2
DEFPOINTS
 70
     0
 62
     7
  6
CONTINUOUS
  0
ENDTAB
  0
TABLE
  2
STYLE
 70
     2
  0
STYLE
  2
STANDARD
 70
     0
 40
0.0
 41
0.9
 50
0.0
 71
     0
 42
64.0
  3
SIMPLEX
  4
BIGFONT
  0
STYLE
  2
ANNOTATIVE
 70
     0
 40
0.0
 41
1.0
 50
0.0
 71
     0
 42
0.2
  3
txt
  4

  0
ENDTAB
  0
TABLE
  2
VIEW
 70
     4
  0
VIEW
  2
ALL
 70
     0
 40
4508.0208510000002
 10
0.0
 20
41.309903999999989
 41
6252.631578999999
 11
0.0
 21
0.0
 31
1.0
 12
0.0
 22
0.0
 32
0.0
 42
50.0
 43
0.0
 44
0.0
 50
0.0
 71
     0
  0
ENDTAB
  0
TABLE
  2
UCS
 70
     0
  0
ENDTAB
  0
TABLE
  2
APPID
 70
     4
  0
APPID
  2
ACAD
 70
     0
  0
APPID
  2
ACADANNOTATIVE
 70
     0
  0
APPID
  2
ACAD_MLEADERVER
 70
     0
  0
APPID
  2
ACAD_EXEMPT_FROM_CAD_STANDARDS
 70
     0
  0
ENDTAB
  0
TABLE
  2
DIMSTYLE
 70
     2
  0
DIMSTYLE
  2
STANDARD
 70
     0
  3

  4

  5

  6

  7

 40
1.0
 41
0.18
 42
0.0625
 43
0.38
 44
0.18
 45
0.0
 46
0.0
 47
0.0
 48
0.0
140
0.18
141
0.09
142
0.0
143
25.399999999999999
144
1.0
145
0.0
146
1.0
147
0.09
 71
     0
 72
     0
 73
     1
 74
     1
 75
     0
 76
     0
 77
     0
 78
     0
170
     0
171
     2
172
     0
173
     0
174
     0
175
     0
176
     0
177
     0
178
     0
  0
DIMSTYLE
  2
ANNOTATIVE
 70
     0
  3

  4

  5

  6

  7

 40
1.0
 41
0.18
 42
0.0625
 43
0.38
 44
0.18
 45
0.0
 46
0.0
 47
0.0
 48
0.0
140
0.18
141
0.09
142
0.0
143
25.399999999999999
144
1.0
145
0.0
146
1.0
147
0.09
 71
     0
 72
     0
 73
     1
 74
     1
 75
     0
 76
     0
 77
     0
 78
     0
170
     0
171
     2
172
     0
173
     0
174
     0
175
     0
176
     0
177
     0
178
     0
  0
ENDTAB
  0
ENDSEC
  0
SECTION
  2
BLOCKS
  0
BLOCK
  8
0
  2
$MODEL_SPACE
 70
     0
 10
0.0
 20
0.0
 30
0.0
  3
$MODEL_SPACE
  1

  0
ENDBLK
  5
3F3
  8
0
  0
BLOCK
 67
     1
  8
0
  2
$PAPER_SPACE
 70
     0
 10
0.0
 20
0.0
 30
0.0
  3
$PAPER_SPACE
  1

  0
ENDBLK
  5
3EF
 67
     1
  8
0
  0
ENDSEC
  0
SECTION
  2
ENTITIES
  0
ARC
  5
5E
  8
DETAIL
  6
CONTINUOUS
 62
     5
 10
1010.0
 20
-360.0
 30
0.0
 40
40.0
 50
270.0
 51
0.0
  0
ARC
  5
5F
  8
DETAIL
  6
CONTINUOUS
 62
     5
 10
-1010.0
 20
-360.0
 30
0.0
 40
40.0
 50
180.0
 51
270.0
  0
ARC
  5
60
  8
DETAIL
  6
CONTINUOUS
 62
     5
 10
-1040.0
 20
390.0
 30
0.0
 40
10.0
 50
90.0
 51
180.0
  0
ARC
  5
61
  8
DETAIL
  6
CONTINUOUS
 62
     5
 10
1040.0
 20
390.0
 30
0.0
 40
10.0
 50
0.0
 51
90.0
  0
LINE
  5
62
  8
BASIS
  6
DASHDOT
 62
     6
 10
-1182.318835
 20
0.0
 30
0.0
 11
1207.6808779999999
 21
0.0
 31
0.0
  0
LINE
  5
63
  8
BASIS
  6
DASHDOT
 62
     6
 10
0.0
 20
-458.2377629999998
 30
0.0
 11
0.0
 21
479.30616600000002
 31
0.0
  0
LINE
  5
64
  8
DETAIL
  6
CONTINUOUS
 62
     5
 10
-1050.0
 20
-360.0
 30
0.0
 11
-1050.0
 21
390.0
 31
0.0
  0
LINE
  5
65
  8
DETAIL
  6
CONTINUOUS
 62
     5
 10
1050.0
 20
-360.0
 30
0.0
 11
1050.0
 21
390.0
 31
0.0
  0
LINE
  5
66
  8
DETAIL
  6
CONTINUOUS
 62
     5
 10
1010.0
 20
-400.0
 30
0.0
 11
-1010.0
 21
-400.0
 31
0.0
  0
LINE
  5
67
  8
DETAIL
  6
CONTINUOUS
 62
     5
 10
1040.0
 20
400.0
 30
0.0
 11
-1040.0
 21
400.0
 31
0.0
  0
POINT
  5
69
  8
ARRANGE
  6
CONTINUOUS
 62
     1
 10
0.0
 20
0.0
 30
0.0
  0
CIRCLE
  5
6A
  8
ARRANGE
  6
CONTINUOUS
 62
     1
 10
0.0
 20
0.0
 30
0.0
 40
40.0
  0
LINE
  5
6E
  8
OUTLINE
  6
CONTINUOUS
 62
     3
 10
1040.0
 20
400.0
 30
0.0
 11
-1040.0
 21
400.0
 31
0.0
  0
LINE
  5
6F
  8
OUTLINE
  6
CONTINUOUS
 62
     3
 10
-1050.0
 20
-360.0
 30
0.0
 11
-1050.0
 21
390.0
 31
0.0
  0
ARC
  5
70
  8
OUTLINE
  6
CONTINUOUS
 62
     3
 10
-1010.0
 20
-360.0
 30
0.0
 40
40.0
 50
180.0
 51
270.0
  0
LINE
  5
71
  8
OUTLINE
  6
CONTINUOUS
 62
     3
 10
1010.0
 20
-400.0
 30
0.0
 11
-1010.0
 21
-400.0
 31
0.0
  0
ARC
  5
72
  8
OUTLINE
  6
CONTINUOUS
 62
     3
 10
1010.0
 20
-360.0
 30
0.0
 40
40.0
 50
270.0
 51
0.0
  0
LINE
  5
73
  8
OUTLINE
  6
CONTINUOUS
 62
     3
 10
1050.0
 20
-360.0
 30
0.0
 11
1050.0
 21
390.0
 31
0.0
  0
ARC
  5
74
  8
OUTLINE
  6
CONTINUOUS
 62
     3
 10
1040.0
 20
390.0
 30
0.0
 40
10.0
 50
0.0
 51
90.0
  0
ARC
  5
75
  8
OUTLINE
  6
CONTINUOUS
 62
     3
 10
-1040.0
 20
390.0
 30
0.0
 40
10.0
 50
90.0
 51
180.0
  0
LINE
  5
7A
  8
NOTE
  6
CONTINUOUS
 62
     4
 10
843.0
 20
310.0
 30
0.0
 11
639.11029637771935
 21
489.15838050716962
 31
0.0
  0
LINE
  5
80
  8
NOTE
  6
CONTINUOUS
 62
     4
 10
916.0
 20
204.0
 30
0.0
 11
1121.245285
 21
47.394556999999992
 31
0.0
  0
LINE
  5
BB
  8
SIZE
  6
CONTINUOUS
 62
    30
 10
-1050.0
 20
410.0
 30
0.0
 11
-1050.0
 21
918.97705645329188
 31
0.0
  0
CIRCLE
  5
E1
  8
SIZE
  6
CONTINUOUS
 62
    30
 10
-1050.0
 20
886.7755136104555
 30
0.0
 40
6.0
  0
POLYLINE
  5
F2
  8
NOTE
  6
CONTINUOUS
 62
     4
 66
     1
 10
0.0
 20
0.0
 30
0.0
  0
VERTEX
  5
435
  8
NOTE
  6
CONTINUOUS
 62
     4
 10
952.7154559999999
 20
188.126271
 30
0.0
  0
VERTEX
  5
436
  8
NOTE
  6
CONTINUOUS
 62
     4
 10
916.0
 20
204.0
 30
0.0
  0
VERTEX
  5
437
  8
NOTE
  6
CONTINUOUS
 62
     4
 10
939.85965299999998
 20
171.895219
 30
0.0
  0
SEQEND
  5
438
  8
NOTE
  6
CONTINUOUS
 62
     4
  0
POLYLINE
  5
F7
  8
NOTE
  6
CONTINUOUS
 62
     4
 66
     1
 10
0.0
 20
0.0
 30
0.0
  0
VERTEX
  5
439
  8
NOTE
  6
CONTINUOUS
 62
     4
 10
893.0625563104486
 20
336.52827615753682
 30
0.0
  0
VERTEX
  5
43A
  8
NOTE
  6
CONTINUOUS
 62
     4
 10
923.0
 20
310.0
 30
0.0
  0
VERTEX
  5
43B
  8
NOTE
  6
CONTINUOUS
 62
     4
 10
910.33755088827616
 20
347.94288320865547
 30
0.0
  0
SEQEND
  5
43C
  8
NOTE
  6
CONTINUOUS
 62
     4
  0
POLYLINE
  5
FC
  8
NOTE
  6
CONTINUOUS
 62
     4
 66
     1
 10
0.0
 20
0.0
 30
0.0
  0
VERTEX
  5
43D
  8
NOTE
  6
CONTINUOUS
 62
     4
 10
807.17716609967817
 20
327.79675769514199
 30
0.0
  0
VERTEX
  5
43E
  8
NOTE
  6
CONTINUOUS
 62
     4
 10
843.0
 20
310.0
 30
0.0
  0
VERTEX
  5
43F
  8
NOTE
  6
CONTINUOUS
 62
     4
 10
820.87489472631057
 20
343.32386148170377
 30
0.0
  0
SEQEND
  5
440
  8
NOTE
  6
CONTINUOUS
 62
     4
  0
LINE
  5
101
  8
NOTE
  6
CONTINUOUS
 62
     4
 10
916.0
 20
184.0
 30
0.0
 11
916.0
 21
224.0
 31
0.0
  0
LINE
  5
102
  8
NOTE
  6
CONTINUOUS
 62
     4
 10
896.0
 20
204.0
 30
0.0
 11
936.0
 21
204.0
 31
0.0
  0
LINE
  5
103
  8
NOTE
  6
CONTINUOUS
 62
     4
 10
843.0
 20
290.0
 30
0.0
 11
843.0
 21
330.0
 31
0.0
  0
LINE
  5
104
  8
NOTE
  6
CONTINUOUS
 62
     4
 10
823.0
 20
310.0
 30
0.0
 11
863.0
 21
310.0
 31
0.0
  0
LINE
  5
105
  8
NOTE
  6
CONTINUOUS
 62
     4
 10
923.0
 20
290.0
 30
0.0
 11
923.0
 21
330.0
 31
0.0
  0
LINE
  5
106
  8
NOTE
  6
CONTINUOUS
 62
     4
 10
903.0
 20
310.0
 30
0.0
 11
943.0
 21
310.0
 31
0.0
  0
TEXT
  5
1DD
  8
ETC
  6
CONTINUOUS
 62
    61
 10
783.9737019976892
 20
1025.5741101581671
 30
0.0
 40
64.0
  1
PCZG-P10MBA5_6
 41
0.9
  0
LINE
  5
239
  8
NOTE
  6
CONTINUOUS
 62
     4
 10
639.11029637771935
 20
489.15838050716962
 30
0.0
 11
282.47374569760723
 21
489.15838050716962
 31
0.0
  0
TEXT
  5
23A
  8
NOTE
  6
CONTINUOUS
 62
     4
 10
291.5771328766204
 20
513.83627650716971
 30
0.0
 40
55.0
  1
RG φ25.4
 41
0.9
  0
LINE
  5
23B
  8
NOTE
  6
CONTINUOUS
 62
     4
 10
923.0
 20
310.0
 30
0.0
 11
679.21805320004933
 21
669.17267468049226
 31
0.0
  0
LINE
  5
23C
  8
NOTE
  6
CONTINUOUS
 62
     4
 10
318.88734828134687
 20
669.17267468049226
 30
0.0
 11
679.21805320004933
 21
669.17267468049226
 31
0.0
  0
TEXT
  5
23D
  8
NOTE
  6
CONTINUOUS
 62
     4
 10
327.9907534162557
 20
697.97975468049253
 30
0.0
 40
55.0
  1
RL φ12.7
 41
0.9
  0
LINE
  5
23E
  8
NOTE
  6
CONTINUOUS
 62
     4
 10
1121.245285
 20
47.394556999999963
 30
0.0
 11
1460.7323848621161
 21
47.394556999999963
 31
0.0
  0
TEXT
  5
23F
  8
NOTE
  6
CONTINUOUS
 62
     4
 10
1132.740619999998
 20
77.754693999999972
 30
0.0
 40
55.0
  1
D VP-20
 41
0.9
  0
LINE
  5
240
  8
SIZE
  6
CONTINUOUS
 62
    30
 10
1060.0
 20
400.0
 30
0.0
 11
1519.8620000000001
 21
400.0
 31
0.0
  0
LINE
  5
241
  8
SIZE
  6
CONTINUOUS
 62
    30
 10
956.0
 20
204.0
 30
0.0
 11
1519.8620000000001
 21
204.0
 31
0.0
  0
LINE
  5
242
  8
SIZE
  6
CONTINUOUS
 62
    30
 10
1489.8620000000001
 20
204.0
 30
0.0
 11
1489.8620000000001
 21
400.0
 31
0.0
  0
TEXT
  5
243
  8
SIZE
  6
CONTINUOUS
 62
    30
 10
1473.699898514664
 20
423.1676427366819
 30
0.0
 40
55.0
  1
196
 50
90.0
 41
0.9
 72
     1
 11
1473.699898514664
 21
480.91764273668201
 31
0.0
  0
LINE
  5
244
  8
SIZE
  6
CONTINUOUS
 62
    30
 10
1060.0
 20
400.0
 30
0.0
 11
1401.0876613173129
 21
400.0
 31
0.0
  0
LINE
  5
245
  8
SIZE
  6
CONTINUOUS
 62
    30
 10
963.0
 20
310.0
 30
0.0
 11
1402.122441567142
 21
310.0
 31
0.0
  0
LINE
  5
246
  8
SIZE
  6
CONTINUOUS
 62
    30
 10
1368.268349347728
 20
406.0
 30
0.0
 11
1368.268349347728
 21
408.0
 31
0.0
  0
LINE
  5
247
  8
SIZE
  6
CONTINUOUS
 62
    30
 10
1368.268349347728
 20
310.0
 30
0.0
 11
1368.268349347728
 21
400.0
 31
0.0
  0
TEXT
  5
248
  8
SIZE
  6
CONTINUOUS
 62
    30
 10
1348.4546966574119
 20
412.92857636830269
 30
0.0
 40
55.0
  1
90
 50
90.0
 41
0.9
 72
     1
 11
1348.4546966574119
 21
453.0000049397313
 31
0.0
  0
LINE
  5
249
  8
SIZE
  6
CONTINUOUS
 62
    30
 10
1050.0
 20
410.0
 30
0.0
 11
1050.0
 21
825.47229000000004
 31
0.0
  0
LINE
  5
24A
  8
SIZE
  6
CONTINUOUS
 62
    30
 10
843.0
 20
350.0
 30
0.0
 11
843.0
 21
825.47229000000004
 31
0.0
  0
LINE
  5
24B
  8
SIZE
  6
CONTINUOUS
 62
    30
 10
843.0
 20
795.47229000000004
 30
0.0
 11
1050.0
 21
795.47229000000004
 31
0.0
  0
TEXT
  5
24C
  8
SIZE
  6
CONTINUOUS
 62
    30
 10
1084.3805887645369
 20
813.90156328077853
 30
0.0
 40
55.0
  1
207
 41
0.9
 72
     1
 11
1148.023445907394
 21
813.90156328077853
 31
0.0
  0
LINE
  5
24D
  8
SIZE
  6
CONTINUOUS
 62
    30
 10
1050.0
 20
410.0
 30
0.0
 11
1050.0
 21
672.74095200000011
 31
0.0
  0
LINE
  5
24E
  8
SIZE
  6
CONTINUOUS
 62
    30
 10
916.0
 20
244.0
 30
0.0
 11
916.0
 21
672.74095200000011
 31
0.0
  0
LINE
  5
24F
  8
SIZE
  6
CONTINUOUS
 62
    30
 10
914.0
 20
642.74095200000011
 30
0.0
 11
912.0
 21
642.74095200000011
 31
0.0
  0
LINE
  5
250
  8
SIZE
  6
CONTINUOUS
 62
    30
 10
1056.0
 20
642.74095200000011
 30
0.0
 11
1058.0
 21
642.74095200000011
 31
0.0
  0
LINE
  5
251
  8
SIZE
  6
CONTINUOUS
 62
    30
 10
916.0
 20
642.74095200000011
 30
0.0
 11
1050.0
 21
642.74095200000011
 31
0.0
  0
TEXT
  5
252
  8
SIZE
  6
CONTINUOUS
 62
    30
 10
1089.916305031993
 20
661.78371321427403
 30
0.0
 40
55.0
  1
134
 41
0.9
 72
     1
 11
1150.0234478891359
 21
661.78371321427403
 31
0.0
  0
LINE
  5
253
  8
SIZE
  6
CONTINUOUS
 62
    30
 10
1050.0
 20
410.0
 30
0.0
 11
1050.0
 21
530.41470600000002
 31
0.0
  0
LINE
  5
254
  8
SIZE
  6
CONTINUOUS
 62
    30
 10
923.0
 20
350.0
 30
0.0
 11
923.0
 21
530.41470600000002
 31
0.0
  0
LINE
  5
255
  8
SIZE
  6
CONTINUOUS
 62
    30
 10
921.0
 20
500.41470600000002
 30
0.0
 11
919.0
 21
500.41470600000002
 31
0.0
  0
LINE
  5
256
  8
SIZE
  6
CONTINUOUS
 62
    30
 10
923.0
 20
500.41470600000002
 30
0.0
 11
1050.0
 21
500.41470600000002
 31
0.0
  0
TEXT
  5
257
  8
SIZE
  6
CONTINUOUS
 62
    30
 10
1091.0948738428069
 20
524.57290226303292
 30
0.0
 40
55.0
  1
127
 41
0.9
 72
     1
 11
1150.023445271378
 21
524.57290226303292
 31
0.0
  0
LINE
  5
258
  8
SIZE
  6
CONTINUOUS
 62
    30
 10
1050.0
 20
410.0
 30
0.0
 11
1050.0
 21
919.98747759236164
 31
0.0
  0
LINE
  5
259
  8
SIZE
  6
CONTINUOUS
 62
    30
 10
1050.0
 20
886.7755136104555
 30
0.0
 11
-1050.0
 21
886.7755136104555
 31
0.0
  0
LINE
  5
25A
  8
SIZE
  6
CONTINUOUS
 62
    30
 10
1060.0
 20
400.0
 30
0.0
 11
1647.7809999999999
 21
400.0
 31
0.0
  0
LINE
  5
25B
  8
SIZE
  6
CONTINUOUS
 62
    30
 10
1030.0
 20
-400.0
 30
0.0
 11
1647.7809999999999
 21
-400.0
 31
0.0
  0
LINE
  5
25C
  8
SIZE
  6
CONTINUOUS
 62
    30
 10
1617.7809999999999
 20
400.0
 30
0.0
 11
1617.7809999999999
 21
-400.0
 31
0.0
  0
TEXT
  5
25D
  8
SIZE
  6
CONTINUOUS
 62
    30
 10
1585.7809999999999
 20
-63.642857142857132
 30
0.0
 40
55.0
  1
800
 50
90.0
 41
0.9
 72
     1
 11
1585.7809999999999
 21
0.0
 31
0.0
  0
CIRCLE
  5
275
  8
SIZE
  6
CONTINUOUS
 62
    30
 10
1617.7809999999999
 20
-400.0
 30
0.0
 40
6.0
  0
CIRCLE
  5
276
  8
SIZE
  6
CONTINUOUS
 62
    30
 10
1617.7809999999999
 20
400.0
 30
0.0
 40
6.0
  0
CIRCLE
  5
277
  8
SIZE
  6
CONTINUOUS
 62
    30
 10
1050.0
 20
886.7755136104555
 30
0.0
 40
6.0
  0
CIRCLE
  5
278
  8
SIZE
  6
CONTINUOUS
 62
    30
 10
1050.0
 20
500.41470600000002
 30
0.0
 40
6.0
  0
CIRCLE
  5
279
  8
SIZE
  6
CONTINUOUS
 62
    30
 10
923.0
 20
500.41470600000002
 30
0.0
 40
6.0
  0
CIRCLE
  5
27A
  8
SIZE
  6
CONTINUOUS
 62
    30
 10
1050.0
 20
642.74095200000011
 30
0.0
 40
6.0
  0
CIRCLE
  5
27B
  8
SIZE
  6
CONTINUOUS
 62
    30
 10
916.0
 20
642.74095200000011
 30
0.0
 40
6.0
  0
CIRCLE
  5
27C
  8
SIZE
  6
CONTINUOUS
 62
    30
 10
843.0
 20
795.47229000000004
 30
0.0
 40
6.0
  0
CIRCLE
  5
27D
  8
SIZE
  6
CONTINUOUS
 62
    30
 10
1050.0
 20
795.47229000000004
 30
0.0
 40
6.0
  0
CIRCLE
  5
27E
  8
SIZE
  6
CONTINUOUS
 62
    30
 10
1368.268349347728
 20
400.0
 30
0.0
 40
6.0
  0
CIRCLE
  5
27F
  8
SIZE
  6
CONTINUOUS
 62
    30
 10
1368.268349347728
 20
310.0
 30
0.0
 40
6.0
  0
CIRCLE
  5
280
  8
SIZE
  6
CONTINUOUS
 62
    30
 10
1489.8620000000001
 20
204.0
 30
0.0
 40
6.0
  0
CIRCLE
  5
281
  8
SIZE
  6
CONTINUOUS
 62
    30
 10
1489.8620000000001
 20
400.0
 30
0.0
 40
6.0
  0
LINE
  5
283
  8
SIZE
  6
CONTINUOUS
 62
    30
 10
1242.0468981323861
 20
642.74095410925997
 30
0.0
 11
1057.999997645886
 21
642.74095410925997
 31
0.0
  0
LINE
  5
284
  8
SIZE
  6
CONTINUOUS
 62
    30
 10
1055.999997382241
 20
500.41470303415031
 30
0.0
 11
1057.999997382241
 21
500.41470303415031
 31
0.0
  0
LINE
  5
285
  8
SIZE
  6
CONTINUOUS
 62
    30
 10
1242.046895514628
 20
500.41470514341052
 30
0.0
 11
1057.9999950281269
 21
500.41470514341052
 31
0.0
  0
LINE
  5
286
  8
SIZE
  6
CONTINUOUS
 62
    30
 10
1240.0468961506449
 20
795.47228914341053
 30
0.0
 11
1055.9999956641441
 21
795.47228914341053
 31
0.0
  0
LINE
  5
287
  8
SIZE
  6
CONTINUOUS
 62
    30
 10
1368.2683546723761
 20
408.00000493973118
 30
0.0
 11
1368.2683546723761
 21
498.0000049397313
 31
0.0
  0
LINE
  5
288
  8
SIZE
  6
CONTINUOUS
 62
    30
 10
1489.862005324653
 20
406.00000044355511
 30
0.0
 11
1489.862005324653
 21
408.00000044355511
 31
0.0
  0
LINE
  5
289
  8
SIZE
  6
CONTINUOUS
 62
    30
 10
1489.862010649302
 20
408.00000538328629
 30
0.0
 11
1489.862010649302
 21
553.83528009007728
 31
0.0
  0
TEXT
  5
2B1
  8
SIZE
  6
CONTINUOUS
 62
    30
 10
-82.500000000000014
 20
900.26525629775119
 30
0.0
 40
55.0
  1
2100
 41
0.9
 72
     1
 11
0.0
 21
900.26525629775119
 31
0.0
  0
LINE
  5
31B
  8
DETAIL
  6
CONTINUOUS
 62
     5
 10
-1015.0
 20
-330.0
 30
0.0
 11
1015.0
 21
-330.0
 31
0.0
  0
LINE
  5
320
  8
DETAIL
  6
CONTINUOUS
 62
     5
 10
-997.0
 20
100.0
 30
0.0
 11
997.0
 21
100.0
 31
0.0
  0
LINE
  5
321
  8
DETAIL
  6
CONTINUOUS
 62
     5
 10
-997.0
 20
-350.0
 30
0.0
 11
997.0
 21
-350.0
 31
0.0
  0
LINE
  5
322
  8
DETAIL
  6
CONTINUOUS
 62
     5
 10
-10.0
 20
-381.22025499999978
 30
0.0
 11
-10.0
 21
-350.0
 31
0.0
  0
LINE
  5
323
  8
DETAIL
  6
CONTINUOUS
 62
     5
 10
10.0
 20
-381.22025499999978
 30
0.0
 11
10.0
 21
-350.0
 31
0.0
  0
LINE
  5
324
  8
DETAIL
  6
CONTINUOUS
 62
     5
 10
-13.0
 20
-381.22025499999978
 30
0.0
 11
13.0
 21
-381.22025499999978
 31
0.0
  0
LINE
  5
325
  8
DETAIL
  6
CONTINUOUS
 62
     5
 10
13.0
 20
-400.0
 30
0.0
 11
13.0
 21
-381.22025499999978
 31
0.0
  0
LINE
  5
326
  8
DETAIL
  6
CONTINUOUS
 62
     5
 10
-13.0
 20
-400.0
 30
0.0
 11
-13.0
 21
-381.22025499999978
 31
0.0
  0
LINE
  5
32F
  8
DETAIL
  6
CONTINUOUS
 62
     5
 10
1035.0
 20
-310.0
 30
0.0
 11
1035.0
 21
400.0
 31
0.0
  0
LINE
  5
330
  8
DETAIL
  6
CONTINUOUS
 62
     5
 10
1000.0
 20
-400.0
 30
0.0
 11
1000.0
 21
400.0
 31
0.0
  0
LINE
  5
331
  8
DETAIL
  6
CONTINUOUS
 62
     5
 10
997.0
 20
-400.0
 30
0.0
 11
997.0
 21
400.0
 31
0.0
  0
ARC
  5
332
  8
DETAIL
  6
CONTINUOUS
 62
     5
 10
1015.0
 20
-310.0
 30
0.0
 40
20.0
 50
270.0
 51
0.0
  0
LINE
  5
346
  8
DETAIL
  6
CONTINUOUS
 62
     5
 10
-1035.0
 20
-310.0
 30
0.0
 11
-1035.0
 21
400.0
 31
0.0
  0
ARC
  5
347
  8
DETAIL
  6
CONTINUOUS
 62
     5
 10
-1015.0
 20
-310.0
 30
0.0
 40
20.0
 50
180.0
 51
270.0
  0
LINE
  5
348
  8
DETAIL
  6
CONTINUOUS
 62
     5
 10
-1000.0
 20
-400.0
 30
0.0
 11
-1000.0
 21
400.0
 31
0.0
  0
LINE
  5
349
  8
DETAIL
  6
CONTINUOUS
 62
     5
 10
-997.0
 20
-400.0
 30
0.0
 11
-997.0
 21
400.0
 31
0.0
  0
ENDSEC
  0
EOF
