  0
SECTION
  2
HEADER
  9
$ACADVER
  1
AC1009
  9
$INSBASE
 10
0.0
 20
0.0
 30
0.0
  9
$EXTMIN
 10
-1476.48925
 20
-898.550464
 30
0.0
  9
$EXTMAX
 10
2284.973504
 20
766.331431
 30
0.0
  9
$LIMMIN
 10
-3837.000175
 20
-3000.109539
  9
$LIMMAX
 10
7319.256881
 20
4045.223003
  9
$ORTHOMODE
 70
     0
  9
$REGENMODE
 70
     1
  9
$FILLMODE
 70
     1
  9
$QTEXTMODE
 70
     0
  9
$MIRRTEXT
 70
     0
  9
$DRAGMODE
 70
     2
  9
$LTSCALE
 40
20.0
  9
$OSMODE
 70
    37
  9
$ATTMODE
 70
     1
  9
$TEXTSIZE
 40
64.0
  9
$TRACEWID
 40
0.05
  9
$TEXTSTYLE
  7
STANDARD
  9
$CLAYER
  8
SIZE
  9
$CELTYPE
  6
CONTINUOUS
  9
$CECOLOR
 62
     7
  9
$DIMSCALE
 40
1.0
  9
$DIMASZ
 40
10.0
  9
$DIMEXO
 40
20.0
  9
$DIMDLI
 40
200.0
  9
$DIMRND
 40
0.0
  9
$DIMDLE
 40
0.0
  9
$DIMEXE
 40
30.0
  9
$DIMTP
 40
0.0
  9
$DIMTM
 40
0.0
  9
$DIMTXT
 40
64.0
  9
$DIMCEN
 40
0.0
  9
$DIMTSZ
 40
0.0
  9
$DIMTOL
 70
     0
  9
$DIMLIM
 70
     0
  9
$DIMTIH
 70
     0
  9
$DIMTOH
 70
     0
  9
$DIMSE1
 70
     0
  9
$DIMSE2
 70
     0
  9
$DIMTAD
 70
     1
  9
$DIMZIN
 70
     8
  9
$DIMBLK
  1

  9
$DIMASO
 70
     1
  9
$DIMSHO
 70
     0
  9
$DIMPOST
  1

  9
$DIMAPOST
  1

  9
$DIMALT
 70
     0
  9
$DIMALTD
 70
     2
  9
$DIMALTF
 40
25.4
  9
$DIMLFAC
 40
1.0
  9
$DIMTOFL
 70
     1
  9
$DIMTVP
 40
0.0
  9
$DIMTIX
 70
     1
  9
$DIMSOXD
 70
     0
  9
$DIMSAH
 70
     1
  9
$DIMBLK1
  1
_DOTBLANK
  9
$DIMBLK2
  1
_DOTBLANK
  9
$DIMSTYLE
  2
STANDARD
  9
$DIMCLRD
 70
     0
  9
$DIMCLRE
 70
     0
  9
$DIMCLRT
 70
     0
  9
$DIMTFAC
 40
1.0
  9
$DIMGAP
 40
0.09
  9
$LUNITS
 70
     2
  9
$LUPREC
 70
     4
  9
$SKETCHINC
 40
0.1
  9
$FILLETRAD
 40
10.0
  9
$AUNITS
 70
     1
  9
$AUPREC
 70
     3
  9
$MENU
  1
ACAD
  9
$ELEVATION
 40
0.0
  9
$PELEVATION
 40
0.0
  9
$THICKNESS
 40
0.0
  9
$LIMCHECK
 70
     0
  9
$BLIPMODE
 70
     0
  9
$CHAMFERA
 40
0.0
  9
$CHAMFERB
 40
0.0
  9
$SKPOLY
 70
     0
  9
$TDCREATE
 40
2450330.439931
  9
$TDUPDATE
 40
2453136.795375
  9
$TDINDWG
 40
1.119508
  9
$TDUSRTIMER
 40
1.119508
  9
$USRTIMER
 70
     1
  9
$ANGBASE
 50
0.0
  9
$ANGDIR
 70
     0
  9
$PDMODE
 70
     3
  9
$PDSIZE
 40
-2.0
  9
$PLINEWID
 40
0.0
  9
$COORDS
 70
     1
  9
$SPLFRAME
 70
     0
  9
$SPLINETYPE
 70
     6
  9
$SPLINESEGS
 70
     8
  9
$ATTDIA
 70
     0
  9
$ATTREQ
 70
     1
  9
$HANDLING
 70
     1
  9
$HANDSEED
  5
151
  9
$SURFTAB1
 70
     6
  9
$SURFTAB2
 70
     6
  9
$SURFTYPE
 70
     6
  9
$SURFU
 70
     6
  9
$SURFV
 70
     6
  9
$UCSNAME
  2

  9
$UCSORG
 10
0.0
 20
0.0
 30
0.0
  9
$UCSXDIR
 10
1.0
 20
0.0
 30
0.0
  9
$UCSYDIR
 10
0.0
 20
1.0
 30
0.0
  9
$PUCSNAME
  2

  9
$PUCSORG
 10
0.0
 20
0.0
 30
0.0
  9
$PUCSXDIR
 10
1.0
 20
0.0
 30
0.0
  9
$PUCSYDIR
 10
0.0
 20
1.0
 30
0.0
  9
$USERI1
 70
     0
  9
$USERI2
 70
     0
  9
$USERI3
 70
     0
  9
$USERI4
 70
     0
  9
$USERI5
 70
     0
  9
$USERR1
 40
20.0
  9
$USERR2
 40
0.0
  9
$USERR3
 40
0.0
  9
$USERR4
 40
0.0
  9
$USERR5
 40
0.0
  9
$WORLDVIEW
 70
     1
  9
$SHADEDGE
 70
     3
  9
$SHADEDIF
 70
    70
  9
$TILEMODE
 70
     1
  9
$MAXACTVP
 70
    48
  9
$PLIMCHECK
 70
     0
  9
$PEXTMIN
 10
1.000000E+020
 20
1.000000E+020
 30
1.000000E+020
  9
$PEXTMAX
 10
-1.000000E+020
 20
-1.000000E+020
 30
-1.000000E+020
  9
$PLIMMIN
 10
0.0
 20
0.0
  9
$PLIMMAX
 10
12.0
 20
9.0
  9
$UNITMODE
 70
     0
  9
$VISRETAIN
 70
     1
  9
$PLINEGEN
 70
     0
  9
$PSLTSCALE
 70
     1
  0
ENDSEC
  0
SECTION
  2
TABLES
  0
TABLE
  2
VPORT
 70
     2
  0
VPORT
  2
*ACTIVE
 70
     0
 10
0.0
 20
0.0
 11
1.0
 21
1.0
 12
2631.286083
 22
522.556732
 13
0.0
 23
0.0
 14
50.0
 24
50.0
 15
100.0
 25
100.0
 16
0.0
 26
0.0
 36
1.0
 17
0.0
 27
0.0
 37
0.0
 40
7045.332542
 41
1.83619
 42
50.0
 43
0.0
 44
0.0
 50
0.0
 51
0.0
 71
     0
 72
  1000
 73
     1
 74
     0
 75
     0
 76
     0
 77
     0
 78
     0
  0
ENDTAB
  0
TABLE
  2
LTYPE
 70
     2
  0
LTYPE
  2
CONTINUOUS
 70
     0
  3
Ä└É³
 72
    65
 73
     0
 40
0.0
  0
LTYPE
  2
DASHDOT
 70
     0
  3
____ _ ____ _ ____ _ ____ _ ____ _ ____ _ ____
 72
    65
 73
     4
 40
5.5
 49
4.0
 49
-0.6
 49
0.3
 49
-0.6
  0
ENDTAB
  0
TABLE
  2
LAYER
 70
    12
  0
LAYER
  2
0
 70
     0
 62
     7
  6
CONTINUOUS
  0
LAYER
  2
SIZE
 70
     0
 62
    30
  6
CONTINUOUS
  0
LAYER
  2
OUTLINE
 70
     0
 62
     3
  6
CONTINUOUS
  0
LAYER
  2
DETAIL
 70
     0
 62
     5
  6
CONTINUOUS
  0
LAYER
  2
BASIS
 70
     0
 62
     6
  6
DASHDOT
  0
LAYER
  2
NOTE
 70
     0
 62
     4
  6
CONTINUOUS
  0
LAYER
  2
ARRANGE
 70
     0
 62
     1
  6
CONTINUOUS
  0
LAYER
  2
FIX
 70
     0
 62
    11
  6
CONTINUOUS
  0
LAYER
  2
SERVICESPACE
 70
     0
 62
     2
  6
DASHDOT
  0
LAYER
  2
ETC
 70
     0
 62
    61
  6
CONTINUOUS
  0
LAYER
  2
SYMBOLLINE
 70
     0
 62
    15
  6
CONTINUOUS
  0
LAYER
  2
DEFPOINTS
 70
     0
 62
     7
  6
CONTINUOUS
  0
ENDTAB
  0
TABLE
  2
STYLE
 70
     1
  0
STYLE
  2
STANDARD
 70
     0
 40
0.0
 41
0.9
 50
0.0
 71
     0
 42
64.0
  3
SIMPLEX
  4
BIGFONT
  0
ENDTAB
  0
TABLE
  2
VIEW
 70
     1
  0
VIEW
  2
ALL
 70
     0
 40
9000.0
 10
241.506647
 20
0.0
 41
12483.01
 11
0.0
 21
0.0
 31
1.0
 12
0.0
 22
0.0
 32
0.0
 42
50.0
 43
0.0
 44
0.0
 50
0.0
 71
     0
  0
ENDTAB
  0
TABLE
  2
UCS
 70
     0
  0
ENDTAB
  0
TABLE
  2
APPID
 70
     1
  0
APPID
  2
ACAD
 70
     0
  0
ENDTAB
  0
TABLE
  2
DIMSTYLE
 70
     1
  0
DIMSTYLE
  2
STANDARD
 70
     0
  3

  4

  5

  6

  7

 40
1.0
 41
0.18
 42
0.0625
 43
0.38
 44
0.18
 45
0.0
 46
0.0
 47
0.0
 48
0.0
140
0.18
141
0.09
142
0.0
143
25.4
144
1.0
145
0.0
146
1.0
147
0.09
 71
     0
 72
     0
 73
     1
 74
     1
 75
     0
 76
     0
 77
     0
 78
     0
170
     0
171
     2
172
     0
173
     0
174
     0
175
     0
176
     0
177
     0
178
     0
  0
ENDTAB
  0
ENDSEC
  0
SECTION
  2
BLOCKS
  0
BLOCK
  8
0
  2
$MODEL_SPACE
 70
     0
 10
0.0
 20
0.0
 30
0.0
  3
$MODEL_SPACE
  1

  0
ENDBLK
  5
135
  8
0
  0
BLOCK
 67
     1
  8
0
  2
$PAPER_SPACE
 70
     0
 10
0.0
 20
0.0
 30
0.0
  3
$PAPER_SPACE
  1

  0
ENDBLK
  5
132
 67
     1
  8
0
  0
BLOCK
  8
0
  2
_DOTBLANK
 70
     0
 10
0.0
 20
0.0
 30
0.0
  3
_DOTBLANK
  1

  0
CIRCLE
  5
30
  8
0
  6
CONTINUOUS
 62
     7
 10
0.0
 20
0.0
 30
0.0
 40
0.5
  0
LINE
  5
31
  8
0
  6
CONTINUOUS
 62
     7
 10
-0.5
 20
0.0
 30
0.0
 11
-1.0
 21
0.0
 31
0.0
  0
ENDBLK
  5
32
  8
0
  0
ENDSEC
  0
SECTION
  2
ENTITIES
  0
TEXT
  5
33
  8
ETC
  6
CONTINUOUS
 62
    61
 10
1551.104841
 20
538.601051
 30
0.0
 40
64.0
  1
PAC
 41
0.9
  0
LINE
  5
34
  8
NOTE
  6
CONTINUOUS
 62
     4
 10
1003.0
 20
0.0
 30
0.0
 11
963.0
 21
0.0
 31
0.0
  0
LINE
  5
35
  8
NOTE
  6
CONTINUOUS
 62
     4
 10
983.0
 20
-20.0
 30
0.0
 11
983.0
 21
20.0
 31
0.0
  0
LINE
  5
36
  8
NOTE
  6
CONTINUOUS
 62
     4
 10
-991.0
 20
0.0
 30
0.0
 11
-1031.0
 21
0.0
 31
0.0
  0
LINE
  5
37
  8
NOTE
  6
CONTINUOUS
 62
     4
 10
-1011.0
 20
-20.0
 30
0.0
 11
-1011.0
 21
20.0
 31
0.0
  0
LINE
  5
38
  8
NOTE
  6
CONTINUOUS
 62
     4
 10
936.0
 20
-284.0
 30
0.0
 11
896.0
 21
-284.0
 31
0.0
  0
LINE
  5
39
  8
NOTE
  6
CONTINUOUS
 62
     4
 10
916.0
 20
-304.0
 30
0.0
 11
916.0
 21
-264.0
 31
0.0
  0
LINE
  5
3A
  8
NOTE
  6
CONTINUOUS
 62
     4
 10
943.0
 20
-136.0
 30
0.0
 11
903.0
 21
-136.0
 31
0.0
  0
LINE
  5
3B
  8
NOTE
  6
CONTINUOUS
 62
     4
 10
923.0
 20
-156.0
 30
0.0
 11
923.0
 21
-116.0
 31
0.0
  0
LINE
  5
3C
  8
NOTE
  6
CONTINUOUS
 62
     4
 10
863.0
 20
-214.0
 30
0.0
 11
823.0
 21
-214.0
 31
0.0
  0
LINE
  5
3D
  8
NOTE
  6
CONTINUOUS
 62
     4
 10
843.0
 20
-234.0
 30
0.0
 11
843.0
 21
-194.0
 31
0.0
  0
POLYLINE
  5
3E
  8
NOTE
  6
CONTINUOUS
 62
     4
 66
     1
 10
0.0
 20
0.0
 30
0.0
  0
VERTEX
  5
3F
  8
NOTE
  6
CONTINUOUS
 62
     4
 10
908.481839
 20
-98.727718
 30
0.0
  0
VERTEX
  5
40
  8
NOTE
  6
CONTINUOUS
 62
     4
 10
923.0
 20
-136.0
 30
0.0
  0
VERTEX
  5
41
  8
NOTE
  6
CONTINUOUS
 62
     4
 10
891.790763
 20
-110.980337
 30
0.0
  0
SEQEND
  5
42
  8
NOTE
  6
CONTINUOUS
 62
     4
  0
POLYLINE
  5
43
  8
NOTE
  6
CONTINUOUS
 62
     4
 66
     1
 10
0.0
 20
0.0
 30
0.0
  0
VERTEX
  5
44
  8
NOTE
  6
CONTINUOUS
 62
     4
 10
812.805502
 20
-240.235325
 30
0.0
  0
VERTEX
  5
45
  8
NOTE
  6
CONTINUOUS
 62
     4
 10
843.0
 20
-214.0
 30
0.0
  0
VERTEX
  5
46
  8
NOTE
  6
CONTINUOUS
 62
     4
 10
829.96846
 20
-251.817707
 30
0.0
  0
SEQEND
  5
47
  8
NOTE
  6
CONTINUOUS
 62
     4
  0
POLYLINE
  5
48
  8
NOTE
  6
CONTINUOUS
 62
     4
 66
     1
 10
0.0
 20
0.0
 30
0.0
  0
VERTEX
  5
49
  8
NOTE
  6
CONTINUOUS
 62
     4
 10
889.928702
 20
-314.33624
 30
0.0
  0
VERTEX
  5
4A
  8
NOTE
  6
CONTINUOUS
 62
     4
 10
916.0
 20
-284.0
 30
0.0
  0
VERTEX
  5
4B
  8
NOTE
  6
CONTINUOUS
 62
     4
 10
908.589714
 20
-323.307603
 30
0.0
  0
SEQEND
  5
4C
  8
NOTE
  6
CONTINUOUS
 62
     4
  0
POLYLINE
  5
4D
  8
NOTE
  6
CONTINUOUS
 62
     4
 66
     1
 10
0.0
 20
0.0
 30
0.0
  0
VERTEX
  5
4E
  8
NOTE
  6
CONTINUOUS
 62
     4
 10
1009.954735
 20
29.554056
 30
0.0
  0
VERTEX
  5
4F
  8
NOTE
  6
CONTINUOUS
 62
     4
 10
983.0
 20
0.0
 30
0.0
  0
VERTEX
  5
50
  8
NOTE
  6
CONTINUOUS
 62
     4
 10
1021.120514
 20
12.117196
 30
0.0
  0
SEQEND
  5
51
  8
NOTE
  6
CONTINUOUS
 62
     4
  0
POLYLINE
  5
52
  8
NOTE
  6
CONTINUOUS
 62
     4
 66
     1
 10
0.0
 20
0.0
 30
0.0
  0
VERTEX
  5
53
  8
NOTE
  6
CONTINUOUS
 62
     4
 10
-1049.379786
 20
11.269073
 30
0.0
  0
VERTEX
  5
54
  8
NOTE
  6
CONTINUOUS
 62
     4
 10
-1011.0
 20
0.0
 30
0.0
  0
VERTEX
  5
55
  8
NOTE
  6
CONTINUOUS
 62
     4
 10
-1038.603333
 20
28.949197
 30
0.0
  0
SEQEND
  5
56
  8
NOTE
  6
CONTINUOUS
 62
     4
  0
CIRCLE
  5
57
  8
SIZE
  6
CONTINUOUS
 62
    30
 10
1050.0
 20
113.635425
 30
0.0
 40
6.0
  0
CIRCLE
  5
58
  8
SIZE
  6
CONTINUOUS
 62
    30
 10
983.0
 20
113.635425
 30
0.0
 40
6.0
  0
CIRCLE
  5
59
  8
SIZE
  6
CONTINUOUS
 62
    30
 10
-1011.0
 20
113.635425
 30
0.0
 40
6.0
  0
CIRCLE
  5
5A
  8
SIZE
  6
CONTINUOUS
 62
    30
 10
983.0
 20
113.635425
 30
0.0
 40
6.0
  0
CIRCLE
  5
5B
  8
SIZE
  6
CONTINUOUS
 62
    30
 10
-1011.0
 20
113.635425
 30
0.0
 40
6.0
  0
CIRCLE
  5
5C
  8
SIZE
  6
CONTINUOUS
 62
    30
 10
-1050.0
 20
113.635425
 30
0.0
 40
6.0
  0
CIRCLE
  5
5D
  8
SIZE
  6
CONTINUOUS
 62
    30
 10
1634.789953
 20
-320.0
 30
0.0
 40
6.0
  0
CIRCLE
  5
5E
  8
SIZE
  6
CONTINUOUS
 62
    30
 10
1634.789953
 20
-136.0
 30
0.0
 40
6.0
  0
CIRCLE
  5
5F
  8
SIZE
  6
CONTINUOUS
 62
    30
 10
1458.942328
 20
-214.0
 30
0.0
 40
6.0
  0
CIRCLE
  5
60
  8
SIZE
  6
CONTINUOUS
 62
    30
 10
1458.942328
 20
-320.0
 30
0.0
 40
6.0
  0
CIRCLE
  5
61
  8
SIZE
  6
CONTINUOUS
 62
    30
 10
1329.302837
 20
-284.0
 30
0.0
 40
6.0
  0
CIRCLE
  5
62
  8
SIZE
  6
CONTINUOUS
 62
    30
 10
1329.302837
 20
-320.0
 30
0.0
 40
6.0
  0
CIRCLE
  5
63
  8
SIZE
  6
CONTINUOUS
 62
    30
 10
-1215.86493
 20
0.0
 30
0.0
 40
6.0
  0
CIRCLE
  5
64
  8
SIZE
  6
CONTINUOUS
 62
    30
 10
-1215.86493
 20
-320.0
 30
0.0
 40
6.0
  0
CIRCLE
  5
65
  8
SIZE
  6
CONTINUOUS
 62
    30
 10
1050.0
 20
-785.85014
 30
0.0
 40
6.0
  0
CIRCLE
  5
66
  8
SIZE
  6
CONTINUOUS
 62
    30
 10
843.0
 20
-785.85014
 30
0.0
 40
6.0
  0
CIRCLE
  5
67
  8
SIZE
  6
CONTINUOUS
 62
    30
 10
916.0
 20
-648.016265
 30
0.0
 40
6.0
  0
CIRCLE
  5
68
  8
SIZE
  6
CONTINUOUS
 62
    30
 10
1050.0
 20
-648.016265
 30
0.0
 40
6.0
  0
CIRCLE
  5
69
  8
SIZE
  6
CONTINUOUS
 62
    30
 10
923.0
 20
-499.579786
 30
0.0
 40
6.0
  0
CIRCLE
  5
6A
  8
SIZE
  6
CONTINUOUS
 62
    30
 10
1050.0
 20
-499.579786
 30
0.0
 40
6.0
  0
CIRCLE
  5
6B
  8
SIZE
  6
CONTINUOUS
 62
    30
 10
1050.0
 20
-868.550464
 30
0.0
 40
6.0
  0
CIRCLE
  5
6C
  8
SIZE
  6
CONTINUOUS
 62
    30
 10
-1050.0
 20
-868.550464
 30
0.0
 40
6.0
  0
TEXT
  5
6D
  8
SIZE
  6
CONTINUOUS
 62
    30
 10
-96.0
 20
-836.550464
 30
0.0
 40
64.0
  1
2100
 41
0.9
  0
LINE
  5
6E
  8
SIZE
  6
CONTINUOUS
 62
    30
 10
-1048.0
 20
-868.550464
 30
0.0
 11
0.0
 21
-868.550464
 31
0.0
  0
LINE
  5
6F
  8
SIZE
  6
CONTINUOUS
 62
    30
 10
1048.0
 20
-868.550464
 30
0.0
 11
0.0
 21
-868.550464
 31
0.0
  0
LINE
  5
70
  8
SIZE
  6
CONTINUOUS
 62
    30
 10
-1050.0
 20
-175.5
 30
0.0
 11
-1050.0
 21
-898.550464
 31
0.0
  0
LINE
  5
71
  8
SIZE
  6
CONTINUOUS
 62
    30
 10
1050.0
 20
-175.5
 30
0.0
 11
1050.0
 21
-898.550464
 31
0.0
  0
TEXT
  5
72
  8
SIZE
  6
CONTINUOUS
 62
    30
 10
917.928571
 20
-467.579786
 30
0.0
 40
64.0
  1
127
 41
0.9
  0
LINE
  5
73
  8
SIZE
  6
CONTINUOUS
 62
    30
 10
923.0
 20
-499.579786
 30
0.0
 11
1050.0
 21
-499.579786
 31
0.0
  0
LINE
  5
74
  8
SIZE
  6
CONTINUOUS
 62
    30
 10
1052.0
 20
-499.579786
 30
0.0
 11
1054.0
 21
-499.579786
 31
0.0
  0
LINE
  5
75
  8
SIZE
  6
CONTINUOUS
 62
    30
 10
921.0
 20
-499.579786
 30
0.0
 11
919.0
 21
-499.579786
 31
0.0
  0
LINE
  5
76
  8
SIZE
  6
CONTINUOUS
 62
    30
 10
923.0
 20
-176.0
 30
0.0
 11
923.0
 21
-529.579786
 31
0.0
  0
LINE
  5
77
  8
SIZE
  6
CONTINUOUS
 62
    30
 10
1050.0
 20
-175.5
 30
0.0
 11
1050.0
 21
-529.579786
 31
0.0
  0
TEXT
  5
78
  8
SIZE
  6
CONTINUOUS
 62
    30
 10
913.057143
 20
-616.016265
 30
0.0
 40
64.0
  1
134
 41
0.9
  0
LINE
  5
79
  8
SIZE
  6
CONTINUOUS
 62
    30
 10
916.0
 20
-648.016265
 30
0.0
 11
1050.0
 21
-648.016265
 31
0.0
  0
LINE
  5
7A
  8
SIZE
  6
CONTINUOUS
 62
    30
 10
1052.0
 20
-648.016265
 30
0.0
 11
1054.0
 21
-648.016265
 31
0.0
  0
LINE
  5
7B
  8
SIZE
  6
CONTINUOUS
 62
    30
 10
914.0
 20
-648.016265
 30
0.0
 11
912.0
 21
-648.016265
 31
0.0
  0
LINE
  5
7C
  8
SIZE
  6
CONTINUOUS
 62
    30
 10
916.0
 20
-324.0
 30
0.0
 11
916.0
 21
-678.016265
 31
0.0
  0
LINE
  5
7D
  8
SIZE
  6
CONTINUOUS
 62
    30
 10
1050.0
 20
-177.594329
 30
0.0
 11
1050.0
 21
-678.016265
 31
0.0
  0
TEXT
  5
7E
  8
SIZE
  6
CONTINUOUS
 62
    30
 10
872.442857
 20
-753.85014
 30
0.0
 40
64.0
  1
207
 41
0.9
  0
LINE
  5
7F
  8
SIZE
  6
CONTINUOUS
 62
    30
 10
845.0
 20
-785.85014
 30
0.0
 11
946.5
 21
-785.85014
 31
0.0
  0
LINE
  5
80
  8
SIZE
  6
CONTINUOUS
 62
    30
 10
1048.0
 20
-785.85014
 30
0.0
 11
946.5
 21
-785.85014
 31
0.0
  0
LINE
  5
81
  8
SIZE
  6
CONTINUOUS
 62
    30
 10
843.0
 20
-254.0
 30
0.0
 11
843.0
 21
-815.85014
 31
0.0
  0
LINE
  5
82
  8
SIZE
  6
CONTINUOUS
 62
    30
 10
1050.0
 20
-175.5
 30
0.0
 11
1050.0
 21
-815.85014
 31
0.0
  0
TEXT
  5
83
  8
SIZE
  6
CONTINUOUS
 62
    30
 10
-1247.86493
 20
-234.057143
 30
0.0
 40
64.0
  1
320
 50
90.0
 41
0.9
  0
LINE
  5
84
  8
SIZE
  6
CONTINUOUS
 62
    30
 10
-1215.86493
 20
-2.0
 30
0.0
 11
-1215.86493
 21
-318.0
 31
0.0
  0
LINE
  5
85
  8
SIZE
  6
CONTINUOUS
 62
    30
 10
-1034.0
 20
-320.0
 30
0.0
 11
-1245.86493
 21
-320.0
 31
0.0
  0
LINE
  5
86
  8
SIZE
  6
CONTINUOUS
 62
    30
 10
-1052.5
 20
0.0
 30
0.0
 11
-1245.86493
 21
0.0
 31
0.0
  0
TEXT
  5
87
  8
SIZE
  6
CONTINUOUS
 62
    30
 10
1297.302837
 20
-347.257143
 30
0.0
 40
64.0
  1
36
 50
90.0
 41
0.9
  0
LINE
  5
88
  8
SIZE
  6
CONTINUOUS
 62
    30
 10
1329.302837
 20
-284.0
 30
0.0
 11
1329.302837
 21
-320.0
 31
0.0
  0
LINE
  5
89
  8
SIZE
  6
CONTINUOUS
 62
    30
 10
1329.302837
 20
-322.0
 30
0.0
 11
1329.302837
 21
-324.0
 31
0.0
  0
LINE
  5
8A
  8
SIZE
  6
CONTINUOUS
 62
    30
 10
1329.302837
 20
-282.0
 30
0.0
 11
1329.302837
 21
-280.0
 31
0.0
  0
LINE
  5
8B
  8
SIZE
  6
CONTINUOUS
 62
    30
 10
956.0
 20
-284.0
 30
0.0
 11
1359.302837
 21
-284.0
 31
0.0
  0
LINE
  5
8C
  8
SIZE
  6
CONTINUOUS
 62
    30
 10
1026.689748
 20
-320.0
 30
0.0
 11
1359.302837
 21
-320.0
 31
0.0
  0
TEXT
  5
8D
  8
SIZE
  6
CONTINUOUS
 62
    30
 10
1426.942328
 20
-334.2
 30
0.0
 40
64.0
  1
106
 50
90.0
 41
0.9
  0
LINE
  5
8E
  8
SIZE
  6
CONTINUOUS
 62
    30
 10
1458.942328
 20
-214.0
 30
0.0
 11
1458.942328
 21
-320.0
 31
0.0
  0
LINE
  5
8F
  8
SIZE
  6
CONTINUOUS
 62
    30
 10
1458.942328
 20
-322.0
 30
0.0
 11
1458.942328
 21
-324.0
 31
0.0
  0
LINE
  5
90
  8
SIZE
  6
CONTINUOUS
 62
    30
 10
1458.942328
 20
-212.0
 30
0.0
 11
1458.942328
 21
-210.0
 31
0.0
  0
LINE
  5
91
  8
SIZE
  6
CONTINUOUS
 62
    30
 10
883.0
 20
-214.0
 30
0.0
 11
1488.942328
 21
-214.0
 31
0.0
  0
LINE
  5
92
  8
SIZE
  6
CONTINUOUS
 62
    30
 10
1026.689748
 20
-320.0
 30
0.0
 11
1488.942328
 21
-320.0
 31
0.0
  0
TEXT
  5
93
  8
SIZE
  6
CONTINUOUS
 62
    30
 10
1602.789953
 20
-297.942857
 30
0.0
 40
64.0
  1
184
 50
90.0
 41
0.9
  0
LINE
  5
94
  8
SIZE
  6
CONTINUOUS
 62
    30
 10
1634.789953
 20
-318.0
 30
0.0
 11
1634.789953
 21
-138.0
 31
0.0
  0
LINE
  5
95
  8
SIZE
  6
CONTINUOUS
 62
    30
 10
963.0
 20
-136.0
 30
0.0
 11
1664.789953
 21
-136.0
 31
0.0
  0
LINE
  5
96
  8
SIZE
  6
CONTINUOUS
 62
    30
 10
1026.689748
 20
-320.0
 30
0.0
 11
1664.789953
 21
-320.0
 31
0.0
  0
TEXT
  5
97
  8
SIZE
  6
CONTINUOUS
 62
    30
 10
-1075.757143
 20
145.635425
 30
0.0
 40
64.0
  1
39
 41
0.9
  0
LINE
  5
98
  8
SIZE
  6
CONTINUOUS
 62
    30
 10
-1011.0
 20
113.635425
 30
0.0
 11
-1050.0
 21
113.635425
 31
0.0
  0
LINE
  5
99
  8
SIZE
  6
CONTINUOUS
 62
    30
 10
-1052.0
 20
113.635425
 30
0.0
 11
-1054.0
 21
113.635425
 31
0.0
  0
LINE
  5
9A
  8
SIZE
  6
CONTINUOUS
 62
    30
 10
-1009.0
 20
113.635425
 30
0.0
 11
-1007.0
 21
113.635425
 31
0.0
  0
LINE
  5
9B
  8
SIZE
  6
CONTINUOUS
 62
    30
 10
-1011.0
 20
40.0
 30
0.0
 11
-1011.0
 21
143.635425
 31
0.0
  0
LINE
  5
9C
  8
SIZE
  6
CONTINUOUS
 62
    30
 10
-1050.0
 20
-135.5
 30
0.0
 11
-1050.0
 21
143.635425
 31
0.0
  0
TEXT
  5
9D
  8
SIZE
  6
CONTINUOUS
 62
    30
 10
-111.371429
 20
145.635425
 30
0.0
 40
64.0
  1
1994
 41
0.9
  0
LINE
  5
9E
  8
SIZE
  6
CONTINUOUS
 62
    30
 10
-1009.0
 20
113.635425
 30
0.0
 11
981.0
 21
113.635425
 31
0.0
  0
LINE
  5
9F
  8
SIZE
  6
CONTINUOUS
 62
    30
 10
983.0
 20
40.0
 30
0.0
 11
983.0
 21
143.635425
 31
0.0
  0
LINE
  5
A0
  8
SIZE
  6
CONTINUOUS
 62
    30
 10
-1011.0
 20
40.0
 30
0.0
 11
-1011.0
 21
143.635425
 31
0.0
  0
TEXT
  5
A1
  8
SIZE
  6
CONTINUOUS
 62
    30
 10
969.871429
 20
145.635425
 30
0.0
 40
64.0
  1
67
 41
0.9
  0
LINE
  5
A2
  8
SIZE
  6
CONTINUOUS
 62
    30
 10
1050.0
 20
113.635425
 30
0.0
 11
983.0
 21
113.635425
 31
0.0
  0
LINE
  5
A3
  8
SIZE
  6
CONTINUOUS
 62
    30
 10
981.0
 20
113.635425
 30
0.0
 11
979.0
 21
113.635425
 31
0.0
  0
LINE
  5
A4
  8
SIZE
  6
CONTINUOUS
 62
    30
 10
1052.0
 20
113.635425
 30
0.0
 11
1054.0
 21
113.635425
 31
0.0
  0
LINE
  5
A5
  8
SIZE
  6
CONTINUOUS
 62
    30
 10
1050.0
 20
-135.5
 30
0.0
 11
1050.0
 21
143.635425
 31
0.0
  0
LINE
  5
A6
  8
SIZE
  6
CONTINUOUS
 62
    30
 10
983.0
 20
40.0
 30
0.0
 11
983.0
 21
143.635425
 31
0.0
  0
TEXT
  5
A7
  8
NOTE
  6
CONTINUOUS
 62
     4
 10
-1413.997226
 20
164.333801
 30
0.0
 40
64.0
  1
AH
 41
0.9
  0
LINE
  5
A8
  8
NOTE
  6
CONTINUOUS
 62
     4
 10
-1258.578638
 20
146.602401
 30
0.0
 11
-1476.48925
 21
146.602401
 31
0.0
  0
LINE
  5
A9
  8
NOTE
  6
CONTINUOUS
 62
     4
 10
-1011.0
 20
0.0
 30
0.0
 11
-1258.578638
 21
146.602401
 31
0.0
  0
LINE
  5
AA
  8
NOTE
  6
CONTINUOUS
 62
     4
 10
983.0
 20
0.0
 30
0.0
 11
1289.550704
 21
181.369537
 31
0.0
  0
LINE
  5
AB
  8
OUTLINE
  6
CONTINUOUS
 62
     3
 10
1031.631631
 20
-250.0
 30
0.0
 11
1041.651138
 21
-250.0
 31
0.0
  0
LINE
  5
AC
  8
OUTLINE
  6
CONTINUOUS
 62
     3
 10
1032.5
 20
-61.0
 30
0.0
 11
1041.269507
 21
-61.0
 31
0.0
  0
LINE
  5
AD
  8
OUTLINE
  6
CONTINUOUS
 62
     3
 10
-1032.5
 20
-61.0
 30
0.0
 11
-1032.5
 21
0.0
 31
0.0
  0
LINE
  5
AE
  8
OUTLINE
  6
CONTINUOUS
 62
     3
 10
-1041.269507
 20
-61.0
 30
0.0
 11
-1032.519507
 21
-61.0
 31
0.0
  0
ARC
  5
AF
  8
OUTLINE
  6
CONTINUOUS
 62
     3
 10
-522.859903
 20
-156.547164
 30
0.0
 40
527.141137
 50
169.55711
 51
190.211506
  0
ARC
  5
B0
  8
OUTLINE
  6
CONTINUOUS
 62
     3
 10
-512.840396
 20
-156.547164
 30
0.0
 40
527.141137
 50
190.211506
 51
198.063699
  0
ARC
  5
B1
  8
OUTLINE
  6
CONTINUOUS
 62
     3
 10
1006.689748
 20
-310.0
 30
0.0
 40
10.0
 50
270.0
 51
342.738516
  0
LINE
  5
B2
  8
OUTLINE
  6
CONTINUOUS
 62
     3
 10
-1014.0
 20
-320.0
 30
0.0
 11
1006.689748
 21
-320.0
 31
0.0
  0
ARC
  5
B3
  8
OUTLINE
  6
CONTINUOUS
 62
     3
 10
512.840396
 20
-156.547164
 30
0.0
 40
527.141137
 50
342.738516
 51
349.788494
  0
LINE
  5
B4
  8
OUTLINE
  6
CONTINUOUS
 62
     3
 10
-1041.651138
 20
-250.0
 30
0.0
 11
-1031.631631
 21
-250.0
 31
0.0
  0
LINE
  5
B5
  8
OUTLINE
  6
CONTINUOUS
 62
     3
 10
-1041.269507
 20
-61.0
 30
0.0
 11
-1032.5
 21
-61.0
 31
0.0
  0
ARC
  5
B6
  8
OUTLINE
  6
CONTINUOUS
 62
     3
 10
522.859903
 20
-156.547164
 30
0.0
 40
527.141137
 50
349.788494
 51
10.44289
  0
LINE
  5
B7
  8
OUTLINE
  6
CONTINUOUS
 62
     3
 10
1032.5
 20
-61.0
 30
0.0
 11
1032.5
 21
0.0
 31
0.0
  0
LINE
  5
B8
  8
OUTLINE
  6
CONTINUOUS
 62
     3
 10
-1032.5
 20
0.0
 30
0.0
 11
1032.5
 21
0.0
 31
0.0
  0
TEXT
  5
B9
  8
NOTE
  6
CONTINUOUS
 62
     4
 10
1324.549366
 20
215.722486
 30
0.0
 40
64.0
  1
AH 2ü~2-14ü~26
 41
0.9
  0
LINE
  5
BA
  8
NOTE
  6
CONTINUOUS
 62
     4
 10
2010.22333
 20
181.369537
 30
0.0
 11
1289.550704
 21
181.369537
 31
0.0
  0
CIRCLE
  5
BB
  8
FIX
  6
CONTINUOUS
 62
    11
 10
-1011.0
 20
0.0
 30
0.0
 40
7.0
  0
CIRCLE
  5
BC
  8
FIX
  6
CONTINUOUS
 62
    11
 10
983.0
 20
0.0
 30
0.0
 40
7.0
  0
TEXT
  5
BD
  8
NOTE
  6
CONTINUOUS
 62
     4
 10
152.621893
 20
323.182417
 30
0.0
 40
64.0
  1
RL âË12.7
 41
0.9
  0
TEXT
  5
BE
  8
NOTE
  6
CONTINUOUS
 62
     4
 10
132.26433
 20
-552.592814
 30
0.0
 40
64.0
  1
RG âË25.4
 41
0.9
  0
TEXT
  5
BF
  8
NOTE
  6
CONTINUOUS
 62
     4
 10
450.266967
 20
-669.221477
 30
0.0
 40
64.0
  1
D âË26
 41
0.9
  0
LINE
  5
C0
  8
NOTE
  6
CONTINUOUS
 62
     4
 10
588.7702
 20
301.977205
 30
0.0
 11
114.475333
 21
301.977205
 31
0.0
  0
LINE
  5
C1
  8
NOTE
  6
CONTINUOUS
 62
     4
 10
923.0
 20
-136.0
 30
0.0
 11
588.7702
 21
301.977205
 31
0.0
  0
LINE
  5
C2
  8
NOTE
  6
CONTINUOUS
 62
     4
 10
595.130891
 20
-575.918547
 30
0.0
 11
102.017024
 21
-575.918547
 31
0.0
  0
LINE
  5
C3
  8
NOTE
  6
CONTINUOUS
 62
     4
 10
843.0
 20
-214.0
 30
0.0
 11
595.130891
 21
-575.918547
 31
0.0
  0
LINE
  5
C4
  8
NOTE
  6
CONTINUOUS
 62
     4
 10
707.503094
 20
-694.667731
 30
0.0
 11
425.51247
 21
-694.667731
 31
0.0
  0
LINE
  5
C5
  8
NOTE
  6
CONTINUOUS
 62
     4
 10
916.0
 20
-284.0
 30
0.0
 11
707.503094
 21
-694.667731
 31
0.0
  0
CIRCLE
  5
C6
  8
ARRANGE
  6
CONTINUOUS
 62
     1
 10
0.0
 20
0.0
 30
0.0
 40
40.0
  0
POINT
  5
C7
  8
ARRANGE
  6
CONTINUOUS
 62
     1
 10
0.0
 20
0.0
 30
0.0
  0
TEXT
  5
C8
  8
ETC
  6
CONTINUOUS
 62
    61
 10
1541.659218
 20
702.331431
 30
0.0
 40
64.0
  1
PCZG-P10MBA_2
 41
0.9
  0
LINE
  5
C9
  8
BASIS
  6
DASHDOT
 62
     6
 10
0.0
 20
-411.433166
 30
0.0
 11
0.0
 21
83.024863
 31
0.0
  0
LINE
  5
CA
  8
DETAIL
  6
CONTINUOUS
 62
     5
 10
-1000.0
 20
-203.0
 30
0.0
 11
1000.0
 21
-203.0
 31
0.0
  0
LINE
  5
CB
  8
DETAIL
  6
CONTINUOUS
 62
     5
 10
-1000.0
 20
-83.0
 30
0.0
 11
1000.0
 21
-83.0
 31
0.0
  0
ARC
  5
CC
  8
DETAIL
  6
CONTINUOUS
 62
     5
 10
522.859903
 20
-156.547164
 30
0.0
 40
527.141137
 50
349.788494
 51
10.44289
  0
LINE
  5
CD
  8
DETAIL
  6
CONTINUOUS
 62
     5
 10
1032.519507
 20
-61.0
 30
0.0
 11
1041.269507
 21
-61.0
 31
0.0
  0
LINE
  5
CE
  8
DETAIL
  6
CONTINUOUS
 62
     5
 10
1032.5
 20
-61.0
 30
0.0
 11
1032.5
 21
0.0
 31
0.0
  0
ARC
  5
CF
  8
DETAIL
  6
CONTINUOUS
 62
     5
 10
512.840396
 20
-156.547164
 30
0.0
 40
527.141137
 50
342.738516
 51
349.788494
  0
LINE
  5
D0
  8
DETAIL
  6
CONTINUOUS
 62
     5
 10
-1014.0
 20
-320.0
 30
0.0
 11
1006.689748
 21
-320.0
 31
0.0
  0
LINE
  5
D1
  8
DETAIL
  6
CONTINUOUS
 62
     5
 10
-1032.5
 20
0.0
 30
0.0
 11
1032.5
 21
0.0
 31
0.0
  0
LINE
  5
D2
  8
DETAIL
  6
CONTINUOUS
 62
     5
 10
-1041.651138
 20
-250.0
 30
0.0
 11
1041.651138
 21
-250.0
 31
0.0
  0
ARC
  5
D3
  8
DETAIL
  6
CONTINUOUS
 62
     5
 10
1006.689748
 20
-310.0
 30
0.0
 40
10.0
 50
270.0
 51
342.738516
  0
ARC
  5
D4
  8
DETAIL
  6
CONTINUOUS
 62
     5
 10
-512.840396
 20
-156.547164
 30
0.0
 40
527.141137
 50
190.211506
 51
198.063699
  0
LINE
  5
D5
  8
DETAIL
  6
CONTINUOUS
 62
     5
 10
-1041.269507
 20
-61.0
 30
0.0
 11
-1032.519507
 21
-61.0
 31
0.0
  0
LINE
  5
D6
  8
DETAIL
  6
CONTINUOUS
 62
     5
 10
-1032.5
 20
-61.0
 30
0.0
 11
-1032.5
 21
0.0
 31
0.0
  0
ARC
  5
D7
  8
DETAIL
  6
CONTINUOUS
 62
     5
 10
-522.859903
 20
-156.547164
 30
0.0
 40
527.141137
 50
169.55711
 51
190.211506
  0
ARC
  5
D8
  8
DETAIL
  6
CONTINUOUS
 62
     5
 10
522.859903
 20
-156.547164
 30
0.0
 40
527.141137
 50
349.788494
 51
10.44289
  0
LINE
  5
D9
  8
DETAIL
  6
CONTINUOUS
 62
     5
 10
-1041.269507
 20
-61.0
 30
0.0
 11
1041.269507
 21
-61.0
 31
0.0
  0
LINE
  5
DA
  8
DETAIL
  6
CONTINUOUS
 62
     5
 10
1032.5
 20
-61.0
 30
0.0
 11
1032.5
 21
0.0
 31
0.0
  0
ARC
  5
DB
  8
DETAIL
  6
CONTINUOUS
 62
     5
 10
512.840396
 20
-156.547164
 30
0.0
 40
527.141137
 50
342.738516
 51
349.788494
  0
LINE
  5
DC
  8
DETAIL
  6
CONTINUOUS
 62
     5
 10
-864.0
 20
-320.0
 30
0.0
 11
856.689748
 21
-320.0
 31
0.0
  0
LINE
  5
DD
  8
DETAIL
  6
CONTINUOUS
 62
     5
 10
-882.5
 20
0.0
 30
0.0
 11
882.5
 21
0.0
 31
0.0
  0
LINE
  5
DE
  8
DETAIL
  6
CONTINUOUS
 62
     5
 10
-891.631631
 20
-250.0
 30
0.0
 11
891.631631
 21
-250.0
 31
0.0
  0
ARC
  5
DF
  8
DETAIL
  6
CONTINUOUS
 62
     5
 10
1006.689748
 20
-310.0
 30
0.0
 40
10.0
 50
270.0
 51
342.738516
  0
ARC
  5
E0
  8
DETAIL
  6
CONTINUOUS
 62
     5
 10
-512.840396
 20
-156.547164
 30
0.0
 40
527.141137
 50
190.211506
 51
198.063699
  0
LINE
  5
E1
  8
DETAIL
  6
CONTINUOUS
 62
     5
 10
-1032.5
 20
-61.0
 30
0.0
 11
-1032.5
 21
0.0
 31
0.0
  0
ARC
  5
E2
  8
DETAIL
  6
CONTINUOUS
 62
     5
 10
-522.859903
 20
-156.547164
 30
0.0
 40
527.141137
 50
169.55711
 51
190.211506
  0
LINE
  5
E3
  8
DETAIL
  6
CONTINUOUS
 62
     5
 10
-1003.0
 20
0.0
 30
0.0
 11
-1003.0
 21
-320.0
 31
0.0
  0
LINE
  5
E4
  8
DETAIL
  6
CONTINUOUS
 62
     5
 10
1003.0
 20
0.0
 30
0.0
 11
1003.0
 21
-320.0
 31
0.0
  0
ENDSEC
  0
EOF
