  0
SECTION
  2
HEADER
  9
$ACADVER
  1
AC1009
  9
$INSBASE
 10
0.0
 20
0.0
 30
0.0
  9
$EXTMIN
 10
-744.692824
 20
-572.727855
 30
0.0
  9
$EXTMAX
 10
1567.309728
 20
752.845803
 30
0.0
  9
$LIMMIN
 10
-3837.000175
 20
-3000.109539
  9
$LIMMAX
 10
7319.256881
 20
4045.223003
  9
$ORTHOMODE
 70
     0
  9
$REGENMODE
 70
     1
  9
$FILLMODE
 70
     1
  9
$QTEXTMODE
 70
     0
  9
$MIRRTEXT
 70
     0
  9
$DRAGMODE
 70
     2
  9
$LTSCALE
 40
20.0
  9
$OSMODE
 70
    37
  9
$ATTMODE
 70
     1
  9
$TEXTSIZE
 40
64.0
  9
$TRACEWID
 40
0.05
  9
$TEXTSTYLE
  7
STANDARD
  9
$CLAYER
  8
SIZE
  9
$CELTYPE
  6
CONTINUOUS
  9
$CECOLOR
 62
     7
  9
$DIMSCALE
 40
1.0
  9
$DIMASZ
 40
10.0
  9
$DIMEXO
 40
20.0
  9
$DIMDLI
 40
200.0
  9
$DIMRND
 40
0.0
  9
$DIMDLE
 40
0.0
  9
$DIMEXE
 40
30.0
  9
$DIMTP
 40
0.0
  9
$DIMTM
 40
0.0
  9
$DIMTXT
 40
64.0
  9
$DIMCEN
 40
0.0
  9
$DIMTSZ
 40
0.0
  9
$DIMTOL
 70
     0
  9
$DIMLIM
 70
     0
  9
$DIMTIH
 70
     0
  9
$DIMTOH
 70
     0
  9
$DIMSE1
 70
     0
  9
$DIMSE2
 70
     0
  9
$DIMTAD
 70
     1
  9
$DIMZIN
 70
     8
  9
$DIMBLK
  1

  9
$DIMASO
 70
     1
  9
$DIMSHO
 70
     0
  9
$DIMPOST
  1

  9
$DIMAPOST
  1

  9
$DIMALT
 70
     0
  9
$DIMALTD
 70
     2
  9
$DIMALTF
 40
25.4
  9
$DIMLFAC
 40
1.0
  9
$DIMTOFL
 70
     1
  9
$DIMTVP
 40
0.0
  9
$DIMTIX
 70
     1
  9
$DIMSOXD
 70
     0
  9
$DIMSAH
 70
     1
  9
$DIMBLK1
  1
_DOTBLANK
  9
$DIMBLK2
  1
_DOTBLANK
  9
$DIMSTYLE
  2
STANDARD
  9
$DIMCLRD
 70
     0
  9
$DIMCLRE
 70
     0
  9
$DIMCLRT
 70
     0
  9
$DIMTFAC
 40
1.0
  9
$DIMGAP
 40
0.09
  9
$LUNITS
 70
     2
  9
$LUPREC
 70
     4
  9
$SKETCHINC
 40
0.1
  9
$FILLETRAD
 40
10.0
  9
$AUNITS
 70
     1
  9
$AUPREC
 70
     3
  9
$MENU
  1
ACAD
  9
$ELEVATION
 40
0.0
  9
$PELEVATION
 40
0.0
  9
$THICKNESS
 40
0.0
  9
$LIMCHECK
 70
     0
  9
$BLIPMODE
 70
     0
  9
$CHAMFERA
 40
0.0
  9
$CHAMFERB
 40
0.0
  9
$SKPOLY
 70
     0
  9
$TDCREATE
 40
2450330.439931
  9
$TDUPDATE
 40
2453136.796721
  9
$TDINDWG
 40
1.120854
  9
$TDUSRTIMER
 40
1.120854
  9
$USRTIMER
 70
     1
  9
$ANGBASE
 50
0.0
  9
$ANGDIR
 70
     0
  9
$PDMODE
 70
     3
  9
$PDSIZE
 40
-2.0
  9
$PLINEWID
 40
0.0
  9
$COORDS
 70
     1
  9
$SPLFRAME
 70
     0
  9
$SPLINETYPE
 70
     6
  9
$SPLINESEGS
 70
     8
  9
$ATTDIA
 70
     0
  9
$ATTREQ
 70
     1
  9
$HANDLING
 70
     1
  9
$HANDSEED
  5
128
  9
$SURFTAB1
 70
     6
  9
$SURFTAB2
 70
     6
  9
$SURFTYPE
 70
     6
  9
$SURFU
 70
     6
  9
$SURFV
 70
     6
  9
$UCSNAME
  2

  9
$UCSORG
 10
0.0
 20
0.0
 30
0.0
  9
$UCSXDIR
 10
1.0
 20
0.0
 30
0.0
  9
$UCSYDIR
 10
0.0
 20
1.0
 30
0.0
  9
$PUCSNAME
  2

  9
$PUCSORG
 10
0.0
 20
0.0
 30
0.0
  9
$PUCSXDIR
 10
1.0
 20
0.0
 30
0.0
  9
$PUCSYDIR
 10
0.0
 20
1.0
 30
0.0
  9
$USERI1
 70
     0
  9
$USERI2
 70
     0
  9
$USERI3
 70
     0
  9
$USERI4
 70
     0
  9
$USERI5
 70
     0
  9
$USERR1
 40
20.0
  9
$USERR2
 40
0.0
  9
$USERR3
 40
0.0
  9
$USERR4
 40
0.0
  9
$USERR5
 40
0.0
  9
$WORLDVIEW
 70
     1
  9
$SHADEDGE
 70
     3
  9
$SHADEDIF
 70
    70
  9
$TILEMODE
 70
     1
  9
$MAXACTVP
 70
    48
  9
$PLIMCHECK
 70
     0
  9
$PEXTMIN
 10
1.000000E+020
 20
1.000000E+020
 30
1.000000E+020
  9
$PEXTMAX
 10
-1.000000E+020
 20
-1.000000E+020
 30
-1.000000E+020
  9
$PLIMMIN
 10
0.0
 20
0.0
  9
$PLIMMAX
 10
12.0
 20
9.0
  9
$UNITMODE
 70
     0
  9
$VISRETAIN
 70
     1
  9
$PLINEGEN
 70
     0
  9
$PSLTSCALE
 70
     1
  0
ENDSEC
  0
SECTION
  2
TABLES
  0
TABLE
  2
VPORT
 70
     2
  0
VPORT
  2
*ACTIVE
 70
     0
 10
0.0
 20
0.0
 11
1.0
 21
1.0
 12
2631.286083
 22
522.556732
 13
0.0
 23
0.0
 14
50.0
 24
50.0
 15
100.0
 25
100.0
 16
0.0
 26
0.0
 36
1.0
 17
0.0
 27
0.0
 37
0.0
 40
7045.332542
 41
1.83619
 42
50.0
 43
0.0
 44
0.0
 50
0.0
 51
0.0
 71
     0
 72
  1000
 73
     1
 74
     0
 75
     0
 76
     0
 77
     0
 78
     0
  0
ENDTAB
  0
TABLE
  2
LTYPE
 70
     2
  0
LTYPE
  2
CONTINUOUS
 70
     0
  3
Ä└É³
 72
    65
 73
     0
 40
0.0
  0
LTYPE
  2
DASHDOT
 70
     0
  3
____ _ ____ _ ____ _ ____ _ ____ _ ____ _ ____
 72
    65
 73
     4
 40
5.5
 49
4.0
 49
-0.6
 49
0.3
 49
-0.6
  0
ENDTAB
  0
TABLE
  2
LAYER
 70
    12
  0
LAYER
  2
0
 70
     0
 62
     7
  6
CONTINUOUS
  0
LAYER
  2
SIZE
 70
     0
 62
    30
  6
CONTINUOUS
  0
LAYER
  2
OUTLINE
 70
     0
 62
     3
  6
CONTINUOUS
  0
LAYER
  2
DETAIL
 70
     0
 62
     5
  6
CONTINUOUS
  0
LAYER
  2
BASIS
 70
     0
 62
     6
  6
DASHDOT
  0
LAYER
  2
NOTE
 70
     0
 62
     4
  6
CONTINUOUS
  0
LAYER
  2
ARRANGE
 70
     0
 62
     1
  6
CONTINUOUS
  0
LAYER
  2
FIX
 70
     0
 62
    11
  6
CONTINUOUS
  0
LAYER
  2
SERVICESPACE
 70
     0
 62
     2
  6
DASHDOT
  0
LAYER
  2
ETC
 70
     0
 62
    61
  6
CONTINUOUS
  0
LAYER
  2
SYMBOLLINE
 70
     0
 62
    15
  6
CONTINUOUS
  0
LAYER
  2
DEFPOINTS
 70
     0
 62
     7
  6
CONTINUOUS
  0
ENDTAB
  0
TABLE
  2
STYLE
 70
     1
  0
STYLE
  2
STANDARD
 70
     0
 40
0.0
 41
0.9
 50
0.0
 71
     0
 42
64.0
  3
SIMPLEX
  4
BIGFONT
  0
ENDTAB
  0
TABLE
  2
VIEW
 70
     1
  0
VIEW
  2
ALL
 70
     0
 40
9000.0
 10
241.506647
 20
0.0
 41
12483.01
 11
0.0
 21
0.0
 31
1.0
 12
0.0
 22
0.0
 32
0.0
 42
50.0
 43
0.0
 44
0.0
 50
0.0
 71
     0
  0
ENDTAB
  0
TABLE
  2
UCS
 70
     0
  0
ENDTAB
  0
TABLE
  2
APPID
 70
     1
  0
APPID
  2
ACAD
 70
     0
  0
ENDTAB
  0
TABLE
  2
DIMSTYLE
 70
     1
  0
DIMSTYLE
  2
STANDARD
 70
     0
  3

  4

  5

  6

  7

 40
1.0
 41
0.18
 42
0.0625
 43
0.38
 44
0.18
 45
0.0
 46
0.0
 47
0.0
 48
0.0
140
0.18
141
0.09
142
0.0
143
25.4
144
1.0
145
0.0
146
1.0
147
0.09
 71
     0
 72
     0
 73
     1
 74
     1
 75
     0
 76
     0
 77
     0
 78
     0
170
     0
171
     2
172
     0
173
     0
174
     0
175
     0
176
     0
177
     0
178
     0
  0
ENDTAB
  0
ENDSEC
  0
SECTION
  2
BLOCKS
  0
BLOCK
  8
0
  2
$MODEL_SPACE
 70
     0
 10
0.0
 20
0.0
 30
0.0
  3
$MODEL_SPACE
  1

  0
ENDBLK
  5
10C
  8
0
  0
BLOCK
 67
     1
  8
0
  2
$PAPER_SPACE
 70
     0
 10
0.0
 20
0.0
 30
0.0
  3
$PAPER_SPACE
  1

  0
ENDBLK
  5
109
 67
     1
  8
0
  0
BLOCK
  8
0
  2
_DOTBLANK
 70
     0
 10
0.0
 20
0.0
 30
0.0
  3
_DOTBLANK
  1

  0
CIRCLE
  5
30
  8
0
  6
CONTINUOUS
 62
     7
 10
0.0
 20
0.0
 30
0.0
 40
0.5
  0
LINE
  5
31
  8
0
  6
CONTINUOUS
 62
     7
 10
-0.5
 20
0.0
 30
0.0
 11
-1.0
 21
0.0
 31
0.0
  0
ENDBLK
  5
32
  8
0
  0
ENDSEC
  0
SECTION
  2
ENTITIES
  0
TEXT
  5
33
  8
SIZE
  6
CONTINUOUS
 62
    30
 10
-74.057143
 20
-510.727855
 30
0.0
 40
64.0
  1
800
 41
0.9
  0
LINE
  5
34
  8
SIZE
  6
CONTINUOUS
 62
    30
 10
398.0
 20
-542.727855
 30
0.0
 11
-398.0
 21
-542.727855
 31
0.0
  0
LINE
  5
35
  8
SIZE
  6
CONTINUOUS
 62
    30
 10
298.0
 20
250.325638
 30
0.0
 11
-148.0
 21
250.325638
 31
0.0
  0
TEXT
  5
36
  8
NOTE
  6
CONTINUOUS
 62
     4
 10
-572.039051
 20
581.974425
 30
0.0
 40
64.0
  1
AH 2ü~2-14ü~26
 41
0.9
  0
LINE
  5
37
  8
NOTE
  6
CONTINUOUS
 62
     4
 10
94.207286
 20
554.019949
 30
0.0
 11
-592.677815
 21
554.019949
 31
0.0
  0
LINE
  5
38
  8
OUTLINE
  6
CONTINUOUS
 62
     3
 10
-330.0
 20
-250.0
 30
0.0
 11
15.0
 21
-320.0
 31
0.0
  0
LINE
  5
39
  8
OUTLINE
  6
CONTINUOUS
 62
     3
 10
-321.0
 20
0.0
 30
0.0
 11
400.0
 21
0.0
 31
0.0
  0
LINE
  5
3A
  8
NOTE
  6
CONTINUOUS
 62
     4
 10
310.0
 20
-136.0
 30
0.0
 11
-289.279668
 21
301.645477
 31
0.0
  0
CIRCLE
  5
3B
  8
ARRANGE
  6
CONTINUOUS
 62
     1
 10
0.0
 20
0.0
 30
0.0
 40
40.0
  0
POINT
  5
3C
  8
ARRANGE
  6
CONTINUOUS
 62
     1
 10
0.0
 20
0.0
 30
0.0
  0
LINE
  5
3D
  8
DETAIL
  6
CONTINUOUS
 62
     5
 10
-321.0
 20
0.0
 30
0.0
 11
400.0
 21
0.0
 31
0.0
  0
LINE
  5
3E
  8
DETAIL
  6
CONTINUOUS
 62
     5
 10
-400.0
 20
-61.0
 30
0.0
 11
400.0
 21
-61.0
 31
0.0
  0
LINE
  5
3F
  8
DETAIL
  6
CONTINUOUS
 62
     5
 10
-330.0
 20
-250.0
 30
0.0
 11
400.0
 21
-250.0
 31
0.0
  0
LINE
  5
40
  8
DETAIL
  6
CONTINUOUS
 62
     5
 10
-330.0
 20
-250.0
 30
0.0
 11
15.0
 21
-320.0
 31
0.0
  0
LINE
  5
41
  8
NOTE
  6
CONTINUOUS
 62
     4
 10
-150.0
 20
-20.0
 30
0.0
 11
-150.0
 21
20.0
 31
0.0
  0
POLYLINE
  5
42
  8
NOTE
  6
CONTINUOUS
 62
     4
 66
     1
 10
0.0
 20
0.0
 30
0.0
  0
VERTEX
  5
43
  8
NOTE
  6
CONTINUOUS
 62
     4
 10
-180.418482
 20
25.975295
 30
0.0
  0
VERTEX
  5
44
  8
NOTE
  6
CONTINUOUS
 62
     4
 10
-150.0
 20
0.0
 30
0.0
  0
VERTEX
  5
45
  8
NOTE
  6
CONTINUOUS
 62
     4
 10
-189.330826
 20
7.286025
 30
0.0
  0
SEQEND
  5
46
  8
NOTE
  6
CONTINUOUS
 62
     4
  0
CIRCLE
  5
47
  8
FIX
  6
CONTINUOUS
 62
    11
 10
-150.0
 20
0.0
 30
0.0
 40
7.0
  0
LINE
  5
48
  8
NOTE
  6
CONTINUOUS
 62
     4
 10
-150.0
 20
0.0
 30
0.0
 11
-403.80906
 21
111.77525
 31
0.0
  0
LINE
  5
49
  8
BASIS
  6
DASHDOT
 62
     6
 10
0.0
 20
-379.644958
 30
0.0
 11
0.0
 21
71.794438
 31
0.0
  0
LINE
  5
4A
  8
SIZE
  6
CONTINUOUS
 62
    30
 10
-400.0
 20
-81.0
 30
0.0
 11
-400.0
 21
-572.727855
 31
0.0
  0
CIRCLE
  5
4B
  8
SIZE
  6
CONTINUOUS
 62
    30
 10
-400.0
 20
-542.727855
 30
0.0
 40
6.0
  0
ARC
  5
4C
  8
OUTLINE
  6
CONTINUOUS
 62
     3
 10
365.582288
 20
115.086033
 30
0.0
 40
785.571468
 50
192.952914
 51
207.693359
  0
ARC
  5
4D
  8
DETAIL
  6
CONTINUOUS
 62
     5
 10
365.582288
 20
115.086033
 30
0.0
 40
785.571468
 50
192.952914
 51
207.693359
  0
LINE
  5
4E
  8
OUTLINE
  6
CONTINUOUS
 62
     3
 10
-321.0
 20
0.0
 30
0.0
 11
-365.0
 21
-61.0
 31
0.0
  0
LINE
  5
4F
  8
DETAIL
  6
CONTINUOUS
 62
     5
 10
-321.0
 20
0.0
 30
0.0
 11
-365.0
 21
-61.0
 31
0.0
  0
LINE
  5
50
  8
OUTLINE
  6
CONTINUOUS
 62
     3
 10
-400.0
 20
-61.0
 30
0.0
 11
-365.0
 21
-61.0
 31
0.0
  0
LINE
  5
51
  8
NOTE
  6
CONTINUOUS
 62
     4
 10
-130.0
 20
0.0
 30
0.0
 11
-170.0
 21
0.0
 31
0.0
  0
TEXT
  5
52
  8
NOTE
  6
CONTINUOUS
 62
     4
 10
-543.308635
 20
126.728221
 30
0.0
 40
64.0
  1
AH
 41
0.9
  0
LINE
  5
53
  8
NOTE
  6
CONTINUOUS
 62
     4
 10
-403.80906
 20
111.77525
 30
0.0
 11
-574.191195
 21
111.77525
 31
0.0
  0
TEXT
  5
54
  8
NOTE
  6
CONTINUOUS
 62
     4
 10
-720.567059
 20
323.244842
 30
0.0
 40
64.0
  1
RL âË12.7
 41
0.9
  0
LINE
  5
55
  8
NOTE
  6
CONTINUOUS
 62
     4
 10
-289.279668
 20
301.645477
 30
0.0
 11
-744.692824
 21
301.645477
 31
0.0
  0
LINE
  5
56
  8
SIZE
  6
CONTINUOUS
 62
    30
 10
-150.0
 20
40.0
 30
0.0
 11
-150.0
 21
280.325638
 31
0.0
  0
CIRCLE
  5
57
  8
SIZE
  6
CONTINUOUS
 62
    30
 10
-150.0
 20
250.325638
 30
0.0
 40
6.0
  0
LINE
  5
58
  8
NOTE
  6
CONTINUOUS
 62
     4
 10
300.0
 20
-20.0
 30
0.0
 11
300.0
 21
20.0
 31
0.0
  0
POLYLINE
  5
59
  8
NOTE
  6
CONTINUOUS
 62
     4
 66
     1
 10
0.0
 20
0.0
 30
0.0
  0
VERTEX
  5
5A
  8
NOTE
  6
CONTINUOUS
 62
     4
 10
276.876846
 20
32.639236
 30
0.0
  0
VERTEX
  5
5B
  8
NOTE
  6
CONTINUOUS
 62
     4
 10
300.0
 20
0.0
 30
0.0
  0
VERTEX
  5
5C
  8
NOTE
  6
CONTINUOUS
 62
     4
 10
296.29438
 20
39.827985
 30
0.0
  0
SEQEND
  5
5D
  8
NOTE
  6
CONTINUOUS
 62
     4
  0
CIRCLE
  5
5E
  8
SIZE
  6
CONTINUOUS
 62
    30
 10
1164.430132
 20
0.0
 30
0.0
 40
6.0
  0
LINE
  5
5F
  8
SIZE
  6
CONTINUOUS
 62
    30
 10
310.0
 20
-96.0
 30
0.0
 11
310.0
 21
146.300024
 31
0.0
  0
LINE
  5
60
  8
SIZE
  6
CONTINUOUS
 62
    30
 10
204.0
 20
-244.0
 30
0.0
 11
204.0
 21
401.606148
 31
0.0
  0
CIRCLE
  5
61
  8
FIX
  6
CONTINUOUS
 62
    11
 10
300.0
 20
0.0
 30
0.0
 40
7.0
  0
LINE
  5
62
  8
NOTE
  6
CONTINUOUS
 62
     4
 10
300.0
 20
0.0
 30
0.0
 11
94.207286
 21
554.019949
 31
0.0
  0
LINE
  5
63
  8
NOTE
  6
CONTINUOUS
 62
     4
 10
310.0
 20
-214.0
 30
0.0
 11
615.855457
 21
105.033593
 31
0.0
  0
TEXT
  5
64
  8
SIZE
  6
CONTINUOUS
 62
    30
 10
982.967007
 20
-297.942857
 30
0.0
 40
64.0
  1
184
 50
90.0
 41
0.9
  0
LINE
  5
65
  8
SIZE
  6
CONTINUOUS
 62
    30
 10
350.0
 20
-136.0
 30
0.0
 11
1044.967007
 21
-136.0
 31
0.0
  0
LINE
  5
66
  8
SIZE
  6
CONTINUOUS
 62
    30
 10
420.0
 20
-320.0
 30
0.0
 11
1044.967007
 21
-320.0
 31
0.0
  0
LINE
  5
67
  8
SIZE
  6
CONTINUOUS
 62
    30
 10
420.0
 20
0.0
 30
0.0
 11
1194.430132
 21
0.0
 31
0.0
  0
LINE
  5
68
  8
SIZE
  6
CONTINUOUS
 62
    30
 10
420.0
 20
-320.0
 30
0.0
 11
1194.430132
 21
-320.0
 31
0.0
  0
LINE
  5
69
  8
SIZE
  6
CONTINUOUS
 62
    30
 10
244.0
 20
-284.0
 30
0.0
 11
731.258689
 21
-284.0
 31
0.0
  0
LINE
  5
6A
  8
SIZE
  6
CONTINUOUS
 62
    30
 10
420.0
 20
-320.0
 30
0.0
 11
731.258689
 21
-320.0
 31
0.0
  0
LINE
  5
6B
  8
SIZE
  6
CONTINUOUS
 62
    30
 10
350.0
 20
-214.0
 30
0.0
 11
888.934074
 21
-214.0
 31
0.0
  0
LINE
  5
6C
  8
SIZE
  6
CONTINUOUS
 62
    30
 10
420.0
 20
-320.0
 30
0.0
 11
888.934074
 21
-320.0
 31
0.0
  0
LINE
  5
6D
  8
NOTE
  6
CONTINUOUS
 62
     4
 10
459.831059
 20
-530.828029
 30
0.0
 11
758.157394
 21
-530.828029
 31
0.0
  0
LINE
  5
6E
  8
NOTE
  6
CONTINUOUS
 62
     4
 10
204.0
 20
-284.0
 30
0.0
 11
459.831059
 21
-530.828029
 31
0.0
  0
LINE
  5
6F
  8
SIZE
  6
CONTINUOUS
 62
    30
 10
400.0
 20
-340.0
 30
0.0
 11
400.0
 21
-572.727855
 31
0.0
  0
CIRCLE
  5
70
  8
SIZE
  6
CONTINUOUS
 62
    30
 10
400.0
 20
-542.727855
 30
0.0
 40
6.0
  0
POLYLINE
  5
71
  8
NOTE
  6
CONTINUOUS
 62
     4
 66
     1
 10
0.0
 20
0.0
 30
0.0
  0
VERTEX
  5
72
  8
NOTE
  6
CONTINUOUS
 62
     4
 10
239.188913
 20
-303.019474
 30
0.0
  0
VERTEX
  5
73
  8
NOTE
  6
CONTINUOUS
 62
     4
 10
204.0
 20
-284.0
 30
0.0
  0
VERTEX
  5
74
  8
NOTE
  6
CONTINUOUS
 62
     4
 10
224.964756
 20
-318.065804
 30
0.0
  0
SEQEND
  5
75
  8
NOTE
  6
CONTINUOUS
 62
     4
  0
LINE
  5
76
  8
OUTLINE
  6
CONTINUOUS
 62
     3
 10
15.0
 20
-320.0
 30
0.0
 11
400.0
 21
-320.0
 31
0.0
  0
LINE
  5
77
  8
DETAIL
  6
CONTINUOUS
 62
     5
 10
15.0
 20
-320.0
 30
0.0
 11
400.0
 21
-320.0
 31
0.0
  0
LINE
  5
78
  8
NOTE
  6
CONTINUOUS
 62
     4
 10
184.0
 20
-284.0
 30
0.0
 11
224.0
 21
-284.0
 31
0.0
  0
LINE
  5
79
  8
NOTE
  6
CONTINUOUS
 62
     4
 10
204.0
 20
-304.0
 30
0.0
 11
204.0
 21
-264.0
 31
0.0
  0
LINE
  5
7A
  8
OUTLINE
  6
CONTINUOUS
 62
     3
 10
400.0
 20
-320.0
 30
0.0
 11
400.0
 21
0.0
 31
0.0
  0
LINE
  5
7B
  8
DETAIL
  6
CONTINUOUS
 62
     5
 10
400.0
 20
-320.0
 30
0.0
 11
400.0
 21
0.0
 31
0.0
  0
LINE
  5
7C
  8
NOTE
  6
CONTINUOUS
 62
     4
 10
290.0
 20
-214.0
 30
0.0
 11
330.0
 21
-214.0
 31
0.0
  0
LINE
  5
7D
  8
NOTE
  6
CONTINUOUS
 62
     4
 10
310.0
 20
-234.0
 30
0.0
 11
310.0
 21
-194.0
 31
0.0
  0
POLYLINE
  5
7E
  8
NOTE
  6
CONTINUOUS
 62
     4
 66
     1
 10
0.0
 20
0.0
 30
0.0
  0
VERTEX
  5
7F
  8
NOTE
  6
CONTINUOUS
 62
     4
 10
328.973706
 20
-178.786388
 30
0.0
  0
VERTEX
  5
80
  8
NOTE
  6
CONTINUOUS
 62
     4
 10
310.0
 20
-214.0
 30
0.0
  0
VERTEX
  5
81
  8
NOTE
  6
CONTINUOUS
 62
     4
 10
344.038517
 20
-192.99097
 30
0.0
  0
SEQEND
  5
82
  8
NOTE
  6
CONTINUOUS
 62
     4
  0
LINE
  5
83
  8
NOTE
  6
CONTINUOUS
 62
     4
 10
290.0
 20
-136.0
 30
0.0
 11
330.0
 21
-136.0
 31
0.0
  0
POLYLINE
  5
84
  8
NOTE
  6
CONTINUOUS
 62
     4
 66
     1
 10
0.0
 20
0.0
 30
0.0
  0
VERTEX
  5
85
  8
NOTE
  6
CONTINUOUS
 62
     4
 10
273.230013
 20
-120.252998
 30
0.0
  0
VERTEX
  5
86
  8
NOTE
  6
CONTINUOUS
 62
     4
 10
310.0
 20
-136.0
 30
0.0
  0
VERTEX
  5
87
  8
NOTE
  6
CONTINUOUS
 62
     4
 10
286.029758
 20
-103.977703
 30
0.0
  0
SEQEND
  5
88
  8
NOTE
  6
CONTINUOUS
 62
     4
  0
LINE
  5
89
  8
NOTE
  6
CONTINUOUS
 62
     4
 10
310.0
 20
-156.0
 30
0.0
 11
310.0
 21
-116.0
 31
0.0
  0
LINE
  5
8A
  8
NOTE
  6
CONTINUOUS
 62
     4
 10
280.0
 20
0.0
 30
0.0
 11
320.0
 21
0.0
 31
0.0
  0
TEXT
  5
8B
  8
SIZE
  6
CONTINUOUS
 62
    30
 10
669.258689
 20
-347.257143
 30
0.0
 40
64.0
  1
36
 50
90.0
 41
0.9
  0
TEXT
  5
8C
  8
SIZE
  6
CONTINUOUS
 62
    30
 10
826.934074
 20
-344.616701
 30
0.0
 40
64.0
  1
106
 50
90.0
 41
0.9
  0
TEXT
  5
8D
  8
NOTE
  6
CONTINUOUS
 62
     4
 10
490.278972
 20
-511.503829
 30
0.0
 40
64.0
  1
D âË26
 41
0.9
  0
CIRCLE
  5
8E
  8
SIZE
  6
CONTINUOUS
 62
    30
 10
701.258689
 20
-284.0
 30
0.0
 40
6.0
  0
CIRCLE
  5
8F
  8
SIZE
  6
CONTINUOUS
 62
    30
 10
701.258689
 20
-320.0
 30
0.0
 40
6.0
  0
LINE
  5
90
  8
SIZE
  6
CONTINUOUS
 62
    30
 10
701.258689
 20
-284.0
 30
0.0
 11
701.258689
 21
-320.0
 31
0.0
  0
LINE
  5
91
  8
SIZE
  6
CONTINUOUS
 62
    30
 10
701.258689
 20
-322.0
 30
0.0
 11
701.258689
 21
-324.0
 31
0.0
  0
LINE
  5
92
  8
SIZE
  6
CONTINUOUS
 62
    30
 10
701.258689
 20
-282.0
 30
0.0
 11
701.258689
 21
-280.0
 31
0.0
  0
LINE
  5
93
  8
SIZE
  6
CONTINUOUS
 62
    30
 10
858.934074
 20
-214.0
 30
0.0
 11
858.934074
 21
-320.0
 31
0.0
  0
CIRCLE
  5
94
  8
SIZE
  6
CONTINUOUS
 62
    30
 10
858.934074
 20
-320.0
 30
0.0
 40
6.0
  0
LINE
  5
95
  8
SIZE
  6
CONTINUOUS
 62
    30
 10
858.934074
 20
-322.0
 30
0.0
 11
858.934074
 21
-324.0
 31
0.0
  0
CIRCLE
  5
96
  8
SIZE
  6
CONTINUOUS
 62
    30
 10
858.934074
 20
-214.0
 30
0.0
 40
6.0
  0
LINE
  5
97
  8
SIZE
  6
CONTINUOUS
 62
    30
 10
858.934074
 20
-212.0
 30
0.0
 11
858.934074
 21
-210.0
 31
0.0
  0
CIRCLE
  5
98
  8
SIZE
  6
CONTINUOUS
 62
    30
 10
1164.430132
 20
-320.0
 30
0.0
 40
6.0
  0
LINE
  5
99
  8
SIZE
  6
CONTINUOUS
 62
    30
 10
1014.967007
 20
-138.0
 30
0.0
 11
1014.967007
 21
-228.0
 31
0.0
  0
TEXT
  5
9A
  8
SIZE
  6
CONTINUOUS
 62
    30
 10
1132.430132
 20
-234.057143
 30
0.0
 40
64.0
  1
320
 50
90.0
 41
0.9
  0
LINE
  5
9B
  8
SIZE
  6
CONTINUOUS
 62
    30
 10
1014.967007
 20
-318.0
 30
0.0
 11
1014.967007
 21
-228.0
 31
0.0
  0
CIRCLE
  5
9C
  8
SIZE
  6
CONTINUOUS
 62
    30
 10
1014.967007
 20
-320.0
 30
0.0
 40
6.0
  0
CIRCLE
  5
9D
  8
SIZE
  6
CONTINUOUS
 62
    30
 10
1014.967007
 20
-136.0
 30
0.0
 40
6.0
  0
LINE
  5
9E
  8
SIZE
  6
CONTINUOUS
 62
    30
 10
1164.430132
 20
-318.0
 30
0.0
 11
1164.430132
 21
-160.0
 31
0.0
  0
LINE
  5
9F
  8
SIZE
  6
CONTINUOUS
 62
    30
 10
1164.430132
 20
-2.0
 30
0.0
 11
1164.430132
 21
-160.0
 31
0.0
  0
TEXT
  5
A0
  8
ETC
  6
CONTINUOUS
 62
    61
 10
825.049205
 20
571.156598
 30
0.0
 40
64.0
  1
PAC
 41
0.9
  0
TEXT
  5
A1
  8
NOTE
  6
CONTINUOUS
 62
     4
 10
640.425741
 20
126.304426
 30
0.0
 40
64.0
  1
RG âË25.4
 41
0.9
  0
LINE
  5
A2
  8
NOTE
  6
CONTINUOUS
 62
     4
 10
615.855457
 20
105.033593
 30
0.0
 11
1088.540074
 21
105.033593
 31
0.0
  0
TEXT
  5
A3
  8
ETC
  6
CONTINUOUS
 62
    61
 10
821.252585
 20
688.845803
 30
0.0
 40
64.0
  1
PCZG-P10MBA_4
 41
0.9
  0
LINE
  5
A4
  8
SIZE
  6
CONTINUOUS
 62
    30
 10
400.0
 20
20.0
 30
0.0
 11
400.0
 21
401.606148
 31
0.0
  0
TEXT
  5
A5
  8
SIZE
  6
CONTINUOUS
 62
    30
 10
281.428571
 20
282.325638
 30
0.0
 40
64.0
  1
100
 41
0.9
  0
TEXT
  5
A6
  8
SIZE
  6
CONTINUOUS
 62
    30
 10
0.942857
 20
282.325638
 30
0.0
 40
64.0
  1
450
 41
0.9
  0
TEXT
  5
A7
  8
SIZE
  6
CONTINUOUS
 62
    30
 10
308.371429
 20
148.300024
 30
0.0
 40
64.0
  1
90
 41
0.9
  0
LINE
  5
A8
  8
SIZE
  6
CONTINUOUS
 62
    30
 10
300.0
 20
40.0
 30
0.0
 11
300.0
 21
280.325638
 31
0.0
  0
LINE
  5
A9
  8
SIZE
  6
CONTINUOUS
 62
    30
 10
400.0
 20
20.0
 30
0.0
 11
400.0
 21
280.325638
 31
0.0
  0
LINE
  5
AA
  8
SIZE
  6
CONTINUOUS
 62
    30
 10
300.0
 20
40.0
 30
0.0
 11
300.0
 21
280.325638
 31
0.0
  0
LINE
  5
AB
  8
SIZE
  6
CONTINUOUS
 62
    30
 10
310.0
 20
116.300024
 30
0.0
 11
400.0
 21
116.300024
 31
0.0
  0
CIRCLE
  5
AC
  8
SIZE
  6
CONTINUOUS
 62
    30
 10
310.0
 20
116.300024
 30
0.0
 40
6.0
  0
LINE
  5
AD
  8
SIZE
  6
CONTINUOUS
 62
    30
 10
308.0
 20
116.300024
 30
0.0
 11
306.0
 21
116.300024
 31
0.0
  0
LINE
  5
AE
  8
SIZE
  6
CONTINUOUS
 62
    30
 10
400.0
 20
20.0
 30
0.0
 11
400.0
 21
146.300024
 31
0.0
  0
CIRCLE
  5
AF
  8
SIZE
  6
CONTINUOUS
 62
    30
 10
400.0
 20
116.300024
 30
0.0
 40
6.0
  0
LINE
  5
B0
  8
SIZE
  6
CONTINUOUS
 62
    30
 10
402.0
 20
116.300024
 30
0.0
 11
404.0
 21
116.300024
 31
0.0
  0
LINE
  5
B1
  8
SIZE
  6
CONTINUOUS
 62
    30
 10
300.0
 20
250.325638
 30
0.0
 11
400.0
 21
250.325638
 31
0.0
  0
CIRCLE
  5
B2
  8
SIZE
  6
CONTINUOUS
 62
    30
 10
300.0
 20
250.325638
 30
0.0
 40
6.0
  0
CIRCLE
  5
B3
  8
SIZE
  6
CONTINUOUS
 62
    30
 10
300.0
 20
250.325638
 30
0.0
 40
6.0
  0
LINE
  5
B4
  8
SIZE
  6
CONTINUOUS
 62
    30
 10
298.0
 20
250.325638
 30
0.0
 11
296.0
 21
250.325638
 31
0.0
  0
CIRCLE
  5
B5
  8
SIZE
  6
CONTINUOUS
 62
    30
 10
400.0
 20
250.325638
 30
0.0
 40
6.0
  0
LINE
  5
B6
  8
SIZE
  6
CONTINUOUS
 62
    30
 10
402.0
 20
250.325638
 30
0.0
 11
404.0
 21
250.325638
 31
0.0
  0
LINE
  5
B7
  8
SIZE
  6
CONTINUOUS
 62
    30
 10
206.0
 20
371.606148
 30
0.0
 11
302.0
 21
371.606148
 31
0.0
  0
CIRCLE
  5
B8
  8
SIZE
  6
CONTINUOUS
 62
    30
 10
204.0
 20
371.606148
 30
0.0
 40
6.0
  0
TEXT
  5
B9
  8
SIZE
  6
CONTINUOUS
 62
    30
 10
234.8
 20
403.606148
 30
0.0
 40
64.0
  1
196
 41
0.9
  0
LINE
  5
BA
  8
SIZE
  6
CONTINUOUS
 62
    30
 10
398.0
 20
371.606148
 30
0.0
 11
302.0
 21
371.606148
 31
0.0
  0
CIRCLE
  5
BB
  8
SIZE
  6
CONTINUOUS
 62
    30
 10
400.0
 20
371.606148
 30
0.0
 40
6.0
  0
ENDSEC
  0
EOF
