  0
SECTION
  2
HEADER
  9
$ACADVER
  1
AC1009
  9
$INSBASE
 10
0.0
 20
0.0
 30
0.0
  9
$EXTMIN
 10
-1638.0102891439381
 20
-910.293949952611
 30
-0.0015258207003583
  9
$EXTMAX
 10
2038.7322342362279
 20
1726.5943276753089
 30
0.0000000349246037
  9
$LIMMIN
 10
-4267.1522210604826
 20
-2696.0832101984129
  9
$LIMMAX
 10
7190.7174225864646
 20
5141.155363923066
  9
$ORTHOMODE
 70
     1
  9
$REGENMODE
 70
     1
  9
$FILLMODE
 70
     1
  9
$QTEXTMODE
 70
     0
  9
$MIRRTEXT
 70
     0
  9
$DRAGMODE
 70
     2
  9
$LTSCALE
 40
20.0
  9
$OSMODE
 70
   431
  9
$ATTMODE
 70
     1
  9
$TEXTSIZE
 40
64.0
  9
$TRACEWID
 40
0.05
  9
$TEXTSTYLE
  7
STANDARD_MODELNAME
  9
$CLAYER
  8
SYMBOLLINE
  9
$CELTYPE
  6
CONTINUOUS
  9
$CECOLOR
 62
     7
  9
$DIMSCALE
 40
1.0
  9
$DIMASZ
 40
30.0
  9
$DIMEXO
 40
20.0
  9
$DIMDLI
 40
80.0
  9
$DIMRND
 40
0.0
  9
$DIMDLE
 40
0.0
  9
$DIMEXE
 40
20.0
  9
$DIMTP
 40
0.0
  9
$DIMTM
 40
0.0
  9
$DIMTXT
 40
60.0
  9
$DIMCEN
 40
0.09
  9
$DIMTSZ
 40
0.0
  9
$DIMTOL
 70
     0
  9
$DIMLIM
 70
     0
  9
$DIMTIH
 70
     0
  9
$DIMTOH
 70
     0
  9
$DIMSE1
 70
     0
  9
$DIMSE2
 70
     0
  9
$DIMTAD
 70
     1
  9
$DIMZIN
 70
     8
  9
$DIMBLK
  1
SMALL
  9
$DIMASO
 70
     1
  9
$DIMSHO
 70
     0
  9
$DIMPOST
  1

  9
$DIMAPOST
  1

  9
$DIMALT
 70
     0
  9
$DIMALTD
 70
     2
  9
$DIMALTF
 40
25.399999999999999
  9
$DIMLFAC
 40
1.0
  9
$DIMTOFL
 70
     1
  9
$DIMTVP
 40
0.0
  9
$DIMTIX
 70
     0
  9
$DIMSOXD
 70
     0
  9
$DIMSAH
 70
     0
  9
$DIMBLK1
  1

  9
$DIMBLK2
  1

  9
$DIMSTYLE
  2
STANDARD
  9
$DIMCLRD
 70
     0
  9
$DIMCLRE
 70
     0
  9
$DIMCLRT
 70
     0
  9
$DIMTFAC
 40
1.0
  9
$DIMGAP
 40
0.09
  9
$LUNITS
 70
     2
  9
$LUPREC
 70
     4
  9
$SKETCHINC
 40
0.1
  9
$FILLETRAD
 40
0.0
  9
$AUNITS
 70
     1
  9
$AUPREC
 70
     3
  9
$MENU
  1
ACAD
  9
$ELEVATION
 40
0.0
  9
$PELEVATION
 40
0.0
  9
$THICKNESS
 40
0.0
  9
$LIMCHECK
 70
     0
  9
$BLIPMODE
 70
     0
  9
$CHAMFERA
 40
0.0
  9
$CHAMFERB
 40
0.0
  9
$SKPOLY
 70
     0
  9
$TDCREATE
 40
2450330.4399309959
  9
$TDUPDATE
 40
2456833.4725340861
  9
$TDINDWG
 40
5.9963125116000002
  9
$TDUSRTIMER
 40
5.9963112615999998
  9
$USRTIMER
 70
     1
  9
$ANGBASE
 50
0.0
  9
$ANGDIR
 70
     0
  9
$PDMODE
 70
     3
  9
$PDSIZE
 40
-2.0
  9
$PLINEWID
 40
0.0
  9
$COORDS
 70
     1
  9
$SPLFRAME
 70
     0
  9
$SPLINETYPE
 70
     6
  9
$SPLINESEGS
 70
     8
  9
$ATTDIA
 70
     1
  9
$ATTREQ
 70
     1
  9
$HANDLING
 70
     1
  9
$HANDSEED
  5
3B2
  9
$SURFTAB1
 70
     6
  9
$SURFTAB2
 70
     6
  9
$SURFTYPE
 70
     6
  9
$SURFU
 70
     6
  9
$SURFV
 70
     6
  9
$UCSNAME
  2

  9
$UCSORG
 10
0.0
 20
0.0
 30
0.0
  9
$UCSXDIR
 10
1.0
 20
0.0
 30
0.0
  9
$UCSYDIR
 10
0.0
 20
1.0
 30
0.0
  9
$PUCSNAME
  2

  9
$PUCSORG
 10
0.0
 20
0.0
 30
0.0
  9
$PUCSXDIR
 10
1.0
 20
0.0
 30
0.0
  9
$PUCSYDIR
 10
0.0
 20
1.0
 30
0.0
  9
$USERI1
 70
     0
  9
$USERI2
 70
     0
  9
$USERI3
 70
     0
  9
$USERI4
 70
     0
  9
$USERI5
 70
     0
  9
$USERR1
 40
20.0
  9
$USERR2
 40
0.0
  9
$USERR3
 40
0.0
  9
$USERR4
 40
0.0
  9
$USERR5
 40
0.0
  9
$WORLDVIEW
 70
     1
  9
$SHADEDGE
 70
     3
  9
$SHADEDIF
 70
    70
  9
$TILEMODE
 70
     1
  9
$MAXACTVP
 70
    64
  9
$PLIMCHECK
 70
     0
  9
$PEXTMIN
 10
1.0000000000000000E+020
 20
1.0000000000000000E+020
 30
1.0000000000000000E+020
  9
$PEXTMAX
 10
-1.0000000000000000E+020
 20
-1.0000000000000000E+020
 30
-1.0000000000000000E+020
  9
$PLIMMIN
 10
0.0
 20
0.0
  9
$PLIMMAX
 10
12.0
 20
9.0
  9
$UNITMODE
 70
     0
  9
$VISRETAIN
 70
     1
  9
$PLINEGEN
 70
     0
  9
$PSLTSCALE
 70
     1
  0
ENDSEC
  0
SECTION
  2
TABLES
  0
TABLE
  2
VPORT
 70
     1
  0
VPORT
  2
*ACTIVE
 70
     0
 10
0.0
 20
0.0
 11
1.0
 21
1.0
 12
200.3609725461443
 22
408.15018886134931
 13
0.0
 23
0.0
 14
50.0
 24
50.0
 15
100.0
 25
100.0
 16
0.0
 26
0.0
 36
1.0
 17
0.0
 27
0.0
 37
0.0
 40
2657.1460620911312
 41
1.58076923076923
 42
50.0
 43
0.0
 44
0.0
 50
0.0
 51
0.0
 71
     0
 72
  1000
 73
     1
 74
     0
 75
     0
 76
     0
 77
     0
 78
     0
  0
ENDTAB
  0
TABLE
  2
LTYPE
 70
     4
  0
LTYPE
  2
CONTINUOUS
 70
     0
  3
実線
 72
    65
 73
     0
 40
0.0
  0
LTYPE
  2
DASHDOT
 70
     0
  3
____ _ ____ _ ____ _ ____ _ ____ _ ____ _ ____
 72
    65
 73
     4
 40
5.5
 49
4.0
 49
-0.6
 49
0.3
 49
-0.6
  0
ENDTAB
  0
TABLE
  2
LAYER
 70
    12
  0
LAYER
  2
0
 70
     0
 62
     7
  6
CONTINUOUS
  0
LAYER
  2
NOTE
 70
     0
 62
     4
  6
CONTINUOUS
  0
LAYER
  2
OUTLINE
 70
     0
 62
     3
  6
CONTINUOUS
  0
LAYER
  2
DETAIL
 70
     0
 62
     5
  6
CONTINUOUS
  0
LAYER
  2
BASIS
 70
     0
 62
     6
  6
DASHDOT
  0
LAYER
  2
SIZE
 70
     0
 62
    30
  6
CONTINUOUS
  0
LAYER
  2
ARRANGE
 70
     0
 62
     1
  6
CONTINUOUS
  0
LAYER
  2
FIX
 70
     0
 62
    11
  6
CONTINUOUS
  0
LAYER
  2
SERVICESPACE
 70
     0
 62
     2
  6
DASHDOT
  0
LAYER
  2
ETC
 70
     0
 62
    61
  6
CONTINUOUS
  0
LAYER
  2
SYMBOLLINE
 70
     0
 62
    15
  6
CONTINUOUS
  0
LAYER
  2
DEFPOINTS
 70
     0
 62
     7
  6
CONTINUOUS
  0
ENDTAB
  0
TABLE
  2
STYLE
 70
     4
  0
STYLE
  2
STANDARD
 70
     0
 40
0.0
 41
0.9
 50
0.0
 71
     0
 42
64.0
  3
SIMPLEX
  4
BIGFONT
  0
STYLE
  2
ANNOTATIVE
 70
     0
 40
0.0
 41
1.0
 50
0.0
 71
     0
 42
0.2
  3
txt
  4

  0
STYLE
  2
STANDARD_MODELNAME
 70
     0
 40
80.0
 41
0.8
 50
0.0
 71
     0
 42
64.0
  3
MONOTXT.shx
  4
BIGFONT.shx
  0
STYLE
  2
STANDARD1
 70
     0
 40
60.0
 41
0.7
 50
0.0
 71
     0
 42
64.0
  3
MONOTXT.shx
  4
BIGFONT.shx
  0
ENDTAB
  0
TABLE
  2
VIEW
 70
     1
  0
VIEW
  2
ALL
 70
     0
 40
9000.0
 10
241.50664699999999
 20
0.0
 41
12483.01
 11
0.0
 21
0.0
 31
1.0
 12
0.0
 22
0.0
 32
0.0
 42
50.0
 43
0.0
 44
0.0
 50
0.0
 71
     0
  0
ENDTAB
  0
TABLE
  2
UCS
 70
     0
  0
ENDTAB
  0
TABLE
  2
APPID
 70
     5
  0
APPID
  2
ACAD
 70
     0
  0
APPID
  2
ACADANNOTATIVE
 70
     0
  0
APPID
  2
ACAD_EXEMPT_FROM_CAD_STANDARDS
 70
     0
  0
APPID
  2
ACAD_NAV_VCDISPLAY
 70
     0
  0
APPID
  2
ACAD_MLEADERVER
 70
     0
  0
ENDTAB
  0
TABLE
  2
DIMSTYLE
 70
     3
  0
DIMSTYLE
  2
STANDARD
 70
     0
  3

  4

  5

  6

  7

 40
1.0
 41
0.18
 42
0.0625
 43
0.38
 44
0.18
 45
0.0
 46
0.0
 47
0.0
 48
0.0
140
0.18
141
0.09
142
0.0
143
25.399999999999999
144
1.0
145
0.0
146
1.0
147
0.09
 71
     0
 72
     0
 73
     1
 74
     1
 75
     0
 76
     0
 77
     0
 78
     0
170
     0
171
     2
172
     0
173
     0
174
     0
175
     0
176
     0
177
     0
178
     0
  0
DIMSTYLE
  2
ANNOTATIVE
 70
     0
  3

  4

  5

  6

  7

 40
1.0
 41
0.18
 42
0.0625
 43
0.38
 44
0.18
 45
0.0
 46
0.0
 47
0.0
 48
0.0
140
0.18
141
0.09
142
0.0
143
25.399999999999999
144
1.0
145
0.0
146
1.0
147
0.09
 71
     0
 72
     0
 73
     1
 74
     1
 75
     0
 76
     0
 77
     0
 78
     0
170
     0
171
     2
172
     0
173
     0
174
     0
175
     0
176
     0
177
     0
178
     0
  0
ENDTAB
  0
ENDSEC
  0
SECTION
  2
BLOCKS
  0
BLOCK
  8
0
  2
$MODEL_SPACE
 70
     0
 10
0.0
 20
0.0
 30
0.0
  3
$MODEL_SPACE
  1

  0
ENDBLK
  5
71
  8
0
  0
BLOCK
 67
     1
  8
0
  2
$PAPER_SPACE
 70
     0
 10
0.0
 20
0.0
 30
0.0
  3
$PAPER_SPACE
  1

  0
ENDBLK
  5
6D
 67
     1
  8
0
  0
BLOCK
  8
0
  2
_SMALL
 70
     0
 10
0.0
 20
0.0
 30
0.0
  3
_SMALL
  1

  0
CIRCLE
  5
89
  8
0
  6
CONTINUOUS
 62
     7
 10
0.0
 20
0.0
 30
0.0
 40
0.25
  0
ENDBLK
  5
8A
  8
0
  0
BLOCK
  8
0
 62
     7
  2
A$C20615856
 70
     0
 10
0.0
 20
0.0
 30
0.0
  3
A$C20615856
  1

  0
TEXT
  5
302
  8
NOTE
  6
CONTINUOUS
 62
     4
 10
2641.0103808136851
 20
1148.2818218589009
 30
0.0
 40
64.0
  1
RL %%C12.7
 41
0.9
  0
TEXT
  5
303
  8
NOTE
  6
CONTINUOUS
 62
     4
 10
2764.7626260930761
 20
-3.1478907497707662
 30
0.0
 40
55.0
  1
サービススペース
 50
90.00000299999769
 41
0.858516
  7
STANDARD1
  0
LINE
  5
304
  8
ARRANGE
  6
CONTINUOUS
 62
     1
 10
1267.528400279276
 20
277.67586656002641
 30
0.0
 11
1182.859389226476
 21
193.62906233840479
 31
0.0
  0
LINE
  5
305
  8
NOTE
  6
CONTINUOUS
 62
     4
 10
2148.1938947528911
 20
545.6524644492165
 30
0.0
 11
2629.7309529180629
 21
1245.334211370405
 31
0.0
  0
TEXT
  5
306
  8
NOTE
  6
CONTINUOUS
 62
     4
 10
55.000009370813594
 20
-3.1478907497707662
 30
0.0
 40
55.0
  1
サービススペース
 50
90.00000299999769
 41
0.858516
  7
STANDARD1
  0
TEXT
  5
307
  8
NOTE
  6
CONTINUOUS
 62
     4
 10
2640.2646308187391
 20
1087.037782908101
 30
0.0
 40
45.0
  1
PCZG-P10MBA8
 50
359.9999970000153
 41
0.6309520000000001
  7
STANDARD1
  0
TEXT
  5
308
  8
NOTE
  6
CONTINUOUS
 62
     4
 10
2656.9729423835088
 20
1322.80754165023
 30
0.0
 40
64.0
  1
RL %%C9.52
 41
0.9
  0
LINE
  5
309
  8
NOTE
  6
CONTINUOUS
 62
     4
 10
2629.7309529180629
 20
1245.334211370405
 30
0.0
 11
3036.6501874072919
 21
1245.334211370405
 31
0.0
  0
TEXT
  5
30A
  8
NOTE
  6
CONTINUOUS
 62
     4
 10
2656.2271923885628
 20
1261.56350269943
 30
0.0
 40
45.0
  1
PCZG-P8MBA8
 50
359.9999970000153
 41
0.6309520000000001
  7
STANDARD1
  0
LINE
  5
30B
  8
NOTE
  6
CONTINUOUS
 62
     4
 10
2510.061704732871
 20
1070.8084915790771
 30
0.0
 11
3002.1051594648238
 21
1070.8084915790771
 31
0.0
  0
ENDBLK
  5
30D
  8
0
 62
     7
  0
ENDSEC
  0
SECTION
  2
ENTITIES
  0
LINE
  5
8B
  8
DETAIL
  6
CONTINUOUS
 62
     5
 10
1003.000000000007
 20
-156.0
 30
0.0
 11
1003.000000000007
 21
-400.0
 31
0.0
  0
LINE
  5
8C
  8
DETAIL
  6
CONTINUOUS
 62
     5
 10
1003.000000000007
 20
294.0
 30
0.0
 11
1003.000000000007
 21
-144.0
 31
0.0
  0
ARC
  5
8D
  8
DETAIL
  6
CONTINUOUS
 62
     5
 10
983.00000000000716
 20
-156.0
 30
0.0
 40
7.0
 50
180.0
 51
0.0
  0
LINE
  5
8E
  8
DETAIL
  6
CONTINUOUS
 62
     5
 10
990.00000000000728
 20
-156.0
 30
0.0
 11
1003.000000000007
 21
-156.0
 31
0.0
  0
ARC
  5
8F
  8
DETAIL
  6
CONTINUOUS
 62
     5
 10
983.00000000000716
 20
-144.0
 30
0.0
 40
7.0
 50
0.0
 51
180.0
  0
LINE
  5
90
  8
DETAIL
  6
CONTINUOUS
 62
     5
 10
990.00000000000728
 20
-144.0
 30
0.0
 11
1003.000000000007
 21
-144.0
 31
0.0
  0
LINE
  5
91
  8
DETAIL
  6
CONTINUOUS
 62
     5
 10
976.00000000000716
 20
-156.0
 30
0.0
 11
976.00000000000716
 21
-144.0
 31
0.0
  0
ARC
  5
92
  8
DETAIL
  6
CONTINUOUS
 62
     5
 10
983.00000000000716
 20
294.0
 30
0.0
 40
7.0
 50
180.0
 51
0.0
  0
LINE
  5
93
  8
DETAIL
  6
CONTINUOUS
 62
     5
 10
976.00000000000716
 20
294.0
 30
0.0
 11
976.00000000000716
 21
306.0
 31
0.0
  0
LINE
  5
94
  8
DETAIL
  6
CONTINUOUS
 62
     5
 10
990.00000000000728
 20
294.0
 30
0.0
 11
1003.000000000007
 21
294.0
 31
0.0
  0
ARC
  5
95
  8
DETAIL
  6
CONTINUOUS
 62
     5
 10
983.00000000000716
 20
306.0
 30
0.0
 40
7.0
 50
0.0
 51
180.0
  0
LINE
  5
96
  8
DETAIL
  6
CONTINUOUS
 62
     5
 10
990.00000000000728
 20
306.0
 30
0.0
 11
1003.000000000007
 21
306.0
 31
0.0
  0
LINE
  5
97
  8
DETAIL
  6
CONTINUOUS
 62
     5
 10
1003.000000000007
 20
306.0
 30
0.0
 11
1003.000000000007
 21
400.0
 31
0.0
  0
LINE
  5
98
  8
DETAIL
  6
CONTINUOUS
 62
     5
 10
963.00000000000728
 20
-321.0
 30
0.0
 11
963.00000000000728
 21
400.0
 31
0.0
  0
ARC
  5
99
  8
DETAIL
  6
CONTINUOUS
 62
     5
 10
-1010.0
 20
-281.0
 30
0.0
 40
40.0
 50
180.0
 51
270.0
  0
LINE
  5
9A
  8
DETAIL
  6
CONTINUOUS
 62
     5
 10
1010.000000000007
 20
-321.0
 30
0.0
 11
-1010.0
 21
-321.0
 31
0.0
  0
ARC
  5
9B
  8
DETAIL
  6
CONTINUOUS
 62
     5
 10
1010.000000000007
 20
-281.0
 30
0.0
 40
40.0
 50
270.0
 51
0.0
  0
ARC
  5
9C
  8
DETAIL
  6
CONTINUOUS
 62
     5
 10
-1010.0
 20
-325.0
 30
0.0
 40
40.0
 50
180.0
 51
270.0
  0
LINE
  5
9D
  8
DETAIL
  6
CONTINUOUS
 62
     5
 10
1010.000000000007
 20
-365.0
 30
0.0
 11
-1010.0
 21
-365.0
 31
0.0
  0
ARC
  5
9E
  8
DETAIL
  6
CONTINUOUS
 62
     5
 10
1010.000000000007
 20
-325.0
 30
0.0
 40
40.0
 50
270.0
 51
0.0
  0
LINE
  5
9F
  8
DETAIL
  6
CONTINUOUS
 62
     5
 10
-1004.0
 20
-156.0
 30
0.0
 11
-1004.0
 21
-144.0
 31
0.0
  0
LINE
  5
A0
  8
DETAIL
  6
CONTINUOUS
 62
     5
 10
-1001.0
 20
-90.0
 30
0.0
 11
-1001.0
 21
240.0
 31
0.0
  0
ARC
  5
A1
  8
DETAIL
  6
CONTINUOUS
 62
     5
 10
-1011.0
 20
-156.0
 30
0.0
 40
7.0
 50
180.0
 51
0.0
  0
LINE
  5
A2
  8
DETAIL
  6
CONTINUOUS
 62
     5
 10
-1018.0
 20
-156.0
 30
0.0
 11
-1031.0
 21
-156.0
 31
0.0
  0
ARC
  5
A3
  8
DETAIL
  6
CONTINUOUS
 62
     5
 10
-1011.0
 20
-144.0
 30
0.0
 40
7.0
 50
0.0
 51
180.0
  0
LINE
  5
A4
  8
DETAIL
  6
CONTINUOUS
 62
     5
 10
-1018.0
 20
-144.0
 30
0.0
 11
-1031.0
 21
-144.0
 31
0.0
  0
LINE
  5
A5
  8
DETAIL
  6
CONTINUOUS
 62
     5
 10
-1031.0
 20
-144.0
 30
0.0
 11
-1031.0
 21
-100.0
 31
0.0
  0
ARC
  5
A6
  8
DETAIL
  6
CONTINUOUS
 62
     5
 10
-1021.0
 20
-100.0
 30
0.0
 40
10.0
 50
90.0
 51
180.0
  0
LINE
  5
A7
  8
DETAIL
  6
CONTINUOUS
 62
     5
 10
-1031.0
 20
-200.0
 30
0.0
 11
-1031.0
 21
-156.0
 31
0.0
  0
ARC
  5
A8
  8
DETAIL
  6
CONTINUOUS
 62
     5
 10
-1021.0
 20
-200.0
 30
0.0
 40
10.0
 50
180.0
 51
270.0
  0
LINE
  5
A9
  8
DETAIL
  6
CONTINUOUS
 62
     5
 10
-1001.0
 20
-90.0
 30
0.0
 11
-1021.0
 21
-90.0
 31
0.0
  0
LINE
  5
AA
  8
DETAIL
  6
CONTINUOUS
 62
     5
 10
-1001.0
 20
-210.0
 30
0.0
 11
-1021.0
 21
-210.0
 31
0.0
  0
LINE
  5
AB
  8
DETAIL
  6
CONTINUOUS
 62
     5
 10
-1001.0
 20
360.0
 30
0.0
 11
-1001.0
 21
400.0
 31
0.0
  0
ARC
  5
AC
  8
DETAIL
  6
CONTINUOUS
 62
     5
 10
-1021.0
 20
250.0
 30
0.0
 40
10.0
 50
180.0
 51
270.0
  0
ARC
  5
AD
  8
DETAIL
  6
CONTINUOUS
 62
     5
 10
-1021.0
 20
350.0
 30
0.0
 40
10.0
 50
90.0
 51
180.0
  0
LINE
  5
AE
  8
DETAIL
  6
CONTINUOUS
 62
     5
 10
-1001.0
 20
240.0
 30
0.0
 11
-1021.0
 21
240.0
 31
0.0
  0
LINE
  5
AF
  8
DETAIL
  6
CONTINUOUS
 62
     5
 10
-1001.0
 20
360.0
 30
0.0
 11
-1021.0
 21
360.0
 31
0.0
  0
LINE
  5
B0
  8
DETAIL
  6
CONTINUOUS
 62
     5
 10
-1001.0
 20
-400.0
 30
0.0
 11
-1001.0
 21
-210.0
 31
0.0
  0
LINE
  5
B1
  8
DETAIL
  6
CONTINUOUS
 62
     5
 10
-1031.0
 20
306.0
 30
0.0
 11
-1031.0
 21
350.0
 31
0.0
  0
LINE
  5
B2
  8
DETAIL
  6
CONTINUOUS
 62
     5
 10
-1018.0
 20
294.0
 30
0.0
 11
-1031.0
 21
294.0
 31
0.0
  0
LINE
  5
B3
  8
DETAIL
  6
CONTINUOUS
 62
     5
 10
-1018.0
 20
306.0
 30
0.0
 11
-1031.0
 21
306.0
 31
0.0
  0
LINE
  5
B4
  8
DETAIL
  6
CONTINUOUS
 62
     5
 10
-991.0
 20
-321.0
 30
0.0
 11
-991.0
 21
400.0
 31
0.0
  0
LINE
  5
B5
  8
DETAIL
  6
CONTINUOUS
 62
     5
 10
-1031.0
 20
250.0
 30
0.0
 11
-1031.0
 21
294.0
 31
0.0
  0
ARC
  5
B6
  8
DETAIL
  6
CONTINUOUS
 62
     5
 10
-1011.0
 20
294.0
 30
0.0
 40
7.0
 50
180.0
 51
0.0
  0
ARC
  5
B7
  8
DETAIL
  6
CONTINUOUS
 62
     5
 10
-1011.0
 20
306.0
 30
0.0
 40
7.0
 50
0.0
 51
180.0
  0
LINE
  5
B8
  8
DETAIL
  6
CONTINUOUS
 62
     5
 10
-1004.0
 20
294.0
 30
0.0
 11
-1004.0
 21
306.0
 31
0.0
  0
ARC
  5
B9
  8
DETAIL
  6
CONTINUOUS
 62
     5
 10
1010.000000000007
 20
-360.0
 30
0.0
 40
40.0
 50
270.0
 51
0.0
  0
ARC
  5
BA
  8
DETAIL
  6
CONTINUOUS
 62
     5
 10
-1010.0
 20
-360.0
 30
0.0
 40
40.0
 50
180.0
 51
270.0
  0
ARC
  5
BB
  8
DETAIL
  6
CONTINUOUS
 62
     5
 10
-1040.0
 20
390.0
 30
0.0
 40
10.0
 50
90.0
 51
180.0
  0
ARC
  5
BC
  8
DETAIL
  6
CONTINUOUS
 62
     5
 10
1040.000000000007
 20
390.0
 30
0.0
 40
10.0
 50
0.0
 51
90.0
  0
LINE
  5
BD
  8
DETAIL
  6
CONTINUOUS
 62
     5
 10
-1050.0
 20
-360.0
 30
0.0
 11
-1050.0
 21
390.0
 31
0.0
  0
LINE
  5
BE
  8
DETAIL
  6
CONTINUOUS
 62
     5
 10
1010.000000000007
 20
-400.0
 30
0.0
 11
-1010.0
 21
-400.0
 31
0.0
  0
LINE
  5
BF
  8
DETAIL
  6
CONTINUOUS
 62
     5
 10
1040.000000000007
 20
400.0
 30
0.0
 11
-1040.0
 21
400.0
 31
0.0
  0
TEXT
  5
C0
  8
ETC
  6
CONTINUOUS
 62
    61
 10
151.1163682060178
 20
1650.3999959674641
 30
0.0
 40
64.0
  1
PCZG-P8_10MBA8(DRAIN-UP-NANAME)_1
 41
0.9
  0
CIRCLE
  5
C1
  8
ARRANGE
  6
CONTINUOUS
 62
     1
 10
0.0
 20
0.0
 30
0.0
 40
40.0
  0
LINE
  5
C2
  8
OUTLINE
  6
CONTINUOUS
 62
     3
 10
-1050.0
 20
-360.0
 30
0.0
 11
-1050.0
 21
390.0
 31
0.0
  0
ARC
  5
C3
  8
OUTLINE
  6
CONTINUOUS
 62
     3
 10
-1010.0
 20
-360.0
 30
0.0
 40
40.0
 50
180.0
 51
270.0
  0
LINE
  5
C4
  8
OUTLINE
  6
CONTINUOUS
 62
     3
 10
1010.000000000007
 20
-400.0
 30
0.0
 11
-1010.0
 21
-400.0
 31
0.0
  0
ARC
  5
C5
  8
OUTLINE
  6
CONTINUOUS
 62
     3
 10
1010.000000000007
 20
-360.0
 30
0.0
 40
40.0
 50
270.0
 51
0.0
  0
LINE
  5
C6
  8
OUTLINE
  6
CONTINUOUS
 62
     3
 10
1050.000000000007
 20
-360.0
 30
0.0
 11
1050.000000000007
 21
390.0
 31
0.0
  0
ARC
  5
C7
  8
OUTLINE
  6
CONTINUOUS
 62
     3
 10
1040.000000000007
 20
390.0
 30
0.0
 40
10.0
 50
0.0
 51
90.0
  0
ARC
  5
C8
  8
OUTLINE
  6
CONTINUOUS
 62
     3
 10
-1040.0
 20
390.0
 30
0.0
 40
10.0
 50
90.0
 51
180.0
  0
CIRCLE
  5
C9
  8
FIX
  6
CONTINUOUS
 62
    11
 10
-1011.0
 20
300.0
 30
0.0
 40
7.0
  0
CIRCLE
  5
CA
  8
FIX
  6
CONTINUOUS
 62
    11
 10
-1011.0
 20
-150.0
 30
0.0
 40
7.0
  0
CIRCLE
  5
CB
  8
FIX
  6
CONTINUOUS
 62
    11
 10
983.00000000000716
 20
300.0
 30
0.0
 40
7.0
  0
CIRCLE
  5
CC
  8
FIX
  6
CONTINUOUS
 62
    11
 10
983.00000000000716
 20
-150.0
 30
0.0
 40
7.0
  0
TEXT
  5
CD
  8
NOTE
  6
CONTINUOUS
 62
     4
 10
195.0024823619969
 20
851.77717433488954
 30
0.0
 40
64.0
  1
RG %%C25.4
 41
0.9
  0
LINE
  5
CF
  8
SIZE
  6
CONTINUOUS
 62
    30
 10
1050.000000000007
 20
410.0
 30
0.0
 11
1050.000000000007
 21
672.74095200000011
 31
0.0
  0
LINE
  5
D0
  8
NOTE
  6
CONTINUOUS
 62
     4
 10
843.00000000000705
 20
290.0
 30
0.0
 11
843.00000000000705
 21
330.0
 31
0.0
  0
LINE
  5
D1
  8
NOTE
  6
CONTINUOUS
 62
     4
 10
823.00000000000728
 20
310.0
 30
0.0
 11
863.00000000000728
 21
310.0
 31
0.0
  0
LINE
  5
D2
  8
NOTE
  6
CONTINUOUS
 62
     4
 10
923.00000000000728
 20
290.0
 30
0.0
 11
923.00000000000728
 21
330.0
 31
0.0
  0
LINE
  5
D3
  8
NOTE
  6
CONTINUOUS
 62
     4
 10
903.00000000000716
 20
310.0
 30
0.0
 11
943.00000000000716
 21
310.0
 31
0.0
  0
LINE
  5
D4
  8
NOTE
  6
CONTINUOUS
 62
     4
 10
983.00000000000716
 20
-170.0
 30
0.0
 11
983.00000000000716
 21
-130.0
 31
0.0
  0
LINE
  5
D5
  8
NOTE
  6
CONTINUOUS
 62
     4
 10
963.00000000000728
 20
-150.0
 30
0.0
 11
1003.000000000007
 21
-150.0
 31
0.0
  0
LINE
  5
D6
  8
NOTE
  6
CONTINUOUS
 62
     4
 10
983.00000000000716
 20
280.0
 30
0.0
 11
983.00000000000716
 21
320.0
 31
0.0
  0
LINE
  5
D7
  8
NOTE
  6
CONTINUOUS
 62
     4
 10
963.00000000000728
 20
300.0
 30
0.0
 11
1003.000000000007
 21
300.0
 31
0.0
  0
LINE
  5
D8
  8
NOTE
  6
CONTINUOUS
 62
     4
 10
-1011.0
 20
-170.0
 30
0.0
 11
-1011.0
 21
-130.0
 31
0.0
  0
LINE
  5
D9
  8
NOTE
  6
CONTINUOUS
 62
     4
 10
-1031.0
 20
-150.0
 30
0.0
 11
-991.0
 21
-150.0
 31
0.0
  0
LINE
  5
DA
  8
NOTE
  6
CONTINUOUS
 62
     4
 10
-1011.0
 20
280.0
 30
0.0
 11
-1011.0
 21
320.0
 31
0.0
  0
LINE
  5
DB
  8
NOTE
  6
CONTINUOUS
 62
     4
 10
-1031.0
 20
300.0
 30
0.0
 11
-991.0
 21
300.0
 31
0.0
  0
LINE
  5
DC
  8
SIZE
  6
CONTINUOUS
 62
    30
 10
1050.000000000007
 20
-420.0
 30
0.0
 11
1050.000000000007
 21
-910.0244445866083
 31
0.0
  0
LINE
  5
DD
  8
SIZE
  6
CONTINUOUS
 62
    30
 10
-1050.0
 20
-345.0
 30
0.0
 11
-1050.0
 21
-910.0244445866083
 31
0.0
  0
LINE
  5
DE
  8
SIZE
  6
CONTINUOUS
 62
    30
 10
1050.000000000007
 20
-890.02444458660841
 30
0.0
 11
-1050.0
 21
-890.02444458660841
 31
0.0
  0
CIRCLE
  5
DF
  8
SIZE
  6
CONTINUOUS
 62
    30
 10
1050.000000000007
 20
-890.02444458660841
 30
0.0
 40
7.5
  0
CIRCLE
  5
E0
  8
SIZE
  6
CONTINUOUS
 62
    30
 10
-1050.0
 20
-890.02444458660841
 30
0.0
 40
7.5
  0
TEXT
  5
E1
  8
SIZE
  6
CONTINUOUS
 62
    30
 10
-63.628238472439982
 20
-870.02444458660852
 30
0.0
 40
60.0
  1
2100
 41
0.9
 72
     1
 11
26.371761527560029
 21
-870.02444458660852
 31
0.0
  0
POINT
  5
E2
  8
DEFPOINTS
  6
CONTINUOUS
 62
     7
 10
1050.000000000007
 20
-325.0
 30
0.0
  0
POINT
  5
E3
  8
DEFPOINTS
  6
CONTINUOUS
 62
     7
 10
-1050.0
 20
-325.0
 30
0.0
  0
POINT
  5
E4
  8
DEFPOINTS
  6
CONTINUOUS
 62
     7
 10
-1050.0
 20
-890.02444458660841
 30
0.0
  0
LINE
  5
E5
  8
SIZE
  6
CONTINUOUS
 62
    30
 10
-1011.0
 20
-190.0
 30
0.0
 11
-1011.0
 21
-749.25359895332429
 31
0.0
  0
LINE
  5
E6
  8
SIZE
  6
CONTINUOUS
 62
    30
 10
-1050.0
 20
-380.0
 30
0.0
 11
-1050.0
 21
-749.25359895332429
 31
0.0
  0
LINE
  5
E7
  8
SIZE
  6
CONTINUOUS
 62
    30
 10
-1011.0
 20
-729.25359895332429
 30
0.0
 11
-981.0
 21
-729.25359895332429
 31
0.0
  0
LINE
  5
E8
  8
SIZE
  6
CONTINUOUS
 62
    30
 10
-1050.0
 20
-729.25359895332429
 30
0.0
 11
-1234.8571428571429
 21
-729.25359895332429
 31
0.0
  0
LINE
  5
E9
  8
SIZE
  6
CONTINUOUS
 62
    30
 10
-1011.0
 20
-729.25359895332429
 30
0.0
 11
-1050.0
 21
-729.25359895332429
 31
0.0
  0
CIRCLE
  5
EA
  8
SIZE
  6
CONTINUOUS
 62
    30
 10
-1011.0
 20
-729.25359895332429
 30
0.0
 40
7.5
  0
CIRCLE
  5
EB
  8
SIZE
  6
CONTINUOUS
 62
    30
 10
-1050.0
 20
-729.25359895332429
 30
0.0
 40
7.5
  0
TEXT
  5
EC
  8
SIZE
  6
CONTINUOUS
 62
    30
 10
-1214.8571428571429
 20
-709.25359895332417
 30
0.0
 40
60.0
  1
39
 41
0.9
 72
     1
 11
-1172.4285714285711
 21
-709.25359895332417
 31
0.0
  0
POINT
  5
ED
  8
DEFPOINTS
  6
CONTINUOUS
 62
     7
 10
-1011.0
 20
-170.0
 30
0.0
  0
POINT
  5
EE
  8
DEFPOINTS
  6
CONTINUOUS
 62
     7
 10
-1050.0
 20
-360.0
 30
0.0
  0
POINT
  5
EF
  8
DEFPOINTS
  6
CONTINUOUS
 62
     7
 10
-1050.0
 20
-729.25359895332429
 30
0.0
  0
LINE
  5
F0
  8
SIZE
  6
CONTINUOUS
 62
    30
 10
1050.000000000007
 20
-420.0
 30
0.0
 11
1050.000000000007
 21
-749.25359895332429
 31
0.0
  0
LINE
  5
F1
  8
SIZE
  6
CONTINUOUS
 62
    30
 10
983.00000000000716
 20
-190.0
 30
0.0
 11
983.00000000000716
 21
-749.25359895332429
 31
0.0
  0
LINE
  5
F2
  8
SIZE
  6
CONTINUOUS
 62
    30
 10
983.00000000000716
 20
-729.25359895332429
 30
0.0
 11
1050.000000000007
 21
-729.25359895332429
 31
0.0
  0
LINE
  5
F3
  8
SIZE
  6
CONTINUOUS
 62
    30
 10
1050.000000000007
 20
-729.25359895332429
 30
0.0
 11
1225.9008870568459
 21
-729.25359895332429
 31
0.0
  0
CIRCLE
  5
F4
  8
SIZE
  6
CONTINUOUS
 62
    30
 10
983.00000000000716
 20
-729.25359895332429
 30
0.0
 40
7.5
  0
CIRCLE
  5
F5
  8
SIZE
  6
CONTINUOUS
 62
    30
 10
1050.000000000007
 20
-729.25359895332429
 30
0.0
 40
7.5
  0
TEXT
  5
F6
  8
SIZE
  6
CONTINUOUS
 62
    30
 10
1118.4723156282739
 20
-709.25359895332417
 30
0.0
 40
60.0
  1
67
 41
0.9
 72
     1
 11
1162.1866013425599
 21
-709.25359895332417
 31
0.0
  0
POINT
  5
F7
  8
DEFPOINTS
  6
CONTINUOUS
 62
     7
 10
1050.000000000007
 20
-345.0
 30
0.0
  0
POINT
  5
F8
  8
DEFPOINTS
  6
CONTINUOUS
 62
     7
 10
983.00000000000716
 20
-170.0
 30
0.0
  0
POINT
  5
F9
  8
DEFPOINTS
  6
CONTINUOUS
 62
     7
 10
983.00000000000716
 20
-729.25359895332429
 30
0.0
  0
LINE
  5
FA
  8
SIZE
  6
CONTINUOUS
 62
    30
 10
-1011.0
 20
-190.0
 30
0.0
 11
-1011.0
 21
-749.25359895332429
 31
0.0
  0
LINE
  5
FB
  8
SIZE
  6
CONTINUOUS
 62
    30
 10
983.00000000000716
 20
-190.0
 30
0.0
 11
983.00000000000716
 21
-749.25359895332429
 31
0.0
  0
LINE
  5
FC
  8
SIZE
  6
CONTINUOUS
 62
    30
 10
-1011.0
 20
-729.25359895332429
 30
0.0
 11
983.00000000000716
 21
-729.25359895332429
 31
0.0
  0
CIRCLE
  5
FD
  8
SIZE
  6
CONTINUOUS
 62
    30
 10
-1011.0
 20
-729.25359895332429
 30
0.0
 40
7.5
  0
CIRCLE
  5
FE
  8
SIZE
  6
CONTINUOUS
 62
    30
 10
983.00000000000716
 20
-729.25359895332429
 30
0.0
 40
7.5
  0
TEXT
  5
FF
  8
SIZE
  6
CONTINUOUS
 62
    30
 10
-105.2857142857106
 20
-709.25359895332417
 30
0.0
 40
60.0
  1
1994
 41
0.9
 72
     1
 11
-13.99999999999636
 21
-709.25359895332417
 31
0.0
  0
POINT
  5
100
  8
DEFPOINTS
  6
CONTINUOUS
 62
     7
 10
-1011.0
 20
-170.0
 30
0.0
  0
POINT
  5
101
  8
DEFPOINTS
  6
CONTINUOUS
 62
     7
 10
983.00000000000716
 20
-170.0
 30
0.0
  0
POINT
  5
102
  8
DEFPOINTS
  6
CONTINUOUS
 62
     7
 10
983.00000000000716
 20
-729.25359895332429
 30
0.0
  0
LINE
  5
103
  8
SIZE
  6
CONTINUOUS
 62
    30
 10
-1060.0
 20
400.0
 30
0.0
 11
-1444.5240582366459
 21
400.0
 31
0.0
  0
LINE
  5
104
  8
SIZE
  6
CONTINUOUS
 62
    30
 10
-1051.0
 20
300.0
 30
0.0
 11
-1444.5240582366459
 21
300.0
 31
0.0
  0
LINE
  5
105
  8
SIZE
  6
CONTINUOUS
 62
    30
 10
-1424.5240582366459
 20
300.0
 30
0.0
 11
-1424.5240582366459
 21
400.0
 31
0.0
  0
LINE
  5
106
  8
SIZE
  6
CONTINUOUS
 62
    30
 10
-1424.5240582366459
 20
400.0
 30
0.0
 11
-1424.5240582366459
 21
598.57142857142856
 31
0.0
  0
CIRCLE
  5
107
  8
SIZE
  6
CONTINUOUS
 62
    30
 10
-1424.5240582366459
 20
300.0
 30
0.0
 40
7.5
  0
CIRCLE
  5
108
  8
SIZE
  6
CONTINUOUS
 62
    30
 10
-1424.5240582366459
 20
400.0
 30
0.0
 40
7.5
  0
TEXT
  5
109
  8
SIZE
  6
CONTINUOUS
 62
    30
 10
-1444.5240582366459
 20
449.99999999999972
 30
0.0
 40
60.0
  1
100
 50
90.0
 41
0.9
 72
     1
 11
-1444.5240582366459
 21
514.28571428571388
 31
0.0
  0
POINT
  5
10A
  8
DEFPOINTS
  6
CONTINUOUS
 62
     7
 10
-1040.0
 20
400.0
 30
0.0
  0
POINT
  5
10B
  8
DEFPOINTS
  6
CONTINUOUS
 62
     7
 10
-1031.0
 20
300.0
 30
0.0
  0
POINT
  5
10C
  8
DEFPOINTS
  6
CONTINUOUS
 62
     7
 10
-1424.5240582366459
 20
300.0
 30
0.0
  0
LINE
  5
10D
  8
SIZE
  6
CONTINUOUS
 62
    30
 10
-1051.0
 20
300.0
 30
0.0
 11
-1444.5240582366459
 21
300.0
 31
0.0
  0
LINE
  5
10E
  8
SIZE
  6
CONTINUOUS
 62
    30
 10
-1051.0
 20
-150.0
 30
0.0
 11
-1444.5240582366459
 21
-149.9999999999998
 31
0.0
  0
LINE
  5
10F
  8
SIZE
  6
CONTINUOUS
 62
    30
 10
-1424.5240582366459
 20
300.0
 30
0.0
 11
-1424.5240582366459
 21
-149.9999999999998
 31
0.0
  0
CIRCLE
  5
110
  8
SIZE
  6
CONTINUOUS
 62
    30
 10
-1424.5240582366459
 20
300.0
 30
0.0
 40
7.5
  0
CIRCLE
  5
111
  8
SIZE
  6
CONTINUOUS
 62
    30
 10
-1424.5240582366459
 20
-149.9999999999998
 30
0.0
 40
7.5
  0
TEXT
  5
112
  8
SIZE
  6
CONTINUOUS
 62
    30
 10
-1444.5240582366459
 20
5.5714285714284406
 30
0.0
 40
60.0
  1
450
 50
90.0
 41
0.9
 72
     1
 11
-1444.5240582366459
 21
74.999999999999872
 31
0.0
  0
POINT
  5
113
  8
DEFPOINTS
  6
CONTINUOUS
 62
     7
 10
-1031.0
 20
300.0
 30
0.0
  0
POINT
  5
114
  8
DEFPOINTS
  6
CONTINUOUS
 62
     7
 10
-1031.0
 20
-150.0
 30
0.0
  0
POINT
  5
115
  8
DEFPOINTS
  6
CONTINUOUS
 62
     7
 10
-1424.5240582366459
 20
-149.9999999999998
 30
0.0
  0
LINE
  5
116
  8
SIZE
  6
CONTINUOUS
 62
    30
 10
-1060.0
 20
400.0
 30
0.0
 11
-1577.841941267623
 21
400.0
 31
0.0
  0
LINE
  5
117
  8
SIZE
  6
CONTINUOUS
 62
    30
 10
-1030.0
 20
-400.0
 30
0.0
 11
-1577.841941267623
 21
-399.99999999999977
 31
0.0
  0
LINE
  5
118
  8
SIZE
  6
CONTINUOUS
 62
    30
 10
-1557.841941267623
 20
400.0
 30
0.0
 11
-1557.841941267623
 21
-399.99999999999977
 31
0.0
  0
CIRCLE
  5
119
  8
SIZE
  6
CONTINUOUS
 62
    30
 10
-1557.841941267623
 20
400.0
 30
0.0
 40
7.5
  0
CIRCLE
  5
11A
  8
SIZE
  6
CONTINUOUS
 62
    30
 10
-1557.841941267623
 20
-399.99999999999977
 30
0.0
 40
7.5
  0
TEXT
  5
11B
  8
SIZE
  6
CONTINUOUS
 62
    30
 10
-1577.841941267623
 20
-69.428571428571502
 30
0.0
 40
60.0
  1
800
 50
90.0
 41
0.9
 72
     1
 11
-1577.841941267623
 21
-0.0000000000000708
 31
0.0
  0
POINT
  5
11C
  8
DEFPOINTS
  6
CONTINUOUS
 62
     7
 10
-1040.0
 20
400.0
 30
0.0
  0
POINT
  5
11D
  8
DEFPOINTS
  6
CONTINUOUS
 62
     7
 10
-1010.0
 20
-400.0
 30
0.0
  0
POINT
  5
11E
  8
DEFPOINTS
  6
CONTINUOUS
 62
     7
 10
-1557.841941267623
 20
-399.99999999999977
 30
0.0
  0
LINE
  5
11F
  8
SIZE
  6
CONTINUOUS
 62
    30
 10
1050.000000000007
 20
410.0
 30
0.0
 11
1050.000000000007
 21
1399.705363877312
 31
0.0
  0
LINE
  5
120
  8
SIZE
  6
CONTINUOUS
 62
    30
 10
843.00000000000705
 20
350.0
 30
0.0
 11
843.00000000000739
 21
1399.705363877312
 31
0.0
  0
LINE
  5
121
  8
SIZE
  6
CONTINUOUS
 62
    30
 10
1050.000000000007
 20
1379.705363877312
 30
0.0
 11
843.00000000000739
 21
1379.705363877312
 31
0.0
  0
CIRCLE
  5
122
  8
SIZE
  6
CONTINUOUS
 62
    30
 10
1050.000000000007
 20
1379.705363877312
 30
0.0
 40
7.5
  0
CIRCLE
  5
123
  8
SIZE
  6
CONTINUOUS
 62
    30
 10
843.00000000000739
 20
1379.705363877312
 30
0.0
 40
7.5
  0
TEXT
  5
124
  8
SIZE
  6
CONTINUOUS
 62
    30
 10
877.07142857143583
 20
1399.705363877312
 30
0.0
 40
60.0
  1
207
 41
0.9
 72
     1
 11
946.50000000000716
 21
1399.705363877312
 31
0.0
  0
POINT
  5
125
  8
DEFPOINTS
  6
CONTINUOUS
 62
     7
 10
1050.000000000007
 20
390.0
 30
0.0
  0
POINT
  5
126
  8
DEFPOINTS
  6
CONTINUOUS
 62
     7
 10
843.00000000000705
 20
330.0
 30
0.0
  0
POINT
  5
127
  8
DEFPOINTS
  6
CONTINUOUS
 62
     7
 10
843.00000000000739
 20
1379.705363877312
 30
0.0
  0
LINE
  5
128
  8
SIZE
  6
CONTINUOUS
 62
    30
 10
1060.000000000007
 20
400.0
 30
0.0
 11
1766.95430599166
 21
399.99999999999972
 31
0.0
  0
LINE
  5
129
  8
SIZE
  6
CONTINUOUS
 62
    30
 10
943.00000000000716
 20
310.0
 30
0.0
 11
1766.95430599166
 21
309.99999999999972
 31
0.0
  0
LINE
  5
12A
  8
SIZE
  6
CONTINUOUS
 62
    30
 10
1746.95430599166
 20
399.99999999999972
 30
0.0
 11
1746.95430599166
 21
309.99999999999972
 31
0.0
  0
LINE
  5
12B
  8
SIZE
  6
CONTINUOUS
 62
    30
 10
1746.95430599166
 20
309.99999999999972
 30
0.0
 11
1746.95430599166
 21
152.57142857142409
 31
0.0
  0
CIRCLE
  5
12C
  8
SIZE
  6
CONTINUOUS
 62
    30
 10
1746.95430599166
 20
399.99999999999972
 30
0.0
 40
7.5
  0
CIRCLE
  5
12D
  8
SIZE
  6
CONTINUOUS
 62
    30
 10
1746.95430599166
 20
309.99999999999972
 30
0.0
 40
7.5
  0
TEXT
  5
12E
  8
SIZE
  6
CONTINUOUS
 62
    30
 10
1726.9543059916591
 20
172.57142857142441
 30
0.0
 40
60.0
  1
90
 50
90.0
 41
0.9
 72
     1
 11
1726.9543059916591
 21
216.2857142857101
 31
0.0
  0
POINT
  5
12F
  8
DEFPOINTS
  6
CONTINUOUS
 62
     7
 10
1040.000000000007
 20
400.0
 30
0.0
  0
POINT
  5
130
  8
DEFPOINTS
  6
CONTINUOUS
 62
     7
 10
923.00000000000728
 20
310.0
 30
0.0
  0
POINT
  5
131
  8
DEFPOINTS
  6
CONTINUOUS
 62
     7
 10
1746.95430599166
 20
309.99999999999972
 30
0.0
  0
TEXT
  5
132
  8
NOTE
  6
CONTINUOUS
 62
     4
 10
-727.76565590069367
 20
869.16598437301025
 30
0.0
 40
64.0
  1
AH 4-14\U+00D726長穴
 41
0.9
  0
POINT
  5
13B
  8
DEFPOINTS
  6
CONTINUOUS
 62
     7
 10
990.00000000000728
 20
-144.0
 30
0.0
  0
POINT
  5
13C
  8
DEFPOINTS
  6
CONTINUOUS
 62
     7
 10
976.00000000000716
 20
-144.0
 30
0.0
  0
POINT
  5
146
  8
DEFPOINTS
  6
CONTINUOUS
 62
     7
 10
1003.000000000007
 20
-144.0
 30
0.0
  0
POINT
  5
147
  8
DEFPOINTS
  6
CONTINUOUS
 62
     7
 10
1003.000000000007
 20
-156.0
 30
0.0
  0
POINT
  5
151
  8
DEFPOINTS
  6
CONTINUOUS
 62
     7
 10
983.00000000000716
 20
-137.0
 30
0.0
  0
POINT
  5
152
  8
DEFPOINTS
  6
CONTINUOUS
 62
     7
 10
983.00000000000716
 20
-163.0
 30
0.0
  0
POINT
  5
15C
  8
DEFPOINTS
  6
CONTINUOUS
 62
     7
 10
1003.000000000007
 20
-156.0
 30
0.0
  0
POINT
  5
15D
  8
DEFPOINTS
  6
CONTINUOUS
 62
     7
 10
983.00000000000716
 20
-170.0
 30
0.0
  0
LINE
  5
15F
  8
DETAIL
  6
CONTINUOUS
 62
     5
 10
1091.000000000007
 20
406.39999999999958
 30
0.0
 11
1079.000000000007
 21
406.39999999999958
 31
0.0
  0
LINE
  5
160
  8
DETAIL
  6
CONTINUOUS
 62
     5
 10
960.00000000000716
 20
406.39999999999958
 30
0.0
 11
800.00000000000705
 21
406.39999999999958
 31
0.0
  0
LINE
  5
161
  8
DETAIL
  6
CONTINUOUS
 62
     5
 10
800.00000000000705
 20
406.39999999999958
 30
0.0
 11
800.00000000000705
 21
399.60000000000031
 31
0.0
  0
LINE
  5
162
  8
DETAIL
  6
CONTINUOUS
 62
     5
 10
1213.000000000007
 20
425.0
 30
0.0
 11
1210.000000000007
 21
428.0
 31
0.0
  0
LINE
  5
163
  8
DETAIL
  6
CONTINUOUS
 62
     5
 10
1213.000000000007
 20
425.0
 30
0.0
 11
1213.000000000007
 21
406.39999999999958
 31
0.0
  0
LINE
  5
164
  8
DETAIL
  6
CONTINUOUS
 62
     5
 10
802.00000000000705
 20
427.99999999998909
 30
0.0
 11
1210.000000000007
 21
428.0
 31
0.0
  0
LINE
  5
165
  8
DETAIL
  6
CONTINUOUS
 62
     5
 10
802.00000000000705
 20
426.39999999999958
 30
0.0
 11
799.00000000000728
 21
423.39999999999958
 31
0.0
  0
LINE
  5
166
  8
DETAIL
  6
CONTINUOUS
 62
     5
 10
802.00000000000705
 20
426.39999999999958
 30
0.0
 11
1210.000000000007
 21
426.39999999999958
 31
0.0
  0
LINE
  5
167
  8
DETAIL
  6
CONTINUOUS
 62
     5
 10
799.00000000000728
 20
425.0
 30
0.0
 11
799.00000000000728
 21
406.39999999999958
 31
0.0
  0
LINE
  5
168
  8
DETAIL
  6
CONTINUOUS
 62
     5
 10
799.00000000000728
 20
406.39999999999958
 30
0.0
 11
1213.000000000007
 21
406.39999999999958
 31
0.0
  0
LINE
  5
169
  8
DETAIL
  6
CONTINUOUS
 62
     5
 10
1210.000000000007
 20
426.39999999999958
 30
0.0
 11
1213.000000000007
 21
423.39999999999958
 31
0.0
  0
LINE
  5
16A
  8
DETAIL
  6
CONTINUOUS
 62
     5
 10
1113.400000000009
 20
406.39999999999958
 30
0.0
 11
1075.000000000007
 21
406.39999999999958
 31
0.0
  0
LINE
  5
16B
  8
DETAIL
  6
CONTINUOUS
 62
     5
 10
1123.400000000009
 20
406.39999999999958
 30
0.0
 11
1085.000000000007
 21
406.39999999999958
 31
0.0
  0
LINE
  5
16C
  8
DETAIL
  6
CONTINUOUS
 62
     5
 10
1000.000000000007
 20
382.79999999999922
 30
0.0
 11
1000.000000000007
 21
406.39999999999958
 31
0.0
  0
LINE
  5
16D
  8
DETAIL
  6
CONTINUOUS
 62
     5
 10
998.40000000000873
 20
382.79999999999922
 30
0.0
 11
998.40000000000873
 21
406.39999999999958
 31
0.0
  0
ARC
  5
16E
  8
DETAIL
  6
CONTINUOUS
 62
     5
 10
996.80000000000985
 20
382.79999999999922
 30
0.0
 40
3.1999999999998181
 50
270.0
 51
0.0
  0
ARC
  5
16F
  8
DETAIL
  6
CONTINUOUS
 62
     5
 10
996.80000000000985
 20
382.79999999999922
 30
0.0
 40
1.5999999999999091
 50
270.0
 51
0.0
  0
LINE
  5
170
  8
DETAIL
  6
CONTINUOUS
 62
     5
 10
963.00000000000728
 20
381.19999999999891
 30
0.0
 11
996.80000000000985
 21
381.19999999999891
 31
0.0
  0
LINE
  5
171
  8
DETAIL
  6
CONTINUOUS
 62
     5
 10
963.00000000000728
 20
379.60000000000042
 30
0.0
 11
1002.500299789433
 21
379.60000000000042
 31
0.0
  0
LINE
  5
172
  8
DETAIL
  6
CONTINUOUS
 62
     5
 10
799.00000000000728
 20
425.0
 30
0.0
 11
802.00000000000705
 21
428.0
 31
0.0
  0
LINE
  5
173
  8
DETAIL
  6
CONTINUOUS
 62
     5
 10
802.00000000000705
 20
426.39999999999958
 30
0.0
 11
799.00000000000728
 21
423.39999999999958
 31
0.0
  0
TEXT
  5
174
  8
NOTE
  6
CONTINUOUS
 62
     4
 10
1356.1568177640579
 20
647.47317822550917
 30
0.0
 40
64.0
  1
D VP-20
 41
0.9
  0
LINE
  5
175
  8
DETAIL
  6
CONTINUOUS
 62
     5
 10
815.00000000000728
 20
370.0
 30
0.0
 11
935.00000000000716
 21
370.0
 31
0.0
  0
LINE
  5
176
  8
DETAIL
  6
CONTINUOUS
 62
     5
 10
815.00000000000728
 20
300.0
 30
0.0
 11
935.00000000000716
 21
300.0
 31
0.0
  0
LINE
  5
177
  8
DETAIL
  6
CONTINUOUS
 62
     5
 10
945.00000000000716
 20
310.0
 30
0.0
 11
945.00000000000716
 21
360.0
 31
0.0
  0
LINE
  5
178
  8
DETAIL
  6
CONTINUOUS
 62
     5
 10
805.00000000000728
 20
310.0
 30
0.0
 11
805.00000000000728
 21
360.0
 31
0.0
  0
ARC
  5
179
  8
DETAIL
  6
CONTINUOUS
 62
     5
 10
935.00000000000716
 20
310.0
 30
0.0
 40
10.0
 50
270.0
 51
0.0
  0
ARC
  5
17A
  8
DETAIL
  6
CONTINUOUS
 62
     5
 10
935.00000000000716
 20
360.0
 30
0.0
 40
10.0
 50
0.0
 51
90.0
  0
ARC
  5
17B
  8
DETAIL
  6
CONTINUOUS
 62
     5
 10
815.00000000000728
 20
360.0
 30
0.0
 40
10.0
 50
90.0
 51
180.0
  0
ARC
  5
17C
  8
DETAIL
  6
CONTINUOUS
 62
     5
 10
815.00000000000728
 20
310.0
 30
0.0
 40
10.0
 50
180.0
 51
270.0
  0
LINE
  5
17D
  8
SIZE
  6
CONTINUOUS
 62
    30
 10
945.00000000000716
 20
390.0
 30
0.0
 11
945.00000000000716
 21
1265.6469196496009
 31
0.0
  0
LINE
  5
17E
  8
SIZE
  6
CONTINUOUS
 62
    30
 10
805.00000000000728
 20
390.0
 30
0.0
 11
805.00000000000728
 21
1265.6469196496009
 31
0.0
  0
LINE
  5
17F
  8
SIZE
  6
CONTINUOUS
 62
    30
 10
945.00000000000716
 20
1245.6469196496009
 30
0.0
 11
805.00000000000728
 21
1245.6469196496009
 31
0.0
  0
LINE
  5
180
  8
SIZE
  6
CONTINUOUS
 62
    30
 10
805.00000000000728
 20
1245.6469196496009
 30
0.0
 11
606.42857142857872
 21
1245.6469196496009
 31
0.0
  0
CIRCLE
  5
181
  8
SIZE
  6
CONTINUOUS
 62
    30
 10
945.00000000000716
 20
1245.6469196496009
 30
0.0
 40
7.5
  0
CIRCLE
  5
182
  8
SIZE
  6
CONTINUOUS
 62
    30
 10
805.00000000000728
 20
1245.6469196496009
 30
0.0
 40
7.5
  0
TEXT
  5
183
  8
SIZE
  6
CONTINUOUS
 62
    30
 10
626.42857142857883
 20
1265.6469196496009
 30
0.0
 40
60.0
  1
140
 41
0.9
 72
     1
 11
690.71428571429306
 21
1265.6469196496009
 31
0.0
  0
POINT
  5
184
  8
DEFPOINTS
  6
CONTINUOUS
 62
     7
 10
945.00000000000716
 20
370.0
 30
0.0
  0
POINT
  5
185
  8
DEFPOINTS
  6
CONTINUOUS
 62
     7
 10
805.00000000000728
 20
370.0
 30
0.0
  0
POINT
  5
186
  8
DEFPOINTS
  6
CONTINUOUS
 62
     7
 10
805.00000000000728
 20
1245.6469196496009
 30
0.0
  0
LINE
  5
187
  8
SIZE
  6
CONTINUOUS
 62
    30
 10
806.29840570577642
 20
370.0
 30
0.0
 11
716.33974505807419
 21
370.0
 31
0.0
  0
LINE
  5
188
  8
SIZE
  6
CONTINUOUS
 62
    30
 10
795.00000000000728
 20
300.0
 30
0.0
 11
716.33974505807419
 21
300.0
 31
0.0
  0
LINE
  5
189
  8
SIZE
  6
CONTINUOUS
 62
    30
 10
736.33974505807407
 20
370.0
 30
0.0
 11
736.33974505807407
 21
300.0
 31
0.0
  0
LINE
  5
18A
  8
SIZE
  6
CONTINUOUS
 62
    30
 10
736.33974505807407
 20
300.0
 30
0.0
 11
736.33974505807385
 21
142.5714285714152
 31
0.0
  0
CIRCLE
  5
18B
  8
SIZE
  6
CONTINUOUS
 62
    30
 10
736.33974505807407
 20
370.0
 30
0.0
 40
7.5
  0
CIRCLE
  5
18C
  8
SIZE
  6
CONTINUOUS
 62
    30
 10
736.33974505807407
 20
300.0
 30
0.0
 40
7.5
  0
TEXT
  5
18D
  8
SIZE
  6
CONTINUOUS
 62
    30
 10
716.33974505807419
 20
162.5714285714154
 30
0.0
 40
60.0
  1
70
 50
90.0
 41
0.9
 72
     1
 11
716.33974505807419
 21
206.28571428570109
 31
0.0
  0
POINT
  5
18E
  8
DEFPOINTS
  6
CONTINUOUS
 62
     7
 10
826.29840570577653
 20
370.0
 30
0.0
  0
POINT
  5
18F
  8
DEFPOINTS
  6
CONTINUOUS
 62
     7
 10
815.00000000000728
 20
300.0
 30
0.0
  0
POINT
  5
190
  8
DEFPOINTS
  6
CONTINUOUS
 62
     7
 10
736.33974505807407
 20
300.0
 30
0.0
  0
LINE
  5
191
  8
SIZE
  6
CONTINUOUS
 62
    30
 10
1020.000000000007
 20
400.0
 30
0.0
 11
612.78097630204138
 21
400.0
 31
0.0
  0
LINE
  5
192
  8
SIZE
  6
CONTINUOUS
 62
    30
 10
795.00000000000728
 20
370.0
 30
0.0
 11
612.78097630204138
 21
370.00000000000011
 31
0.0
  0
LINE
  5
193
  8
SIZE
  6
CONTINUOUS
 62
    30
 10
632.78097630204149
 20
400.0
 30
0.0
 11
632.78097630204149
 21
430.0
 31
0.0
  0
LINE
  5
194
  8
SIZE
  6
CONTINUOUS
 62
    30
 10
632.78097630204149
 20
370.00000000000011
 30
0.0
 11
632.78097630204138
 21
182.5714285714152
 31
0.0
  0
LINE
  5
195
  8
SIZE
  6
CONTINUOUS
 62
    30
 10
632.78097630204149
 20
400.0
 30
0.0
 11
632.78097630204149
 21
370.00000000000011
 31
0.0
  0
CIRCLE
  5
196
  8
SIZE
  6
CONTINUOUS
 62
    30
 10
632.78097630204149
 20
400.0
 30
0.0
 40
7.5
  0
CIRCLE
  5
197
  8
SIZE
  6
CONTINUOUS
 62
    30
 10
632.78097630204149
 20
370.00000000000011
 30
0.0
 40
7.5
  0
TEXT
  5
198
  8
SIZE
  6
CONTINUOUS
 62
    30
 10
612.78097630204138
 20
202.57142857141531
 30
0.0
 40
60.0
  1
30
 50
90.0
 41
0.9
 72
     1
 11
612.78097630204138
 21
246.285714285701
 31
0.0
  0
POINT
  5
199
  8
DEFPOINTS
  6
CONTINUOUS
 62
     7
 10
1040.000000000007
 20
400.0
 30
0.0
  0
POINT
  5
19A
  8
DEFPOINTS
  6
CONTINUOUS
 62
     7
 10
815.00000000000728
 20
370.0
 30
0.0
  0
POINT
  5
19B
  8
DEFPOINTS
  6
CONTINUOUS
 62
     7
 10
632.78097630204149
 20
370.00000000000011
 30
0.0
  0
TEXT
  5
19C
  8
NOTE
  6
CONTINUOUS
 62
     4
 10
-46.48897088806001
 20
467.86555785806718
 30
0.0
 40
60.0
  1
吸込
 50
0.000003
 41
0.7440479999999999
  7
STANDARD1
  0
LINE
  5
19D
  8
NOTE
  6
CONTINUOUS
 62
     4
 10
-93.139238232493867
 20
490.36556085806831
 30
0.0
 11
-93.13924823248999
 21
521.86556185806865
 31
0.0
  0
LINE
  5
19E
  8
NOTE
  6
CONTINUOUS
 62
     4
 10
-111.1392402324945
 20
490.36555585806849
 30
0.0
 11
-111.1392502324907
 21
521.86555685806889
 31
0.0
  0
LINE
  5
19F
  8
NOTE
  6
CONTINUOUS
 62
     4
 10
-102.13923223249191
 20
467.86555785806718
 30
0.0
 11
-124.63922923249081
 21
490.36554185806727
 31
0.0
  0
LINE
  5
1A0
  8
NOTE
  6
CONTINUOUS
 62
     4
 10
-124.63922923249081
 20
490.36555085806862
 30
0.0
 11
-111.1392402324945
 21
490.36555585806849
 31
0.0
  0
LINE
  5
1A1
  8
NOTE
  6
CONTINUOUS
 62
     4
 10
-79.6392492324903
 20
490.36556585806812
 30
0.0
 11
-93.139238232493867
 21
490.36556085806831
 31
0.0
  0
LINE
  5
1A2
  8
NOTE
  6
CONTINUOUS
 62
     4
 10
-79.6392492324903
 20
490.36555585806849
 30
0.0
 11
-102.13923223249191
 21
467.86555785806718
 31
0.0
  0
LINE
  5
1A3
  8
NOTE
  6
CONTINUOUS
 62
     4
 10
-93.13924823248999
 20
521.86556185806865
 30
0.0
 11
-111.1392502324907
 21
521.86555685806889
 31
0.0
  0
TEXT
  5
1A4
  8
NOTE
  6
CONTINUOUS
 62
     4
 10
-46.386553380889382
 20
-529.3752305171912
 30
0.0
 40
60.0
  1
吹出
 50
0.000003
 41
0.7440479999999999
  7
STANDARD1
  0
LINE
  5
1A5
  8
NOTE
  6
CONTINUOUS
 62
     4
 10
-87.834599154050025
 20
-506.8752275171808
 30
0.0
 11
-87.83460915404612
 21
-475.37522651718967
 31
0.0
  0
LINE
  5
1A6
  8
NOTE
  6
CONTINUOUS
 62
     4
 10
-105.8346011540506
 20
-506.87523251718068
 30
0.0
 11
-105.8346111540468
 21
-475.37523151718972
 31
0.0
  0
LINE
  5
1A7
  8
NOTE
  6
CONTINUOUS
 62
     4
 10
-96.834593154048036
 20
-529.3752305171912
 30
0.0
 11
-119.33459015404689
 21
-506.87524651719087
 31
0.0
  0
LINE
  5
1A8
  8
NOTE
  6
CONTINUOUS
 62
     4
 10
-119.33459015404689
 20
-506.8752375171897
 30
0.0
 11
-105.8346011540506
 21
-506.87523251718068
 31
0.0
  0
LINE
  5
1A9
  8
NOTE
  6
CONTINUOUS
 62
     4
 10
-74.33461015404643
 20
-506.87522251718087
 30
0.0
 11
-87.834599154050025
 21
-506.8752275171808
 31
0.0
  0
LINE
  5
1AA
  8
NOTE
  6
CONTINUOUS
 62
     4
 10
-74.33461015404643
 20
-506.87523251718068
 30
0.0
 11
-96.834593154048036
 21
-529.3752305171912
 31
0.0
  0
LINE
  5
1AB
  8
NOTE
  6
CONTINUOUS
 62
     4
 10
-87.83460915404612
 20
-475.37522651718967
 30
0.0
 11
-105.8346111540468
 21
-475.37523151718972
 31
0.0
  0
LINE
  5
1AC
  8
SERVICESPACE
  6
DASHDOT
 62
     2
 10
1050.000000000007
 20
-400.0
 30
0.0
 11
1050.000000000007
 21
400.0
 31
0.0
  0
LINE
  5
1AD
  8
SERVICESPACE
  6
DASHDOT
 62
     2
 10
1050.000000000007
 20
400.0
 30
0.0
 11
1550.000000000007
 21
400.0
 31
0.0
  0
LINE
  5
1AE
  8
SERVICESPACE
  6
DASHDOT
 62
     2
 10
1550.000000000007
 20
-400.0
 30
0.0
 11
1550.000000000007
 21
400.0
 31
0.0
  0
LINE
  5
1AF
  8
SERVICESPACE
  6
DASHDOT
 62
     2
 10
1550.000000000007
 20
-400.0
 30
0.0
 11
1050.000000000007
 21
-400.0
 31
0.0
  0
LINE
  5
1B0
  8
SERVICESPACE
  6
DASHDOT
 62
     2
 10
1050.000000000007
 20
400.0
 30
0.0
 11
1550.000000000007
 21
-400.0
 31
0.0
  0
LINE
  5
1B1
  8
SERVICESPACE
  6
DASHDOT
 62
     2
 10
1050.000000000007
 20
-400.0
 30
0.0
 11
1550.000000000007
 21
400.0
 31
0.0
  0
LINE
  5
1B2
  8
SERVICESPACE
  6
DASHDOT
 62
     2
 10
-1050.0
 20
-400.0
 30
0.0
 11
-1050.0
 21
400.0
 31
0.0
  0
LINE
  5
1B3
  8
SERVICESPACE
  6
DASHDOT
 62
     2
 10
-1250.0
 20
-400.0
 30
0.0
 11
-1250.0
 21
400.0
 31
0.0
  0
LINE
  5
1B4
  8
SERVICESPACE
  6
DASHDOT
 62
     2
 10
-1050.0
 20
-400.0
 30
0.0
 11
-1250.0
 21
-400.0
 31
0.0
  0
LINE
  5
1B5
  8
SERVICESPACE
  6
DASHDOT
 62
     2
 10
-1050.0
 20
400.0
 30
0.0
 11
-1250.0
 21
400.0
 31
0.0
  0
LINE
  5
1B6
  8
SERVICESPACE
  6
DASHDOT
 62
     2
 10
-1250.0
 20
400.0
 30
0.0
 11
-1050.0
 21
-400.0
 31
0.0
  0
LINE
  5
1B7
  8
SERVICESPACE
  6
DASHDOT
 62
     2
 10
-1250.0
 20
-400.0
 30
0.0
 11
-1050.0
 21
400.0
 31
0.0
  0
LINE
  5
1B8
  8
SIZE
  6
CONTINUOUS
 62
    30
 10
1050.000000000007
 20
-420.0
 30
0.0
 11
1050.000000000007
 21
-910.0244445866083
 31
0.0
  0
LINE
  5
1B9
  8
SIZE
  6
CONTINUOUS
 62
    30
 10
1550.000000000007
 20
-420.0
 30
0.0
 11
1550.000000000007
 21
-910.0244445866083
 31
0.0
  0
LINE
  5
1BA
  8
SIZE
  6
CONTINUOUS
 62
    30
 10
1050.000000000007
 20
-890.02444458660841
 30
0.0
 11
1550.000000000007
 21
-890.02444458660841
 31
0.0
  0
CIRCLE
  5
1BB
  8
SIZE
  6
CONTINUOUS
 62
    30
 10
1050.000000000007
 20
-890.02444458660841
 30
0.0
 40
7.5
  0
CIRCLE
  5
1BC
  8
SIZE
  6
CONTINUOUS
 62
    30
 10
1550.000000000007
 20
-890.02444458660841
 30
0.0
 40
7.5
  0
TEXT
  5
1BD
  8
SIZE
  6
CONTINUOUS
 62
    30
 10
1165.25714285715
 20
-870.02444458660852
 30
0.0
 40
60.0
  1
500以上
 41
0.9
 72
     1
 11
1300.000000000007
 21
-870.02444458660852
 31
0.0
  0
POINT
  5
1BE
  8
DEFPOINTS
  6
CONTINUOUS
 62
     7
 10
1050.000000000007
 20
-400.0
 30
0.0
  0
POINT
  5
1C0
  8
DEFPOINTS
  6
CONTINUOUS
 62
     7
 10
1550.000000000007
 20
-890.02444458660841
 30
0.0
  0
LINE
  5
1C1
  8
SIZE
  6
CONTINUOUS
 62
    30
 10
-1250.0
 20
-420.0
 30
0.0
 11
-1250.0
 21
-910.0244445866083
 31
0.0
  0
LINE
  5
1C2
  8
SIZE
  6
CONTINUOUS
 62
    30
 10
-1050.0
 20
-420.0
 30
0.0
 11
-1050.0
 21
-910.0244445866083
 31
0.0
  0
LINE
  5
1C3
  8
SIZE
  6
CONTINUOUS
 62
    30
 10
-1050.0
 20
-890.02444458660841
 30
0.0
 11
-1250.0
 21
-890.02444458660841
 31
0.0
  0
LINE
  5
1C4
  8
SIZE
  6
CONTINUOUS
 62
    30
 10
-1250.0
 20
-890.02444458660841
 30
0.0
 11
-1589.485714285714
 21
-890.02444458660841
 31
0.0
  0
CIRCLE
  5
1C5
  8
SIZE
  6
CONTINUOUS
 62
    30
 10
-1050.0
 20
-890.02444458660841
 30
0.0
 40
7.5
  0
CIRCLE
  5
1C6
  8
SIZE
  6
CONTINUOUS
 62
    30
 10
-1250.0
 20
-890.02444458660841
 30
0.0
 40
7.5
  0
TEXT
  5
1C7
  8
SIZE
  6
CONTINUOUS
 62
    30
 10
-1569.485714285714
 20
-870.02444458660852
 30
0.0
 40
60.0
  1
200以上
 41
0.9
 72
     1
 11
-1434.742857142857
 21
-870.02444458660852
 31
0.0
  0
POINT
  5
1C8
  8
DEFPOINTS
  6
CONTINUOUS
 62
     7
 10
-1250.0
 20
-400.0
 30
0.0
  0
POINT
  5
1C9
  8
DEFPOINTS
  6
CONTINUOUS
 62
     7
 10
-1050.0
 20
-400.0
 30
0.0
  0
POINT
  5
1CA
  8
DEFPOINTS
  6
CONTINUOUS
 62
     7
 10
-1050.0
 20
-890.02444458660841
 30
0.0
  0
LINE
  5
1CD
  8
SERVICESPACE
  6
DASHDOT
 62
     2
 10
1050.000000000007
 20
400.0
 30
0.0
 11
-1050.0
 21
400.0
 31
0.0
  0
LINE
  5
1CE
  8
SERVICESPACE
  6
DASHDOT
 62
     2
 10
1050.000000000007
 20
700.0
 30
0.0
 11
-1050.0
 21
700.0
 31
0.0
  0
LINE
  5
1CF
  8
SERVICESPACE
  6
DASHDOT
 62
     2
 10
-1050.0
 20
700.0
 30
0.0
 11
-1050.0
 21
400.0
 31
0.0
  0
LINE
  5
1D0
  8
SERVICESPACE
  6
DASHDOT
 62
     2
 10
1050.000000000007
 20
700.0
 30
0.0
 11
1050.000000000007
 21
400.0
 31
0.0
  0
LINE
  5
1D1
  8
SERVICESPACE
  6
DASHDOT
 62
     2
 10
-1050.0
 20
700.0
 30
0.0
 11
1050.000000000007
 21
400.0
 31
0.0
  0
LINE
  5
1D2
  8
SERVICESPACE
  6
DASHDOT
 62
     2
 10
-1050.0
 20
400.0
 30
0.0
 11
1050.000000000007
 21
700.0
 31
0.0
  0
TEXT
  5
1D3
  8
NOTE
  6
CONTINUOUS
 62
     4
 10
-188.78539893472779
 20
628.93044574527426
 30
0.0
 40
55.0
  1
吸込スペース
 50
0.000003
 41
0.858516
  7
STANDARD1
  0
LINE
  5
1D4
  8
SIZE
  6
CONTINUOUS
 62
    30
 10
-1070.0
 20
400.0
 30
0.0
 11
-1577.841941267623
 21
400.0
 31
0.0
  0
LINE
  5
1D5
  8
SIZE
  6
CONTINUOUS
 62
    30
 10
-1070.0
 20
700.0
 30
0.0
 11
-1577.841941267623
 21
700.0
 31
0.0
  0
LINE
  5
1D6
  8
SIZE
  6
CONTINUOUS
 62
    30
 10
-1557.841941267623
 20
400.0
 30
0.0
 11
-1557.8419412676219
 21
700.0
 31
0.0
  0
CIRCLE
  5
1D7
  8
SIZE
  6
CONTINUOUS
 62
    30
 10
-1557.841941267623
 20
400.0
 30
0.0
 40
7.5
  0
CIRCLE
  5
1D8
  8
SIZE
  6
CONTINUOUS
 62
    30
 10
-1557.8419412676219
 20
700.0
 30
0.0
 40
7.5
  0
TEXT
  5
1D9
  8
SIZE
  6
CONTINUOUS
 62
    30
 10
-1577.841941267623
 20
415.2571428571427
 30
0.0
 40
60.0
  1
300以上
 50
90.0
 41
0.9
 72
     1
 11
-1577.841941267623
 21
549.99999999999989
 31
0.0
  0
POINT
  5
1DA
  8
DEFPOINTS
  6
CONTINUOUS
 62
     7
 10
-1050.0
 20
400.0
 30
0.0
  0
POINT
  5
1DB
  8
DEFPOINTS
  6
CONTINUOUS
 62
     7
 10
-1050.0
 20
700.0
 30
0.0
  0
POINT
  5
1DC
  8
DEFPOINTS
  6
CONTINUOUS
 62
     7
 10
-1557.8419412676219
 20
700.0
 30
0.0
  0
ARC
  5
1DD
  8
DETAIL
  6
CONTINUOUS
 62
     5
 10
1017.80000000001
 20
558.29999999999927
 30
0.0
 40
1.0
 50
0.0
 51
90.0
  0
LINE
  5
1DE
  8
DETAIL
  6
CONTINUOUS
 62
     5
 10
1018.80000000001
 20
539.29999999999905
 30
0.0
 11
1018.80000000001
 21
558.29999999999927
 31
0.0
  0
LINE
  5
1DF
  8
DETAIL
  6
CONTINUOUS
 62
     5
 10
998.80000000000996
 20
559.29999999999905
 30
0.0
 11
1017.80000000001
 21
559.29999999999905
 31
0.0
  0
LINE
  5
1E0
  8
DETAIL
  6
CONTINUOUS
 62
     5
 10
998.80000000000996
 20
558.29999999999927
 30
0.0
 11
998.80000000000996
 21
559.29999999999905
 31
0.0
  0
LINE
  5
1E1
  8
DETAIL
  6
CONTINUOUS
 62
     5
 10
998.80000000000996
 20
558.29999999999927
 30
0.0
 11
1017.80000000001
 21
558.29999999999927
 31
0.0
  0
LINE
  5
1E2
  8
DETAIL
  6
CONTINUOUS
 62
     5
 10
1017.80000000001
 20
539.29999999999905
 30
0.0
 11
1017.80000000001
 21
558.29999999999927
 31
0.0
  0
LINE
  5
1E3
  8
DETAIL
  6
CONTINUOUS
 62
     5
 10
1017.80000000001
 20
539.29999999999905
 30
0.0
 11
1018.80000000001
 21
539.29999999999905
 31
0.0
  0
LINE
  5
1E4
  8
DETAIL
  6
CONTINUOUS
 62
     5
 10
1218.400000000016
 20
423.10000000000031
 30
0.0
 11
1219.2000000000039
 21
423.10000000000031
 31
0.0
  0
ARC
  5
1E5
  8
DETAIL
  6
CONTINUOUS
 62
     5
 10
1218.400000000016
 20
403.89999999999958
 30
0.0
 40
0.8000000000010912
 50
270.0
 51
0.0
  0
LINE
  5
1E6
  8
DETAIL
  6
CONTINUOUS
 62
     5
 10
1219.2000000000039
 20
403.89999999999958
 30
0.0
 11
1219.2000000000039
 21
423.10000000000031
 31
0.0
  0
LINE
  5
1E7
  8
DETAIL
  6
CONTINUOUS
 62
     5
 10
1218.400000000016
 20
403.89999999999958
 30
0.0
 11
1218.400000000016
 21
423.10000000000031
 31
0.0
  0
LINE
  5
1E8
  8
DETAIL
  6
CONTINUOUS
 62
     5
 10
1220.000000000007
 20
403.10000000000042
 30
0.0
 11
1220.000000000007
 21
559.19999999999879
 31
0.0
  0
LINE
  5
1E9
  8
DETAIL
  6
CONTINUOUS
 62
     5
 10
1219.2000000000039
 20
403.10000000000042
 30
0.0
 11
1219.2000000000039
 21
559.29999999999905
 31
0.0
  0
LINE
  5
1EA
  8
DETAIL
  6
CONTINUOUS
 62
     5
 10
998.00000000000728
 20
560.0
 30
0.0
 11
1219.2000000000039
 21
560.0
 31
0.0
  0
LINE
  5
1EB
  8
DETAIL
  6
CONTINUOUS
 62
     5
 10
998.00000000000728
 20
559.29999999999905
 30
0.0
 11
1219.2000000000039
 21
559.29999999999905
 31
0.0
  0
ARC
  5
1EC
  8
DETAIL
  6
CONTINUOUS
 62
     5
 10
1219.2000000000039
 20
559.19999999999879
 30
0.0
 40
0.7999999999974535
 50
0.0
 51
90.0
  0
LINE
  5
1ED
  8
DETAIL
  6
CONTINUOUS
 62
     5
 10
998.80000000000996
 20
489.90717967696941
 30
0.0
 11
998.80000000000996
 21
560.0
 31
0.0
  0
LINE
  5
1EE
  8
DETAIL
  6
CONTINUOUS
 62
     5
 10
998.00000000000728
 20
428.0
 30
0.0
 11
998.00000000000728
 21
560.0
 31
0.0
  0
LINE
  5
1EF
  8
DETAIL
  6
CONTINUOUS
 62
     5
 10
998.80000000000996
 20
428.0
 30
0.0
 11
998.80000000000996
 21
457.29282032302018
 31
0.0
  0
LINE
  5
1F0
  8
DETAIL
  6
CONTINUOUS
 62
     5
 10
1000.000000000007
 20
403.89999999999958
 30
0.0
 11
1218.400000000016
 21
403.89999999999958
 31
0.0
  0
LINE
  5
1F1
  8
DETAIL
  6
CONTINUOUS
 62
     5
 10
1000.000000000007
 20
403.10000000000042
 30
0.0
 11
1220.000000000007
 21
403.10000000000042
 31
0.0
  0
LINE
  5
1F2
  8
DETAIL
  6
CONTINUOUS
 62
     5
 10
1027.000000000007
 20
458.60000000000019
 30
0.0
 11
1027.000000000007
 21
428.60000000000042
 31
0.0
  0
LINE
  5
1F3
  8
DETAIL
  6
CONTINUOUS
 62
     5
 10
1018.000000000007
 20
489.58771854541908
 30
0.0
 11
1019.000000000007
 21
489.58771854541908
 31
0.0
  0
LINE
  5
1F4
  8
DETAIL
  6
CONTINUOUS
 62
     5
 10
1026.000000000007
 20
456.60000000000031
 30
0.0
 11
1026.000000000007
 21
446.60000000000019
 31
0.0
  0
LINE
  5
1F5
  8
DETAIL
  6
CONTINUOUS
 62
     5
 10
1018.000000000007
 20
486.60000000000042
 30
0.0
 11
1019.000000000007
 21
486.60000000000042
 31
0.0
  0
LINE
  5
1F6
  8
DETAIL
  6
CONTINUOUS
 62
     5
 10
1026.000000000007
 20
446.60000000000019
 30
0.0
 11
1026.000000000007
 21
436.60000000000042
 31
0.0
  0
LINE
  5
1F7
  8
DETAIL
  6
CONTINUOUS
 62
     5
 10
1019.000000000007
 20
486.60000000000042
 30
0.0
 11
1019.000000000007
 21
456.60000000000031
 31
0.0
  0
LINE
  5
1F8
  8
DETAIL
  6
CONTINUOUS
 62
     5
 10
1018.000000000007
 20
486.60000000000042
 30
0.0
 11
1018.000000000007
 21
456.60000000000031
 31
0.0
  0
LINE
  5
1F9
  8
DETAIL
  6
CONTINUOUS
 62
     5
 10
1018.000000000007
 20
486.60000000000042
 30
0.0
 11
1019.000000000007
 21
486.60000000000042
 31
0.0
  0
LINE
  5
1FA
  8
DETAIL
  6
CONTINUOUS
 62
     5
 10
1022.000000000007
 20
456.60000000000031
 30
0.0
 11
1022.000000000007
 21
446.60000000000019
 31
0.0
  0
LINE
  5
1FB
  8
DETAIL
  6
CONTINUOUS
 62
     5
 10
1015.999999999992
 20
456.60000000000031
 30
0.0
 11
1026.000000000007
 21
456.60000000000031
 31
0.0
  0
LINE
  5
1FC
  8
DETAIL
  6
CONTINUOUS
 62
     5
 10
1015.999999999992
 20
456.60000000000031
 30
0.0
 11
1015.999999999992
 21
446.60000000000019
 31
0.0
  0
LINE
  5
1FD
  8
DETAIL
  6
CONTINUOUS
 62
     5
 10
1015.999999999992
 20
446.60000000000019
 30
0.0
 11
1026.000000000007
 21
446.60000000000019
 31
0.0
  0
LINE
  5
1FE
  8
DETAIL
  6
CONTINUOUS
 62
     5
 10
1018.000000000007
 20
431.35000000000019
 30
0.0
 11
1018.000000000007
 21
430.82711321180977
 31
0.0
  0
LINE
  5
1FF
  8
DETAIL
  6
CONTINUOUS
 62
     5
 10
1019.000000000007
 20
431.35000000000019
 30
0.0
 11
1019.000000000007
 21
430.05116468034981
 31
0.0
  0
LINE
  5
200
  8
DETAIL
  6
CONTINUOUS
 62
     5
 10
1015.999999999992
 20
436.60000000000042
 30
0.0
 11
1013.004987562119
 21
436.60000000000042
 31
0.0
  0
LINE
  5
201
  8
DETAIL
  6
CONTINUOUS
 62
     5
 10
1015.999999999992
 20
435.60000000000031
 30
0.0
 11
1013.004987562119
 21
435.60000000000031
 31
0.0
  0
LINE
  5
202
  8
DETAIL
  6
CONTINUOUS
 62
     5
 10
1015.999999999992
 20
446.60000000000019
 30
0.0
 11
1013.004987562119
 21
446.60000000000019
 31
0.0
  0
ARC
  5
203
  8
DETAIL
  6
CONTINUOUS
 62
     5
 10
1013.000000000007
 20
437.60000000000019
 30
0.0
 40
6.0
 50
270.0
 51
0.0
  0
ARC
  5
204
  8
DETAIL
  6
CONTINUOUS
 62
     5
 10
1013.000000000007
 20
437.60000000000019
 30
0.0
 40
5.0
 50
270.0
 51
0.0
  0
ARC
  5
205
  8
DETAIL
  6
CONTINUOUS
 62
     5
 10
1013.004987562119
 20
440.60000000000042
 30
0.0
 40
5.0
 50
90.0
 51
180.0
  0
ARC
  5
206
  8
DETAIL
  6
CONTINUOUS
 62
     5
 10
1013.004987562119
 20
440.60000000000042
 30
0.0
 40
6.0
 50
90.0
 51
180.0
  0
LINE
  5
207
  8
DETAIL
  6
CONTINUOUS
 62
     5
 10
1018.000000000007
 20
446.60000000000019
 30
0.0
 11
1018.000000000007
 21
437.60000000000019
 31
0.0
  0
LINE
  5
208
  8
DETAIL
  6
CONTINUOUS
 62
     5
 10
1019.000000000007
 20
446.60000000000019
 30
0.0
 11
1019.000000000007
 21
437.60000000000019
 31
0.0
  0
LINE
  5
209
  8
DETAIL
  6
CONTINUOUS
 62
     5
 10
1018.000000000007
 20
445.60000000000031
 30
0.0
 11
1013.004987562119
 21
445.60000000000031
 31
0.0
  0
LINE
  5
20A
  8
DETAIL
  6
CONTINUOUS
 62
     5
 10
1008.004987562119
 20
440.60000000000042
 30
0.0
 11
1008.004987562119
 21
437.60000000000019
 31
0.0
  0
LINE
  5
20B
  8
DETAIL
  6
CONTINUOUS
 62
     5
 10
1007.004987562119
 20
440.60000000000042
 30
0.0
 11
1007.004987562119
 21
437.60000000000019
 31
0.0
  0
ARC
  5
20C
  8
DETAIL
  6
CONTINUOUS
 62
     5
 10
1013.004987562119
 20
437.60000000000019
 30
0.0
 40
6.0
 50
180.0
 51
270.0
  0
ARC
  5
20D
  8
DETAIL
  6
CONTINUOUS
 62
     5
 10
1013.004987562119
 20
437.60000000000019
 30
0.0
 40
5.0
 50
180.0
 51
270.0
  0
LINE
  5
20E
  8
DETAIL
  6
CONTINUOUS
 62
     5
 10
1008.004987562119
 20
430.60000000000031
 30
0.0
 11
1008.004987562119
 21
427.99999999998909
 31
0.0
  0
LINE
  5
20F
  8
DETAIL
  6
CONTINUOUS
 62
     5
 10
1007.004987562119
 20
430.60000000000031
 30
0.0
 11
1007.004987562119
 21
427.99999999998909
 31
0.0
  0
LINE
  5
210
  8
DETAIL
  6
CONTINUOUS
 62
     5
 10
1018.000000000007
 20
429.54552385208979
 30
0.0
 11
1018.000000000007
 21
427.99999999998909
 31
0.0
  0
LINE
  5
211
  8
DETAIL
  6
CONTINUOUS
 62
     5
 10
1019.000000000007
 20
428.84284730599018
 30
0.0
 11
1019.000000000007
 21
427.99999999998909
 31
0.0
  0
ARC
  5
212
  8
DETAIL
  6
CONTINUOUS
 62
     5
 10
1013.004987562119
 20
430.60000000000031
 30
0.0
 40
5.0
 50
90.0
 51
135.5729959989699
  0
ARC
  5
213
  8
DETAIL
  6
CONTINUOUS
 62
     5
 10
1013.004987562119
 20
430.60000000000031
 30
0.0
 40
6.0
 50
90.0
 51
134.41530859717051
  0
ARC
  5
214
  8
DETAIL
  6
CONTINUOUS
 62
     5
 10
1013.004987562119
 20
430.60000000000031
 30
0.0
 40
4.999999999998562
 50
147.12165043551829
 51
180.0
  0
ARC
  5
215
  8
DETAIL
  6
CONTINUOUS
 62
     5
 10
1013.004987562119
 20
430.60000000000031
 30
0.0
 40
5.9999999999989591
 50
144.31466528729231
 51
180.0
  0
LINE
  5
216
  8
DETAIL
  6
CONTINUOUS
 62
     5
 10
1025.000000000007
 20
431.35000000000019
 30
0.0
 11
1025.000000000007
 21
427.99999999998909
 31
0.0
  0
LINE
  5
217
  8
DETAIL
  6
CONTINUOUS
 62
     5
 10
1025.000000000007
 20
445.69207269626878
 30
0.0
 11
1025.000000000007
 21
441.85000000000031
 31
0.0
  0
LINE
  5
218
  8
DETAIL
  6
CONTINUOUS
 62
     5
 10
1007.000000000007
 20
537.60000000000025
 30
0.0
 11
1004.000000000007
 21
534.60000000000025
 31
0.0
  0
LINE
  5
219
  8
DETAIL
  6
CONTINUOUS
 62
     5
 10
1007.000000000007
 20
537.60000000000025
 30
0.0
 11
1022.500000000007
 21
537.60000000000025
 31
0.0
  0
LINE
  5
21A
  8
DETAIL
  6
CONTINUOUS
 62
     5
 10
1004.000000000007
 20
534.60000000000025
 30
0.0
 11
1004.000000000007
 21
489.60000000000031
 31
0.0
  0
LINE
  5
21B
  8
DETAIL
  6
CONTINUOUS
 62
     5
 10
1004.000000000007
 20
457.60000000000042
 30
0.0
 11
1004.000000000007
 21
432.60000000000042
 31
0.0
  0
LINE
  5
21C
  8
DETAIL
  6
CONTINUOUS
 62
     5
 10
1019.671952525641
 20
429.60000000000019
 30
0.0
 11
1025.000000000007
 21
429.60000000000019
 31
0.0
  0
LINE
  5
21D
  8
DETAIL
  6
CONTINUOUS
 62
     5
 10
1008.004987562119
 20
429.60000000000019
 30
0.0
 11
1017.928814995888
 21
429.60000000000019
 31
0.0
  0
LINE
  5
21E
  8
DETAIL
  6
CONTINUOUS
 62
     5
 10
1004.000000000007
 20
432.60000000000042
 30
0.0
 11
1007.000000000007
 21
429.60000000000019
 31
0.0
  0
ARC
  5
21F
  8
DETAIL
  6
CONTINUOUS
 62
     5
 10
1015.000000000007
 20
437.60000000000019
 30
0.0
 40
1.5000000000004801
 50
48.189685104387721
 51
221.8103148959066
  0
LINE
  5
220
  8
DETAIL
  6
CONTINUOUS
 62
     5
 10
1141.30000000001
 20
551.39999999999975
 30
0.0
 11
1150.69999999999
 21
551.39999999999975
 31
0.0
  0
ARC
  5
221
  8
DETAIL
  6
CONTINUOUS
 62
     5
 10
1209.700000000011
 20
548.60000000000025
 30
0.0
 40
0.7999999999992724
 50
0.0
 51
90.0
  0
ARC
  5
222
  8
DETAIL
  6
CONTINUOUS
 62
     5
 10
1025.30000000001
 20
548.60000000000025
 30
0.0
 40
0.7999999999992724
 50
90.0
 51
180.0
  0
LINE
  5
223
  8
DETAIL
  6
CONTINUOUS
 62
     5
 10
1210.499999999993
 20
548.60000000000025
 30
0.0
 11
1210.499999999993
 21
539.39999999999975
 31
0.0
  0
LINE
  5
224
  8
DETAIL
  6
CONTINUOUS
 62
     5
 10
1209.700000000011
 20
549.39999999999975
 30
0.0
 11
1209.700000000011
 21
539.39999999999975
 31
0.0
  0
LINE
  5
225
  8
DETAIL
  6
CONTINUOUS
 62
     5
 10
1210.499999999993
 20
539.39999999999975
 30
0.0
 11
1024.500000000007
 21
539.39999999999975
 31
0.0
  0
LINE
  5
226
  8
DETAIL
  6
CONTINUOUS
 62
     5
 10
1024.500000000007
 20
548.60000000000025
 30
0.0
 11
1024.500000000007
 21
539.39999999999975
 31
0.0
  0
LINE
  5
227
  8
DETAIL
  6
CONTINUOUS
 62
     5
 10
1025.30000000001
 20
549.39999999999975
 30
0.0
 11
1025.30000000001
 21
539.39999999999975
 31
0.0
  0
LINE
  5
228
  8
DETAIL
  6
CONTINUOUS
 62
     5
 10
1209.700000000011
 20
549.39999999999975
 30
0.0
 11
1025.30000000001
 21
549.39999999999975
 31
0.0
  0
LINE
  5
229
  8
DETAIL
  6
CONTINUOUS
 62
     5
 10
1024.500000000007
 20
487.53985362387891
 30
0.0
 11
1024.500000000007
 21
549.39999999999975
 31
0.0
  0
LINE
  5
22A
  8
DETAIL
  6
CONTINUOUS
 62
     5
 10
1026.000000000007
 20
476.8667990403099
 30
0.0
 11
1024.500000000007
 21
487.53985362387891
 31
0.0
  0
LINE
  5
22B
  8
DETAIL
  6
CONTINUOUS
 62
     5
 10
1026.000000000007
 20
462.49620597166893
 30
0.0
 11
1022.500000000007
 21
487.39999999999958
 31
0.0
  0
LINE
  5
22C
  8
DETAIL
  6
CONTINUOUS
 62
     5
 10
1022.500000000007
 20
487.39999999999958
 30
0.0
 11
1022.500000000007
 21
549.39999999999975
 31
0.0
  0
LINE
  5
22D
  8
DETAIL
  6
CONTINUOUS
 62
     5
 10
1152.000000000007
 20
549.39999999999975
 30
0.0
 11
1024.500000000007
 21
549.39999999999975
 31
0.0
  0
LINE
  5
22E
  8
DETAIL
  6
CONTINUOUS
 62
     5
 10
1152.000000000007
 20
549.39999999999975
 30
0.0
 11
1152.000000000007
 21
551.39999999999975
 31
0.0
  0
ARC
  5
22F
  8
DETAIL
  6
CONTINUOUS
 62
     5
 10
1024.500000000007
 20
549.39999999999975
 30
0.0
 40
2.0
 50
90.0
 51
180.0
  0
LINE
  5
230
  8
DETAIL
  6
CONTINUOUS
 62
     5
 10
1030.039707221694
 20
551.39999999999975
 30
0.0
 11
1024.500000000007
 21
551.39999999999975
 31
0.0
  0
LINE
  5
231
  8
DETAIL
  6
CONTINUOUS
 62
     5
 10
1152.000000000007
 20
551.39999999999975
 30
0.0
 11
1028.750299789433
 21
551.39999999999975
 31
0.0
  0
CIRCLE
  5
232
  8
DETAIL
  6
CONTINUOUS
 62
     5
 10
1179.999999999993
 20
479.0
 30
0.0
 40
16.000000000001361
  0
LINE
  5
233
  8
NOTE
  6
CONTINUOUS
 62
     4
 10
1179.999999999993
 20
498.3125
 30
0.0
 11
1179.999999999993
 21
459.0
 31
0.0
  0
LINE
  5
234
  8
NOTE
  6
CONTINUOUS
 62
     4
 10
1160.000000000007
 20
479.0
 30
0.0
 11
1200.000000000007
 21
479.0
 31
0.0
  0
LINE
  5
235
  8
DETAIL
  6
CONTINUOUS
 62
     5
 10
1033.000000000007
 20
533.60000000000025
 30
0.0
 11
1026.000000000007
 21
533.60000000000025
 31
0.0
  0
LINE
  5
236
  8
DETAIL
  6
CONTINUOUS
 62
     5
 10
1033.000000000007
 20
533.60000000000025
 30
0.0
 11
1036.000000000007
 21
530.60000000000025
 31
0.0
  0
LINE
  5
237
  8
DETAIL
  6
CONTINUOUS
 62
     5
 10
1036.000000000007
 20
530.60000000000025
 30
0.0
 11
1036.000000000007
 21
516.60000000000025
 31
0.0
  0
LINE
  5
238
  8
DETAIL
  6
CONTINUOUS
 62
     5
 10
1033.000000000007
 20
513.60000000000025
 30
0.0
 11
1036.000000000007
 21
516.60000000000025
 31
0.0
  0
LINE
  5
239
  8
DETAIL
  6
CONTINUOUS
 62
     5
 10
1033.000000000007
 20
513.60000000000025
 30
0.0
 11
1026.000000000007
 21
513.60000000000025
 31
0.0
  0
LINE
  5
23A
  8
DETAIL
  6
CONTINUOUS
 62
     5
 10
1202.000000000007
 20
513.60000000000025
 30
0.0
 11
1209.000000000007
 21
513.60000000000025
 31
0.0
  0
LINE
  5
23B
  8
DETAIL
  6
CONTINUOUS
 62
     5
 10
1202.000000000007
 20
513.60000000000025
 30
0.0
 11
1198.999999999992
 21
516.60000000000025
 31
0.0
  0
LINE
  5
23C
  8
DETAIL
  6
CONTINUOUS
 62
     5
 10
1202.000000000007
 20
533.60000000000025
 30
0.0
 11
1198.999999999992
 21
530.60000000000025
 31
0.0
  0
LINE
  5
23D
  8
DETAIL
  6
CONTINUOUS
 62
     5
 10
1202.000000000007
 20
533.60000000000025
 30
0.0
 11
1209.000000000007
 21
533.60000000000025
 31
0.0
  0
LINE
  5
23E
  8
DETAIL
  6
CONTINUOUS
 62
     5
 10
1198.999999999992
 20
530.60000000000025
 30
0.0
 11
1198.999999999992
 21
516.60000000000025
 31
0.0
  0
CIRCLE
  5
23F
  8
DETAIL
  6
CONTINUOUS
 62
     5
 10
1179.999999999993
 20
479.0
 30
0.0
 40
15.0
  0
LINE
  5
240
  8
DETAIL
  6
CONTINUOUS
 62
     5
 10
1027.000000000007
 20
539.39999999999975
 30
0.0
 11
1027.000000000007
 21
533.60000000000025
 31
0.0
  0
LINE
  5
241
  8
DETAIL
  6
CONTINUOUS
 62
     5
 10
1027.000000000007
 20
513.60000000000025
 30
0.0
 11
1027.000000000007
 21
427.99999999998909
 31
0.0
  0
LINE
  5
242
  8
DETAIL
  6
CONTINUOUS
 62
     5
 10
1026.000000000007
 20
539.39999999999975
 30
0.0
 11
1026.000000000007
 21
427.99999999998909
 31
0.0
  0
LINE
  5
243
  8
DETAIL
  6
CONTINUOUS
 62
     5
 10
1208.000000000007
 20
539.39999999999975
 30
0.0
 11
1208.000000000007
 21
533.60000000000025
 31
0.0
  0
LINE
  5
244
  8
DETAIL
  6
CONTINUOUS
 62
     5
 10
1208.000000000007
 20
513.60000000000025
 30
0.0
 11
1208.000000000007
 21
428.0
 31
0.0
  0
LINE
  5
245
  8
DETAIL
  6
CONTINUOUS
 62
     5
 10
1209.000000000007
 20
539.39999999999975
 30
0.0
 11
1209.000000000007
 21
428.0
 31
0.0
  0
LINE
  5
246
  8
DETAIL
  6
CONTINUOUS
 62
     5
 10
998.00000000000728
 20
489.44529946161862
 30
0.0
 11
998.00000000000728
 21
457.75470053838018
 31
0.0
  0
LINE
  5
247
  8
DETAIL
  6
CONTINUOUS
 62
     5
 10
998.00000000000728
 20
489.44529946161862
 30
0.0
 11
1000.000000000007
 21
490.60000000000042
 31
0.0
  0
LINE
  5
248
  8
DETAIL
  6
CONTINUOUS
 62
     5
 10
1022.500000000007
 20
489.60000000000031
 30
0.0
 11
1000.000000000007
 21
489.60000000000031
 31
0.0
  0
LINE
  5
249
  8
DETAIL
  6
CONTINUOUS
 62
     5
 10
998.00000000000728
 20
457.75470053838018
 30
0.0
 11
1000.000000000007
 21
456.60000000000031
 31
0.0
  0
LINE
  5
24A
  8
DETAIL
  6
CONTINUOUS
 62
     5
 10
1018.000000000007
 20
457.60000000000042
 30
0.0
 11
1000.000000000007
 21
457.60000000000042
 31
0.0
  0
LINE
  5
24B
  8
DETAIL
  6
CONTINUOUS
 62
     5
 10
1000.000000000007
 20
490.60000000000042
 30
0.0
 11
1000.000000000007
 21
456.60000000000031
 31
0.0
  0
LINE
  5
24C
  8
DETAIL
  6
CONTINUOUS
 62
     5
 10
1026.000000000007
 20
457.60000000000042
 30
0.0
 11
1019.000000000007
 21
457.60000000000042
 31
0.0
  0
LINE
  5
24D
  8
DETAIL
  6
CONTINUOUS
 62
     5
 10
1026.000000000007
 20
431.35000000000019
 30
0.0
 11
1015.999999999992
 21
431.35000000000019
 31
0.0
  0
ARC
  5
24E
  8
DETAIL
  6
CONTINUOUS
 62
     5
 10
1027.764105631941
 20
442.3782112638691
 30
0.0
 40
16.12499999999806
 50
223.1507365097591
 51
243.084109499471
  0
ARC
  5
24F
  8
DETAIL
  6
CONTINUOUS
 62
     5
 10
1027.764105631941
 20
442.3782112638691
 30
0.0
 40
15.12499999999965
 50
226.81417269310489
 51
251.92026176648099
  0
LINE
  5
250
  8
DETAIL
  6
CONTINUOUS
 62
     5
 10
1015.999999999992
 20
433.60000000000019
 30
0.0
 11
1015.999999999992
 21
441.85000000000031
 31
0.0
  0
LINE
  5
251
  8
DETAIL
  6
CONTINUOUS
 62
     5
 10
1026.000000000007
 20
441.85000000000031
 30
0.0
 11
1019.000000000007
 21
441.85000000000031
 31
0.0
  0
LINE
  5
252
  8
DETAIL
  6
CONTINUOUS
 62
     5
 10
1018.000000000007
 20
441.85000000000031
 30
0.0
 11
1015.999999999992
 21
441.85000000000031
 31
0.0
  0
LINE
  5
253
  8
DETAIL
  6
CONTINUOUS
 62
     5
 10
1015.999999999992
 20
431.35000000000019
 30
0.0
 11
1015.999999999992
 21
432.40384757729032
 31
0.0
  0
ARC
  5
254
  8
DETAIL
  6
CONTINUOUS
 62
     5
 10
1027.764105631941
 20
430.82178873612969
 30
0.0
 40
16.124999999997989
 50
127.2666969502575
 51
136.84926349024079
  0
ARC
  5
255
  8
DETAIL
  6
CONTINUOUS
 62
     5
 10
1027.764105631941
 20
430.82178873612969
 30
0.0
 40
15.124999999997449
 50
130.2077280753191
 51
133.18582730689511
  0
ARC
  5
256
  8
DETAIL
  6
CONTINUOUS
 62
     5
 10
1027.764105631941
 20
430.82178873612969
 30
0.0
 40
16.12499999999854
 50
101.90424031057211
 51
122.92293007639439
  0
ARC
  5
257
  8
DETAIL
  6
CONTINUOUS
 62
     5
 10
1027.764105631941
 20
430.82178873612969
 30
0.0
 40
15.124999999998501
 50
96.697943133822491
 51
125.4115163908003
  0
LINE
  5
258
  8
SIZE
  6
CONTINUOUS
 62
    30
 10
1050.000000000007
 20
410.0
 30
0.0
 11
1050.000000000007
 21
1399.705363877312
 31
0.0
  0
LINE
  5
259
  8
SIZE
  6
CONTINUOUS
 62
    30
 10
1220.000000000007
 20
579.29999999999927
 30
0.0
 11
1220.000000000007
 21
1399.705363877312
 31
0.0
  0
LINE
  5
25A
  8
SIZE
  6
CONTINUOUS
 62
    30
 10
1050.000000000007
 20
1379.705363877312
 30
0.0
 11
1220.000000000007
 21
1379.705363877312
 31
0.0
  0
CIRCLE
  5
25B
  8
SIZE
  6
CONTINUOUS
 62
    30
 10
1050.000000000007
 20
1379.705363877312
 30
0.0
 40
7.5
  0
CIRCLE
  5
25C
  8
SIZE
  6
CONTINUOUS
 62
    30
 10
1220.000000000007
 20
1379.705363877312
 30
0.0
 40
7.5
  0
TEXT
  5
25D
  8
SIZE
  6
CONTINUOUS
 62
    30
 10
1066.335369221548
 20
1399.705363877312
 30
0.0
 40
60.0
  1
170
 41
0.9
 72
     1
 11
1130.621083507262
 21
1399.705363877312
 31
0.0
  0
POINT
  5
25E
  8
DEFPOINTS
  6
CONTINUOUS
 62
     7
 10
1050.000000000007
 20
390.0
 30
0.0
  0
POINT
  5
25F
  8
DEFPOINTS
  6
CONTINUOUS
 62
     7
 10
1220.000000000007
 20
559.29999999999905
 30
0.0
  0
POINT
  5
260
  8
DEFPOINTS
  6
CONTINUOUS
 62
     7
 10
1220.000000000007
 20
1379.705363877312
 30
0.0
  0
LINE
  5
261
  8
SIZE
  6
CONTINUOUS
 62
    30
 10
1050.000000000007
 20
370.0
 30
0.0
 11
1050.000000000007
 21
38.9878204407105
 31
0.0
  0
LINE
  5
262
  8
SIZE
  6
CONTINUOUS
 62
    30
 10
1179.999999999993
 20
439.0
 30
0.0
 11
1179.999999999993
 21
38.9878204407105
 31
0.0
  0
LINE
  5
263
  8
SIZE
  6
CONTINUOUS
 62
    30
 10
1050.000000000007
 20
58.9878204407105
 30
0.0
 11
1179.999999999993
 21
58.9878204407105
 31
0.0
  0
CIRCLE
  5
264
  8
SIZE
  6
CONTINUOUS
 62
    30
 10
1050.000000000007
 20
58.9878204407105
 30
0.0
 40
7.5
  0
CIRCLE
  5
265
  8
SIZE
  6
CONTINUOUS
 62
    30
 10
1179.999999999993
 20
58.9878204407105
 30
0.0
 40
7.5
  0
TEXT
  5
266
  8
SIZE
  6
CONTINUOUS
 62
    30
 10
1050.714285714286
 20
78.987820440710493
 30
0.0
 40
60.0
  1
130
 41
0.9
 72
     1
 11
1115.0
 21
78.987820440710493
 31
0.0
  0
POINT
  5
267
  8
DEFPOINTS
  6
CONTINUOUS
 62
     7
 10
1050.000000000007
 20
390.0
 30
0.0
  0
POINT
  5
268
  8
DEFPOINTS
  6
CONTINUOUS
 62
     7
 10
1179.999999999993
 20
459.0
 30
0.0
  0
POINT
  5
269
  8
DEFPOINTS
  6
CONTINUOUS
 62
     7
 10
1179.999999999993
 20
58.9878204407105
 30
0.0
  0
LINE
  5
26A
  8
SIZE
  6
CONTINUOUS
 62
    30
 10
1060.000000000007
 20
400.0
 30
0.0
 11
1909.8844766962341
 21
399.99999999999972
 31
0.0
  0
LINE
  5
26B
  8
SIZE
  6
CONTINUOUS
 62
    30
 10
1220.000000000007
 20
479.0
 30
0.0
 11
1909.8844766962341
 21
478.99999999999977
 31
0.0
  0
LINE
  5
26C
  8
SIZE
  6
CONTINUOUS
 62
    30
 10
1889.8844766962341
 20
478.99999999999977
 30
0.0
 11
1889.8844766962341
 21
399.99999999999972
 31
0.0
  0
LINE
  5
26D
  8
SIZE
  6
CONTINUOUS
 62
    30
 10
1889.8844766962341
 20
399.99999999999972
 30
0.0
 11
1889.8844766962341
 21
245.14285714284671
 31
0.0
  0
CIRCLE
  5
26E
  8
SIZE
  6
CONTINUOUS
 62
    30
 10
1889.8844766962341
 20
478.99999999999977
 30
0.0
 40
7.5
  0
CIRCLE
  5
26F
  8
SIZE
  6
CONTINUOUS
 62
    30
 10
1889.8844766962341
 20
399.99999999999972
 30
0.0
 40
7.5
  0
TEXT
  5
270
  8
SIZE
  6
CONTINUOUS
 62
    30
 10
1869.8844766962341
 20
265.14285714284688
 30
0.0
 40
60.0
  1
79
 50
90.0
 41
0.9
 72
     1
 11
1869.8844766962341
 21
307.57142857141838
 31
0.0
  0
POINT
  5
271
  8
DEFPOINTS
  6
CONTINUOUS
 62
     7
 10
1040.000000000007
 20
400.0
 30
0.0
  0
POINT
  5
272
  8
DEFPOINTS
  6
CONTINUOUS
 62
     7
 10
1200.000000000007
 20
479.0
 30
0.0
  0
POINT
  5
273
  8
DEFPOINTS
  6
CONTINUOUS
 62
     7
 10
1889.8844766962341
 20
478.99999999999977
 30
0.0
  0
LINE
  5
274
  8
SIZE
  6
CONTINUOUS
 62
    30
 10
1239.2000000000039
 20
560.0
 30
0.0
 11
2038.195433059255
 21
559.99999999999955
 31
0.0
  0
LINE
  5
275
  8
SIZE
  6
CONTINUOUS
 62
    30
 10
1060.000000000007
 20
400.0
 30
0.0
 11
2038.195433059255
 21
399.99999999999972
 31
0.0
  0
LINE
  5
276
  8
SIZE
  6
CONTINUOUS
 62
    30
 10
2018.1954330592539
 20
559.99999999999955
 30
0.0
 11
2018.1954330592539
 21
399.99999999999972
 31
0.0
  0
CIRCLE
  5
277
  8
SIZE
  6
CONTINUOUS
 62
    30
 10
2018.1954330592539
 20
559.99999999999955
 30
0.0
 40
7.5
  0
CIRCLE
  5
278
  8
SIZE
  6
CONTINUOUS
 62
    30
 10
2018.1954330592539
 20
399.99999999999972
 30
0.0
 40
7.5
  0
TEXT
  5
279
  8
SIZE
  6
CONTINUOUS
 62
    30
 10
1998.195433059255
 20
415.71428571428572
 30
0.0
 40
60.0
  1
160
 50
90.0
 41
0.9
 72
     1
 11
1998.195433059255
 21
480.0
 31
0.0
  0
POINT
  5
27A
  8
DEFPOINTS
  6
CONTINUOUS
 62
     7
 10
1219.2000000000039
 20
560.0
 30
0.0
  0
POINT
  5
27B
  8
DEFPOINTS
  6
CONTINUOUS
 62
     7
 10
1040.000000000007
 20
400.0
 30
0.0
  0
POINT
  5
27C
  8
DEFPOINTS
  6
CONTINUOUS
 62
     7
 10
2018.1954330592539
 20
399.99999999999972
 30
0.0
  0
LINE
  5
27D
  8
DETAIL
  6
CONTINUOUS
 62
     5
 10
1050.000000000007
 20
-365.0
 30
0.0
 11
1050.000000000007
 21
390.0
 31
0.0
  0
LINE
  5
28A
  8
OUTLINE
  6
CONTINUOUS
 62
     3
 10
1040.000000000007
 20
400.0
 30
0.0
 11
-1040.0
 21
400.0
 31
0.0
  0
LINE
  5
28B
  8
ARRANGE
  6
CONTINUOUS
 62
     1
 10
42.396855862592929
 20
-41.960496852390868
 30
0.0
 11
-42.396855862592929
 21
41.960496852369033
 31
0.0
  0
LINE
  5
28C
  8
ARRANGE
  6
CONTINUOUS
 62
     1
 10
42.334505526392597
 20
42.023402110809911
 30
0.0
 11
-42.334505526407142
 21
-42.023402110820811
 31
0.0
  0
LINE
  5
28D
  8
SIZE
  6
CONTINUOUS
 62
    30
 10
1050.000000000007
 20
410.0
 30
0.0
 11
1050.000000000007
 21
1265.6469196496009
 31
0.0
  0
LINE
  5
28E
  8
SIZE
  6
CONTINUOUS
 62
    30
 10
945.00000000000716
 20
390.0
 30
0.0
 11
945.00000000000716
 21
1265.6469196496009
 31
0.0
  0
LINE
  5
28F
  8
SIZE
  6
CONTINUOUS
 62
    30
 10
945.00000000000716
 20
1245.6469196496009
 30
0.0
 11
1050.000000000007
 21
1245.6469196496009
 31
0.0
  0
LINE
  5
290
  8
SIZE
  6
CONTINUOUS
 62
    30
 10
1050.000000000007
 20
1245.6469196496009
 30
0.0
 11
1402.1409983842721
 21
1245.6469196496009
 31
0.0
  0
CIRCLE
  5
291
  8
SIZE
  6
CONTINUOUS
 62
    30
 10
945.00000000000716
 20
1245.6469196496009
 30
0.0
 40
7.5
  0
CIRCLE
  5
292
  8
SIZE
  6
CONTINUOUS
 62
    30
 10
1050.000000000007
 20
1245.6469196496009
 30
0.0
 40
7.5
  0
TEXT
  5
293
  8
SIZE
  6
CONTINUOUS
 62
    30
 10
1253.5695698128441
 20
1265.6469196496009
 30
0.0
 40
60.0
  1
105
 41
0.9
 72
     1
 11
1317.8552840985581
 21
1265.6469196496009
 31
0.0
  0
POINT
  5
294
  8
DEFPOINTS
  6
CONTINUOUS
 62
     7
 10
1050.000000000007
 20
390.0
 30
0.0
  0
POINT
  5
295
  8
DEFPOINTS
  6
CONTINUOUS
 62
     7
 10
945.00000000000716
 20
370.0
 30
0.0
  0
POINT
  5
296
  8
DEFPOINTS
  6
CONTINUOUS
 62
     7
 10
945.00000000000716
 20
1245.6469196496009
 30
0.0
  0
LINE
  5
297
  8
SIZE
  6
CONTINUOUS
 62
    30
 10
1050.000000000007
 20
410.0
 30
0.0
 11
1050.000000000007
 21
1144.627426829923
 31
0.0
  0
LINE
  5
298
  8
SIZE
  6
CONTINUOUS
 62
    30
 10
923.00000000000728
 20
350.0
 30
0.0
 11
923.00000000000728
 21
1144.627426829923
 31
0.0
  0
LINE
  5
299
  8
SIZE
  6
CONTINUOUS
 62
    30
 10
923.00000000000728
 20
1124.627426829923
 30
0.0
 11
1050.000000000007
 21
1124.627426829923
 31
0.0
  0
LINE
  5
29A
  8
SIZE
  6
CONTINUOUS
 62
    30
 10
1050.000000000007
 20
1124.627426829923
 30
0.0
 11
1400.672873076004
 21
1124.627426829923
 31
0.0
  0
CIRCLE
  5
29B
  8
SIZE
  6
CONTINUOUS
 62
    30
 10
923.00000000000728
 20
1124.627426829923
 30
0.0
 40
7.5
  0
CIRCLE
  5
29C
  8
SIZE
  6
CONTINUOUS
 62
    30
 10
1050.000000000007
 20
1124.627426829923
 30
0.0
 40
7.5
  0
TEXT
  5
29D
  8
SIZE
  6
CONTINUOUS
 62
    30
 10
1252.101444504576
 20
1144.627426829923
 30
0.0
 40
60.0
  1
127
 41
0.9
 72
     1
 11
1316.38715879029
 21
1144.627426829923
 31
0.0
  0
POINT
  5
29E
  8
DEFPOINTS
  6
CONTINUOUS
 62
     7
 10
1050.000000000007
 20
390.0
 30
0.0
  0
POINT
  5
29F
  8
DEFPOINTS
  6
CONTINUOUS
 62
     7
 10
923.00000000000728
 20
330.0
 30
0.0
  0
POINT
  5
2A0
  8
DEFPOINTS
  6
CONTINUOUS
 62
     7
 10
923.00000000000728
 20
1124.627426829923
 30
0.0
  0
LINE
  5
2A1
  8
BASIS
  6
DASHDOT
 62
     6
 10
1100.0
 20
0.0
 30
0.0
 11
-1100.0
 21
0.0
 31
0.0
  0
LINE
  5
2A2
  8
BASIS
  6
DASHDOT
 62
     6
 10
0.0
 20
450.0
 30
0.0
 11
0.0
 21
-450.0
 31
0.0
  0
LINE
  5
2AF
  8
NOTE
  6
CONTINUOUS
 62
     4
 10
1180.000000000007
 20
479.0
 30
0.0
 11
1315.669743855105
 21
636.22167112446004
 31
0.0
  0
LINE
  5
2B0
  8
NOTE
  6
CONTINUOUS
 62
     4
 10
1315.669743855105
 20
636.22167112446004
 30
0.0
 11
1727.0298950154761
 21
636.22167112446004
 31
0.0
  0
LINE
  5
2B1
  8
NOTE
  6
CONTINUOUS
 62
     4
 10
1205.6851356861589
 20
496.46112528912988
 30
0.0
 11
1179.999999999993
 21
479.0
 31
0.0
  0
LINE
  5
2B2
  8
NOTE
  6
CONTINUOUS
 62
     4
 10
1179.999999999993
 20
479.0
 30
0.0
 11
1193.513417486158
 21
506.96434586082978
 31
0.0
  0
LINE
  5
2B5
  8
NOTE
  6
CONTINUOUS
 62
     4
 10
602.93496756661625
 20
840.52566723384916
 30
0.0
 11
187.0558308706313
 21
840.52566723384916
 31
0.0
  0
LINE
  5
2B6
  8
NOTE
  6
CONTINUOUS
 62
     4
 10
837.95575042209384
 20
340.64592367306068
 30
0.0
 11
843.00000000000705
 21
310.0
 31
0.0
  0
LINE
  5
2B7
  8
NOTE
  6
CONTINUOUS
 62
     4
 10
843.00000000000705
 20
310.0
 30
0.0
 11
823.30858999492204
 21
334.01802372368002
 31
0.0
  0
LINE
  5
2BB
  8
NOTE
  6
CONTINUOUS
 62
     4
 10
947.01481198945839
 20
329.69435161966788
 30
0.0
 11
923.00000000000728
 21
309.99902484678017
 31
0.0
  0
LINE
  5
2BC
  8
NOTE
  6
CONTINUOUS
 62
     4
 10
923.00000000000728
 20
309.99902484678017
 30
0.0
 11
933.94977399537311
 21
339.0630841129896
 31
0.0
  0
LINE
  5
2BE
  8
NOTE
  6
CONTINUOUS
 62
     4
 10
-997.72633890606789
 20
326.90371575012972
 30
0.0
 11
-739.27544849867979
 21
850.74482045289915
 31
0.0
  0
LINE
  5
2BF
  8
NOTE
  6
CONTINUOUS
 62
     4
 10
-739.27544849867979
 20
850.74482045289915
 30
0.0
 11
-40.024122316943242
 21
850.74482045289915
 31
0.0
  0
LINE
  5
2C0
  8
NOTE
  6
CONTINUOUS
 62
     4
 10
-990.51751006284053
 20
323.3470490116797
 30
0.0
 11
-1011.0
 21
300.0
 31
0.0
  0
LINE
  5
2C1
  8
NOTE
  6
CONTINUOUS
 62
     4
 10
-1011.0
 20
300.0
 30
0.0
 11
-1004.93516774931
 21
330.4603824885798
 31
0.0
  0
LINE
  5
2C2
  8
NOTE
  6
CONTINUOUS
 62
     4
 10
-1011.0
 20
300.0
 30
0.0
 11
-997.72633890606789
 21
326.90371575012972
 31
0.0
  0
LINE
  5
2D9
  8
NOTE
  6
CONTINUOUS
 62
     4
 10
104.4041649671599
 20
490.36556585806812
 30
0.0
 11
104.40415496716371
 21
521.86556685806841
 31
0.0
  0
LINE
  5
2DA
  8
NOTE
  6
CONTINUOUS
 62
     4
 10
86.404162967159266
 20
490.36556085806831
 30
0.0
 11
86.404152967163029
 21
521.86556185806865
 31
0.0
  0
LINE
  5
2DB
  8
NOTE
  6
CONTINUOUS
 62
     4
 10
95.404170967161861
 20
467.86556285806699
 30
0.0
 11
72.904173967162961
 21
490.3655468580672
 31
0.0
  0
LINE
  5
2DC
  8
NOTE
  6
CONTINUOUS
 62
     4
 10
72.904173967162961
 20
490.36555585806849
 30
0.0
 11
86.404162967159266
 21
490.36556085806831
 31
0.0
  0
LINE
  5
2DD
  8
NOTE
  6
CONTINUOUS
 62
     4
 10
117.9041539671634
 20
490.36557085806788
 30
0.0
 11
104.4041649671599
 21
490.36556585806812
 31
0.0
  0
LINE
  5
2DE
  8
NOTE
  6
CONTINUOUS
 62
     4
 10
117.9041539671634
 20
490.36556085806831
 30
0.0
 11
95.404170967161861
 21
467.86556285806699
 31
0.0
  0
LINE
  5
2DF
  8
NOTE
  6
CONTINUOUS
 62
     4
 10
104.40415496716371
 20
521.86556685806841
 30
0.0
 11
86.404152967163029
 21
521.86556185806865
 31
0.0
  0
LINE
  5
2EB
  8
NOTE
  6
CONTINUOUS
 62
     4
 10
99.87712404174637
 20
-506.87521351717987
 30
0.0
 11
99.877114041750247
 21
-475.37521251717959
 31
0.0
  0
LINE
  5
2EC
  8
NOTE
  6
CONTINUOUS
 62
     4
 10
81.877122041745736
 20
-506.87521851717958
 30
0.0
 11
81.877112041749498
 21
-475.37521751717929
 31
0.0
  0
LINE
  5
2ED
  8
NOTE
  6
CONTINUOUS
 62
     4
 10
90.87713004174833
 20
-529.375216517181
 30
0.0
 11
68.377133041749431
 21
-506.87523251718068
 31
0.0
  0
LINE
  5
2EE
  8
NOTE
  6
CONTINUOUS
 62
     4
 10
68.377133041749431
 20
-506.87522351717951
 30
0.0
 11
81.877122041745736
 21
-506.87521851717958
 31
0.0
  0
LINE
  5
2EF
  8
NOTE
  6
CONTINUOUS
 62
     4
 10
113.37711304174989
 20
-506.87520851718011
 30
0.0
 11
99.87712404174637
 21
-506.87521351717987
 31
0.0
  0
LINE
  5
2F0
  8
NOTE
  6
CONTINUOUS
 62
     4
 10
113.37711304174989
 20
-506.87521851717958
 30
0.0
 11
90.87713004174833
 21
-529.375216517181
 31
0.0
  0
LINE
  5
2F1
  8
NOTE
  6
CONTINUOUS
 62
     4
 10
99.877114041750247
 20
-475.37521251717959
 30
0.0
 11
81.877112041749498
 21
-475.37521751717929
 31
0.0
  0
TEXT
  5
31D
  8
NOTE
  6
CONTINUOUS
 62
     4
 10
1415.816486060801
 20
912.62935740968499
 30
0.0
 40
64.0
  1
RL %%C12.7
 41
0.9
  0
TEXT
  5
31E
  8
NOTE
  6
CONTINUOUS
 62
     4
 10
1539.568731340192
 20
-238.80035519898729
 30
0.0
 40
55.0
  1
サービススペース
 50
90.00000299999769
 41
0.858516
  7
STANDARD1
  0
LINE
  5
31F
  8
NOTE
  6
CONTINUOUS
 62
     4
 10
923.00000000000728
 20
310.0
 30
0.0
 11
1404.53705816518
 21
1009.681746921189
 31
0.0
  0
TEXT
  5
320
  8
NOTE
  6
CONTINUOUS
 62
     4
 10
-1170.19388538207
 20
-238.80035519898729
 30
0.0
 40
55.0
  1
サービススペース
 50
90.00000299999769
 41
0.858516
  7
STANDARD1
  0
TEXT
  5
321
  8
NOTE
  6
CONTINUOUS
 62
     4
 10
1415.070736065855
 20
851.38531845888485
 30
0.0
 40
45.0
  1
PCZG-P10MBA8
 50
359.9999970000153
 41
0.6309520000000001
  7
STANDARD1
  0
TEXT
  5
322
  8
NOTE
  6
CONTINUOUS
 62
     4
 10
1431.779047630625
 20
1087.1550772010139
 30
0.0
 40
64.0
  1
RL %%C9.52
 41
0.9
  0
LINE
  5
323
  8
NOTE
  6
CONTINUOUS
 62
     4
 10
1404.53705816518
 20
1009.681746921189
 30
0.0
 11
1811.4562926544079
 21
1009.681746921189
 31
0.0
  0
TEXT
  5
324
  8
NOTE
  6
CONTINUOUS
 62
     4
 10
1431.033297635679
 20
1025.9110382502131
 30
0.0
 40
45.0
  1
PCZG-P8MBA8
 50
359.9999970000153
 41
0.6309520000000001
  7
STANDARD1
  0
LINE
  5
325
  8
NOTE
  6
CONTINUOUS
 62
     4
 10
1284.867809979987
 20
835.15602712986072
 30
0.0
 11
1776.91126471194
 21
835.15602712986072
 31
0.0
  0
LINE
  5
32B
  8
NOTE
  6
CONTINUOUS
 62
     4
 10
842.99999717194055
 20
310.00000366212407
 30
0.0
 11
602.93496756661625
 21
840.52566723384916
 31
0.0
  0
ENDSEC
  0
EOF
