  0
SECTION
  2
HEADER
  9
$ACADVER
  1
AC1009
  9
$INSBASE
 10
0.0
 20
0.0
 30
0.0
  9
$EXTMIN
 10
-1909.8759403373699
 20
-746.46007453992195
 30
-0.000000000000013
  9
$EXTMAX
 10
1853.40902506257
 20
1024.6199855786069
 30
0.0000000000000023
  9
$LIMMIN
 10
-4267.1522210604826
 20
-2696.0832101984129
  9
$LIMMAX
 10
7190.7174225864646
 20
5141.155363923066
  9
$ORTHOMODE
 70
     1
  9
$REGENMODE
 70
     1
  9
$FILLMODE
 70
     1
  9
$QTEXTMODE
 70
     0
  9
$MIRRTEXT
 70
     0
  9
$DRAGMODE
 70
     2
  9
$LTSCALE
 40
20.0
  9
$OSMODE
 70
   431
  9
$ATTMODE
 70
     1
  9
$TEXTSIZE
 40
64.0
  9
$TRACEWID
 40
0.05
  9
$TEXTSTYLE
  7
STANDARD_MODELNAME
  9
$CLAYER
  8
SYMBOLLINE
  9
$CELTYPE
  6
CONTINUOUS
  9
$CECOLOR
 62
     7
  9
$DIMSCALE
 40
1.0
  9
$DIMASZ
 40
30.0
  9
$DIMEXO
 40
20.0
  9
$DIMDLI
 40
80.0
  9
$DIMRND
 40
0.0
  9
$DIMDLE
 40
0.0
  9
$DIMEXE
 40
20.0
  9
$DIMTP
 40
0.0
  9
$DIMTM
 40
0.0
  9
$DIMTXT
 40
60.0
  9
$DIMCEN
 40
0.09
  9
$DIMTSZ
 40
0.0
  9
$DIMTOL
 70
     0
  9
$DIMLIM
 70
     0
  9
$DIMTIH
 70
     0
  9
$DIMTOH
 70
     0
  9
$DIMSE1
 70
     0
  9
$DIMSE2
 70
     0
  9
$DIMTAD
 70
     1
  9
$DIMZIN
 70
     8
  9
$DIMBLK
  1
SMALL
  9
$DIMASO
 70
     1
  9
$DIMSHO
 70
     0
  9
$DIMPOST
  1

  9
$DIMAPOST
  1

  9
$DIMALT
 70
     0
  9
$DIMALTD
 70
     2
  9
$DIMALTF
 40
25.399999999999999
  9
$DIMLFAC
 40
1.0
  9
$DIMTOFL
 70
     1
  9
$DIMTVP
 40
0.0
  9
$DIMTIX
 70
     0
  9
$DIMSOXD
 70
     0
  9
$DIMSAH
 70
     0
  9
$DIMBLK1
  1

  9
$DIMBLK2
  1

  9
$DIMSTYLE
  2
STANDARD
  9
$DIMCLRD
 70
     0
  9
$DIMCLRE
 70
     0
  9
$DIMCLRT
 70
     0
  9
$DIMTFAC
 40
1.0
  9
$DIMGAP
 40
0.09
  9
$LUNITS
 70
     2
  9
$LUPREC
 70
     4
  9
$SKETCHINC
 40
0.1
  9
$FILLETRAD
 40
0.0
  9
$AUNITS
 70
     1
  9
$AUPREC
 70
     3
  9
$MENU
  1
ACAD
  9
$ELEVATION
 40
0.0
  9
$PELEVATION
 40
0.0
  9
$THICKNESS
 40
0.0
  9
$LIMCHECK
 70
     0
  9
$BLIPMODE
 70
     0
  9
$CHAMFERA
 40
0.0
  9
$CHAMFERB
 40
0.0
  9
$SKPOLY
 70
     0
  9
$TDCREATE
 40
2450330.4399309959
  9
$TDUPDATE
 40
2456833.5972809382
  9
$TDINDWG
 40
5.9459177314999998
  9
$TDUSRTIMER
 40
5.9459174536999999
  9
$USRTIMER
 70
     1
  9
$ANGBASE
 50
0.0
  9
$ANGDIR
 70
     0
  9
$PDMODE
 70
     3
  9
$PDSIZE
 40
-2.0
  9
$PLINEWID
 40
0.0
  9
$COORDS
 70
     1
  9
$SPLFRAME
 70
     0
  9
$SPLINETYPE
 70
     6
  9
$SPLINESEGS
 70
     8
  9
$ATTDIA
 70
     1
  9
$ATTREQ
 70
     1
  9
$HANDLING
 70
     1
  9
$HANDSEED
  5
522
  9
$SURFTAB1
 70
     6
  9
$SURFTAB2
 70
     6
  9
$SURFTYPE
 70
     6
  9
$SURFU
 70
     6
  9
$SURFV
 70
     6
  9
$UCSNAME
  2

  9
$UCSORG
 10
0.0
 20
0.0
 30
0.0
  9
$UCSXDIR
 10
1.0
 20
0.0
 30
0.0
  9
$UCSYDIR
 10
0.0
 20
1.0
 30
0.0
  9
$PUCSNAME
  2

  9
$PUCSORG
 10
0.0
 20
0.0
 30
0.0
  9
$PUCSXDIR
 10
1.0
 20
0.0
 30
0.0
  9
$PUCSYDIR
 10
0.0
 20
1.0
 30
0.0
  9
$USERI1
 70
     0
  9
$USERI2
 70
     0
  9
$USERI3
 70
     0
  9
$USERI4
 70
     0
  9
$USERI5
 70
     0
  9
$USERR1
 40
20.0
  9
$USERR2
 40
0.0
  9
$USERR3
 40
0.0
  9
$USERR4
 40
0.0
  9
$USERR5
 40
0.0
  9
$WORLDVIEW
 70
     1
  9
$SHADEDGE
 70
     3
  9
$SHADEDIF
 70
    70
  9
$TILEMODE
 70
     1
  9
$MAXACTVP
 70
    64
  9
$PLIMCHECK
 70
     0
  9
$PEXTMIN
 10
1.0000000000000000E+020
 20
1.0000000000000000E+020
 30
1.0000000000000000E+020
  9
$PEXTMAX
 10
-1.0000000000000000E+020
 20
-1.0000000000000000E+020
 30
-1.0000000000000000E+020
  9
$PLIMMIN
 10
0.0
 20
0.0
  9
$PLIMMAX
 10
12.0
 20
9.0
  9
$UNITMODE
 70
     0
  9
$VISRETAIN
 70
     1
  9
$PLINEGEN
 70
     0
  9
$PSLTSCALE
 70
     1
  0
ENDSEC
  0
SECTION
  2
TABLES
  0
TABLE
  2
VPORT
 70
     1
  0
VPORT
  2
*ACTIVE
 70
     0
 10
0.0
 20
0.0
 11
1.0
 21
1.0
 12
-28.233457637399631
 22
139.0799555193426
 13
0.0
 23
0.0
 14
50.0
 24
50.0
 15
100.0
 25
100.0
 16
0.0
 26
0.0
 36
1.0
 17
0.0
 27
0.0
 37
0.0
 40
2392.2368085694879
 41
1.58076923076923
 42
50.0
 43
0.0
 44
0.0
 50
0.0
 51
0.0
 71
     0
 72
  1000
 73
     1
 74
     0
 75
     0
 76
     0
 77
     0
 78
     0
  0
ENDTAB
  0
TABLE
  2
LTYPE
 70
     3
  0
LTYPE
  2
CONTINUOUS
 70
     0
  3
実線
 72
    65
 73
     0
 40
0.0
  0
LTYPE
  2
DASHDOT
 70
     0
  3
____ _ ____ _ ____ _ ____ _ ____ _ ____ _ ____
 72
    65
 73
     4
 40
5.5
 49
4.0
 49
-0.6
 49
0.3
 49
-0.6
  0
ENDTAB
  0
TABLE
  2
LAYER
 70
    12
  0
LAYER
  2
0
 70
     0
 62
     7
  6
CONTINUOUS
  0
LAYER
  2
SYMBOLLINE
 70
     0
 62
    15
  6
CONTINUOUS
  0
LAYER
  2
NOTE
 70
     0
 62
     4
  6
CONTINUOUS
  0
LAYER
  2
OUTLINE
 70
     0
 62
     3
  6
CONTINUOUS
  0
LAYER
  2
DETAIL
 70
     0
 62
     5
  6
CONTINUOUS
  0
LAYER
  2
BASIS
 70
     0
 62
     6
  6
DASHDOT
  0
LAYER
  2
SIZE
 70
     0
 62
    30
  6
CONTINUOUS
  0
LAYER
  2
ARRANGE
 70
     0
 62
     1
  6
CONTINUOUS
  0
LAYER
  2
FIX
 70
     0
 62
    11
  6
CONTINUOUS
  0
LAYER
  2
SERVICESPACE
 70
     0
 62
     2
  6
DASHDOT
  0
LAYER
  2
ETC
 70
     0
 62
    61
  6
CONTINUOUS
  0
LAYER
  2
DEFPOINTS
 70
     0
 62
     7
  6
CONTINUOUS
  0
ENDTAB
  0
TABLE
  2
STYLE
 70
     4
  0
STYLE
  2
STANDARD
 70
     0
 40
0.0
 41
0.9
 50
0.0
 71
     0
 42
64.0
  3
SIMPLEX
  4
BIGFONT
  0
STYLE
  2
ANNOTATIVE
 70
     0
 40
0.0
 41
1.0
 50
0.0
 71
     0
 42
0.2
  3
txt
  4

  0
STYLE
  2
STANDARD_MODELNAME
 70
     0
 40
80.0
 41
0.8
 50
0.0
 71
     0
 42
64.0
  3
MONOTXT.shx
  4
BIGFONT.shx
  0
STYLE
  2
STANDARD1
 70
     0
 40
60.0
 41
0.7
 50
0.0
 71
     0
 42
64.0
  3
MONOTXT.shx
  4
BIGFONT.shx
  0
ENDTAB
  0
TABLE
  2
VIEW
 70
     1
  0
VIEW
  2
ALL
 70
     0
 40
9000.0
 10
241.50664699999999
 20
0.0
 41
12483.01
 11
0.0
 21
0.0
 31
1.0
 12
0.0
 22
0.0
 32
0.0
 42
50.0
 43
0.0
 44
0.0
 50
0.0
 71
     0
  0
ENDTAB
  0
TABLE
  2
UCS
 70
     0
  0
ENDTAB
  0
TABLE
  2
APPID
 70
     5
  0
APPID
  2
ACAD
 70
     0
  0
APPID
  2
ACADANNOTATIVE
 70
     0
  0
APPID
  2
ACAD_NAV_VCDISPLAY
 70
     0
  0
APPID
  2
ACAD_EXEMPT_FROM_CAD_STANDARDS
 70
     0
  0
APPID
  2
ACAD_MLEADERVER
 70
     0
  0
ENDTAB
  0
TABLE
  2
DIMSTYLE
 70
     3
  0
DIMSTYLE
  2
STANDARD
 70
     0
  3

  4

  5

  6

  7

 40
1.0
 41
0.18
 42
0.0625
 43
0.38
 44
0.18
 45
0.0
 46
0.0
 47
0.0
 48
0.0
140
0.18
141
0.09
142
0.0
143
25.399999999999999
144
1.0
145
0.0
146
1.0
147
0.09
 71
     0
 72
     0
 73
     1
 74
     1
 75
     0
 76
     0
 77
     0
 78
     0
170
     0
171
     2
172
     0
173
     0
174
     0
175
     0
176
     0
177
     0
178
     0
  0
DIMSTYLE
  2
ANNOTATIVE
 70
     0
  3

  4

  5

  6

  7

 40
1.0
 41
0.18
 42
0.0625
 43
0.38
 44
0.18
 45
0.0
 46
0.0
 47
0.0
 48
0.0
140
0.18
141
0.09
142
0.0
143
25.399999999999999
144
1.0
145
0.0
146
1.0
147
0.09
 71
     0
 72
     0
 73
     1
 74
     1
 75
     0
 76
     0
 77
     0
 78
     0
170
     0
171
     2
172
     0
173
     0
174
     0
175
     0
176
     0
177
     0
178
     0
  0
ENDTAB
  0
ENDSEC
  0
SECTION
  2
BLOCKS
  0
BLOCK
  8
0
  2
$MODEL_SPACE
 70
     0
 10
0.0
 20
0.0
 30
0.0
  3
$MODEL_SPACE
  1

  0
ENDBLK
  5
495
  8
0
  0
BLOCK
 67
     1
  8
0
  2
$PAPER_SPACE
 70
     0
 10
0.0
 20
0.0
 30
0.0
  3
$PAPER_SPACE
  1

  0
ENDBLK
  5
491
 67
     1
  8
0
  0
BLOCK
  8
0
  2
_SMALL
 70
     0
 10
0.0
 20
0.0
 30
0.0
  3
_SMALL
  1

  0
CIRCLE
  5
89
  8
0
  6
CONTINUOUS
 62
     7
 10
0.0
 20
0.0
 30
0.0
 40
0.25
  0
ENDBLK
  5
8A
  8
0
  0
ENDSEC
  0
SECTION
  2
ENTITIES
  0
LINE
  5
8B
  8
DETAIL
  6
CONTINUOUS
 62
     5
 10
1003.000000000007
 20
0.0
 30
0.0
 11
1003.000000000007
 21
-320.0
 31
0.0
  0
LINE
  5
8C
  8
DETAIL
  6
CONTINUOUS
 62
     5
 10
-1003.0
 20
0.0
 30
0.0
 11
-1003.0
 21
-320.0
 31
0.0
  0
ARC
  5
8D
  8
DETAIL
  6
CONTINUOUS
 62
     5
 10
-522.85990299999685
 20
-156.54716399999961
 30
0.0
 40
527.14113699999996
 50
169.55711000008981
 51
190.2115059999669
  0
LINE
  5
8E
  8
DETAIL
  6
CONTINUOUS
 62
     5
 10
-1032.5
 20
-61.0
 30
0.0
 11
-1032.5
 21
0.0
 31
0.0
  0
ARC
  5
8F
  8
DETAIL
  6
CONTINUOUS
 62
     5
 10
-512.8403959999996
 20
-156.54716399999961
 30
0.0
 40
527.14113699999996
 50
190.2115059999669
 51
198.06369899999609
  0
ARC
  5
90
  8
DETAIL
  6
CONTINUOUS
 62
     5
 10
1006.690000000009
 20
-310.0
 30
0.0
 40
10.0
 50
270.0
 51
342.73851599987597
  0
ARC
  5
94
  8
DETAIL
  6
CONTINUOUS
 62
     5
 10
512.8403959999996
 20
-156.54716399999961
 30
0.0
 40
527.14113699999996
 50
342.73851599987597
 51
349.7884940000331
  0
LINE
  5
95
  8
DETAIL
  6
CONTINUOUS
 62
     5
 10
1032.500000000007
 20
-61.0
 30
0.0
 11
1032.500000000007
 21
0.0
 31
0.0
  0
LINE
  5
96
  8
DETAIL
  6
CONTINUOUS
 62
     5
 10
-1041.269999999997
 20
-61.0
 30
0.0
 11
1041.2699999999891
 21
-61.0
 31
0.0
  0
ARC
  5
97
  8
DETAIL
  6
CONTINUOUS
 62
     5
 10
522.85990300000378
 20
-156.54716399999961
 30
0.0
 40
527.14113699999996
 50
349.7884940000331
 51
10.44288999991004
  0
LINE
  5
9A
  8
DETAIL
  6
CONTINUOUS
 62
     5
 10
-1041.269999999997
 20
-61.0
 30
0.0
 11
-1032.5199999999891
 21
-61.0
 31
0.0
  0
ARC
  5
9C
  8
OUTLINE
  6
CONTINUOUS
 62
     3
 10
1006.690000000009
 20
-310.0
 30
0.0
 40
10.0
 50
270.0
 51
342.73851599987597
  0
LINE
  5
9D
  8
DETAIL
  6
CONTINUOUS
 62
     5
 10
-1041.650999999998
 20
-250.0
 30
0.0
 11
1041.650999999991
 21
-250.0
 31
0.0
  0
LINE
  5
9E
  8
DETAIL
  6
CONTINUOUS
 62
     5
 10
-1032.5
 20
0.0
 30
0.0
 11
1032.500000000007
 21
0.0
 31
0.0
  0
LINE
  5
9F
  8
DETAIL
  6
CONTINUOUS
 62
     5
 10
-1014.0
 20
-320.0
 30
0.0
 11
1006.690000000009
 21
-320.0
 31
0.0
  0
ARC
  5
A0
  8
OUTLINE
  6
CONTINUOUS
 62
     3
 10
512.8403959999996
 20
-156.54716399999961
 30
0.0
 40
527.14113699999996
 50
342.73851599987597
 51
349.7884940000331
  0
LINE
  5
A1
  8
OUTLINE
  6
CONTINUOUS
 62
     3
 10
1032.500000000007
 20
-61.0
 30
0.0
 11
1032.500000000007
 21
0.0
 31
0.0
  0
ARC
  5
A2
  8
OUTLINE
  6
CONTINUOUS
 62
     3
 10
522.85990300000378
 20
-156.54716399999961
 30
0.0
 40
527.14113699999996
 50
349.7884940000331
 51
10.44288999991004
  0
LINE
  5
A3
  8
DETAIL
  6
CONTINUOUS
 62
     5
 10
-1000.000000000007
 20
-83.0
 30
0.0
 11
1000.000000000007
 21
-83.0
 31
0.0
  0
LINE
  5
A4
  8
DETAIL
  6
CONTINUOUS
 62
     5
 10
-1000.000000000007
 20
-203.0
 30
0.0
 11
1000.000000000007
 21
-203.0
 31
0.0
  0
LINE
  5
A5
  8
BASIS
  6
DASHDOT
 62
     6
 10
0.0
 20
-400.0
 30
0.0
 11
0.0
 21
80.0
 31
0.0
  0
CIRCLE
  5
A7
  8
ARRANGE
  6
CONTINUOUS
 62
     1
 10
0.0
 20
0.0
 30
0.0
 40
40.0
  0
CIRCLE
  5
A8
  8
FIX
  6
CONTINUOUS
 62
    11
 10
983.00000000000716
 20
0.0
 30
0.0
 40
7.0
  0
CIRCLE
  5
A9
  8
FIX
  6
CONTINUOUS
 62
    11
 10
-1011.0
 20
0.0
 30
0.0
 40
7.0
  0
LINE
  5
AA
  8
OUTLINE
  6
CONTINUOUS
 62
     3
 10
-1032.5
 20
0.0
 30
0.0
 11
1032.500000000007
 21
0.0
 31
0.0
  0
LINE
  5
AB
  8
OUTLINE
  6
CONTINUOUS
 62
     3
 10
-1041.269999999997
 20
-61.0
 30
0.0
 11
-1032.5
 21
-61.0
 31
0.0
  0
LINE
  5
AC
  8
OUTLINE
  6
CONTINUOUS
 62
     3
 10
-1041.650999999998
 20
-250.0
 30
0.0
 11
-1031.631999999998
 21
-250.0
 31
0.0
  0
LINE
  5
AD
  8
OUTLINE
  6
CONTINUOUS
 62
     3
 10
-1013.999999223022
 20
-320.0000025039281
 30
0.0
 11
1006.690000000009
 21
-320.0
 31
0.0
  0
ARC
  5
AE
  8
OUTLINE
  6
CONTINUOUS
 62
     3
 10
-512.8403959999996
 20
-156.54716399999961
 30
0.0
 40
527.14113699999996
 50
190.2115059999669
 51
198.06369899999609
  0
ARC
  5
AF
  8
OUTLINE
  6
CONTINUOUS
 62
     3
 10
-522.85990299999685
 20
-156.54716399999961
 30
0.0
 40
527.14113699999996
 50
169.55711000008981
 51
190.2115059999669
  0
LINE
  5
B0
  8
OUTLINE
  6
CONTINUOUS
 62
     3
 10
-1041.269999999997
 20
-61.0
 30
0.0
 11
-1032.5199999999891
 21
-61.0
 31
0.0
  0
LINE
  5
B1
  8
OUTLINE
  6
CONTINUOUS
 62
     3
 10
-1032.5
 20
-61.0
 30
0.0
 11
-1032.5
 21
0.0
 31
0.0
  0
LINE
  5
B2
  8
NOTE
  6
CONTINUOUS
 62
     4
 10
843.00000000000705
 20
-234.0
 30
0.0
 11
843.00000000000705
 21
-194.00000000000091
 31
0.0
  0
LINE
  5
B3
  8
NOTE
  6
CONTINUOUS
 62
     4
 10
863.00000000000728
 20
-214.0
 30
0.0
 11
823.00000000000728
 21
-214.0
 31
0.0
  0
LINE
  5
B4
  8
NOTE
  6
CONTINUOUS
 62
     4
 10
923.00000000000728
 20
-156.0
 30
0.0
 11
923.00000000000728
 21
-116.0
 31
0.0
  0
LINE
  5
B5
  8
NOTE
  6
CONTINUOUS
 62
     4
 10
943.00000000000716
 20
-136.0
 30
0.0
 11
903.00000000000716
 21
-136.0
 31
0.0
  0
LINE
  5
B6
  8
NOTE
  6
CONTINUOUS
 62
     4
 10
-1011.0
 20
-20.0
 30
0.0
 11
-1011.0
 21
20.0
 31
0.0
  0
LINE
  5
B7
  8
NOTE
  6
CONTINUOUS
 62
     4
 10
-991.0
 20
0.0
 30
0.0
 11
-1031.0
 21
0.0
 31
0.0
  0
LINE
  5
B8
  8
NOTE
  6
CONTINUOUS
 62
     4
 10
983.00000000000716
 20
-20.0
 30
0.0
 11
983.00000000000716
 21
20.0
 31
0.0
  0
LINE
  5
B9
  8
NOTE
  6
CONTINUOUS
 62
     4
 10
1003.000000000007
 20
0.0
 30
0.0
 11
963.00000000000728
 21
0.0
 31
0.0
  0
LINE
  5
BA
  8
SIZE
  6
CONTINUOUS
 62
    30
 10
-1052.5
 20
0.0000000000000057
 30
0.0
 11
-1447.6172215239419
 21
0.0000000000001176
 31
0.0
  0
LINE
  5
BB
  8
SIZE
  6
CONTINUOUS
 62
    30
 10
-1033.9999992230221
 20
-320.0000025039281
 30
0.0
 11
-1447.6172215239419
 21
-320.00000250392787
 31
0.0
  0
LINE
  5
BC
  8
SIZE
  6
CONTINUOUS
 62
    30
 10
-1427.6172215239419
 20
0.0000000000001119
 30
0.0
 11
-1427.6172215239419
 21
-320.00000250392787
 31
0.0
  0
CIRCLE
  5
BD
  8
SIZE
  6
CONTINUOUS
 62
    30
 10
-1427.6172215239419
 20
0.0000000000001119
 30
0.0
 40
7.5
  0
CIRCLE
  5
BE
  8
SIZE
  6
CONTINUOUS
 62
    30
 10
-1427.6172215239419
 20
-320.00000250392787
 30
0.0
 40
7.5
  0
TEXT
  5
BF
  8
SIZE
  6
CONTINUOUS
 62
    30
 10
-1447.6172215239419
 20
-229.42857268053581
 30
0.0
 40
60.0
  1
320
 50
90.0
 41
0.9
 72
     1
 11
-1447.6172215239419
 21
-160.00000125196431
 31
0.0
  0
POINT
  5
C0
  8
DEFPOINTS
  6
CONTINUOUS
 62
     7
 10
-1032.5
 20
0.0
 30
0.0
  0
POINT
  5
C1
  8
DEFPOINTS
  6
CONTINUOUS
 62
     7
 10
-1013.999999223022
 20
-320.0000025039281
 30
0.0
  0
POINT
  5
C2
  8
DEFPOINTS
  6
CONTINUOUS
 62
     7
 10
-1427.6172215239419
 20
-320.00000250392787
 30
0.0
  0
LINE
  5
C3
  8
SIZE
  6
CONTINUOUS
 62
    30
 10
-1011.0
 20
40.0
 30
0.0
 11
-1011.0
 21
537.42754943837645
 31
0.0
  0
LINE
  5
C4
  8
SIZE
  6
CONTINUOUS
 62
    30
 10
-1049.999965371979
 20
-135.4827580089331
 30
0.0
 11
-1049.999965371979
 21
537.42754943837645
 31
0.0
  0
LINE
  5
C5
  8
SIZE
  6
CONTINUOUS
 62
    30
 10
-1011.0
 20
517.42754943837645
 30
0.0
 11
-981.0
 21
517.42754943837645
 31
0.0
  0
LINE
  5
C6
  8
SIZE
  6
CONTINUOUS
 62
    30
 10
-1049.999965371979
 20
517.42754943837645
 30
0.0
 11
-1234.857108229121
 21
517.42754943837645
 31
0.0
  0
LINE
  5
C7
  8
SIZE
  6
CONTINUOUS
 62
    30
 10
-1011.0
 20
517.42754943837645
 30
0.0
 11
-1049.999965371979
 21
517.42754943837645
 31
0.0
  0
CIRCLE
  5
C8
  8
SIZE
  6
CONTINUOUS
 62
    30
 10
-1011.0
 20
517.42754943837645
 30
0.0
 40
7.5
  0
CIRCLE
  5
C9
  8
SIZE
  6
CONTINUOUS
 62
    30
 10
-1049.999965371979
 20
517.42754943837645
 30
0.0
 40
7.5
  0
TEXT
  5
CA
  8
SIZE
  6
CONTINUOUS
 62
    30
 10
-1214.857108229121
 20
537.42754943837645
 30
0.0
 40
60.0
  1
39
 41
0.9
 72
     1
 11
-1172.4285368005501
 21
537.42754943837645
 31
0.0
  0
POINT
  5
CB
  8
DEFPOINTS
  6
CONTINUOUS
 62
     7
 10
-1011.0
 20
20.0
 30
0.0
  0
POINT
  5
CC
  8
DEFPOINTS
  6
CONTINUOUS
 62
     7
 10
-1049.999965371979
 20
-155.48275800893299
 30
0.0
  0
POINT
  5
CD
  8
DEFPOINTS
  6
CONTINUOUS
 62
     7
 10
-1049.999965371979
 20
517.42754943837645
 30
0.0
  0
LINE
  5
CE
  8
SIZE
  6
CONTINUOUS
 62
    30
 10
1049.999965371986
 20
-135.48275800893501
 30
0.0
 11
1049.999965371986
 21
538.12236660401686
 31
0.0
  0
LINE
  5
CF
  8
SIZE
  6
CONTINUOUS
 62
    30
 10
983.00000000000716
 20
40.0
 30
0.0
 11
983.00000000000716
 21
538.12236660401686
 31
0.0
  0
LINE
  5
D0
  8
SIZE
  6
CONTINUOUS
 62
    30
 10
983.00000000000716
 20
518.12236660401675
 30
0.0
 11
1049.999965371986
 21
518.12236660401675
 31
0.0
  0
LINE
  5
D1
  8
SIZE
  6
CONTINUOUS
 62
    30
 10
1049.999965371986
 20
518.12236660401675
 30
0.0
 11
1207.4285368005569
 21
518.12236660401675
 31
0.0
  0
CIRCLE
  5
D2
  8
SIZE
  6
CONTINUOUS
 62
    30
 10
983.00000000000716
 20
518.12236660401675
 30
0.0
 40
7.5
  0
CIRCLE
  5
D3
  8
SIZE
  6
CONTINUOUS
 62
    30
 10
1049.999965371986
 20
518.12236660401675
 30
0.0
 40
7.5
  0
TEXT
  5
D4
  8
SIZE
  6
CONTINUOUS
 62
    30
 10
1099.999965371986
 20
538.12236660401675
 30
0.0
 40
60.0
  1
67
 41
0.9
 72
     1
 11
1143.714251086272
 21
538.12236660401675
 31
0.0
  0
POINT
  5
D5
  8
DEFPOINTS
  6
CONTINUOUS
 62
     7
 10
1049.999965371986
 20
-155.48275800893501
 30
0.0
  0
POINT
  5
D6
  8
DEFPOINTS
  6
CONTINUOUS
 62
     7
 10
983.00000000000716
 20
20.0
 30
0.0
  0
POINT
  5
D7
  8
DEFPOINTS
  6
CONTINUOUS
 62
     7
 10
983.00000000000716
 20
518.12236660401675
 30
0.0
  0
LINE
  5
D8
  8
SIZE
  6
CONTINUOUS
 62
    30
 10
-1011.0
 20
40.0
 30
0.0
 11
-1011.0
 21
537.42754943837645
 31
0.0
  0
LINE
  5
D9
  8
SIZE
  6
CONTINUOUS
 62
    30
 10
983.00000000000716
 20
40.0
 30
0.0
 11
983.00000000000716
 21
537.42754943837645
 31
0.0
  0
LINE
  5
DA
  8
SIZE
  6
CONTINUOUS
 62
    30
 10
-1011.0
 20
517.42754943837645
 30
0.0
 11
983.00000000000716
 21
517.42754943837645
 31
0.0
  0
CIRCLE
  5
DB
  8
SIZE
  6
CONTINUOUS
 62
    30
 10
-1011.0
 20
517.42754943837645
 30
0.0
 40
7.5
  0
CIRCLE
  5
DC
  8
SIZE
  6
CONTINUOUS
 62
    30
 10
983.00000000000716
 20
517.42754943837645
 30
0.0
 40
7.5
  0
TEXT
  5
DD
  8
SIZE
  6
CONTINUOUS
 62
    30
 10
-105.28571428571431
 20
537.42754943837645
 30
0.0
 40
60.0
  1
1994
 41
0.9
 72
     1
 11
-13.99999999999998
 21
537.42754943837645
 31
0.0
  0
POINT
  5
DE
  8
DEFPOINTS
  6
CONTINUOUS
 62
     7
 10
-1011.0
 20
20.0
 30
0.0
  0
POINT
  5
DF
  8
DEFPOINTS
  6
CONTINUOUS
 62
     7
 10
983.00000000000716
 20
20.0
 30
0.0
  0
POINT
  5
E0
  8
DEFPOINTS
  6
CONTINUOUS
 62
     7
 10
983.00000000000716
 20
517.42754943837645
 30
0.0
  0
LINE
  5
E1
  8
SIZE
  6
CONTINUOUS
 62
    30
 10
1050.000000000007
 20
-137.59428026909151
 30
0.0
 11
1050.000000000007
 21
673.20015902454725
 31
0.0
  0
LINE
  5
E2
  8
SIZE
  6
CONTINUOUS
 62
    30
 10
-1049.999965371979
 20
-135.4827580089331
 30
0.0
 11
-1049.999965371979
 21
673.20015902454725
 31
0.0
  0
LINE
  5
E3
  8
SIZE
  6
CONTINUOUS
 62
    30
 10
1050.000000000007
 20
653.20015902454725
 30
0.0
 11
-1049.999965371979
 21
653.20015902454725
 31
0.0
  0
CIRCLE
  5
E4
  8
SIZE
  6
CONTINUOUS
 62
    30
 10
1050.000000000007
 20
653.20015902454725
 30
0.0
 40
7.5
  0
CIRCLE
  5
E5
  8
SIZE
  6
CONTINUOUS
 62
    30
 10
-1049.999965371979
 20
653.20015902454725
 30
0.0
 40
7.5
  0
TEXT
  5
E6
  8
SIZE
  6
CONTINUOUS
 62
    30
 10
-76.899166410359612
 20
673.20015902454725
 30
0.0
 40
60.0
  1
2100
 41
0.9
 72
     1
 11
13.100833589640381
 21
673.20015902454725
 31
0.0
  0
POINT
  5
E7
  8
DEFPOINTS
  6
CONTINUOUS
 62
     7
 10
1050.000000000007
 20
-157.59428026909151
 30
0.0
  0
POINT
  5
E8
  8
DEFPOINTS
  6
CONTINUOUS
 62
     7
 10
-1049.999965371979
 20
-155.48275800893299
 30
0.0
  0
POINT
  5
E9
  8
DEFPOINTS
  6
CONTINUOUS
 62
     7
 10
-1049.999965371979
 20
653.20015902454725
 30
0.0
  0
TEXT
  5
EA
  8
NOTE
  6
CONTINUOUS
 62
     4
 10
-1890.070245256813
 20
165.7663946829378
 30
0.0
 40
64.0
  1
AH 4-14\U+00D726長穴
 41
0.9
  0
LINE
  5
EB
  8
SIZE
  6
CONTINUOUS
 62
    30
 10
1026.6900000123931
 20
-320.0
 30
0.0
 11
1819.6823813476719
 21
-320.00000000000028
 31
0.0
  0
LINE
  5
EC
  8
SIZE
  6
CONTINUOUS
 62
    30
 10
963.00000000000728
 20
-136.0
 30
0.0
 11
1819.6823813476719
 21
-136.0000000000002
 31
0.0
  0
LINE
  5
ED
  8
SIZE
  6
CONTINUOUS
 62
    30
 10
1799.6823813476731
 20
-320.00000000000028
 30
0.0
 11
1799.6823813476731
 21
-136.0000000000002
 31
0.0
  0
CIRCLE
  5
EE
  8
SIZE
  6
CONTINUOUS
 62
    30
 10
1799.6823813476731
 20
-320.00000000000028
 30
0.0
 40
7.5
  0
CIRCLE
  5
EF
  8
SIZE
  6
CONTINUOUS
 62
    30
 10
1799.6823813476731
 20
-136.0000000000002
 30
0.0
 40
7.5
  0
TEXT
  5
F0
  8
SIZE
  6
CONTINUOUS
 62
    30
 10
1779.6823813476731
 20
-293.5714285714285
 30
0.0
 40
60.0
  1
184
 50
90.0
 41
0.9
 72
     1
 11
1779.6823813476731
 21
-227.99999999999989
 31
0.0
  0
POINT
  5
F1
  8
DEFPOINTS
  6
CONTINUOUS
 62
     7
 10
1006.6900000123931
 20
-320.0
 30
0.0
  0
POINT
  5
F2
  8
DEFPOINTS
  6
CONTINUOUS
 62
     7
 10
943.00000000000716
 20
-136.0
 30
0.0
  0
POINT
  5
F3
  8
DEFPOINTS
  6
CONTINUOUS
 62
     7
 10
1799.6823813476731
 20
-136.0000000000002
 30
0.0
  0
LINE
  5
F4
  8
SIZE
  6
CONTINUOUS
 62
    30
 10
1026.690000000008
 20
-320.0
 30
0.0
 11
1671.769450476982
 21
-320.00000000000028
 31
0.0
  0
LINE
  5
F5
  8
SIZE
  6
CONTINUOUS
 62
    30
 10
883.00000000000705
 20
-214.0
 30
0.0
 11
1671.769450476982
 21
-214.0000000000002
 31
0.0
  0
LINE
  5
F6
  8
SIZE
  6
CONTINUOUS
 62
    30
 10
1651.769450476982
 20
-214.0000000000002
 30
0.0
 11
1651.769450476982
 21
-320.00000000000028
 31
0.0
  0
LINE
  5
F7
  8
SIZE
  6
CONTINUOUS
 62
    30
 10
1651.769450476982
 20
-320.00000000000028
 30
0.0
 11
1651.769450476982
 21
-548.51901887518045
 31
0.0
  0
CIRCLE
  5
F8
  8
SIZE
  6
CONTINUOUS
 62
    30
 10
1651.769450476982
 20
-214.0000000000002
 30
0.0
 40
7.5
  0
CIRCLE
  5
F9
  8
SIZE
  6
CONTINUOUS
 62
    30
 10
1651.769450476982
 20
-320.00000000000028
 30
0.0
 40
7.5
  0
TEXT
  5
FA
  8
SIZE
  6
CONTINUOUS
 62
    30
 10
1631.769450476982
 20
-528.51901887518
 30
0.0
 40
60.0
  1
106
 50
90.0
 41
0.9
 72
     1
 11
1631.769450476982
 21
-465.51901887518011
 31
0.0
  0
POINT
  5
FB
  8
DEFPOINTS
  6
CONTINUOUS
 62
     7
 10
1006.690000000009
 20
-320.0
 30
0.0
  0
POINT
  5
FC
  8
DEFPOINTS
  6
CONTINUOUS
 62
     7
 10
863.00000000000728
 20
-214.0
 30
0.0
  0
POINT
  5
FD
  8
DEFPOINTS
  6
CONTINUOUS
 62
     7
 10
1651.769450476982
 20
-214.0000000000002
 30
0.0
  0
TEXT
  5
FF
  8
NOTE
  6
CONTINUOUS
 62
     4
 10
157.10453273414171
 20
64.192911482960881
 30
0.0
 40
64.0
  1
RG %%C25.4
 41
0.9
  0
LINE
  5
100
  8
SIZE
  6
CONTINUOUS
 62
    30
 10
1049.999965371986
 20
-175.48275800893501
 30
0.0
 11
1049.999965371986
 21
-746.28203249313151
 31
0.0
  0
LINE
  5
101
  8
SIZE
  6
CONTINUOUS
 62
    30
 10
843.00000000000705
 20
-254.0
 30
0.0
 11
843.00000000000705
 21
-746.28203249313151
 31
0.0
  0
LINE
  5
102
  8
SIZE
  6
CONTINUOUS
 62
    30
 10
1049.999965371986
 20
-726.28203249313151
 30
0.0
 11
843.00000000000705
 21
-726.28203249313151
 31
0.0
  0
CIRCLE
  5
103
  8
SIZE
  6
CONTINUOUS
 62
    30
 10
1049.999965371986
 20
-726.28203249313151
 30
0.0
 40
7.5
  0
CIRCLE
  5
104
  8
SIZE
  6
CONTINUOUS
 62
    30
 10
843.00000000000705
 20
-726.28203249313151
 30
0.0
 40
7.5
  0
TEXT
  5
105
  8
SIZE
  6
CONTINUOUS
 62
    30
 10
891.60997865986531
 20
-706.28203249313151
 30
0.0
 40
60.0
  1
207
 41
0.9
 72
     1
 11
961.03855008843675
 21
-706.28203249313151
 31
0.0
  0
POINT
  5
106
  8
DEFPOINTS
  6
CONTINUOUS
 62
     7
 10
1049.999965371986
 20
-155.48275800893501
 30
0.0
  0
POINT
  5
107
  8
DEFPOINTS
  6
CONTINUOUS
 62
     7
 10
843.00000000000705
 20
-234.0
 30
0.0
  0
POINT
  5
108
  8
DEFPOINTS
  6
CONTINUOUS
 62
     7
 10
843.00000000000705
 20
-726.28203249313151
 30
0.0
  0
LINE
  5
109
  8
SIZE
  6
CONTINUOUS
 62
    30
 10
1049.999965371986
 20
-175.48275800893501
 30
0.0
 11
1049.999965371986
 21
-619.60789801390092
 31
0.0
  0
LINE
  5
10A
  8
SIZE
  6
CONTINUOUS
 62
    30
 10
923.00000000000728
 20
-176.0
 30
0.0
 11
923.00000000000728
 21
-619.60789801390092
 31
0.0
  0
LINE
  5
10B
  8
SIZE
  6
CONTINUOUS
 62
    30
 10
923.00000000000728
 20
-599.60789801390092
 30
0.0
 11
1049.999965371986
 21
-599.60789801390092
 31
0.0
  0
LINE
  5
10C
  8
SIZE
  6
CONTINUOUS
 62
    30
 10
1049.999965371986
 20
-599.60789801390092
 30
0.0
 11
1248.5713939434249
 21
-599.60789801390092
 31
0.0
  0
CIRCLE
  5
10D
  8
SIZE
  6
CONTINUOUS
 62
    30
 10
923.00000000000728
 20
-599.60789801390092
 30
0.0
 40
7.5
  0
CIRCLE
  5
10E
  8
SIZE
  6
CONTINUOUS
 62
    30
 10
1049.999965371986
 20
-599.60789801390092
 30
0.0
 40
7.5
  0
TEXT
  5
10F
  8
SIZE
  6
CONTINUOUS
 62
    30
 10
1099.999965371996
 20
-579.60789801390092
 30
0.0
 40
60.0
  1
127
 41
0.9
 72
     1
 11
1164.2856796577109
 21
-579.60789801390092
 31
0.0
  0
POINT
  5
110
  8
DEFPOINTS
  6
CONTINUOUS
 62
     7
 10
1049.999965371986
 20
-155.48275800893501
 30
0.0
  0
POINT
  5
111
  8
DEFPOINTS
  6
CONTINUOUS
 62
     7
 10
923.00000000000728
 20
-156.0
 30
0.0
  0
POINT
  5
112
  8
DEFPOINTS
  6
CONTINUOUS
 62
     7
 10
923.00000000000728
 20
-599.60789801390092
 30
0.0
  0
LINE
  5
113
  8
SERVICESPACE
  6
DASHDOT
 62
     2
 10
-1049.999965371979
 20
0.0
 30
0.0
 11
-1049.999965371979
 21
-320.0000025536483
 31
0.0
  0
LINE
  5
114
  8
SERVICESPACE
  6
DASHDOT
 62
     2
 10
-1249.999965371979
 20
0.0
 30
0.0
 11
-1249.999965371979
 21
-320.0000025536483
 31
0.0
  0
LINE
  5
115
  8
SERVICESPACE
  6
DASHDOT
 62
     2
 10
-1249.999965371979
 20
0.0
 30
0.0
 11
-1049.999965371979
 21
0.0
 31
0.0
  0
LINE
  5
116
  8
SERVICESPACE
  6
DASHDOT
 62
     2
 10
-1049.999965371979
 20
-320.0000025536483
 30
0.0
 11
-1249.999965371979
 21
-320.0000025536483
 31
0.0
  0
LINE
  5
117
  8
SERVICESPACE
  6
DASHDOT
 62
     2
 10
-1249.999965371979
 20
0.0
 30
0.0
 11
-1049.999965371979
 21
-320.0000025536483
 31
0.0
  0
LINE
  5
118
  8
SERVICESPACE
  6
DASHDOT
 62
     2
 10
-1049.999965371979
 20
0.0
 30
0.0
 11
-1249.999965371979
 21
-320.0000025536483
 31
0.0
  0
LINE
  5
119
  8
SERVICESPACE
  6
DASHDOT
 62
     2
 10
1049.999965371979
 20
0.0
 30
0.0
 11
1049.999965371986
 21
-320.0
 31
0.0
  0
LINE
  5
11A
  8
SERVICESPACE
  6
DASHDOT
 62
     2
 10
1549.999965371979
 20
0.0000000000118234
 30
0.0
 11
1549.999965371986
 21
-319.99999999998818
 31
0.0
  0
LINE
  5
11B
  8
SERVICESPACE
  6
DASHDOT
 62
     2
 10
1049.999965371979
 20
0.0
 30
0.0
 11
1549.999965371979
 21
0.0000000000118234
 31
0.0
  0
LINE
  5
11C
  8
SERVICESPACE
  6
DASHDOT
 62
     2
 10
1049.999965371986
 20
-320.0
 30
0.0
 11
1549.999965371986
 21
-319.99999999998818
 31
0.0
  0
LINE
  5
11D
  8
SERVICESPACE
  6
DASHDOT
 62
     2
 10
1050.000000000007
 20
0.0
 30
0.0
 11
1549.999965371986
 21
-319.99999999998818
 31
0.0
  0
LINE
  5
11E
  8
SERVICESPACE
  6
DASHDOT
 62
     2
 10
1549.999965371979
 20
0.0000000000118234
 30
0.0
 11
1049.999965371986
 21
-320.0
 31
0.0
  0
LINE
  5
123
  8
SIZE
  6
CONTINUOUS
 62
    30
 10
-1249.999965371979
 20
-340.0000025536483
 30
0.0
 11
-1249.999965371979
 21
-593.09466934534237
 31
0.0
  0
LINE
  5
124
  8
SIZE
  6
CONTINUOUS
 62
    30
 10
-1049.999965371979
 20
-340.0000025536483
 30
0.0
 11
-1049.999965371979
 21
-593.09466934534237
 31
0.0
  0
LINE
  5
125
  8
SIZE
  6
CONTINUOUS
 62
    30
 10
-1049.999965371979
 20
-573.09466934534225
 30
0.0
 11
-1249.999965371979
 21
-573.09466934534225
 31
0.0
  0
LINE
  5
126
  8
SIZE
  6
CONTINUOUS
 62
    30
 10
-1249.999965371979
 20
-573.09466934534225
 30
0.0
 11
-1589.485679657693
 21
-573.09466934534225
 31
0.0
  0
CIRCLE
  5
127
  8
SIZE
  6
CONTINUOUS
 62
    30
 10
-1049.999965371979
 20
-573.09466934534225
 30
0.0
 40
7.5
  0
CIRCLE
  5
128
  8
SIZE
  6
CONTINUOUS
 62
    30
 10
-1249.999965371979
 20
-573.09466934534225
 30
0.0
 40
7.5
  0
TEXT
  5
129
  8
SIZE
  6
CONTINUOUS
 62
    30
 10
-1569.485679657693
 20
-553.09466934534225
 30
0.0
 40
60.0
  1
200以上
 41
0.9
 72
     1
 11
-1434.742822514836
 21
-553.09466934534225
 31
0.0
  0
POINT
  5
12A
  8
DEFPOINTS
  6
CONTINUOUS
 62
     7
 10
-1249.999965371979
 20
-320.0000025536483
 30
0.0
  0
POINT
  5
12B
  8
DEFPOINTS
  6
CONTINUOUS
 62
     7
 10
-1049.999965371979
 20
-320.0000025536483
 30
0.0
  0
POINT
  5
12C
  8
DEFPOINTS
  6
CONTINUOUS
 62
     7
 10
-1049.999965371979
 20
-573.09466934534225
 30
0.0
  0
LINE
  5
12D
  8
SIZE
  6
CONTINUOUS
 62
    30
 10
1049.999965371986
 20
-340.0
 30
0.0
 11
1049.999965371986
 21
-746.28203249313151
 31
0.0
  0
LINE
  5
12E
  8
SIZE
  6
CONTINUOUS
 62
    30
 10
1549.999965371986
 20
-339.99999999998818
 30
0.0
 11
1549.999965371986
 21
-746.28203249313151
 31
0.0
  0
LINE
  5
12F
  8
SIZE
  6
CONTINUOUS
 62
    30
 10
1049.999965371986
 20
-726.28203249313151
 30
0.0
 11
1549.999965371986
 21
-726.28203249313151
 31
0.0
  0
CIRCLE
  5
130
  8
SIZE
  6
CONTINUOUS
 62
    30
 10
1049.999965371986
 20
-726.28203249313151
 30
0.0
 40
7.5
  0
CIRCLE
  5
131
  8
SIZE
  6
CONTINUOUS
 62
    30
 10
1549.999965371986
 20
-726.28203249313151
 30
0.0
 40
7.5
  0
TEXT
  5
132
  8
SIZE
  6
CONTINUOUS
 62
    30
 10
1165.257108229129
 20
-706.28203249313151
 30
0.0
 40
60.0
  1
500以上
 41
0.9
 72
     1
 11
1299.999965371986
 21
-706.28203249313151
 31
0.0
  0
POINT
  5
133
  8
DEFPOINTS
  6
CONTINUOUS
 62
     7
 10
1049.999965371986
 20
-320.0
 30
0.0
  0
POINT
  5
134
  8
DEFPOINTS
  6
CONTINUOUS
 62
     7
 10
1549.999965371986
 20
-319.99999999998818
 30
0.0
  0
POINT
  5
135
  8
DEFPOINTS
  6
CONTINUOUS
 62
     7
 10
1549.999965371986
 20
-726.28203249313151
 30
0.0
  0
LINE
  5
136
  8
DETAIL
  6
CONTINUOUS
 62
     5
 10
1049.999965371986
 20
0.0
 30
0.0
 11
1049.999965371986
 21
-369.0
 31
0.0
  0
LINE
  5
137
  8
DETAIL
  6
CONTINUOUS
 62
     5
 10
1032.500000000007
 20
-0.255
 30
0.0
 11
1219.999965371979
 21
-0.255
 31
0.0
  0
LINE
  5
138
  8
DETAIL
  6
CONTINUOUS
 62
     5
 10
1219.999965371979
 20
-0.255
 30
0.0
 11
1219.999965371979
 21
-369.0
 31
0.0
  0
LINE
  5
139
  8
DETAIL
  6
CONTINUOUS
 62
     5
 10
998.00000000000728
 20
-369.0
 30
0.0
 11
1219.999965371979
 21
-369.0
 31
0.0
  0
LINE
  5
13A
  8
DETAIL
  6
CONTINUOUS
 62
     5
 10
998.00000000000728
 20
-320.0
 30
0.0
 11
998.00000000000728
 21
-369.0
 31
0.0
  0
LINE
  5
13B
  8
NOTE
  6
CONTINUOUS
 62
     4
 10
1179.9999999999891
 20
-19.165000000010451
 30
0.0
 11
1179.9999999999891
 21
18.65499999999016
 31
0.0
  0
LINE
  5
13C
  8
SIZE
  6
CONTINUOUS
 62
    30
 10
1179.999999999993
 20
27.255027557451289
 30
0.0
 11
1179.999999999993
 21
269.32034297935752
 31
0.0
  0
LINE
  5
13D
  8
SIZE
  6
CONTINUOUS
 62
    30
 10
1049.999965371986
 20
-115.4827580089341
 30
0.0
 11
1049.999965371986
 21
269.32034297935752
 31
0.0
  0
LINE
  5
13E
  8
SIZE
  6
CONTINUOUS
 62
    30
 10
1179.999999999993
 20
249.32034297935749
 30
0.0
 11
1049.999965371986
 21
249.32034297935749
 31
0.0
  0
CIRCLE
  5
13F
  8
SIZE
  6
CONTINUOUS
 62
    30
 10
1179.999999999993
 20
249.32034297935749
 30
0.0
 40
7.5
  0
CIRCLE
  5
140
  8
SIZE
  6
CONTINUOUS
 62
    30
 10
1049.999965371986
 20
249.32034297935749
 30
0.0
 40
7.5
  0
TEXT
  5
141
  8
SIZE
  6
CONTINUOUS
 62
    30
 10
1050.714268400274
 20
269.32034297935752
 30
0.0
 40
60.0
  1
130
 41
0.9
 72
     1
 11
1114.999982685988
 21
269.32034297935752
 31
0.0
  0
POINT
  5
143
  8
DEFPOINTS
  6
CONTINUOUS
 62
     7
 10
1049.999965371986
 20
-135.4827580089341
 30
0.0
  0
POINT
  5
144
  8
DEFPOINTS
  6
CONTINUOUS
 62
     7
 10
1049.999965371986
 20
249.32034297935749
 30
0.0
  0
TEXT
  5
145
  8
NOTE
  6
CONTINUOUS
 62
     4
 10
1484.042110744587
 20
505.11442893268082
 30
0.0
 40
64.0
  1
D VP-20
 41
0.9
  0
LINE
  5
146
  8
SIZE
  6
CONTINUOUS
 62
    30
 10
1050.000000000007
 20
20.0
 30
0.0
 11
1050.000000000007
 21
673.20015902454725
 31
0.0
  0
LINE
  5
147
  8
SIZE
  6
CONTINUOUS
 62
    30
 10
1219.999965371979
 20
20.0
 30
0.0
 11
1219.999965371979
 21
673.20015902454725
 31
0.0
  0
LINE
  5
148
  8
SIZE
  6
CONTINUOUS
 62
    30
 10
1050.000000000007
 20
653.20015902454725
 30
0.0
 11
1219.999965371979
 21
653.20015902454725
 31
0.0
  0
CIRCLE
  5
149
  8
SIZE
  6
CONTINUOUS
 62
    30
 10
1050.000000000007
 20
653.20015902454725
 30
0.0
 40
7.5
  0
CIRCLE
  5
14A
  8
SIZE
  6
CONTINUOUS
 62
    30
 10
1219.999965371979
 20
653.20015902454725
 30
0.0
 40
7.5
  0
TEXT
  5
14B
  8
SIZE
  6
CONTINUOUS
 62
    30
 10
1070.714268400279
 20
673.20015902454725
 30
0.0
 40
60.0
  1
170
 41
0.9
 72
     1
 11
1134.999982685993
 21
673.20015902454725
 31
0.0
  0
POINT
  5
14C
  8
DEFPOINTS
  6
CONTINUOUS
 62
     7
 10
1050.000000000007
 20
0.0
 30
0.0
  0
POINT
  5
14D
  8
DEFPOINTS
  6
CONTINUOUS
 62
     7
 10
1219.999965371979
 20
0.0
 30
0.0
  0
POINT
  5
14E
  8
DEFPOINTS
  6
CONTINUOUS
 62
     7
 10
1219.999965371979
 20
653.20015902454725
 30
0.0
  0
LINE
  5
14F
  8
SIZE
  6
CONTINUOUS
 62
    30
 10
1018.000000000007
 20
-320.0
 30
0.0
 11
1819.6823813476719
 21
-320.00000000000028
 31
0.0
  0
LINE
  5
150
  8
SIZE
  6
CONTINUOUS
 62
    30
 10
1239.999965371979
 20
-369.0
 30
0.0
 11
1819.6823813476719
 21
-369.00000000000023
 31
0.0
  0
LINE
  5
151
  8
SIZE
  6
CONTINUOUS
 62
    30
 10
1799.6823813476731
 20
-320.00000000000028
 30
0.0
 11
1799.6823813476731
 21
-369.00000000000023
 31
0.0
  0
LINE
  5
152
  8
SIZE
  6
CONTINUOUS
 62
    30
 10
1799.6823813476731
 20
-369.00000000000023
 30
0.0
 11
1799.6823813476731
 21
-523.85714285714312
 31
0.0
  0
CIRCLE
  5
153
  8
SIZE
  6
CONTINUOUS
 62
    30
 10
1799.6823813476731
 20
-320.00000000000028
 30
0.0
 40
7.5
  0
CIRCLE
  5
154
  8
SIZE
  6
CONTINUOUS
 62
    30
 10
1799.6823813476731
 20
-369.00000000000023
 30
0.0
 40
7.5
  0
TEXT
  5
155
  8
SIZE
  6
CONTINUOUS
 62
    30
 10
1779.6823813476731
 20
-503.85714285714261
 30
0.0
 40
60.0
  1
49
 50
90.0
 41
0.9
 72
     1
 11
1779.6823813476731
 21
-461.42857142857122
 31
0.0
  0
POINT
  5
156
  8
DEFPOINTS
  6
CONTINUOUS
 62
     7
 10
998.00000000000728
 20
-320.0
 30
0.0
  0
POINT
  5
157
  8
DEFPOINTS
  6
CONTINUOUS
 62
     7
 10
1219.999965371979
 20
-369.0
 30
0.0
  0
POINT
  5
158
  8
DEFPOINTS
  6
CONTINUOUS
 62
     7
 10
1799.6823813476731
 20
-369.00000000000023
 30
0.0
  0
LINE
  5
15C
  8
ARRANGE
  6
CONTINUOUS
 62
     1
 10
42.396855862607467
 20
-41.960496852386321
 30
0.0
 11
-42.396855862585639
 21
41.960496852378093
 31
0.0
  0
LINE
  5
15D
  8
ARRANGE
  6
CONTINUOUS
 62
     1
 10
42.334505526407142
 20
42.023402110810807
 30
0.0
 11
-42.334505526392597
 21
-42.023402110816292
 31
0.0
  0
LINE
  5
15E
  8
NOTE
  6
CONTINUOUS
 62
     4
 10
1179.999999999993
 20
-0.2550000000028244
 30
0.0
 11
1474.830557789639
 21
487.537397461598
 31
0.0
  0
LINE
  5
15F
  8
NOTE
  6
CONTINUOUS
 62
     4
 10
1474.830557789639
 20
487.537397461598
 30
0.0
 11
1847.6807958054781
 21
487.537397461598
 31
0.0
  0
LINE
  5
160
  8
NOTE
  6
CONTINUOUS
 62
     4
 10
1202.3976888398099
 20
21.26151984439969
 30
0.0
 11
1179.999999999993
 21
-0.2550000000058975
 31
0.0
  0
LINE
  5
161
  8
NOTE
  6
CONTINUOUS
 62
     4
 10
1179.999999999993
 20
-0.2550000000058975
 30
0.0
 11
1188.6387077344771
 21
29.577697166995339
 31
0.0
  0
LINE
  5
16E
  8
NOTE
  6
CONTINUOUS
 62
     4
 10
565.03701793877553
 20
52.941404381916982
 30
0.0
 11
149.157881242776
 21
52.941404381916982
 31
0.0
  0
LINE
  5
16F
  8
NOTE
  6
CONTINUOUS
 62
     4
 10
826.93010321174359
 20
-187.42227419822481
 30
0.0
 11
843.00000000000705
 21
-214.0
 31
0.0
  0
LINE
  5
170
  8
NOTE
  6
CONTINUOUS
 62
     4
 10
843.00000000000705
 20
-214.0
 30
0.0
 11
815.79419831225084
 21
-199.01796255155199
 31
0.0
  0
LINE
  5
174
  8
NOTE
  6
CONTINUOUS
 62
     4
 10
916.64890613970215
 20
-105.59801489446799
 30
0.0
 11
923.00000000000728
 21
-136.0
 31
0.0
  0
LINE
  5
175
  8
NOTE
  6
CONTINUOUS
 62
     4
 10
923.00000000000728
 20
-136.0
 30
0.0
 11
902.2987989274319
 21
-112.84665540937191
 31
0.0
  0
LINE
  5
177
  8
NOTE
  6
CONTINUOUS
 62
     4
 10
-1011.0
 20
0.0
 30
0.0
 11
-1144.0397183317671
 21
150.80305237893299
 31
0.0
  0
LINE
  5
178
  8
NOTE
  6
CONTINUOUS
 62
     4
 10
-1144.0397183317671
 20
150.80305237893299
 30
0.0
 11
-1909.721520129378
 21
150.80305237893299
 31
0.0
  0
LINE
  5
179
  8
NOTE
  6
CONTINUOUS
 62
     4
 10
-1024.71722425332
 20
27.86493944661288
 30
0.0
 11
-1011.0
 21
0.0
 31
0.0
  0
LINE
  5
17A
  8
NOTE
  6
CONTINUOUS
 62
     4
 10
-1011.0
 20
0.0
 30
0.0
 11
-1036.811934317738
 21
17.27313342611523
 31
0.0
  0
TEXT
  5
183
  8
ETC
  6
CONTINUOUS
 62
    61
 10
-32.480347183540289
 20
948.12543527982325
 30
0.0
 40
64.0
  1
PCZG-P8_10MBA8(DRAIN-UP-NANAME)_2
 41
0.9
  0
TEXT
  5
197
  8
NOTE
  6
CONTINUOUS
 62
     4
 10
-1178.5484034725901
 20
-240.92056043467099
 30
0.0
 40
45.0
  1
サービス
 50
90.00000299999769
 41
0.7
  7
STANDARD1
  0
TEXT
  5
198
  8
NOTE
  6
CONTINUOUS
 62
     4
 10
-1105.0639860268441
 20
-240.92056043467099
 30
0.0
 40
45.0
  1
スペース
 50
90.00000299999769
 41
0.7
  7
STANDARD1
  0
TEXT
  5
199
  8
NOTE
  6
CONTINUOUS
 62
     4
 10
1470.6636974110349
 20
-243.97525005112331
 30
0.0
 40
45.0
  1
サービス
 50
90.00000299999769
 41
0.7
  7
STANDARD1
  0
TEXT
  5
19A
  8
NOTE
  6
CONTINUOUS
 62
     4
 10
1544.1481148567809
 20
-243.97525005112331
 30
0.0
 40
45.0
  1
スペース
 50
90.00000299999769
 41
0.7
  7
STANDARD1
  0
LINE
  5
19B
  8
NOTE
  6
CONTINUOUS
 62
     4
 10
923.00000000000728
 20
-136.0
 30
0.0
 11
660.97647180120885
 21
338.5060364130108
 31
0.0
  0
TEXT
  5
19C
  8
NOTE
  6
CONTINUOUS
 62
     4
 10
294.22275819130209
 20
241.4536469015072
 30
0.0
 40
64.0
  1
RL %%C12.7
 41
0.9
  0
TEXT
  5
19D
  8
NOTE
  6
CONTINUOUS
 62
     4
 10
319.19299390053402
 20
180.20959060659669
 30
0.0
 40
45.0
  1
PCZG-P10MBA8
 50
0.0000029999845808
 41
0.6309520000000001
  7
STANDARD1
  0
TEXT
  5
19E
  8
NOTE
  6
CONTINUOUS
 62
     4
 10
267.28876805004973
 20
415.97936669283598
 30
0.0
 40
64.0
  1
RL %%C9.52
 41
0.9
  0
LINE
  5
19F
  8
NOTE
  6
CONTINUOUS
 62
     4
 10
660.97647180120885
 20
338.5060364130108
 30
0.0
 11
254.05723731198029
 21
338.5060364130108
 31
0.0
  0
TEXT
  5
1A0
  8
NOTE
  6
CONTINUOUS
 62
     4
 10
285.0466892324439
 20
354.7353118845632
 30
0.0
 40
45.0
  1
PCZG-P8MBA8
 50
0.0000029999845808
 41
0.6309520000000001
  7
STANDARD1
  0
LINE
  5
1A1
  8
NOTE
  6
CONTINUOUS
 62
     4
 10
757.35005053763484
 20
163.9803166216829
 30
0.0
 11
288.60226525444892
 21
163.98031662168279
 31
0.0
  0
LINE
  5
1AD
  8
NOTE
  6
CONTINUOUS
 62
     4
 10
843.00000000000705
 20
-214.00000000000051
 30
0.0
 11
565.03701793877553
 21
52.941404381916982
 31
0.0
  0
LINE
  5
1B3
  8
OUTLINE
  6
CONTINUOUS
 62
     3
 10
1041.650999999991
 20
-250.0
 30
0.0
 11
1031.6316313036741
 21
-249.99999964311999
 31
0.0
  0
LINE
  5
1B9
  8
OUTLINE
  6
CONTINUOUS
 62
     3
 10
1041.2695077977901
 20
-61.000003021476452
 30
0.0
 11
1032.500004345836
 21
-60.999997351477077
 31
0.0
  0
LINE
  5
2CC
  8
NOTE
  6
CONTINUOUS
 62
     4
 10
1198.9099999999951
 20
-0.255
 30
0.0
 11
1161.089999999994
 21
-0.255
 31
0.0
  0
ENDSEC
  0
EOF
