  0
SECTION
  2
HEADER
  9
$ACADVER
  1
AC1009
  9
$INSBASE
 10
0.0
 20
0.0
 30
0.0
  9
$EXTMIN
 10
-1005.988212575285
 20
-911.48981765635472
 30
-0.0015258207003583
  9
$EXTMAX
 10
1234.499439709034
 20
844.04396231352791
 30
0.0000000349246037
  9
$LIMMIN
 10
-4267.1522210604826
 20
-2696.0832101984129
  9
$LIMMAX
 10
7190.7174225864646
 20
5141.155363923066
  9
$ORTHOMODE
 70
     1
  9
$REGENMODE
 70
     1
  9
$FILLMODE
 70
     1
  9
$QTEXTMODE
 70
     0
  9
$MIRRTEXT
 70
     0
  9
$DRAGMODE
 70
     2
  9
$LTSCALE
 40
20.0
  9
$OSMODE
 70
   431
  9
$ATTMODE
 70
     1
  9
$TEXTSIZE
 40
64.0
  9
$TRACEWID
 40
0.05
  9
$TEXTSTYLE
  7
STANDARD_MODELNAME
  9
$CLAYER
  8
SYMBOLLINE
  9
$CELTYPE
  6
CONTINUOUS
  9
$CECOLOR
 62
     7
  9
$DIMSCALE
 40
1.0
  9
$DIMASZ
 40
30.0
  9
$DIMEXO
 40
20.0
  9
$DIMDLI
 40
80.0
  9
$DIMRND
 40
0.0
  9
$DIMDLE
 40
0.0
  9
$DIMEXE
 40
20.0
  9
$DIMTP
 40
0.0
  9
$DIMTM
 40
0.0
  9
$DIMTXT
 40
60.0
  9
$DIMCEN
 40
0.09
  9
$DIMTSZ
 40
0.0
  9
$DIMTOL
 70
     0
  9
$DIMLIM
 70
     0
  9
$DIMTIH
 70
     0
  9
$DIMTOH
 70
     0
  9
$DIMSE1
 70
     0
  9
$DIMSE2
 70
     0
  9
$DIMTAD
 70
     1
  9
$DIMZIN
 70
     8
  9
$DIMBLK
  1
SMALL
  9
$DIMASO
 70
     1
  9
$DIMSHO
 70
     0
  9
$DIMPOST
  1

  9
$DIMAPOST
  1

  9
$DIMALT
 70
     0
  9
$DIMALTD
 70
     2
  9
$DIMALTF
 40
25.399999999999999
  9
$DIMLFAC
 40
1.0
  9
$DIMTOFL
 70
     1
  9
$DIMTVP
 40
0.0
  9
$DIMTIX
 70
     0
  9
$DIMSOXD
 70
     0
  9
$DIMSAH
 70
     0
  9
$DIMBLK1
  1

  9
$DIMBLK2
  1

  9
$DIMSTYLE
  2
STANDARD
  9
$DIMCLRD
 70
     0
  9
$DIMCLRE
 70
     0
  9
$DIMCLRT
 70
     0
  9
$DIMTFAC
 40
1.0
  9
$DIMGAP
 40
0.09
  9
$LUNITS
 70
     2
  9
$LUPREC
 70
     4
  9
$SKETCHINC
 40
0.1
  9
$FILLETRAD
 40
0.0
  9
$AUNITS
 70
     1
  9
$AUPREC
 70
     3
  9
$MENU
  1
ACAD
  9
$ELEVATION
 40
0.0
  9
$PELEVATION
 40
0.0
  9
$THICKNESS
 40
0.0
  9
$LIMCHECK
 70
     0
  9
$BLIPMODE
 70
     0
  9
$CHAMFERA
 40
0.0
  9
$CHAMFERB
 40
0.0
  9
$SKPOLY
 70
     0
  9
$TDCREATE
 40
2450330.4399309959
  9
$TDUPDATE
 40
2456833.6011545141
  9
$TDINDWG
 40
5.9511780670999999
  9
$TDUSRTIMER
 40
5.9511779977000003
  9
$USRTIMER
 70
     1
  9
$ANGBASE
 50
0.0
  9
$ANGDIR
 70
     0
  9
$PDMODE
 70
     3
  9
$PDSIZE
 40
-2.0
  9
$PLINEWID
 40
0.0
  9
$COORDS
 70
     1
  9
$SPLFRAME
 70
     0
  9
$SPLINETYPE
 70
     6
  9
$SPLINESEGS
 70
     8
  9
$ATTDIA
 70
     1
  9
$ATTREQ
 70
     1
  9
$HANDLING
 70
     1
  9
$HANDSEED
  5
208
  9
$SURFTAB1
 70
     6
  9
$SURFTAB2
 70
     6
  9
$SURFTYPE
 70
     6
  9
$SURFU
 70
     6
  9
$SURFV
 70
     6
  9
$UCSNAME
  2

  9
$UCSORG
 10
0.0
 20
0.0
 30
0.0
  9
$UCSXDIR
 10
1.0
 20
0.0
 30
0.0
  9
$UCSYDIR
 10
0.0
 20
1.0
 30
0.0
  9
$PUCSNAME
  2

  9
$PUCSORG
 10
0.0
 20
0.0
 30
0.0
  9
$PUCSXDIR
 10
1.0
 20
0.0
 30
0.0
  9
$PUCSYDIR
 10
0.0
 20
1.0
 30
0.0
  9
$USERI1
 70
     0
  9
$USERI2
 70
     0
  9
$USERI3
 70
     0
  9
$USERI4
 70
     0
  9
$USERI5
 70
     0
  9
$USERR1
 40
20.0
  9
$USERR2
 40
0.0
  9
$USERR3
 40
0.0
  9
$USERR4
 40
0.0
  9
$USERR5
 40
0.0
  9
$WORLDVIEW
 70
     1
  9
$SHADEDGE
 70
     3
  9
$SHADEDIF
 70
    70
  9
$TILEMODE
 70
     1
  9
$MAXACTVP
 70
    64
  9
$PLIMCHECK
 70
     0
  9
$PEXTMIN
 10
1.0000000000000000E+020
 20
1.0000000000000000E+020
 30
1.0000000000000000E+020
  9
$PEXTMAX
 10
-1.0000000000000000E+020
 20
-1.0000000000000000E+020
 30
-1.0000000000000000E+020
  9
$PLIMMIN
 10
0.0
 20
0.0
  9
$PLIMMAX
 10
12.0
 20
9.0
  9
$UNITMODE
 70
     0
  9
$VISRETAIN
 70
     1
  9
$PLINEGEN
 70
     0
  9
$PSLTSCALE
 70
     1
  0
ENDSEC
  0
SECTION
  2
TABLES
  0
TABLE
  2
VPORT
 70
     1
  0
VPORT
  2
*ACTIVE
 70
     0
 10
0.0
 20
0.0
 11
1.0
 21
1.0
 12
114.2556135668747
 22
-33.722927671413352
 13
0.0
 23
0.0
 14
50.0
 24
50.0
 15
100.0
 25
100.0
 16
0.0
 26
0.0
 36
1.0
 17
0.0
 27
0.0
 37
0.0
 40
1769.0205951809189
 41
1.58076923076923
 42
50.0
 43
0.0
 44
0.0
 50
0.0
 51
0.0
 71
     0
 72
  1000
 73
     1
 74
     0
 75
     0
 76
     0
 77
     0
 78
     0
  0
ENDTAB
  0
TABLE
  2
LTYPE
 70
     4
  0
LTYPE
  2
CONTINUOUS
 70
     0
  3
実線
 72
    65
 73
     0
 40
0.0
  0
LTYPE
  2
DASHDOT
 70
     0
  3
____ _ ____ _ ____ _ ____ _ ____ _ ____ _ ____
 72
    65
 73
     4
 40
5.5
 49
4.0
 49
-0.6
 49
0.3
 49
-0.6
  0
ENDTAB
  0
TABLE
  2
LAYER
 70
    12
  0
LAYER
  2
0
 70
     0
 62
     7
  6
CONTINUOUS
  0
LAYER
  2
NOTE
 70
     0
 62
     4
  6
CONTINUOUS
  0
LAYER
  2
OUTLINE
 70
     0
 62
     3
  6
CONTINUOUS
  0
LAYER
  2
DETAIL
 70
     0
 62
     5
  6
CONTINUOUS
  0
LAYER
  2
BASIS
 70
     0
 62
     6
  6
DASHDOT
  0
LAYER
  2
SIZE
 70
     0
 62
    30
  6
CONTINUOUS
  0
LAYER
  2
ARRANGE
 70
     0
 62
     1
  6
CONTINUOUS
  0
LAYER
  2
FIX
 70
     0
 62
    11
  6
CONTINUOUS
  0
LAYER
  2
SERVICESPACE
 70
     0
 62
     2
  6
DASHDOT
  0
LAYER
  2
ETC
 70
     0
 62
    61
  6
CONTINUOUS
  0
LAYER
  2
SYMBOLLINE
 70
     0
 62
    15
  6
CONTINUOUS
  0
LAYER
  2
DEFPOINTS
 70
     0
 62
     7
  6
CONTINUOUS
  0
ENDTAB
  0
TABLE
  2
STYLE
 70
     4
  0
STYLE
  2
STANDARD
 70
     0
 40
0.0
 41
0.9
 50
0.0
 71
     0
 42
64.0
  3
SIMPLEX
  4
BIGFONT
  0
STYLE
  2
ANNOTATIVE
 70
     0
 40
0.0
 41
1.0
 50
0.0
 71
     0
 42
0.2
  3
txt
  4

  0
STYLE
  2
STANDARD_MODELNAME
 70
     0
 40
80.0
 41
0.8
 50
0.0
 71
     0
 42
64.0
  3
MONOTXT.shx
  4
BIGFONT.shx
  0
STYLE
  2
STANDARD1
 70
     0
 40
60.0
 41
0.7
 50
0.0
 71
     0
 42
64.0
  3
MONOTXT.shx
  4
BIGFONT.shx
  0
ENDTAB
  0
TABLE
  2
VIEW
 70
     1
  0
VIEW
  2
ALL
 70
     0
 40
9000.0
 10
241.50664699999999
 20
0.0
 41
12483.01
 11
0.0
 21
0.0
 31
1.0
 12
0.0
 22
0.0
 32
0.0
 42
50.0
 43
0.0
 44
0.0
 50
0.0
 71
     0
  0
ENDTAB
  0
TABLE
  2
UCS
 70
     0
  0
ENDTAB
  0
TABLE
  2
APPID
 70
     5
  0
APPID
  2
ACAD
 70
     0
  0
APPID
  2
ACADANNOTATIVE
 70
     0
  0
APPID
  2
ACAD_EXEMPT_FROM_CAD_STANDARDS
 70
     0
  0
APPID
  2
ACAD_NAV_VCDISPLAY
 70
     0
  0
APPID
  2
ACAD_MLEADERVER
 70
     0
  0
ENDTAB
  0
TABLE
  2
DIMSTYLE
 70
     3
  0
DIMSTYLE
  2
STANDARD
 70
     0
  3

  4

  5

  6

  7

 40
1.0
 41
0.18
 42
0.0625
 43
0.38
 44
0.18
 45
0.0
 46
0.0
 47
0.0
 48
0.0
140
0.18
141
0.09
142
0.0
143
25.399999999999999
144
1.0
145
0.0
146
1.0
147
0.09
 71
     0
 72
     0
 73
     1
 74
     1
 75
     0
 76
     0
 77
     0
 78
     0
170
     0
171
     2
172
     0
173
     0
174
     0
175
     0
176
     0
177
     0
178
     0
  0
DIMSTYLE
  2
ANNOTATIVE
 70
     0
  3

  4

  5

  6

  7

 40
1.0
 41
0.18
 42
0.0625
 43
0.38
 44
0.18
 45
0.0
 46
0.0
 47
0.0
 48
0.0
140
0.18
141
0.09
142
0.0
143
25.399999999999999
144
1.0
145
0.0
146
1.0
147
0.09
 71
     0
 72
     0
 73
     1
 74
     1
 75
     0
 76
     0
 77
     0
 78
     0
170
     0
171
     2
172
     0
173
     0
174
     0
175
     0
176
     0
177
     0
178
     0
  0
ENDTAB
  0
ENDSEC
  0
SECTION
  2
BLOCKS
  0
BLOCK
  8
0
  2
$MODEL_SPACE
 70
     0
 10
0.0
 20
0.0
 30
0.0
  3
$MODEL_SPACE
  1

  0
ENDBLK
  5
71
  8
0
  0
BLOCK
 67
     1
  8
0
  2
$PAPER_SPACE
 70
     0
 10
0.0
 20
0.0
 30
0.0
  3
$PAPER_SPACE
  1

  0
ENDBLK
  5
6D
 67
     1
  8
0
  0
BLOCK
  8
0
  2
_SMALL
 70
     0
 10
0.0
 20
0.0
 30
0.0
  3
_SMALL
  1

  0
CIRCLE
  5
89
  8
0
  6
CONTINUOUS
 62
     7
 10
0.0
 20
0.0
 30
0.0
 40
0.25
  0
ENDBLK
  5
8A
  8
0
  0
BLOCK
  8
0
 62
     7
  2
A$C73E42C81
 70
     0
 10
0.0
 20
0.0
 30
0.0
  3
A$C73E42C81
  1

  0
LINE
  5
163
  8
NOTE
  6
CONTINUOUS
 62
     4
 10
-0.000002243083145
 20
-0.0000009954947018
 30
0.0
 11
439.10378346277872
 21
638.17761497664105
 31
0.0
  0
TEXT
  5
164
  8
NOTE
  6
CONTINUOUS
 62
     4
 10
450.38321135839959
 20
541.12522546513685
 30
0.0
 40
64.0
  1
RL %%C12.7
 41
0.9
  0
TEXT
  5
165
  8
NOTE
  6
CONTINUOUS
 62
     4
 10
449.6374613634535
 20
479.88118651433678
 30
0.0
 40
45.0
  1
PCZG-P10MBA8
 50
359.9999970000153
 41
0.6309520000000001
  7
STANDARD1
  0
TEXT
  5
166
  8
NOTE
  6
CONTINUOUS
 62
     4
 10
466.34577292822348
 20
715.65094525646566
 30
0.0
 40
64.0
  1
RL %%C9.52
 41
0.9
  0
LINE
  5
167
  8
NOTE
  6
CONTINUOUS
 62
     4
 10
439.10378346277872
 20
638.17761497664105
 30
0.0
 11
846.02301795200685
 21
638.17761497664105
 31
0.0
  0
TEXT
  5
168
  8
NOTE
  6
CONTINUOUS
 62
     4
 10
465.60002293327739
 20
654.4069063056653
 30
0.0
 40
45.0
  1
PCZG-P8MBA8
 50
359.9999970000153
 41
0.6309520000000001
  7
STANDARD1
  0
LINE
  5
169
  8
NOTE
  6
CONTINUOUS
 62
     4
 10
319.01980943201488
 20
463.65189518531281
 30
0.0
 11
811.47799000953808
 21
463.65189518531281
 31
0.0
  0
ENDBLK
  5
16B
  8
0
 62
     7
  0
ENDSEC
  0
SECTION
  2
ENTITIES
  0
LINE
  5
8B
  8
DETAIL
  6
CONTINUOUS
 62
     5
 10
-320.99999999999272
 20
0.0
 30
0.0
 11
-365.0
 21
-61.0
 31
0.0
  0
ARC
  5
8C
  8
DETAIL
  6
CONTINUOUS
 62
     5
 10
365.58228800000512
 20
115.0860330000005
 30
0.0
 40
785.57146799999998
 50
192.95291400001651
 51
207.69335899988539
  0
LINE
  5
8D
  8
DETAIL
  6
CONTINUOUS
 62
     5
 10
-330.0
 20
-250.0
 30
0.0
 11
15.000000000007271
 21
-320.0
 31
0.0
  0
LINE
  5
8E
  8
DETAIL
  6
CONTINUOUS
 62
     5
 10
-330.0
 20
-250.0
 30
0.0
 11
400.00000000000711
 21
-250.0
 31
0.0
  0
LINE
  5
8F
  8
DETAIL
  6
CONTINUOUS
 62
     5
 10
15.000000000007271
 20
-320.0
 30
0.0
 11
400.00000000000711
 21
-320.0
 31
0.0
  0
LINE
  5
90
  8
DETAIL
  6
CONTINUOUS
 62
     5
 10
-400.0
 20
-61.0
 30
0.0
 11
400.00000000000711
 21
-61.0
 31
0.0
  0
CIRCLE
  5
91
  8
ARRANGE
  6
CONTINUOUS
 62
     1
 10
0.0
 20
0.0
 30
0.0
 40
40.0
  0
TEXT
  5
92
  8
ETC
  6
CONTINUOUS
 62
    61
 10
-642.47286009008178
 20
767.56462581646065
 30
0.0
 40
64.0
  1
PCZG-P8_10MBA8(DRAIN-UP-NANAME)_4
 41
0.9
  0
LINE
  5
93
  8
OUTLINE
  6
CONTINUOUS
 62
     3
 10
-320.99999999999272
 20
0.0
 30
0.0
 11
-365.0
 21
-61.0
 31
0.0
  0
LINE
  5
94
  8
OUTLINE
  6
CONTINUOUS
 62
     3
 10
-320.99999999999272
 20
0.0
 30
0.0
 11
400.00000000000711
 21
0.0
 31
0.0
  0
LINE
  5
95
  8
OUTLINE
  6
CONTINUOUS
 62
     3
 10
-400.0
 20
-61.0
 30
0.0
 11
-365.0
 21
-61.0
 31
0.0
  0
ARC
  5
96
  8
OUTLINE
  6
CONTINUOUS
 62
     3
 10
365.58228800000512
 20
115.0860330000005
 30
0.0
 40
785.57146799999998
 50
192.95291400001651
 51
207.69335899988539
  0
LINE
  5
97
  8
OUTLINE
  6
CONTINUOUS
 62
     3
 10
-330.0
 20
-250.0
 30
0.0
 11
15.000000000007271
 21
-320.0
 31
0.0
  0
LINE
  5
98
  8
OUTLINE
  6
CONTINUOUS
 62
     3
 10
15.000000000007271
 20
-320.0
 30
0.0
 11
400.00000000000711
 21
-320.0
 31
0.0
  0
LINE
  5
99
  8
OUTLINE
  6
CONTINUOUS
 62
     3
 10
400.00000000000711
 20
-24.8549724425493
 30
0.0
 11
400.00000000000711
 21
0.0
 31
0.0
  0
CIRCLE
  5
9A
  8
FIX
  6
CONTINUOUS
 62
    11
 10
300.00000000000728
 20
0.0
 30
0.0
 40
7.0
  0
LINE
  5
9B
  8
BASIS
  6
DASHDOT
 62
     6
 10
0.0
 20
-379.64495799999992
 30
0.0
 11
0.0
 21
71.79443800000081
 31
0.0
  0
CIRCLE
  5
9C
  8
FIX
  6
CONTINUOUS
 62
    11
 10
-150.0
 20
0.0
 30
0.0
 40
7.0
  0
LINE
  5
9D
  8
NOTE
  6
CONTINUOUS
 62
     4
 10
-150.0
 20
-20.0
 30
0.0
 11
-150.0
 21
20.0
 31
0.0
  0
LINE
  5
9E
  8
NOTE
  6
CONTINUOUS
 62
     4
 10
-129.9999999999927
 20
0.0
 30
0.0
 11
-170.0
 21
0.0
 31
0.0
  0
LINE
  5
9F
  8
NOTE
  6
CONTINUOUS
 62
     4
 10
300.00000000000728
 20
-20.0
 30
0.0
 11
300.00000000000728
 21
20.0
 31
0.0
  0
LINE
  5
A0
  8
NOTE
  6
CONTINUOUS
 62
     4
 10
280.0
 20
0.0
 30
0.0
 11
320.00000000000728
 21
0.0
 31
0.0
  0
LINE
  5
A1
  8
NOTE
  6
CONTINUOUS
 62
     4
 10
310.0
 20
-234.0
 30
0.0
 11
310.0
 21
-194.00000000000091
 31
0.0
  0
LINE
  5
A2
  8
NOTE
  6
CONTINUOUS
 62
     4
 10
290.0
 20
-214.0
 30
0.0
 11
330.0
 21
-214.0
 31
0.0
  0
LINE
  5
A3
  8
NOTE
  6
CONTINUOUS
 62
     4
 10
310.0
 20
-156.0
 30
0.0
 11
310.0
 21
-116.0
 31
0.0
  0
LINE
  5
A4
  8
NOTE
  6
CONTINUOUS
 62
     4
 10
290.0
 20
-136.0
 30
0.0
 11
330.0
 21
-136.0
 31
0.0
  0
LINE
  5
A5
  8
SIZE
  6
CONTINUOUS
 62
    30
 10
400.00000000000711
 20
-340.0
 30
0.0
 11
400.00000000000711
 21
-911.40868498245152
 31
0.0
  0
LINE
  5
A6
  8
SIZE
  6
CONTINUOUS
 62
    30
 10
-400.0000011842348
 20
-80.999996607980378
 30
0.0
 11
-400.0000011842348
 21
-911.40868498245152
 31
0.0
  0
LINE
  5
A7
  8
SIZE
  6
CONTINUOUS
 62
    30
 10
400.00000000000711
 20
-891.40868498245152
 30
0.0
 11
-400.0000011842348
 21
-891.40868498245152
 31
0.0
  0
CIRCLE
  5
A8
  8
SIZE
  6
CONTINUOUS
 62
    30
 10
400.00000000000711
 20
-891.40868498245152
 30
0.0
 40
7.5
  0
CIRCLE
  5
A9
  8
SIZE
  6
CONTINUOUS
 62
    30
 10
-400.0000011842348
 20
-891.40868498245152
 30
0.0
 40
7.5
  0
TEXT
  5
AA
  8
SIZE
  6
CONTINUOUS
 62
    30
 10
-65.009326545353233
 20
-871.4086849824514
 30
0.0
 40
60.0
  1
800
 41
0.9
 72
     1
 11
4.4192448832181981
 21
-871.4086849824514
 31
0.0
  0
POINT
  5
AB
  8
DEFPOINTS
  6
CONTINUOUS
 62
     7
 10
400.00000000000711
 20
-320.0
 30
0.0
  0
POINT
  5
AC
  8
DEFPOINTS
  6
CONTINUOUS
 62
     7
 10
-400.0000011842348
 20
-60.999996607980393
 30
0.0
  0
POINT
  5
AD
  8
DEFPOINTS
  6
CONTINUOUS
 62
     7
 10
-400.0000011842348
 20
-891.40868498245152
 30
0.0
  0
LINE
  5
AE
  8
SIZE
  6
CONTINUOUS
 62
    30
 10
400.00000000000711
 20
20.0
 30
0.0
 11
400.00000000000722
 21
512.87812663070963
 31
0.0
  0
LINE
  5
AF
  8
SIZE
  6
CONTINUOUS
 62
    30
 10
300.00000000000728
 20
40.0
 30
0.0
 11
300.00000000000728
 21
512.87812663070963
 31
0.0
  0
LINE
  5
B0
  8
SIZE
  6
CONTINUOUS
 62
    30
 10
300.00000000000728
 20
492.87812663070957
 30
0.0
 11
400.00000000000722
 21
492.87812663070957
 31
0.0
  0
LINE
  5
B1
  8
SIZE
  6
CONTINUOUS
 62
    30
 10
400.00000000000722
 20
492.87812663070957
 30
0.0
 11
598.57142857143594
 21
492.87812663070957
 31
0.0
  0
CIRCLE
  5
B2
  8
SIZE
  6
CONTINUOUS
 62
    30
 10
300.00000000000728
 20
492.87812663070957
 30
0.0
 40
7.5
  0
CIRCLE
  5
B3
  8
SIZE
  6
CONTINUOUS
 62
    30
 10
400.00000000000722
 20
492.87812663070957
 30
0.0
 40
7.5
  0
TEXT
  5
B4
  8
SIZE
  6
CONTINUOUS
 62
    30
 10
450.00000000000728
 20
512.87812663070963
 30
0.0
 40
60.0
  1
100
 41
0.9
 72
     1
 11
514.28571428572161
 21
512.87812663070963
 31
0.0
  0
POINT
  5
B5
  8
DEFPOINTS
  6
CONTINUOUS
 62
     7
 10
400.00000000000711
 20
0.0
 30
0.0
  0
POINT
  5
B6
  8
DEFPOINTS
  6
CONTINUOUS
 62
     7
 10
300.00000000000728
 20
20.0
 30
0.0
  0
POINT
  5
B7
  8
DEFPOINTS
  6
CONTINUOUS
 62
     7
 10
300.00000000000728
 20
492.87812663070957
 30
0.0
  0
LINE
  5
B8
  8
SIZE
  6
CONTINUOUS
 62
    30
 10
300.00000000000728
 20
40.0
 30
0.0
 11
300.00000000000728
 21
512.87812663070963
 31
0.0
  0
LINE
  5
B9
  8
SIZE
  6
CONTINUOUS
 62
    30
 10
-150.0
 20
40.0
 30
0.0
 11
-150.0
 21
512.87812663070963
 31
0.0
  0
LINE
  5
BA
  8
SIZE
  6
CONTINUOUS
 62
    30
 10
300.00000000000728
 20
492.87812663070957
 30
0.0
 11
-150.0
 21
492.87812663070957
 31
0.0
  0
CIRCLE
  5
BB
  8
SIZE
  6
CONTINUOUS
 62
    30
 10
300.00000000000728
 20
492.87812663070957
 30
0.0
 40
7.5
  0
CIRCLE
  5
BC
  8
SIZE
  6
CONTINUOUS
 62
    30
 10
-150.0
 20
492.87812663070957
 30
0.0
 40
7.5
  0
TEXT
  5
BD
  8
SIZE
  6
CONTINUOUS
 62
    30
 10
4.5266294320327907
 20
512.87812663070963
 30
0.0
 40
60.0
  1
450
 41
0.9
 72
     1
 11
73.955200860604222
 21
512.87812663070963
 31
0.0
  0
POINT
  5
BE
  8
DEFPOINTS
  6
CONTINUOUS
 62
     7
 10
300.00000000000728
 20
20.0
 30
0.0
  0
POINT
  5
BF
  8
DEFPOINTS
  6
CONTINUOUS
 62
     7
 10
-150.0
 20
20.0
 30
0.0
  0
POINT
  5
C0
  8
DEFPOINTS
  6
CONTINUOUS
 62
     7
 10
-150.0
 20
492.87812663070957
 30
0.0
  0
TEXT
  5
C1
  8
NOTE
  6
CONTINUOUS
 62
     4
 10
-957.45203300338471
 20
156.9496133691791
 30
0.0
 40
64.0
  1
AH 4-14\U+00D726長穴
 41
0.9
  0
TEXT
  5
C2
  8
NOTE
  6
CONTINUOUS
 62
     4
 10
712.98870583324242
 20
78.37890201218579
 30
0.0
 40
64.0
  1
RG %%C25.4
 41
0.9
  0
LINE
  5
C4
  8
DETAIL
  6
CONTINUOUS
 62
     5
 10
400.00000000000711
 20
-320.0
 30
0.0
 11
400.00000000000711
 21
0.0
 31
0.0
  0
TEXT
  5
C5
  8
NOTE
  6
CONTINUOUS
 62
     4
 10
688.44342690862493
 20
217.2573553842094
 30
0.0
 40
64.0
  1
D VP-20
 41
0.9
  0
POINT
  5
DA
  8
DEFPOINTS
  6
CONTINUOUS
 62
     7
 10
400.00000000000711
 20
-320.0
 30
0.0
  0
LINE
  5
DE
  8
DETAIL
  6
CONTINUOUS
 62
     5
 10
400.00000000000711
 20
0.0
 30
0.0
 11
-320.99999999999272
 21
0.0
 31
0.0
  0
LINE
  5
DF
  8
DETAIL
  6
CONTINUOUS
 62
     5
 10
403.50000000000722
 20
-0.2549724425498425
 30
0.0
 11
403.50000000000722
 21
-369.0
 31
0.0
  0
LINE
  5
E0
  8
DETAIL
  6
CONTINUOUS
 62
     5
 10
404.30000000000291
 20
-0.2549724425498425
 30
0.0
 11
404.30000000000291
 21
-369.0
 31
0.0
  0
LINE
  5
E1
  8
DETAIL
  6
CONTINUOUS
 62
     5
 10
403.50000000000722
 20
-0.2549724425498425
 30
0.0
 11
560.00000000000705
 21
-0.2549724425498425
 31
0.0
  0
LINE
  5
E2
  8
NOTE
  6
CONTINUOUS
 62
     4
 10
479.00000000000711
 20
-19.16497244254969
 30
0.0
 11
479.00000000000711
 21
18.655027557450008
 31
0.0
  0
LINE
  5
E3
  8
DETAIL
  6
CONTINUOUS
 62
     5
 10
403.50000000000722
 20
-28.354972442545659
 30
0.0
 11
400.00000000000711
 21
-28.354972442545659
 31
0.0
  0
LINE
  5
E4
  8
DETAIL
  6
CONTINUOUS
 62
     5
 10
403.50000000000722
 20
-29.954972442553299
 30
0.0
 11
400.00000000000711
 21
-29.954972442553299
 31
0.0
  0
LINE
  5
E5
  8
DETAIL
  6
CONTINUOUS
 62
     5
 10
403.50000000000722
 20
-44.954972442552389
 30
0.0
 11
400.00000000000711
 21
-44.954972442552389
 31
0.0
  0
LINE
  5
E6
  8
DETAIL
  6
CONTINUOUS
 62
     5
 10
403.50000000000722
 20
-299.95497244255341
 30
0.0
 11
400.00000000000711
 21
-299.95497244255341
 31
0.0
  0
LINE
  5
E7
  8
DETAIL
  6
CONTINUOUS
 62
     5
 10
403.50000000000722
 20
-369.0
 30
0.0
 11
560.00000000000705
 21
-369.0
 31
0.0
  0
LINE
  5
E8
  8
SIZE
  6
CONTINUOUS
 62
    30
 10
400.00000000000711
 20
20.0
 30
0.0
 11
400.00000000000711
 21
387.1445537317486
 31
0.0
  0
LINE
  5
E9
  8
SIZE
  6
CONTINUOUS
 62
    30
 10
479.00000000000711
 20
27.155027557456371
 30
0.0
 11
479.00000000000711
 21
387.1445537317486
 31
0.0
  0
LINE
  5
EA
  8
SIZE
  6
CONTINUOUS
 62
    30
 10
400.00000000000711
 20
367.14455373174872
 30
0.0
 11
479.00000000000711
 21
367.14455373174872
 31
0.0
  0
LINE
  5
EB
  8
SIZE
  6
CONTINUOUS
 62
    30
 10
479.00000000000711
 20
367.14455373174872
 30
0.0
 11
633.85714285715005
 21
367.14455373174872
 31
0.0
  0
CIRCLE
  5
EC
  8
SIZE
  6
CONTINUOUS
 62
    30
 10
400.00000000000711
 20
367.14455373174872
 30
0.0
 40
7.5
  0
CIRCLE
  5
ED
  8
SIZE
  6
CONTINUOUS
 62
    30
 10
479.00000000000711
 20
367.14455373174872
 30
0.0
 40
7.5
  0
TEXT
  5
EE
  8
SIZE
  6
CONTINUOUS
 62
    30
 10
529.00000000000716
 20
387.14455373174849
 30
0.0
 40
60.0
  1
79
 41
0.9
 72
     1
 11
571.42857142857872
 21
387.14455373174849
 31
0.0
  0
POINT
  5
EF
  8
DEFPOINTS
  6
CONTINUOUS
 62
     7
 10
400.00000000000711
 20
0.0
 30
0.0
  0
POINT
  5
F1
  8
DEFPOINTS
  6
CONTINUOUS
 62
     7
 10
479.00000000000711
 20
367.14455373174872
 30
0.0
  0
LINE
  5
F2
  8
DETAIL
  6
CONTINUOUS
 62
     5
 10
560.00000000000705
 20
-369.0
 30
0.0
 11
560.00000000000705
 21
-0.2549724425498425
 31
0.0
  0
LINE
  5
FA
  8
OUTLINE
  6
CONTINUOUS
 62
     3
 10
400.00000000000711
 20
-320.0
 30
0.0
 11
400.00000000000711
 21
0.0
 31
0.0
  0
LINE
  5
FC
  8
ARRANGE
  6
CONTINUOUS
 62
     1
 10
42.396855862592929
 20
-41.960496852390868
 30
0.0
 11
-42.396855862592929
 21
41.960496852373574
 31
0.0
  0
LINE
  5
FD
  8
ARRANGE
  6
CONTINUOUS
 62
     1
 10
42.334505526385321
 20
42.023402110806273
 30
0.0
 11
-42.334505526399887
 21
-42.023402110820811
 31
0.0
  0
LINE
  5
FE
  8
SIZE
  6
CONTINUOUS
 62
    30
 10
350.0
 20
-136.0
 30
0.0
 11
1049.6193906279079
 21
-136.0000000000002
 31
0.0
  0
LINE
  5
FF
  8
SIZE
  6
CONTINUOUS
 62
    30
 10
420.00000000000728
 20
-320.0
 30
0.0
 11
1049.6193906279079
 21
-320.00000000000028
 31
0.0
  0
LINE
  5
100
  8
SIZE
  6
CONTINUOUS
 62
    30
 10
1029.6193906279079
 20
-136.0000000000002
 30
0.0
 11
1029.6193906279079
 21
-320.00000000000028
 31
0.0
  0
CIRCLE
  5
101
  8
SIZE
  6
CONTINUOUS
 62
    30
 10
1029.6193906279079
 20
-136.0000000000002
 30
0.0
 40
7.5
  0
CIRCLE
  5
102
  8
SIZE
  6
CONTINUOUS
 62
    30
 10
1029.6193906279079
 20
-320.00000000000028
 30
0.0
 40
7.5
  0
TEXT
  5
103
  8
SIZE
  6
CONTINUOUS
 62
    30
 10
1009.619390627908
 20
-293.68653710027058
 30
0.0
 40
60.0
  1
184
 50
90.0
 41
0.9
 72
     1
 11
1009.619390627908
 21
-228.115108528842
 31
0.0
  0
POINT
  5
104
  8
DEFPOINTS
  6
CONTINUOUS
 62
     7
 10
330.0
 20
-136.0
 30
0.0
  0
POINT
  5
105
  8
DEFPOINTS
  6
CONTINUOUS
 62
     7
 10
400.00000000000711
 20
-320.0
 30
0.0
  0
POINT
  5
106
  8
DEFPOINTS
  6
CONTINUOUS
 62
     7
 10
1029.6193906279079
 20
-320.00000000000028
 30
0.0
  0
LINE
  5
107
  8
SIZE
  6
CONTINUOUS
 62
    30
 10
420.00000000000728
 20
-0.0000000000000057
 30
0.0
 11
1185.846859313627
 21
-0.0000000000003397
 31
0.0
  0
LINE
  5
108
  8
SIZE
  6
CONTINUOUS
 62
    30
 10
420.00000000000728
 20
-320.0
 30
0.0
 11
1185.846859313627
 21
-320.00000000000028
 31
0.0
  0
LINE
  5
109
  8
SIZE
  6
CONTINUOUS
 62
    30
 10
1165.846859313627
 20
-0.000000000000334
 30
0.0
 11
1165.846859313627
 21
-320.00000000000028
 31
0.0
  0
CIRCLE
  5
10A
  8
SIZE
  6
CONTINUOUS
 62
    30
 10
1165.846859313627
 20
-0.000000000000334
 30
0.0
 40
7.5
  0
CIRCLE
  5
10B
  8
SIZE
  6
CONTINUOUS
 62
    30
 10
1165.846859313627
 20
-320.00000000000028
 30
0.0
 40
7.5
  0
TEXT
  5
10C
  8
SIZE
  6
CONTINUOUS
 62
    30
 10
1145.8468593136281
 20
-215.9637844169803
 30
0.0
 40
60.0
  1
320
 50
90.0
 41
0.9
 72
     1
 11
1145.8468593136281
 21
-146.5352129884088
 31
0.0
  0
POINT
  5
10D
  8
DEFPOINTS
  6
CONTINUOUS
 62
     7
 10
400.00000000000711
 20
0.0
 30
0.0
  0
POINT
  5
10E
  8
DEFPOINTS
  6
CONTINUOUS
 62
     7
 10
400.00000000000711
 20
-320.0
 30
0.0
  0
POINT
  5
10F
  8
DEFPOINTS
  6
CONTINUOUS
 62
     7
 10
1165.846859313627
 20
-320.00000000000028
 30
0.0
  0
LINE
  5
110
  8
SIZE
  6
CONTINUOUS
 62
    30
 10
420.00000000000728
 20
-320.0
 30
0.0
 11
1185.846859313627
 21
-320.00000000000028
 31
0.0
  0
LINE
  5
111
  8
SIZE
  6
CONTINUOUS
 62
    30
 10
580.00000000000716
 20
-369.0
 30
0.0
 11
1185.846859313627
 21
-369.00000000000023
 31
0.0
  0
LINE
  5
112
  8
SIZE
  6
CONTINUOUS
 62
    30
 10
1165.846859313627
 20
-320.00000000000028
 30
0.0
 11
1165.846859313627
 21
-369.00000000000023
 31
0.0
  0
LINE
  5
113
  8
SIZE
  6
CONTINUOUS
 62
    30
 10
1165.846859313627
 20
-369.00000000000023
 30
0.0
 11
1165.846859313627
 21
-523.85714285714948
 31
0.0
  0
CIRCLE
  5
114
  8
SIZE
  6
CONTINUOUS
 62
    30
 10
1165.846859313627
 20
-320.00000000000028
 30
0.0
 40
7.5
  0
CIRCLE
  5
115
  8
SIZE
  6
CONTINUOUS
 62
    30
 10
1165.846859313627
 20
-369.00000000000023
 30
0.0
 40
7.5
  0
TEXT
  5
116
  8
SIZE
  6
CONTINUOUS
 62
    30
 10
1145.8468593136281
 20
-503.85714285714931
 30
0.0
 40
60.0
  1
49
 50
90.0
 41
0.9
 72
     1
 11
1145.8468593136281
 21
-461.42857142857792
 31
0.0
  0
POINT
  5
117
  8
DEFPOINTS
  6
CONTINUOUS
 62
     7
 10
400.00000000000711
 20
-320.0
 30
0.0
  0
POINT
  5
118
  8
DEFPOINTS
  6
CONTINUOUS
 62
     7
 10
560.00000000000705
 20
-369.0
 30
0.0
  0
POINT
  5
119
  8
DEFPOINTS
  6
CONTINUOUS
 62
     7
 10
1165.846859313627
 20
-369.00000000000023
 30
0.0
  0
LINE
  5
11A
  8
SIZE
  6
CONTINUOUS
 62
    30
 10
350.0
 20
-214.0
 30
0.0
 11
922.81980347933882
 21
-214.00000000000031
 31
0.0
  0
LINE
  5
11B
  8
SIZE
  6
CONTINUOUS
 62
    30
 10
420.00000000000728
 20
-320.0
 30
0.0
 11
922.81980347933882
 21
-320.00000000000028
 31
0.0
  0
LINE
  5
11C
  8
SIZE
  6
CONTINUOUS
 62
    30
 10
902.81980347933893
 20
-214.00000000000031
 30
0.0
 11
902.81980347933893
 21
-320.00000000000028
 31
0.0
  0
LINE
  5
11D
  8
SIZE
  6
CONTINUOUS
 62
    30
 10
902.81980347933893
 20
-320.00000000000028
 30
0.0
 11
902.81980347933779
 21
-542.85946576353422
 31
0.0
  0
CIRCLE
  5
11E
  8
SIZE
  6
CONTINUOUS
 62
    30
 10
902.81980347933893
 20
-214.00000000000031
 30
0.0
 40
7.5
  0
CIRCLE
  5
11F
  8
SIZE
  6
CONTINUOUS
 62
    30
 10
902.81980347933893
 20
-320.00000000000028
 30
0.0
 40
7.5
  0
TEXT
  5
120
  8
SIZE
  6
CONTINUOUS
 62
    30
 10
882.81980347933882
 20
-522.85946576353399
 30
0.0
 40
60.0
  1
106
 50
90.0
 41
0.9
 72
     1
 11
882.81980347933882
 21
-459.85946576353399
 31
0.0
  0
POINT
  5
121
  8
DEFPOINTS
  6
CONTINUOUS
 62
     7
 10
330.0
 20
-214.0
 30
0.0
  0
POINT
  5
122
  8
DEFPOINTS
  6
CONTINUOUS
 62
     7
 10
400.00000000000711
 20
-320.0
 30
0.0
  0
POINT
  5
123
  8
DEFPOINTS
  6
CONTINUOUS
 62
     7
 10
902.81980347933893
 20
-320.00000000000028
 30
0.0
  0
LINE
  5
124
  8
SIZE
  6
CONTINUOUS
 62
    30
 10
400.00000000000711
 20
-340.0
 30
0.0
 11
400.00000000000711
 21
-692.35021876663541
 31
0.0
  0
LINE
  5
125
  8
SIZE
  6
CONTINUOUS
 62
    30
 10
560.00000000000705
 20
-387.30177044002812
 30
0.0
 11
560.00000000000705
 21
-692.35021876663541
 31
0.0
  0
LINE
  5
126
  8
SIZE
  6
CONTINUOUS
 62
    30
 10
400.00000000000711
 20
-672.35021876663541
 30
0.0
 11
560.00000000000705
 21
-672.35021876663541
 31
0.0
  0
CIRCLE
  5
127
  8
SIZE
  6
CONTINUOUS
 62
    30
 10
400.00000000000711
 20
-672.35021876663541
 30
0.0
 40
7.5
  0
CIRCLE
  5
128
  8
SIZE
  6
CONTINUOUS
 62
    30
 10
560.00000000000705
 20
-672.35021876663541
 30
0.0
 40
7.5
  0
TEXT
  5
129
  8
SIZE
  6
CONTINUOUS
 62
    30
 10
415.71428571429283
 20
-652.35021876663541
 30
0.0
 40
60.0
  1
160
 41
0.9
 72
     1
 11
480.00000000000711
 21
-652.35021876663541
 31
0.0
  0
POINT
  5
12A
  8
DEFPOINTS
  6
CONTINUOUS
 62
     7
 10
400.00000000000711
 20
-320.0
 30
0.0
  0
POINT
  5
12B
  8
DEFPOINTS
  6
CONTINUOUS
 62
     7
 10
560.00000000000705
 20
-367.30177044002801
 30
0.0
  0
POINT
  5
12C
  8
DEFPOINTS
  6
CONTINUOUS
 62
     7
 10
560.00000000000705
 20
-672.35021876663541
 30
0.0
  0
LINE
  5
135
  8
SIZE
  6
CONTINUOUS
 62
    30
 10
310.0
 20
-168.40800888355801
 30
0.0
 11
310.0
 21
-692.35021876663541
 31
0.0
  0
LINE
  5
136
  8
SIZE
  6
CONTINUOUS
 62
    30
 10
400.00000000000711
 20
-264.1176634821577
 30
0.0
 11
400.00000000000711
 21
-692.35021876663541
 31
0.0
  0
LINE
  5
137
  8
SIZE
  6
CONTINUOUS
 62
    30
 10
400.00000000000711
 20
-672.35021876663541
 30
0.0
 11
310.0
 21
-672.35021876663541
 31
0.0
  0
LINE
  5
138
  8
SIZE
  6
CONTINUOUS
 62
    30
 10
310.0
 20
-672.35021876663541
 30
0.0
 11
152.5714285714285
 21
-672.35021876663541
 31
0.0
  0
CIRCLE
  5
139
  8
SIZE
  6
CONTINUOUS
 62
    30
 10
400.00000000000711
 20
-672.35021876663541
 30
0.0
 40
7.5
  0
CIRCLE
  5
13A
  8
SIZE
  6
CONTINUOUS
 62
    30
 10
310.0
 20
-672.35021876663541
 30
0.0
 40
7.5
  0
TEXT
  5
13B
  8
SIZE
  6
CONTINUOUS
 62
    30
 10
172.57142857142861
 20
-652.35021876663541
 30
0.0
 40
60.0
  1
90
 41
0.9
 72
     1
 11
216.28571428571431
 21
-652.35021876663541
 31
0.0
  0
POINT
  5
13C
  8
DEFPOINTS
  6
CONTINUOUS
 62
     7
 10
310.0
 20
-234.0
 30
0.0
  0
POINT
  5
13D
  8
DEFPOINTS
  6
CONTINUOUS
 62
     7
 10
400.00000000000711
 20
-244.1176634821577
 30
0.0
  0
POINT
  5
13E
  8
DEFPOINTS
  6
CONTINUOUS
 62
     7
 10
400.00000000000711
 20
-672.35021876663541
 30
0.0
  0
LINE
  5
13F
  8
NOTE
  6
CONTINUOUS
 62
     4
 10
310.0
 20
-214.0
 30
0.0
 11
689.85512747340181
 21
60.334126832362017
 31
0.0
  0
LINE
  5
140
  8
NOTE
  6
CONTINUOUS
 62
     4
 10
689.85512747340181
 20
60.334126832362017
 30
0.0
 11
1103.46914177082
 21
60.334126832362017
 31
0.0
  0
LINE
  5
141
  8
NOTE
  6
CONTINUOUS
 62
     4
 10
338.27163252080209
 20
-201.14185525867919
 30
0.0
 11
310.0
 21
-214.0
 31
0.0
  0
LINE
  5
142
  8
NOTE
  6
CONTINUOUS
 62
     4
 10
310.0
 20
-214.0
 30
0.0
 11
328.05487971344701
 21
-188.72870382999
 31
0.0
  0
LINE
  5
149
  8
NOTE
  6
CONTINUOUS
 62
     4
 10
479.00000000000711
 20
-0.2549724425498425
 30
0.0
 11
663.43500595778085
 21
199.16342267860631
 31
0.0
  0
LINE
  5
14A
  8
NOTE
  6
CONTINUOUS
 62
     4
 10
663.43500595778085
 20
199.16342267860631
 30
0.0
 11
1064.413897628383
 21
199.16342267860631
 31
0.0
  0
LINE
  5
14B
  8
NOTE
  6
CONTINUOUS
 62
     4
 10
505.2006089399074
 20
16.422712731289721
 30
0.0
 11
479.00000000000711
 21
-0.2549724425498425
 31
0.0
  0
LINE
  5
14C
  8
NOTE
  6
CONTINUOUS
 62
     4
 10
479.00000000000711
 20
-0.2549724425498425
 30
0.0
 11
493.35155047462462
 21
27.28863099916089
 31
0.0
  0
LINE
  5
153
  8
NOTE
  6
CONTINUOUS
 62
     4
 10
-168.82543171085851
 20
23.358148918517148
 30
0.0
 11
-260.49260825396772
 21
137.09660620967949
 31
0.0
  0
LINE
  5
154
  8
NOTE
  6
CONTINUOUS
 62
     4
 10
-260.49260825396772
 20
137.09660620967949
 30
0.0
 11
-1005.1387421389441
 21
137.09660620967949
 31
0.0
  0
LINE
  5
155
  8
NOTE
  6
CONTINUOUS
 62
     4
 10
-162.5666346282523
 20
28.40240809684202
 30
0.0
 11
-150.0
 21
0.0
 31
0.0
  0
LINE
  5
156
  8
NOTE
  6
CONTINUOUS
 62
     4
 10
-150.0
 20
0.0
 30
0.0
 11
-175.08422879347199
 21
18.313889740189548
 31
0.0
  0
LINE
  5
157
  8
NOTE
  6
CONTINUOUS
 62
     4
 10
-150.0
 20
0.0
 30
0.0
 11
-168.82543171085851
 21
23.358148918517148
 31
0.0
  0
LINE
  5
16D
  8
NOTE
  6
CONTINUOUS
 62
     4
 10
309.99999775691691
 20
-136.0000009954947
 30
0.0
 11
749.10378346277855
 21
502.177614976641
 31
0.0
  0
TEXT
  5
16E
  8
NOTE
  6
CONTINUOUS
 62
     4
 10
760.38321135839965
 20
405.12522546513702
 30
0.0
 40
64.0
  1
RL %%C12.7
 41
0.9
  0
TEXT
  5
16F
  8
NOTE
  6
CONTINUOUS
 62
     4
 10
759.63746136345355
 20
343.88118651433678
 30
0.0
 40
45.0
  1
PCZG-P10MBA8
 50
359.9999970000153
 41
0.6309520000000001
  7
STANDARD1
  0
TEXT
  5
170
  8
NOTE
  6
CONTINUOUS
 62
     4
 10
776.3457729282236
 20
579.65094525646577
 30
0.0
 40
64.0
  1
RL %%C9.52
 41
0.9
  0
LINE
  5
171
  8
NOTE
  6
CONTINUOUS
 62
     4
 10
749.10378346277855
 20
502.177614976641
 30
0.0
 11
1156.023017952007
 21
502.177614976641
 31
0.0
  0
TEXT
  5
172
  8
NOTE
  6
CONTINUOUS
 62
     4
 10
775.6000229332775
 20
518.4069063056653
 30
0.0
 40
45.0
  1
PCZG-P8MBA8
 50
359.9999970000153
 41
0.6309520000000001
  7
STANDARD1
  0
LINE
  5
173
  8
NOTE
  6
CONTINUOUS
 62
     4
 10
629.01980943201488
 20
327.65189518531281
 30
0.0
 11
1121.477990009538
 21
327.65189518531281
 31
0.0
  0
LINE
  5
17A
  8
NOTE
  6
CONTINUOUS
 62
     4
 10
333.62754440787842
 20
-115.8417217501385
 30
0.0
 11
309.99999775691691
 21
-135.9999987309732
 31
0.0
  0
LINE
  5
17B
  8
NOTE
  6
CONTINUOUS
 62
     4
 10
309.99999775691691
 20
-135.9999987309732
 30
0.0
 11
320.3829150281162
 21
-106.7286454906682
 31
0.0
  0
LINE
  5
19F
  8
NOTE
  6
CONTINUOUS
 62
     4
 10
497.91000000000702
 20
-0.2549724425498425
 30
0.0
 11
460.09000000000731
 21
-0.2549724425498425
 31
0.0
  0
ENDSEC
  0
EOF
