  0
SECTION
  2
HEADER
  9
$ACADVER
  1
AC1009
  9
$INSBASE
 10
0.0
 20
0.0
 30
0.0
  9
$EXTMIN
 10
-1885.3992900691519
 20
-888.17039743337955
 30
-0.0015258207003583
  9
$EXTMAX
 10
1683.8208053470521
 20
1019.836514763636
 30
0.0000000349246037
  9
$LIMMIN
 10
-4267.1522210604826
 20
-2696.0832101984129
  9
$LIMMAX
 10
7190.7174225864646
 20
5141.155363923066
  9
$ORTHOMODE
 70
     1
  9
$REGENMODE
 70
     1
  9
$FILLMODE
 70
     1
  9
$QTEXTMODE
 70
     0
  9
$MIRRTEXT
 70
     0
  9
$DRAGMODE
 70
     2
  9
$LTSCALE
 40
20.0
  9
$OSMODE
 70
   431
  9
$ATTMODE
 70
     1
  9
$TEXTSIZE
 40
64.0
  9
$TRACEWID
 40
0.05
  9
$TEXTSTYLE
  7
STANDARD_MODELNAME
  9
$CLAYER
  8
SYMBOLLINE
  9
$CELTYPE
  6
CONTINUOUS
  9
$CECOLOR
 62
     7
  9
$DIMSCALE
 40
1.0
  9
$DIMASZ
 40
30.0
  9
$DIMEXO
 40
20.0
  9
$DIMDLI
 40
80.0
  9
$DIMRND
 40
0.0
  9
$DIMDLE
 40
0.0
  9
$DIMEXE
 40
20.0
  9
$DIMTP
 40
0.0
  9
$DIMTM
 40
0.0
  9
$DIMTXT
 40
60.0
  9
$DIMCEN
 40
0.09
  9
$DIMTSZ
 40
0.0
  9
$DIMTOL
 70
     0
  9
$DIMLIM
 70
     0
  9
$DIMTIH
 70
     0
  9
$DIMTOH
 70
     0
  9
$DIMSE1
 70
     0
  9
$DIMSE2
 70
     0
  9
$DIMTAD
 70
     1
  9
$DIMZIN
 70
     8
  9
$DIMBLK
  1
SMALL
  9
$DIMASO
 70
     1
  9
$DIMSHO
 70
     0
  9
$DIMPOST
  1

  9
$DIMAPOST
  1

  9
$DIMALT
 70
     0
  9
$DIMALTD
 70
     2
  9
$DIMALTF
 40
25.399999999999999
  9
$DIMLFAC
 40
1.0
  9
$DIMTOFL
 70
     1
  9
$DIMTVP
 40
0.0
  9
$DIMTIX
 70
     0
  9
$DIMSOXD
 70
     0
  9
$DIMSAH
 70
     0
  9
$DIMBLK1
  1

  9
$DIMBLK2
  1

  9
$DIMSTYLE
  2
STANDARD
  9
$DIMCLRD
 70
     0
  9
$DIMCLRE
 70
     0
  9
$DIMCLRT
 70
     0
  9
$DIMTFAC
 40
1.0
  9
$DIMGAP
 40
0.09
  9
$LUNITS
 70
     2
  9
$LUPREC
 70
     4
  9
$SKETCHINC
 40
0.1
  9
$FILLETRAD
 40
0.0
  9
$AUNITS
 70
     1
  9
$AUPREC
 70
     3
  9
$MENU
  1
ACAD
  9
$ELEVATION
 40
0.0
  9
$PELEVATION
 40
0.0
  9
$THICKNESS
 40
0.0
  9
$LIMCHECK
 70
     0
  9
$BLIPMODE
 70
     0
  9
$CHAMFERA
 40
0.0
  9
$CHAMFERB
 40
0.0
  9
$SKPOLY
 70
     0
  9
$TDCREATE
 40
2450330.4399309959
  9
$TDUPDATE
 40
2456833.6840883908
  9
$TDINDWG
 40
5.9694123610999998
  9
$TDUSRTIMER
 40
5.9694094907000004
  9
$USRTIMER
 70
     1
  9
$ANGBASE
 50
0.0
  9
$ANGDIR
 70
     0
  9
$PDMODE
 70
     3
  9
$PDSIZE
 40
-2.0
  9
$PLINEWID
 40
0.0
  9
$COORDS
 70
     1
  9
$SPLFRAME
 70
     0
  9
$SPLINETYPE
 70
     6
  9
$SPLINESEGS
 70
     8
  9
$ATTDIA
 70
     1
  9
$ATTREQ
 70
     1
  9
$HANDLING
 70
     1
  9
$HANDSEED
  5
25F
  9
$SURFTAB1
 70
     6
  9
$SURFTAB2
 70
     6
  9
$SURFTYPE
 70
     6
  9
$SURFU
 70
     6
  9
$SURFV
 70
     6
  9
$UCSNAME
  2

  9
$UCSORG
 10
0.0
 20
0.0
 30
0.0
  9
$UCSXDIR
 10
1.0
 20
0.0
 30
0.0
  9
$UCSYDIR
 10
0.0
 20
1.0
 30
0.0
  9
$PUCSNAME
  2

  9
$PUCSORG
 10
0.0
 20
0.0
 30
0.0
  9
$PUCSXDIR
 10
1.0
 20
0.0
 30
0.0
  9
$PUCSYDIR
 10
0.0
 20
1.0
 30
0.0
  9
$USERI1
 70
     0
  9
$USERI2
 70
     0
  9
$USERI3
 70
     0
  9
$USERI4
 70
     0
  9
$USERI5
 70
     0
  9
$USERR1
 40
20.0
  9
$USERR2
 40
0.0
  9
$USERR3
 40
0.0
  9
$USERR4
 40
0.0
  9
$USERR5
 40
0.0
  9
$WORLDVIEW
 70
     1
  9
$SHADEDGE
 70
     3
  9
$SHADEDIF
 70
    70
  9
$TILEMODE
 70
     1
  9
$MAXACTVP
 70
    64
  9
$PLIMCHECK
 70
     0
  9
$PEXTMIN
 10
1.0000000000000000E+020
 20
1.0000000000000000E+020
 30
1.0000000000000000E+020
  9
$PEXTMAX
 10
-1.0000000000000000E+020
 20
-1.0000000000000000E+020
 30
-1.0000000000000000E+020
  9
$PLIMMIN
 10
0.0
 20
0.0
  9
$PLIMMAX
 10
12.0
 20
9.0
  9
$UNITMODE
 70
     0
  9
$VISRETAIN
 70
     1
  9
$PLINEGEN
 70
     0
  9
$PSLTSCALE
 70
     1
  0
ENDSEC
  0
SECTION
  2
TABLES
  0
TABLE
  2
VPORT
 70
     1
  0
VPORT
  2
*ACTIVE
 70
     0
 10
0.0
 20
0.0
 11
1.0
 21
1.0
 12
-100.7892423610503
 22
65.833058665128306
 13
0.0
 23
0.0
 14
50.0
 24
50.0
 15
100.0
 25
100.0
 16
0.0
 26
0.0
 36
1.0
 17
0.0
 27
0.0
 37
0.0
 40
2249.5135416092498
 41
1.5944881889763769
 42
50.0
 43
0.0
 44
0.0
 50
0.0
 51
0.0
 71
     0
 72
  1000
 73
     1
 74
     0
 75
     0
 76
     0
 77
     0
 78
     0
  0
ENDTAB
  0
TABLE
  2
LTYPE
 70
     4
  0
LTYPE
  2
CONTINUOUS
 70
     0
  3
実線
 72
    65
 73
     0
 40
0.0
  0
LTYPE
  2
DASHDOT
 70
     0
  3
____ _ ____ _ ____ _ ____ _ ____ _ ____ _ ____
 72
    65
 73
     4
 40
5.5
 49
4.0
 49
-0.6
 49
0.3
 49
-0.6
  0
ENDTAB
  0
TABLE
  2
LAYER
 70
    12
  0
LAYER
  2
0
 70
     0
 62
     7
  6
CONTINUOUS
  0
LAYER
  2
OUTLINE
 70
     0
 62
     3
  6
CONTINUOUS
  0
LAYER
  2
DETAIL
 70
     0
 62
     5
  6
CONTINUOUS
  0
LAYER
  2
BASIS
 70
     0
 62
     6
  6
DASHDOT
  0
LAYER
  2
SIZE
 70
     0
 62
    30
  6
CONTINUOUS
  0
LAYER
  2
NOTE
 70
     0
 62
     4
  6
CONTINUOUS
  0
LAYER
  2
ARRANGE
 70
     0
 62
     1
  6
CONTINUOUS
  0
LAYER
  2
FIX
 70
     0
 62
    11
  6
CONTINUOUS
  0
LAYER
  2
SERVICESPACE
 70
     0
 62
     2
  6
DASHDOT
  0
LAYER
  2
ETC
 70
     0
 62
    61
  6
CONTINUOUS
  0
LAYER
  2
SYMBOLLINE
 70
     0
 62
    15
  6
CONTINUOUS
  0
LAYER
  2
DEFPOINTS
 70
     0
 62
     7
  6
CONTINUOUS
  0
ENDTAB
  0
TABLE
  2
STYLE
 70
     4
  0
STYLE
  2
STANDARD
 70
     0
 40
0.0
 41
0.9
 50
0.0
 71
     0
 42
64.0
  3
SIMPLEX
  4
BIGFONT
  0
STYLE
  2
ANNOTATIVE
 70
     0
 40
0.0
 41
1.0
 50
0.0
 71
     0
 42
0.2
  3
txt
  4

  0
STYLE
  2
STANDARD_MODELNAME
 70
     0
 40
80.0
 41
0.8
 50
0.0
 71
     0
 42
64.0
  3
MONOTXT.shx
  4
BIGFONT.shx
  0
STYLE
  2
STANDARD1
 70
     0
 40
60.0
 41
0.7
 50
0.0
 71
     0
 42
64.0
  3
MONOTXT.shx
  4
BIGFONT.shx
  0
ENDTAB
  0
TABLE
  2
VIEW
 70
     1
  0
VIEW
  2
ALL
 70
     0
 40
9000.0
 10
241.50664699999999
 20
0.0
 41
12483.01
 11
0.0
 21
0.0
 31
1.0
 12
0.0
 22
0.0
 32
0.0
 42
50.0
 43
0.0
 44
0.0
 50
0.0
 71
     0
  0
ENDTAB
  0
TABLE
  2
UCS
 70
     0
  0
ENDTAB
  0
TABLE
  2
APPID
 70
     5
  0
APPID
  2
ACAD
 70
     0
  0
APPID
  2
ACADANNOTATIVE
 70
     0
  0
APPID
  2
ACAD_NAV_VCDISPLAY
 70
     0
  0
APPID
  2
ACAD_EXEMPT_FROM_CAD_STANDARDS
 70
     0
  0
APPID
  2
ACAD_MLEADERVER
 70
     0
  0
ENDTAB
  0
TABLE
  2
DIMSTYLE
 70
     3
  0
DIMSTYLE
  2
STANDARD
 70
     0
  3

  4

  5

  6

  7

 40
1.0
 41
0.18
 42
0.0625
 43
0.38
 44
0.18
 45
0.0
 46
0.0
 47
0.0
 48
0.0
140
0.18
141
0.09
142
0.0
143
25.399999999999999
144
1.0
145
0.0
146
1.0
147
0.09
 71
     0
 72
     0
 73
     1
 74
     1
 75
     0
 76
     0
 77
     0
 78
     0
170
     0
171
     2
172
     0
173
     0
174
     0
175
     0
176
     0
177
     0
178
     0
  0
DIMSTYLE
  2
ANNOTATIVE
 70
     0
  3

  4

  5

  6

  7

 40
1.0
 41
0.18
 42
0.0625
 43
0.38
 44
0.18
 45
0.0
 46
0.0
 47
0.0
 48
0.0
140
0.18
141
0.09
142
0.0
143
25.399999999999999
144
1.0
145
0.0
146
1.0
147
0.09
 71
     0
 72
     0
 73
     1
 74
     1
 75
     0
 76
     0
 77
     0
 78
     0
170
     0
171
     2
172
     0
173
     0
174
     0
175
     0
176
     0
177
     0
178
     0
  0
ENDTAB
  0
ENDSEC
  0
SECTION
  2
BLOCKS
  0
BLOCK
  8
0
  2
$MODEL_SPACE
 70
     0
 10
0.0
 20
0.0
 30
0.0
  3
$MODEL_SPACE
  1

  0
ENDBLK
  5
71
  8
0
  0
BLOCK
 67
     1
  8
0
  2
$PAPER_SPACE
 70
     0
 10
0.0
 20
0.0
 30
0.0
  3
$PAPER_SPACE
  1

  0
ENDBLK
  5
6D
 67
     1
  8
0
  0
BLOCK
  8
0
  2
_SMALL
 70
     0
 10
0.0
 20
0.0
 30
0.0
  3
_SMALL
  1

  0
CIRCLE
  5
89
  8
0
  6
CONTINUOUS
 62
     7
 10
0.0
 20
0.0
 30
0.0
 40
0.25
  0
ENDBLK
  5
8A
  8
0
  0
ENDSEC
  0
SECTION
  2
ENTITIES
  0
LINE
  5
8C
  8
DETAIL
  6
CONTINUOUS
 62
     5
 10
1032.5
 20
-61.0
 30
0.0
 11
1032.5
 21
0.0
 31
0.0
  0
ARC
  5
8D
  8
DETAIL
  6
CONTINUOUS
 62
     5
 10
512.8403959999996
 20
-156.54716399999961
 30
0.0
 40
527.14113699999996
 50
341.93630100000382
 51
349.78849400008448
  0
ARC
  5
8E
  8
DETAIL
  6
CONTINUOUS
 62
     5
 10
-1006.690000000009
 20
-310.0
 30
0.0
 40
10.0
 50
197.26148400017391
 51
270.0
  0
LINE
  5
8F
  8
DETAIL
  6
CONTINUOUS
 62
     5
 10
882.50000000000011
 20
0.0
 30
0.0
 11
-882.50000000000011
 21
0.0
 31
0.0
  0
LINE
  5
90
  8
DETAIL
  6
CONTINUOUS
 62
     5
 10
864.0
 20
-320.0
 30
0.0
 11
-828.99996537197831
 21
-320.00000021031968
 31
0.0
  0
ARC
  5
91
  8
DETAIL
  6
CONTINUOUS
 62
     5
 10
-512.8403959999996
 20
-156.54716399999961
 30
0.0
 40
527.14113699999996
 50
190.2115059999156
 51
197.26148400017391
  0
LINE
  5
92
  8
DETAIL
  6
CONTINUOUS
 62
     5
 10
-1032.5
 20
-61.0
 30
0.0
 11
-1032.5
 21
0.0
 31
0.0
  0
ARC
  5
93
  8
DETAIL
  6
CONTINUOUS
 62
     5
 10
-522.85990299999685
 20
-156.54716399999961
 30
0.0
 40
527.14113699999996
 50
169.55711000008981
 51
190.2115059999156
  0
ARC
  5
94
  8
DETAIL
  6
CONTINUOUS
 62
     5
 10
522.8599030000039
 20
-156.54716399999961
 30
0.0
 40
527.14113699999996
 50
349.78849400008448
 51
10.44288999991004
  0
LINE
  5
96
  8
DETAIL
  6
CONTINUOUS
 62
     5
 10
1041.2699999999891
 20
-61.0
 30
0.0
 11
1032.5200000000041
 21
-61.0
 31
0.0
  0
LINE
  5
99
  8
DETAIL
  6
CONTINUOUS
 62
     5
 10
1032.5
 20
0.0
 30
0.0
 11
-1032.5
 21
0.000000000001819
 31
0.0
  0
LINE
  5
9B
  8
DETAIL
  6
CONTINUOUS
 62
     5
 10
1014.0
 20
-320.0
 30
0.0
 11
-828.99996537197831
 21
-320.00000021031968
 31
0.0
  0
LINE
  5
9F
  8
BASIS
  6
DASHDOT
 62
     6
 10
0.0
 20
80.0
 30
0.0
 11
0.0
 21
-400.0
 31
0.0
  0
CIRCLE
  5
A0
  8
ARRANGE
  6
CONTINUOUS
 62
     1
 10
0.0
 20
0.0
 30
0.0
 40
40.0
  0
CIRCLE
  5
A1
  8
FIX
  6
CONTINUOUS
 62
    11
 10
-983.0
 20
0.0
 30
0.0
 40
7.0
  0
CIRCLE
  5
A2
  8
FIX
  6
CONTINUOUS
 62
    11
 10
1011.0
 20
0.0
 30
0.0
 40
7.0
  0
LINE
  5
A3
  8
OUTLINE
  6
CONTINUOUS
 62
     3
 10
1032.5
 20
0.0
 30
0.0
 11
-1032.5
 21
0.000000000001819
 31
0.0
  0
LINE
  5
A4
  8
OUTLINE
  6
CONTINUOUS
 62
     3
 10
1041.2699999999891
 20
-61.0
 30
0.0
 11
1032.5
 21
-61.0
 31
0.0
  0
LINE
  5
A5
  8
OUTLINE
  6
CONTINUOUS
 62
     3
 10
1041.6510000000051
 20
-250.0
 30
0.0
 11
1031.6320000000051
 21
-250.0
 31
0.0
  0
LINE
  5
A6
  8
OUTLINE
  6
CONTINUOUS
 62
     3
 10
1013.999999223029
 20
-320.0000025039281
 30
0.0
 11
-1006.6900000124
 21
-320.0
 31
0.0
  0
LINE
  5
A7
  8
DETAIL
  6
CONTINUOUS
 62
     5
 10
-828.99996537197831
 20
-369.00000021032059
 30
0.0
 11
-986.0
 21
-369.0
 31
0.0
  0
ARC
  5
A8
  8
OUTLINE
  6
CONTINUOUS
 62
     3
 10
512.8403959999996
 20
-156.54716399999961
 30
0.0
 40
527.14113699999996
 50
341.93630100000382
 51
349.78849400008448
  0
ARC
  5
A9
  8
OUTLINE
  6
CONTINUOUS
 62
     3
 10
522.8599030000039
 20
-156.54716399999961
 30
0.0
 40
527.14113699999996
 50
349.78849400008448
 51
10.44288999991004
  0
LINE
  5
AA
  8
OUTLINE
  6
CONTINUOUS
 62
     3
 10
1041.2699999999891
 20
-61.0
 30
0.0
 11
1032.5200000000041
 21
-61.0
 31
0.0
  0
LINE
  5
AB
  8
OUTLINE
  6
CONTINUOUS
 62
     3
 10
1032.5
 20
-61.0
 30
0.0
 11
1032.5
 21
0.0
 31
0.0
  0
LINE
  5
AC
  8
NOTE
  6
CONTINUOUS
 62
     4
 10
-843.0
 20
-234.0
 30
0.0
 11
-843.0
 21
-194.0
 31
0.0
  0
LINE
  5
AD
  8
NOTE
  6
CONTINUOUS
 62
     4
 10
-863.0
 20
-214.0
 30
0.0
 11
-823.0
 21
-214.0
 31
0.0
  0
LINE
  5
AE
  8
NOTE
  6
CONTINUOUS
 62
     4
 10
-923.0
 20
-156.0
 30
0.0
 11
-923.0
 21
-116.0
 31
0.0
  0
LINE
  5
AF
  8
NOTE
  6
CONTINUOUS
 62
     4
 10
-943.0
 20
-136.0
 30
0.0
 11
-903.0
 21
-136.0
 31
0.0
  0
LINE
  5
B0
  8
NOTE
  6
CONTINUOUS
 62
     4
 10
1011.0
 20
-20.000000000000909
 30
0.0
 11
1011.0
 21
20.0
 31
0.0
  0
LINE
  5
B1
  8
NOTE
  6
CONTINUOUS
 62
     4
 10
991.0
 20
0.0
 30
0.0
 11
1031.0
 21
0.0
 31
0.0
  0
LINE
  5
B2
  8
NOTE
  6
CONTINUOUS
 62
     4
 10
-983.0
 20
-20.000000000000909
 30
0.0
 11
-983.0
 21
20.0
 31
0.0
  0
LINE
  5
B4
  8
SIZE
  6
CONTINUOUS
 62
    30
 10
1052.5
 20
-0.0000000000000057
 30
0.0
 11
1447.6172215239351
 21
-0.0000000000001176
 31
0.0
  0
LINE
  5
B5
  8
SIZE
  6
CONTINUOUS
 62
    30
 10
1033.9999992230289
 20
-320.0000025039281
 30
0.0
 11
1447.6172215239351
 21
-320.0000025039281
 31
0.0
  0
LINE
  5
B6
  8
SIZE
  6
CONTINUOUS
 62
    30
 10
1427.6172215239351
 20
-0.0000000000001119
 30
0.0
 11
1427.6172215239351
 21
-320.0000025039281
 31
0.0
  0
CIRCLE
  5
B7
  8
SIZE
  6
CONTINUOUS
 62
    30
 10
1427.6172215239351
 20
-0.0000000000001119
 30
0.0
 40
7.5
  0
CIRCLE
  5
B8
  8
SIZE
  6
CONTINUOUS
 62
    30
 10
1427.6172215239351
 20
-320.0000025039281
 30
0.0
 40
7.5
  0
TEXT
  5
B9
  8
SIZE
  6
CONTINUOUS
 62
    30
 10
1407.6172215239351
 20
-229.42857268053561
 30
0.0
 40
60.0
  1
320
 50
90.0
 41
0.9
 72
     1
 11
1407.6172215239351
 21
-160.00000125196411
 31
0.0
  0
POINT
  5
BA
  8
DEFPOINTS
  6
CONTINUOUS
 62
     7
 10
1032.5
 20
0.0
 30
0.0
  0
POINT
  5
BB
  8
DEFPOINTS
  6
CONTINUOUS
 62
     7
 10
1013.999999223029
 20
-320.0000025039281
 30
0.0
  0
POINT
  5
BC
  8
DEFPOINTS
  6
CONTINUOUS
 62
     7
 10
1427.6172215239351
 20
-320.0000025039281
 30
0.0
  0
LINE
  5
BD
  8
SIZE
  6
CONTINUOUS
 62
    30
 10
1011.0
 20
40.0
 30
0.0
 11
1011.0
 21
617.09678740772779
 31
0.0
  0
LINE
  5
BE
  8
SIZE
  6
CONTINUOUS
 62
    30
 10
1049.999965371979
 20
-135.4827580089331
 30
0.0
 11
1049.999965371979
 21
617.09678740772779
 31
0.0
  0
LINE
  5
BF
  8
SIZE
  6
CONTINUOUS
 62
    30
 10
1011.0
 20
597.09678740772767
 30
0.0
 11
981.0
 21
597.09678740772767
 31
0.0
  0
LINE
  5
C0
  8
SIZE
  6
CONTINUOUS
 62
    30
 10
1049.999965371979
 20
597.09678740772767
 30
0.0
 11
1234.857108229121
 21
597.09678740772767
 31
0.0
  0
LINE
  5
C1
  8
SIZE
  6
CONTINUOUS
 62
    30
 10
1011.0
 20
597.09678740772767
 30
0.0
 11
1049.999965371979
 21
597.09678740772767
 31
0.0
  0
CIRCLE
  5
C2
  8
SIZE
  6
CONTINUOUS
 62
    30
 10
1011.0
 20
597.09678740772767
 30
0.0
 40
7.5
  0
CIRCLE
  5
C3
  8
SIZE
  6
CONTINUOUS
 62
    30
 10
1049.999965371979
 20
597.09678740772767
 30
0.0
 40
7.5
  0
TEXT
  5
C4
  8
SIZE
  6
CONTINUOUS
 62
    30
 10
1129.9999653719781
 20
617.09678740772767
 30
0.0
 40
60.0
  1
39
 41
0.9
 72
     1
 11
1172.4285368005501
 21
617.09678740772767
 31
0.0
  0
POINT
  5
C5
  8
DEFPOINTS
  6
CONTINUOUS
 62
     7
 10
1011.0
 20
20.0
 30
0.0
  0
POINT
  5
C6
  8
DEFPOINTS
  6
CONTINUOUS
 62
     7
 10
1049.999965371979
 20
-155.48275800893299
 30
0.0
  0
POINT
  5
C7
  8
DEFPOINTS
  6
CONTINUOUS
 62
     7
 10
1049.999965371979
 20
597.09678740772767
 30
0.0
  0
LINE
  5
C8
  8
SIZE
  6
CONTINUOUS
 62
    30
 10
-1049.999965371979
 20
-135.4827580089331
 30
0.0
 11
-1049.999965371979
 21
617.79160457337002
 31
0.0
  0
LINE
  5
C9
  8
SIZE
  6
CONTINUOUS
 62
    30
 10
-983.0
 20
40.0
 30
0.0
 11
-983.0
 21
617.79160457337002
 31
0.0
  0
LINE
  5
CA
  8
SIZE
  6
CONTINUOUS
 62
    30
 10
-983.0
 20
597.79160457336991
 30
0.0
 11
-1049.999965371979
 21
597.79160457336991
 31
0.0
  0
LINE
  5
CB
  8
SIZE
  6
CONTINUOUS
 62
    30
 10
-1049.999965371979
 20
597.79160457336991
 30
0.0
 11
-1222.3553888312699
 21
597.79160457336991
 31
0.0
  0
CIRCLE
  5
CC
  8
SIZE
  6
CONTINUOUS
 62
    30
 10
-983.0
 20
597.79160457336991
 30
0.0
 40
7.5
  0
CIRCLE
  5
CD
  8
SIZE
  6
CONTINUOUS
 62
    30
 10
-1049.999965371979
 20
597.79160457336991
 30
0.0
 40
7.5
  0
TEXT
  5
CE
  8
SIZE
  6
CONTINUOUS
 62
    30
 10
-1202.3553888312699
 20
617.79160457337002
 30
0.0
 40
60.0
  1
67
 41
0.9
 72
     1
 11
-1158.6411031169839
 21
617.79160457337002
 31
0.0
  0
POINT
  5
CF
  8
DEFPOINTS
  6
CONTINUOUS
 62
     7
 10
-1049.999965371979
 20
-155.48275800893299
 30
0.0
  0
POINT
  5
D0
  8
DEFPOINTS
  6
CONTINUOUS
 62
     7
 10
-983.0
 20
20.0
 30
0.0
  0
POINT
  5
D1
  8
DEFPOINTS
  6
CONTINUOUS
 62
     7
 10
-983.0
 20
597.79160457336991
 30
0.0
  0
LINE
  5
D2
  8
SIZE
  6
CONTINUOUS
 62
    30
 10
1011.0
 20
40.0
 30
0.0
 11
1011.0
 21
617.09678740772779
 31
0.0
  0
LINE
  5
D3
  8
SIZE
  6
CONTINUOUS
 62
    30
 10
-983.0
 20
40.0
 30
0.0
 11
-983.0
 21
617.09678740772779
 31
0.0
  0
LINE
  5
D4
  8
SIZE
  6
CONTINUOUS
 62
    30
 10
1011.0
 20
597.09678740772767
 30
0.0
 11
-983.0
 21
597.09678740772767
 31
0.0
  0
CIRCLE
  5
D5
  8
SIZE
  6
CONTINUOUS
 62
    30
 10
1011.0
 20
597.09678740772767
 30
0.0
 40
7.5
  0
CIRCLE
  5
D6
  8
SIZE
  6
CONTINUOUS
 62
    30
 10
-983.0
 20
597.09678740772767
 30
0.0
 40
7.5
  0
TEXT
  5
D7
  8
SIZE
  6
CONTINUOUS
 62
    30
 10
-92.212566316444821
 20
617.09678740772767
 30
0.0
 40
60.0
  1
1994
 41
0.9
 72
     1
 11
-0.9268520307305153
 21
617.09678740772767
 31
0.0
  0
POINT
  5
D8
  8
DEFPOINTS
  6
CONTINUOUS
 62
     7
 10
1011.0
 20
20.0
 30
0.0
  0
POINT
  5
D9
  8
DEFPOINTS
  6
CONTINUOUS
 62
     7
 10
-983.0
 20
20.0
 30
0.0
  0
POINT
  5
DA
  8
DEFPOINTS
  6
CONTINUOUS
 62
     7
 10
-983.0
 20
597.09678740772767
 30
0.0
  0
LINE
  5
DB
  8
SIZE
  6
CONTINUOUS
 62
    30
 10
-1050.0
 20
-137.59428026909151
 30
0.0
 11
-1050.0
 21
752.86939699390405
 31
0.0
  0
LINE
  5
DC
  8
SIZE
  6
CONTINUOUS
 62
    30
 10
1049.999965371979
 20
-135.4827580089331
 30
0.0
 11
1049.999965371979
 21
752.86939699390405
 31
0.0
  0
LINE
  5
DD
  8
SIZE
  6
CONTINUOUS
 62
    30
 10
-1050.0
 20
732.86939699390405
 30
0.0
 11
1049.999965371979
 21
732.86939699390405
 31
0.0
  0
CIRCLE
  5
DE
  8
SIZE
  6
CONTINUOUS
 62
    30
 10
-1050.0
 20
732.86939699390405
 30
0.0
 40
7.5
  0
CIRCLE
  5
DF
  8
SIZE
  6
CONTINUOUS
 62
    30
 10
1049.999965371979
 20
732.86939699390405
 30
0.0
 40
7.5
  0
TEXT
  5
E0
  8
SIZE
  6
CONTINUOUS
 62
    30
 10
-118.0276856203709
 20
752.86939699390405
 30
0.0
 40
60.0
  1
2100
 41
0.9
 72
     1
 11
-28.02768562037091
 21
752.86939699390405
 31
0.0
  0
POINT
  5
E1
  8
DEFPOINTS
  6
CONTINUOUS
 62
     7
 10
-1050.0
 20
-157.59428026909151
 30
0.0
  0
POINT
  5
E2
  8
DEFPOINTS
  6
CONTINUOUS
 62
     7
 10
1049.999965371979
 20
-155.48275800893299
 30
0.0
  0
POINT
  5
E3
  8
DEFPOINTS
  6
CONTINUOUS
 62
     7
 10
1049.999965371979
 20
732.86939699390405
 30
0.0
  0
LINE
  5
E5
  8
SIZE
  6
CONTINUOUS
 62
    30
 10
-1026.6900000124001
 20
-320.0
 30
0.0
 11
-1824.9678692617799
 21
-319.99999999999972
 31
0.0
  0
LINE
  5
E6
  8
SIZE
  6
CONTINUOUS
 62
    30
 10
-963.0
 20
-135.9999999999998
 30
0.0
 11
-1824.9678692617799
 21
-135.99999999999969
 31
0.0
  0
LINE
  5
E7
  8
SIZE
  6
CONTINUOUS
 62
    30
 10
-1804.967869261782
 20
-319.99999999999972
 30
0.0
 11
-1804.967869261782
 21
-135.99999999999969
 31
0.0
  0
CIRCLE
  5
E8
  8
SIZE
  6
CONTINUOUS
 62
    30
 10
-1804.967869261782
 20
-319.99999999999972
 30
0.0
 40
7.5
  0
CIRCLE
  5
E9
  8
SIZE
  6
CONTINUOUS
 62
    30
 10
-1804.967869261782
 20
-135.99999999999969
 30
0.0
 40
7.5
  0
TEXT
  5
EA
  8
SIZE
  6
CONTINUOUS
 62
    30
 10
-1824.967869261782
 20
-293.57142857142873
 30
0.0
 40
60.0
  1
184
 50
90.0
 41
0.9
 72
     1
 11
-1824.967869261782
 21
-228.00000000000011
 31
0.0
  0
POINT
  5
EB
  8
DEFPOINTS
  6
CONTINUOUS
 62
     7
 10
-1006.6900000124
 20
-320.0
 30
0.0
  0
POINT
  5
EC
  8
DEFPOINTS
  6
CONTINUOUS
 62
     7
 10
-943.0
 20
-136.0
 30
0.0
  0
POINT
  5
ED
  8
DEFPOINTS
  6
CONTINUOUS
 62
     7
 10
-1804.967869261782
 20
-135.99999999999969
 30
0.0
  0
LINE
  5
F0
  8
SIZE
  6
CONTINUOUS
 62
    30
 10
-1049.999965371979
 20
-175.4827580089331
 30
0.0
 11
-1049.999965371979
 21
-753.83984749351077
 31
0.0
  0
LINE
  5
F1
  8
SIZE
  6
CONTINUOUS
 62
    30
 10
-843.0
 20
-254.0
 30
0.0
 11
-843.0
 21
-753.83984749351077
 31
0.0
  0
LINE
  5
F2
  8
SIZE
  6
CONTINUOUS
 62
    30
 10
-1049.999965371979
 20
-733.83984749351123
 30
0.0
 11
-843.0
 21
-733.83984749351123
 31
0.0
  0
CIRCLE
  5
F3
  8
SIZE
  6
CONTINUOUS
 62
    30
 10
-1049.999965371979
 20
-733.83984749351123
 30
0.0
 40
7.5
  0
CIRCLE
  5
F4
  8
SIZE
  6
CONTINUOUS
 62
    30
 10
-843.0
 20
-733.83984749351123
 30
0.0
 40
7.5
  0
TEXT
  5
F5
  8
SIZE
  6
CONTINUOUS
 62
    30
 10
-1015.92855411456
 20
-713.83984749351123
 30
0.0
 40
60.0
  1
207
 41
0.9
 72
     1
 11
-946.49998268598915
 21
-713.83984749351123
 31
0.0
  0
POINT
  5
F6
  8
DEFPOINTS
  6
CONTINUOUS
 62
     7
 10
-1049.999965371979
 20
-155.48275800893299
 30
0.0
  0
POINT
  5
F7
  8
DEFPOINTS
  6
CONTINUOUS
 62
     7
 10
-843.0
 20
-234.0
 30
0.0
  0
POINT
  5
F8
  8
DEFPOINTS
  6
CONTINUOUS
 62
     7
 10
-843.0
 20
-733.83984749351123
 30
0.0
  0
LINE
  5
F9
  8
SIZE
  6
CONTINUOUS
 62
    30
 10
-1049.999965371979
 20
-175.4827580089331
 30
0.0
 11
-1049.999965371979
 21
-609.60034012601216
 31
0.0
  0
LINE
  5
FA
  8
SIZE
  6
CONTINUOUS
 62
    30
 10
-923.0
 20
-176.0
 30
0.0
 11
-923.0
 21
-609.60034012601216
 31
0.0
  0
LINE
  5
FB
  8
SIZE
  6
CONTINUOUS
 62
    30
 10
-923.0
 20
-589.60034012601227
 30
0.0
 11
-1049.999965371979
 21
-589.60034012601227
 31
0.0
  0
LINE
  5
FC
  8
SIZE
  6
CONTINUOUS
 62
    30
 10
-1049.999965371979
 20
-589.60034012601227
 30
0.0
 11
-1248.5713939434099
 21
-589.60034012601227
 31
0.0
  0
CIRCLE
  5
FD
  8
SIZE
  6
CONTINUOUS
 62
    30
 10
-923.0
 20
-589.60034012601227
 30
0.0
 40
7.5
  0
CIRCLE
  5
FE
  8
SIZE
  6
CONTINUOUS
 62
    30
 10
-1049.999965371979
 20
-589.60034012601227
 30
0.0
 40
7.5
  0
TEXT
  5
FF
  8
SIZE
  6
CONTINUOUS
 62
    30
 10
-1228.5713939434099
 20
-569.60034012601227
 30
0.0
 40
60.0
  1
127
 41
0.9
 72
     1
 11
-1164.2856796576959
 21
-569.60034012601227
 31
0.0
  0
POINT
  5
100
  8
DEFPOINTS
  6
CONTINUOUS
 62
     7
 10
-1049.999965371979
 20
-155.48275800893299
 30
0.0
  0
POINT
  5
101
  8
DEFPOINTS
  6
CONTINUOUS
 62
     7
 10
-923.0
 20
-156.0
 30
0.0
  0
POINT
  5
102
  8
DEFPOINTS
  6
CONTINUOUS
 62
     7
 10
-923.0
 20
-589.60034012601227
 30
0.0
  0
LINE
  5
103
  8
SERVICESPACE
  6
DASHDOT
 62
     2
 10
1049.999965371979
 20
0.0
 30
0.0
 11
1249.999965371979
 21
-320.00000255364739
 31
0.0
  0
LINE
  5
104
  8
SERVICESPACE
  6
DASHDOT
 62
     2
 10
1049.999965371979
 20
0.0
 30
0.0
 11
1049.999965371979
 21
-320.00000255364739
 31
0.0
  0
LINE
  5
105
  8
SERVICESPACE
  6
DASHDOT
 62
     2
 10
1249.999965371979
 20
0.0
 30
0.0
 11
1249.999965371979
 21
-320.00000255364739
 31
0.0
  0
LINE
  5
106
  8
SERVICESPACE
  6
DASHDOT
 62
     2
 10
1249.999965371979
 20
0.0
 30
0.0
 11
1049.999965371979
 21
0.0
 31
0.0
  0
LINE
  5
107
  8
SERVICESPACE
  6
DASHDOT
 62
     2
 10
1049.999965371979
 20
-320.00000255364739
 30
0.0
 11
1249.999965371979
 21
-320.00000255364739
 31
0.0
  0
LINE
  5
108
  8
SERVICESPACE
  6
DASHDOT
 62
     2
 10
1249.999965371979
 20
0.0
 30
0.0
 11
1049.999965371979
 21
-320.00000255364739
 31
0.0
  0
LINE
  5
109
  8
SERVICESPACE
  6
DASHDOT
 62
     2
 10
-1049.999965371971
 20
0.0
 30
0.0
 11
-1049.999965371979
 21
-320.0
 31
0.0
  0
LINE
  5
10A
  8
DETAIL
  6
CONTINUOUS
 62
     5
 10
-828.99996537197831
 20
0.0
 30
0.0
 11
-828.99996537197831
 21
-369.00000021032059
 31
0.0
  0
LINE
  5
10B
  8
SERVICESPACE
  6
DASHDOT
 62
     2
 10
-1549.999965371971
 20
0.0000000000109139
 30
0.0
 11
-1549.999965371979
 21
-319.99999999998897
 31
0.0
  0
LINE
  5
10C
  8
SERVICESPACE
  6
DASHDOT
 62
     2
 10
-1049.999965371979
 20
-320.0
 30
0.0
 11
-1549.999965371979
 21
-319.99999999998897
 31
0.0
  0
LINE
  5
10D
  8
SERVICESPACE
  6
DASHDOT
 62
     2
 10
-1049.999965371971
 20
0.0
 30
0.0
 11
-1549.999965371971
 21
0.0000000000109139
 31
0.0
  0
LINE
  5
10E
  8
SERVICESPACE
  6
DASHDOT
 62
     2
 10
-1050.0
 20
0.0
 30
0.0
 11
-1549.999965371979
 21
-319.99999999998897
 31
0.0
  0
LINE
  5
10F
  8
SERVICESPACE
  6
DASHDOT
 62
     2
 10
-1549.999965371971
 20
0.0000000000109139
 30
0.0
 11
-1049.999965371979
 21
-320.0
 31
0.0
  0
LINE
  5
114
  8
SIZE
  6
CONTINUOUS
 62
    30
 10
-1049.999965371979
 20
-340.0
 30
0.0
 11
-1049.999965371979
 21
-887.89764649550671
 31
0.0
  0
LINE
  5
115
  8
SIZE
  6
CONTINUOUS
 62
    30
 10
-1549.999965371979
 20
-339.99999999998897
 30
0.0
 11
-1549.999965371979
 21
-887.89764649550671
 31
0.0
  0
LINE
  5
116
  8
SIZE
  6
CONTINUOUS
 62
    30
 10
-1049.999965371979
 20
-867.89764649550659
 30
0.0
 11
-1549.999965371979
 21
-867.89764649550659
 31
0.0
  0
CIRCLE
  5
117
  8
SIZE
  6
CONTINUOUS
 62
    30
 10
-1049.999965371979
 20
-867.89764649550659
 30
0.0
 40
7.5
  0
CIRCLE
  5
118
  8
SIZE
  6
CONTINUOUS
 62
    30
 10
-1549.999965371979
 20
-867.89764649550659
 30
0.0
 40
7.5
  0
TEXT
  5
119
  8
SIZE
  6
CONTINUOUS
 62
    30
 10
-1434.742822514836
 20
-847.89764649550671
 30
0.0
 40
60.0
  1
500以上
 41
0.9
 72
     1
 11
-1299.999965371979
 21
-847.89764649550671
 31
0.0
  0
POINT
  5
11A
  8
DEFPOINTS
  6
CONTINUOUS
 62
     7
 10
-1049.999965371979
 20
-320.0
 30
0.0
  0
POINT
  5
11B
  8
DEFPOINTS
  6
CONTINUOUS
 62
     7
 10
-1549.999965371979
 20
-319.99999999998897
 30
0.0
  0
POINT
  5
11C
  8
DEFPOINTS
  6
CONTINUOUS
 62
     7
 10
-1549.999965371979
 20
-867.89764649550659
 30
0.0
  0
LINE
  5
11D
  8
SIZE
  6
CONTINUOUS
 62
    30
 10
1249.999965371979
 20
-340.00000255364739
 30
0.0
 11
1249.999965371979
 21
-572.19934241851558
 31
0.0
  0
LINE
  5
11E
  8
SIZE
  6
CONTINUOUS
 62
    30
 10
1049.999965371979
 20
-340.00000255364739
 30
0.0
 11
1049.999965371979
 21
-572.19934241851558
 31
0.0
  0
LINE
  5
11F
  8
SIZE
  6
CONTINUOUS
 62
    30
 10
1049.999965371979
 20
-552.1993424185157
 30
0.0
 11
1249.999965371979
 21
-552.1993424185157
 31
0.0
  0
LINE
  5
120
  8
SIZE
  6
CONTINUOUS
 62
    30
 10
1249.999965371979
 20
-552.1993424185157
 30
0.0
 11
1683.000453448188
 21
-552.1993424185157
 31
0.0
  0
CIRCLE
  5
121
  8
SIZE
  6
CONTINUOUS
 62
    30
 10
1049.999965371979
 20
-552.1993424185157
 30
0.0
 40
7.5
  0
CIRCLE
  5
122
  8
SIZE
  6
CONTINUOUS
 62
    30
 10
1249.999965371979
 20
-552.1993424185157
 30
0.0
 40
7.5
  0
TEXT
  5
123
  8
SIZE
  6
CONTINUOUS
 62
    30
 10
1393.5147391624739
 20
-532.1993424185157
 30
0.0
 40
60.0
  1
200以上
 41
0.9
 72
     1
 11
1528.2575963053309
 21
-532.1993424185157
 31
0.0
  0
POINT
  5
124
  8
DEFPOINTS
  6
CONTINUOUS
 62
     7
 10
1249.999965371979
 20
-320.00000255364739
 30
0.0
  0
POINT
  5
125
  8
DEFPOINTS
  6
CONTINUOUS
 62
     7
 10
1049.999965371979
 20
-320.00000255364739
 30
0.0
  0
POINT
  5
126
  8
DEFPOINTS
  6
CONTINUOUS
 62
     7
 10
1049.999965371979
 20
-552.1993424185157
 30
0.0
  0
LINE
  5
127
  8
NOTE
  6
CONTINUOUS
 62
     4
 10
-909.99996537197887
 20
-18.91000000000356
 30
0.0
 11
-909.99996537197887
 21
18.909999999997051
 31
0.0
  0
LINE
  5
129
  8
DETAIL
  6
CONTINUOUS
 62
     5
 10
-986.0
 20
-369.0
 30
0.0
 11
-986.0
 21
0.0
 31
0.0
  0
LINE
  5
12A
  8
SIZE
  6
CONTINUOUS
 62
    30
 10
-1006.0
 20
-320.0000000149339
 30
0.0
 11
-1824.9678692617799
 21
-320.00000001493368
 31
0.0
  0
LINE
  5
12B
  8
SIZE
  6
CONTINUOUS
 62
    30
 10
-1006.0
 20
-369.0
 30
0.0
 11
-1824.9678692617799
 21
-368.99999999999977
 31
0.0
  0
LINE
  5
12C
  8
SIZE
  6
CONTINUOUS
 62
    30
 10
-1804.967869261782
 20
-320.00000001493368
 30
0.0
 11
-1804.967869261782
 21
-368.99999999999977
 31
0.0
  0
LINE
  5
12D
  8
SIZE
  6
CONTINUOUS
 62
    30
 10
-1804.967869261782
 20
-368.99999999999977
 30
0.0
 11
-1804.967869261782
 21
-523.85714285714255
 31
0.0
  0
CIRCLE
  5
12E
  8
SIZE
  6
CONTINUOUS
 62
    30
 10
-1804.967869261782
 20
-320.00000001493368
 30
0.0
 40
7.5
  0
CIRCLE
  5
12F
  8
SIZE
  6
CONTINUOUS
 62
    30
 10
-1804.967869261782
 20
-368.99999999999977
 30
0.0
 40
7.5
  0
TEXT
  5
130
  8
SIZE
  6
CONTINUOUS
 62
    30
 10
-1824.967869261782
 20
-503.85714285714278
 30
0.0
 40
60.0
  1
49
 50
90.0
 41
0.9
 72
     1
 11
-1824.967869261782
 21
-461.42857142857127
 31
0.0
  0
POINT
  5
131
  8
DEFPOINTS
  6
CONTINUOUS
 62
     7
 10
-986.0
 20
-320.0000000149339
 30
0.0
  0
POINT
  5
132
  8
DEFPOINTS
  6
CONTINUOUS
 62
     7
 10
-986.0
 20
-369.0
 30
0.0
  0
POINT
  5
133
  8
DEFPOINTS
  6
CONTINUOUS
 62
     7
 10
-1804.967869261782
 20
-368.99999999999977
 30
0.0
  0
LINE
  5
134
  8
SIZE
  6
CONTINUOUS
 62
    30
 10
-1049.999965371971
 20
-175.48275800370081
 30
0.0
 11
-1049.999965371971
 21
-887.89764649550671
 31
0.0
  0
LINE
  5
135
  8
SIZE
  6
CONTINUOUS
 62
    30
 10
-828.99996537197831
 20
-389.00000021032071
 30
0.0
 11
-828.99996537197831
 21
-887.89764649550671
 31
0.0
  0
LINE
  5
136
  8
SIZE
  6
CONTINUOUS
 62
    30
 10
-1049.999965371971
 20
-867.89764649550659
 30
0.0
 11
-828.99996537197831
 21
-867.89764649550659
 31
0.0
  0
CIRCLE
  5
137
  8
SIZE
  6
CONTINUOUS
 62
    30
 10
-1049.999965371971
 20
-867.89764649550659
 30
0.0
 40
7.5
  0
CIRCLE
  5
138
  8
SIZE
  6
CONTINUOUS
 62
    30
 10
-828.99996537197831
 20
-867.89764649550659
 30
0.0
 40
7.5
  0
TEXT
  5
139
  8
SIZE
  6
CONTINUOUS
 62
    30
 10
-997.35710822911778
 20
-847.89764649550671
 30
0.0
 40
60.0
  1
221
 41
0.9
 72
     1
 11
-939.49996537197478
 21
-847.89764649550671
 31
0.0
  0
POINT
  5
13A
  8
DEFPOINTS
  6
CONTINUOUS
 62
     7
 10
-1049.999965371971
 20
-155.48275800370081
 30
0.0
  0
POINT
  5
13B
  8
DEFPOINTS
  6
CONTINUOUS
 62
     7
 10
-828.99996537197831
 20
-369.00000021032059
 30
0.0
  0
POINT
  5
13C
  8
DEFPOINTS
  6
CONTINUOUS
 62
     7
 10
-828.99996537197831
 20
-867.89764649550659
 30
0.0
  0
LINE
  5
13D
  8
DETAIL
  6
CONTINUOUS
 62
     5
 10
-986.0
 20
0.0
 30
0.0
 11
-828.99996537197831
 21
0.0
 31
0.0
  0
LINE
  5
13E
  8
DETAIL
  6
CONTINUOUS
 62
     5
 10
-1041.2695077977551
 20
-61.000003021305027
 30
0.0
 11
-1032.5
 21
-61.000003021305027
 31
0.0
  0
LINE
  5
13F
  8
DETAIL
  6
CONTINUOUS
 62
     5
 10
-1041.6511383037359
 20
-249.9999996428233
 30
0.0
 11
-1031.631631303731
 21
-249.9999996428233
 31
0.0
  0
LINE
  5
140
  8
DETAIL
  6
CONTINUOUS
 62
     5
 10
-986.0
 20
-320.0
 30
0.0
 11
-1006.690000000009
 21
-320.0
 31
0.0
  0
LINE
  5
141
  8
SIZE
  6
CONTINUOUS
 62
    30
 10
-1006.0
 20
-320.00000021031968
 30
0.0
 11
-1684.707180947189
 21
-320.00000021031951
 31
0.0
  0
LINE
  5
142
  8
SIZE
  6
CONTINUOUS
 62
    30
 10
-883.0
 20
-214.0
 30
0.0
 11
-1684.707180947189
 21
-213.9999999999998
 31
0.0
  0
LINE
  5
143
  8
SIZE
  6
CONTINUOUS
 62
    30
 10
-1664.707180947189
 20
-213.9999999999998
 30
0.0
 11
-1664.707180947189
 21
-320.00000021031951
 31
0.0
  0
LINE
  5
144
  8
SIZE
  6
CONTINUOUS
 62
    30
 10
-1664.707180947189
 20
-320.00000021031951
 30
0.0
 11
-1664.707180947189
 21
-564.89210133782649
 31
0.0
  0
CIRCLE
  5
145
  8
SIZE
  6
CONTINUOUS
 62
    30
 10
-1664.707180947189
 20
-213.9999999999998
 30
0.0
 40
7.5
  0
CIRCLE
  5
146
  8
SIZE
  6
CONTINUOUS
 62
    30
 10
-1664.707180947189
 20
-320.00000021031951
 30
0.0
 40
7.5
  0
TEXT
  5
147
  8
SIZE
  6
CONTINUOUS
 62
    30
 10
-1684.707180947189
 20
-544.89210133782649
 30
0.0
 40
60.0
  1
106
 50
90.0
 41
0.9
 72
     1
 11
-1684.707180947189
 21
-481.8921013378266
 31
0.0
  0
POINT
  5
148
  8
DEFPOINTS
  6
CONTINUOUS
 62
     7
 10
-986.0
 20
-320.00000021031968
 30
0.0
  0
POINT
  5
149
  8
DEFPOINTS
  6
CONTINUOUS
 62
     7
 10
-863.0
 20
-214.0
 30
0.0
  0
POINT
  5
14A
  8
DEFPOINTS
  6
CONTINUOUS
 62
     7
 10
-1664.707180947189
 20
-213.9999999999998
 30
0.0
  0
ARC
  5
14F
  8
OUTLINE
  6
CONTINUOUS
 62
     3
 10
-512.8403959999996
 20
-156.54716399999961
 30
0.0
 40
527.14113699999996
 50
190.2115059999156
 51
197.26148400017391
  0
LINE
  5
150
  8
OUTLINE
  6
CONTINUOUS
 62
     3
 10
-1041.6511383037359
 20
-249.9999996428233
 30
0.0
 11
-1031.631631303731
 21
-249.9999996428233
 31
0.0
  0
ARC
  5
151
  8
OUTLINE
  6
CONTINUOUS
 62
     3
 10
-522.85990299999685
 20
-156.54716399999961
 30
0.0
 40
527.14113699999996
 50
169.55711000008981
 51
190.2115059999156
  0
LINE
  5
152
  8
OUTLINE
  6
CONTINUOUS
 62
     3
 10
-1041.2695077977551
 20
-61.000003021305027
 30
0.0
 11
-1032.5
 21
-61.000003021305027
 31
0.0
  0
LINE
  5
153
  8
OUTLINE
  6
CONTINUOUS
 62
     3
 10
-1032.5
 20
-61.0
 30
0.0
 11
-1032.5
 21
0.0
 31
0.0
  0
ARC
  5
154
  8
OUTLINE
  6
CONTINUOUS
 62
     3
 10
-1006.690000000009
 20
-310.0
 30
0.0
 40
10.0
 50
197.26148400017391
 51
270.0
  0
LINE
  5
155
  8
DETAIL
  6
CONTINUOUS
 62
     5
 10
1031.6316313037171
 20
-249.99999964285871
 30
0.0
 11
1041.6511383037141
 21
-249.99999964285871
 31
0.0
  0
LINE
  5
156
  8
SIZE
  6
CONTINUOUS
 62
    30
 10
-909.99996537197887
 20
27.25502755744947
 30
0.0
 11
-909.99996537197887
 21
475.0512166848647
 31
0.0
  0
LINE
  5
157
  8
SIZE
  6
CONTINUOUS
 62
    30
 10
-1049.999965371971
 20
-135.4827580037007
 30
0.0
 11
-1049.999965371971
 21
475.0512166848647
 31
0.0
  0
LINE
  5
158
  8
SIZE
  6
CONTINUOUS
 62
    30
 10
-909.99996537197887
 20
455.0512166848647
 30
0.0
 11
-1049.999965371971
 21
455.0512166848647
 31
0.0
  0
LINE
  5
159
  8
SIZE
  6
CONTINUOUS
 62
    30
 10
-1049.999965371971
 20
455.0512166848647
 30
0.0
 11
-1248.5713939434031
 21
455.0512166848647
 31
0.0
  0
CIRCLE
  5
15A
  8
SIZE
  6
CONTINUOUS
 62
    30
 10
-909.99996537197887
 20
455.0512166848647
 30
0.0
 40
7.5
  0
CIRCLE
  5
15B
  8
SIZE
  6
CONTINUOUS
 62
    30
 10
-1049.999965371971
 20
455.0512166848647
 30
0.0
 40
7.5
  0
TEXT
  5
15C
  8
SIZE
  6
CONTINUOUS
 62
    30
 10
-1228.5713939434031
 20
475.0512166848647
 30
0.0
 40
60.0
  1
140
 41
0.9
 72
     1
 11
-1164.285679657688
 21
475.0512166848647
 31
0.0
  0
POINT
  5
15E
  8
DEFPOINTS
  6
CONTINUOUS
 62
     7
 10
-1049.999965371971
 20
-155.48275800370081
 30
0.0
  0
POINT
  5
15F
  8
DEFPOINTS
  6
CONTINUOUS
 62
     7
 10
-1049.999965371971
 20
455.0512166848647
 30
0.0
  0
LINE
  5
160
  8
ARRANGE
  6
CONTINUOUS
 62
     1
 10
42.396855862600198
 20
-41.960496852383571
 30
0.0
 11
-42.396855862585639
 21
41.960496852379038
 31
0.0
  0
LINE
  5
161
  8
ARRANGE
  6
CONTINUOUS
 62
     1
 10
42.334505526399887
 20
42.023402110813549
 30
0.0
 11
-42.334505526399887
 21
-42.023402110812633
 31
0.0
  0
LINE
  5
162
  8
DETAIL
  6
CONTINUOUS
 62
     5
 10
-776.40000000000157
 20
-28.285568543307821
 30
0.0
 11
-776.40000000000157
 21
-304.08556854330982
 31
0.0
  0
LINE
  5
163
  8
DETAIL
  6
CONTINUOUS
 62
     5
 10
92.199850105280305
 20
-304.08556854330982
 30
0.0
 11
92.199850105280305
 21
-28.285568543307821
 31
0.0
  0
LINE
  5
164
  8
DETAIL
  6
CONTINUOUS
 62
     5
 10
112.19985010528031
 20
-28.285568543307821
 30
0.0
 11
112.19985010528031
 21
-302.48556854331042
 31
0.0
  0
LINE
  5
165
  8
DETAIL
  6
CONTINUOUS
 62
     5
 10
-776.40000000000157
 20
-28.285568543307821
 30
0.0
 11
-776.40000000000157
 21
-304.08556854330982
 31
0.0
  0
LINE
  5
166
  8
DETAIL
  6
CONTINUOUS
 62
     5
 10
-794.40000000000146
 20
-28.285568543307821
 30
0.0
 11
-794.40000000000146
 21
-304.08556854330982
 31
0.0
  0
LINE
  5
167
  8
DETAIL
  6
CONTINUOUS
 62
     5
 10
-828.99996537197831
 20
-28.285568543307821
 30
0.0
 11
989.0
 21
-28.285568543307821
 31
0.0
  0
LINE
  5
168
  8
DETAIL
  6
CONTINUOUS
 62
     5
 10
989.0
 20
-304.08556854330982
 30
0.0
 11
-828.99996537197831
 21
-304.08556854330982
 31
0.0
  0
ARC
  5
169
  8
DETAIL
  6
CONTINUOUS
 62
     5
 10
110.59985010528899
 20
-302.48556854331042
 30
0.0
 40
1.5999999999999091
 50
270.0
 51
0.0
  0
LINE
  5
16A
  8
DETAIL
  6
CONTINUOUS
 62
     5
 10
92.199850105280305
 20
-302.48556854331042
 30
0.0
 11
112.19985010528031
 21
-302.48556854331042
 31
0.0
  0
LINE
  5
16B
  8
DETAIL
  6
CONTINUOUS
 62
     5
 10
92.199850105280305
 20
-304.08556854330982
 30
0.0
 11
110.59985010528899
 21
-304.08556854330982
 31
0.0
  0
LINE
  5
16C
  8
DETAIL
  6
CONTINUOUS
 62
     5
 10
110.59985010528899
 20
-28.285568543307821
 30
0.0
 11
110.59985010528899
 21
-302.48556854331042
 31
0.0
  0
LINE
  5
16D
  8
DETAIL
  6
CONTINUOUS
 62
     5
 10
112.19985010528031
 20
-28.285568543307821
 30
0.0
 11
112.19985010528031
 21
-302.48556854331042
 31
0.0
  0
LINE
  5
16E
  8
DETAIL
  6
CONTINUOUS
 62
     5
 10
989.0
 20
-304.08556854330982
 30
0.0
 11
989.0
 21
-28.285568543307821
 31
0.0
  0
TEXT
  5
194
  8
ETC
  6
CONTINUOUS
 62
    61
 10
-435.00779699555449
 20
943.05653693447323
 30
0.0
 40
64.0
  1
PCZG-P8_10MBA8(DRAIN-UP-USHIRO)_3
 41
0.9
  0
LINE
  5
1A2
  8
NOTE
  6
CONTINUOUS
 62
     4
 10
-962.99999999999966
 20
0.0000000000017764
 30
0.0
 11
-1003.0
 21
0.0000000000017764
 31
0.0
  0
LINE
  5
1A8
  8
NOTE
  6
CONTINUOUS
 62
     4
 10
-891.08996537197856
 20
0.0000000000017124
 30
0.0
 11
-928.90996537197907
 21
0.0000000000017124
 31
0.0
  0
TEXT
  5
1CC
  8
NOTE
  6
CONTINUOUS
 62
     4
 10
-1815.8701791104779
 20
156.94483007756841
 30
0.0
 40
64.0
  1
AH 4-14\U+00D726長穴
 41
0.9
  0
TEXT
  5
1CD
  8
NOTE
  6
CONTINUOUS
 62
     4
 10
-1502.687322597661
 20
311.65361346726149
 30
0.0
 40
64.0
  1
D VP-20
 41
0.9
  0
LINE
  5
1CE
  8
NOTE
  6
CONTINUOUS
 62
     4
 10
-909.99996537198604
 20
0.0
 30
0.0
 11
-1104.4801270743901
 21
298.49202935130143
 31
0.0
  0
LINE
  5
1CF
  8
NOTE
  6
CONTINUOUS
 62
     4
 10
-1521.166473727322
 20
298.49202935130143
 30
0.0
 11
-1104.4801270743901
 21
298.49202935130143
 31
0.0
  0
LINE
  5
1D0
  8
NOTE
  6
CONTINUOUS
 62
     4
 10
-932.95151584868654
 20
20.924708416015161
 30
0.0
 11
-909.99996537198604
 21
0.0
 31
0.0
  0
LINE
  5
1D1
  8
NOTE
  6
CONTINUOUS
 62
     4
 10
-909.99996537198604
 20
0.0
 30
0.0
 11
-919.41423706731621
 21
29.597104250683511
 31
0.0
  0
LINE
  5
1D2
  8
NOTE
  6
CONTINUOUS
 62
     4
 10
-1003.864304664304
 20
21.556557087378678
 30
0.0
 11
-1118.412042055312
 21
139.90550843181791
 31
0.0
  0
LINE
  5
1D3
  8
NOTE
  6
CONTINUOUS
 62
     4
 10
-1118.412042055312
 20
139.90550843181791
 30
0.0
 11
-1827.69697701464
 21
139.90550843181791
 31
0.0
  0
LINE
  5
1D4
  8
NOTE
  6
CONTINUOUS
 62
     4
 10
-1009.640368218592
 20
15.96601316068063
 30
0.0
 11
-983.00011049860768
 21
-0.0000057605411712
 31
0.0
  0
LINE
  5
1D5
  8
NOTE
  6
CONTINUOUS
 62
     4
 10
-983.00011049860768
 20
-0.0000057605411712
 30
0.0
 11
-998.08824111002457
 21
27.147101014077641
 31
0.0
  0
LINE
  5
1D6
  8
NOTE
  6
CONTINUOUS
 62
     4
 10
-983.00011049860768
 20
-0.0000057605411712
 30
0.0
 11
-1003.864304664304
 21
21.556557087378678
 31
0.0
  0
TEXT
  5
1D7
  8
NOTE
  6
CONTINUOUS
 62
     4
 10
-537.26453273414154
 20
64.192911482960881
 30
0.0
 40
64.0
  1
RG %%C25.4
 41
0.9
  0
LINE
  5
1DA
  8
NOTE
  6
CONTINUOUS
 62
     4
 10
-843.00000000000716
 20
-214.0
 30
0.0
 11
-565.03701793877553
 21
52.941404381916982
 31
0.0
  0
LINE
  5
1DB
  8
NOTE
  6
CONTINUOUS
 62
     4
 10
-565.03701793877553
 20
52.941404381916982
 30
0.0
 11
-149.157881242776
 21
52.941404381916982
 31
0.0
  0
LINE
  5
1DC
  8
NOTE
  6
CONTINUOUS
 62
     4
 10
-826.93010321174359
 20
-187.42227419822481
 30
0.0
 11
-843.00000000000716
 21
-214.0
 31
0.0
  0
LINE
  5
1DD
  8
NOTE
  6
CONTINUOUS
 62
     4
 10
-843.00000000000716
 20
-214.0
 30
0.0
 11
-815.79419831225084
 21
-199.01796255155199
 31
0.0
  0
LINE
  5
1E0
  8
NOTE
  6
CONTINUOUS
 62
     4
 10
-923.00000000000728
 20
-136.0
 30
0.0
 11
-660.97647180120885
 21
338.5060364130108
 31
0.0
  0
LINE
  5
1E1
  8
NOTE
  6
CONTINUOUS
 62
     4
 10
-901.38893124573724
 20
-113.69352562868509
 30
0.0
 11
-923.00000000000728
 21
-136.0
 31
0.0
  0
LINE
  5
1E2
  8
NOTE
  6
CONTINUOUS
 62
     4
 10
-923.00000000000728
 20
-136.0
 30
0.0
 11
-915.43750250487619
 21
-105.8764921827533
 31
0.0
  0
TEXT
  5
1E3
  8
NOTE
  6
CONTINUOUS
 62
     4
 10
-649.69704390558763
 20
241.4536469015072
 30
0.0
 40
64.0
  1
RL %%C12.7
 41
0.9
  0
TEXT
  5
1E4
  8
NOTE
  6
CONTINUOUS
 62
     4
 10
-650.44279390053362
 20
180.20960795070641
 30
0.0
 40
45.0
  1
PCZG-P10MBA8
 50
359.99999700001541
 41
0.6309520000000001
  7
STANDARD1
  0
TEXT
  5
1E5
  8
NOTE
  6
CONTINUOUS
 62
     4
 10
-643.5608265391437
 20
415.97936669283598
 30
0.0
 40
64.0
  1
RL %%C9.52
 41
0.9
  0
LINE
  5
1E6
  8
NOTE
  6
CONTINUOUS
 62
     4
 10
-660.97647180120885
 20
338.5060364130108
 30
0.0
 11
-254.05723731198029
 21
338.5060364130108
 31
0.0
  0
TEXT
  5
1E7
  8
NOTE
  6
CONTINUOUS
 62
     4
 10
-622.1050392493853
 20
354.73532774203483
 30
0.0
 40
45.0
  1
PCZG-P8MBA8
 50
359.99999700001541
 41
0.6309520000000001
  7
STANDARD1
  0
LINE
  5
1E8
  8
NOTE
  6
CONTINUOUS
 62
     4
 10
-757.35005053763496
 20
163.9803166216829
 30
0.0
 11
-288.60226525444892
 21
163.9803166216829
 31
0.0
  0
TEXT
  5
1F3
  8
NOTE
  6
CONTINUOUS
 62
     4
 10
1170.510195795619
 20
-235.82217663562281
 30
0.0
 40
45.0
  1
サービス
 50
90.00000299999769
 41
0.7
  7
STANDARD1
  0
TEXT
  5
1F4
  8
NOTE
  6
CONTINUOUS
 62
     4
 10
1243.9946132413661
 20
-235.82217663562281
 30
0.0
 40
45.0
  1
スペース
 50
90.00000299999769
 41
0.7
  7
STANDARD1
  0
TEXT
  5
1F5
  8
NOTE
  6
CONTINUOUS
 62
     4
 10
-1491.485700053558
 20
-244.81573736769039
 30
0.0
 40
45.0
  1
サービス
 50
90.00000299999769
 41
0.7
  7
STANDARD1
  0
TEXT
  5
1F6
  8
NOTE
  6
CONTINUOUS
 62
     4
 10
-1418.0012826078109
 20
-244.81573736769039
 30
0.0
 40
45.0
  1
スペース
 50
90.00000299999769
 41
0.7
  7
STANDARD1
  0
ENDSEC
  0
EOF
