  0
SECTION
  2
HEADER
  9
$ACADVER
  1
AC1009
  9
$INSBASE
 10
0.0
 20
0.0
 30
0.0
  9
$EXTMIN
 10
-1633.6394587389
 20
-695.63569713087782
 30
-0.0015258207003583
  9
$EXTMAX
 10
1900.6139934369889
 20
1562.16251841075
 30
0.0000000349246037
  9
$LIMMIN
 10
-4267.1522210604826
 20
-2696.0832101984129
  9
$LIMMAX
 10
7190.7174225864646
 20
5141.155363923066
  9
$ORTHOMODE
 70
     1
  9
$REGENMODE
 70
     1
  9
$FILLMODE
 70
     1
  9
$QTEXTMODE
 70
     0
  9
$MIRRTEXT
 70
     0
  9
$DRAGMODE
 70
     2
  9
$LTSCALE
 40
20.0
  9
$OSMODE
 70
   431
  9
$ATTMODE
 70
     1
  9
$TEXTSIZE
 40
64.0
  9
$TRACEWID
 40
0.05
  9
$TEXTSTYLE
  7
STANDARD_MODELNAME
  9
$CLAYER
  8
SYMBOLLINE
  9
$CELTYPE
  6
CONTINUOUS
  9
$CECOLOR
 62
     7
  9
$DIMSCALE
 40
1.0
  9
$DIMASZ
 40
30.0
  9
$DIMEXO
 40
20.0
  9
$DIMDLI
 40
80.0
  9
$DIMRND
 40
0.0
  9
$DIMDLE
 40
0.0
  9
$DIMEXE
 40
20.0
  9
$DIMTP
 40
0.0
  9
$DIMTM
 40
0.0
  9
$DIMTXT
 40
60.0
  9
$DIMCEN
 40
0.09
  9
$DIMTSZ
 40
0.0
  9
$DIMTOL
 70
     0
  9
$DIMLIM
 70
     0
  9
$DIMTIH
 70
     0
  9
$DIMTOH
 70
     0
  9
$DIMSE1
 70
     0
  9
$DIMSE2
 70
     0
  9
$DIMTAD
 70
     1
  9
$DIMZIN
 70
     8
  9
$DIMBLK
  1
SMALL
  9
$DIMASO
 70
     1
  9
$DIMSHO
 70
     0
  9
$DIMPOST
  1

  9
$DIMAPOST
  1

  9
$DIMALT
 70
     0
  9
$DIMALTD
 70
     2
  9
$DIMALTF
 40
25.399999999999999
  9
$DIMLFAC
 40
1.0
  9
$DIMTOFL
 70
     1
  9
$DIMTVP
 40
0.0
  9
$DIMTIX
 70
     0
  9
$DIMSOXD
 70
     0
  9
$DIMSAH
 70
     0
  9
$DIMBLK1
  1

  9
$DIMBLK2
  1

  9
$DIMSTYLE
  2
STANDARD
  9
$DIMCLRD
 70
     0
  9
$DIMCLRE
 70
     0
  9
$DIMCLRT
 70
     0
  9
$DIMTFAC
 40
1.0
  9
$DIMGAP
 40
0.09
  9
$LUNITS
 70
     2
  9
$LUPREC
 70
     4
  9
$SKETCHINC
 40
0.1
  9
$FILLETRAD
 40
0.0
  9
$AUNITS
 70
     1
  9
$AUPREC
 70
     3
  9
$MENU
  1
ACAD
  9
$ELEVATION
 40
0.0
  9
$PELEVATION
 40
0.0
  9
$THICKNESS
 40
0.0
  9
$LIMCHECK
 70
     0
  9
$BLIPMODE
 70
     0
  9
$CHAMFERA
 40
0.0
  9
$CHAMFERB
 40
0.0
  9
$SKPOLY
 70
     0
  9
$TDCREATE
 40
2450330.4399309959
  9
$TDUPDATE
 40
2456833.637953334
  9
$TDINDWG
 40
5.9699091666999999
  9
$TDUSRTIMER
 40
5.9699090625000002
  9
$USRTIMER
 70
     1
  9
$ANGBASE
 50
0.0
  9
$ANGDIR
 70
     0
  9
$PDMODE
 70
     3
  9
$PDSIZE
 40
-2.0
  9
$PLINEWID
 40
0.0
  9
$COORDS
 70
     1
  9
$SPLFRAME
 70
     0
  9
$SPLINETYPE
 70
     6
  9
$SPLINESEGS
 70
     8
  9
$ATTDIA
 70
     1
  9
$ATTREQ
 70
     1
  9
$HANDLING
 70
     1
  9
$HANDSEED
  5
277
  9
$SURFTAB1
 70
     6
  9
$SURFTAB2
 70
     6
  9
$SURFTYPE
 70
     6
  9
$SURFU
 70
     6
  9
$SURFV
 70
     6
  9
$UCSNAME
  2

  9
$UCSORG
 10
0.0
 20
0.0
 30
0.0
  9
$UCSXDIR
 10
1.0
 20
0.0
 30
0.0
  9
$UCSYDIR
 10
0.0
 20
1.0
 30
0.0
  9
$PUCSNAME
  2

  9
$PUCSORG
 10
0.0
 20
0.0
 30
0.0
  9
$PUCSXDIR
 10
1.0
 20
0.0
 30
0.0
  9
$PUCSYDIR
 10
0.0
 20
1.0
 30
0.0
  9
$USERI1
 70
     0
  9
$USERI2
 70
     0
  9
$USERI3
 70
     0
  9
$USERI4
 70
     0
  9
$USERI5
 70
     0
  9
$USERR1
 40
20.0
  9
$USERR2
 40
0.0
  9
$USERR3
 40
0.0
  9
$USERR4
 40
0.0
  9
$USERR5
 40
0.0
  9
$WORLDVIEW
 70
     1
  9
$SHADEDGE
 70
     3
  9
$SHADEDIF
 70
    70
  9
$TILEMODE
 70
     1
  9
$MAXACTVP
 70
    64
  9
$PLIMCHECK
 70
     0
  9
$PEXTMIN
 10
1.0000000000000000E+020
 20
1.0000000000000000E+020
 30
1.0000000000000000E+020
  9
$PEXTMAX
 10
-1.0000000000000000E+020
 20
-1.0000000000000000E+020
 30
-1.0000000000000000E+020
  9
$PLIMMIN
 10
0.0
 20
0.0
  9
$PLIMMAX
 10
12.0
 20
9.0
  9
$UNITMODE
 70
     0
  9
$VISRETAIN
 70
     1
  9
$PLINEGEN
 70
     0
  9
$PSLTSCALE
 70
     1
  0
ENDSEC
  0
SECTION
  2
TABLES
  0
TABLE
  2
VPORT
 70
     1
  0
VPORT
  2
*ACTIVE
 70
     0
 10
0.0
 20
0.0
 11
1.0
 21
1.0
 12
133.48726734904429
 22
433.26341063993641
 13
0.0
 23
0.0
 14
50.0
 24
50.0
 15
100.0
 25
100.0
 16
0.0
 26
0.0
 36
1.0
 17
0.0
 27
0.0
 37
0.0
 40
2275.1436563780562
 41
1.58076923076923
 42
50.0
 43
0.0
 44
0.0
 50
0.0
 51
0.0
 71
     0
 72
  1000
 73
     1
 74
     0
 75
     0
 76
     0
 77
     0
 78
     0
  0
ENDTAB
  0
TABLE
  2
LTYPE
 70
     4
  0
LTYPE
  2
CONTINUOUS
 70
     0
  3
実線
 72
    65
 73
     0
 40
0.0
  0
LTYPE
  2
DASHDOT
 70
     0
  3
____ _ ____ _ ____ _ ____ _ ____ _ ____ _ ____
 72
    65
 73
     4
 40
5.5
 49
4.0
 49
-0.6
 49
0.3
 49
-0.6
  0
ENDTAB
  0
TABLE
  2
LAYER
 70
    12
  0
LAYER
  2
0
 70
     0
 62
     7
  6
CONTINUOUS
  0
LAYER
  2
OUTLINE
 70
     0
 62
     3
  6
CONTINUOUS
  0
LAYER
  2
DETAIL
 70
     0
 62
     5
  6
CONTINUOUS
  0
LAYER
  2
BASIS
 70
     0
 62
     6
  6
DASHDOT
  0
LAYER
  2
SIZE
 70
     0
 62
    30
  6
CONTINUOUS
  0
LAYER
  2
NOTE
 70
     0
 62
     4
  6
CONTINUOUS
  0
LAYER
  2
ARRANGE
 70
     0
 62
     1
  6
CONTINUOUS
  0
LAYER
  2
FIX
 70
     0
 62
    11
  6
CONTINUOUS
  0
LAYER
  2
SERVICESPACE
 70
     0
 62
     2
  6
DASHDOT
  0
LAYER
  2
ETC
 70
     0
 62
    61
  6
CONTINUOUS
  0
LAYER
  2
SYMBOLLINE
 70
     0
 62
    15
  6
CONTINUOUS
  0
LAYER
  2
DEFPOINTS
 70
     0
 62
     7
  6
CONTINUOUS
  0
ENDTAB
  0
TABLE
  2
STYLE
 70
     4
  0
STYLE
  2
STANDARD
 70
     0
 40
0.0
 41
0.9
 50
0.0
 71
     0
 42
64.0
  3
SIMPLEX
  4
BIGFONT
  0
STYLE
  2
ANNOTATIVE
 70
     0
 40
0.0
 41
1.0
 50
0.0
 71
     0
 42
0.2
  3
txt
  4

  0
STYLE
  2
STANDARD_MODELNAME
 70
     0
 40
80.0
 41
0.8
 50
0.0
 71
     0
 42
64.0
  3
MONOTXT.shx
  4
BIGFONT.shx
  0
STYLE
  2
STANDARD1
 70
     0
 40
60.0
 41
0.7
 50
0.0
 71
     0
 42
64.0
  3
MONOTXT.shx
  4
BIGFONT.shx
  0
ENDTAB
  0
TABLE
  2
VIEW
 70
     1
  0
VIEW
  2
ALL
 70
     0
 40
9000.0
 10
241.50664699999999
 20
0.0
 41
12483.01
 11
0.0
 21
0.0
 31
1.0
 12
0.0
 22
0.0
 32
0.0
 42
50.0
 43
0.0
 44
0.0
 50
0.0
 71
     0
  0
ENDTAB
  0
TABLE
  2
UCS
 70
     0
  0
ENDTAB
  0
TABLE
  2
APPID
 70
     5
  0
APPID
  2
ACAD
 70
     0
  0
APPID
  2
ACADANNOTATIVE
 70
     0
  0
APPID
  2
ACAD_NAV_VCDISPLAY
 70
     0
  0
APPID
  2
ACAD_EXEMPT_FROM_CAD_STANDARDS
 70
     0
  0
APPID
  2
ACAD_MLEADERVER
 70
     0
  0
ENDTAB
  0
TABLE
  2
DIMSTYLE
 70
     3
  0
DIMSTYLE
  2
STANDARD
 70
     0
  3

  4

  5

  6

  7

 40
1.0
 41
0.18
 42
0.0625
 43
0.38
 44
0.18
 45
0.0
 46
0.0
 47
0.0
 48
0.0
140
0.18
141
0.09
142
0.0
143
25.399999999999999
144
1.0
145
0.0
146
1.0
147
0.09
 71
     0
 72
     0
 73
     1
 74
     1
 75
     0
 76
     0
 77
     0
 78
     0
170
     0
171
     2
172
     0
173
     0
174
     0
175
     0
176
     0
177
     0
178
     0
  0
DIMSTYLE
  2
ANNOTATIVE
 70
     0
  3

  4

  5

  6

  7

 40
1.0
 41
0.18
 42
0.0625
 43
0.38
 44
0.18
 45
0.0
 46
0.0
 47
0.0
 48
0.0
140
0.18
141
0.09
142
0.0
143
25.399999999999999
144
1.0
145
0.0
146
1.0
147
0.09
 71
     0
 72
     0
 73
     1
 74
     1
 75
     0
 76
     0
 77
     0
 78
     0
170
     0
171
     2
172
     0
173
     0
174
     0
175
     0
176
     0
177
     0
178
     0
  0
ENDTAB
  0
ENDSEC
  0
SECTION
  2
BLOCKS
  0
BLOCK
  8
0
  2
$MODEL_SPACE
 70
     0
 10
0.0
 20
0.0
 30
0.0
  3
$MODEL_SPACE
  1

  0
ENDBLK
  5
71
  8
0
  0
BLOCK
 67
     1
  8
0
  2
$PAPER_SPACE
 70
     0
 10
0.0
 20
0.0
 30
0.0
  3
$PAPER_SPACE
  1

  0
ENDBLK
  5
6D
 67
     1
  8
0
  0
BLOCK
  8
0
  2
_SMALL
 70
     0
 10
0.0
 20
0.0
 30
0.0
  3
_SMALL
  1

  0
CIRCLE
  5
89
  8
0
  6
CONTINUOUS
 62
     7
 10
0.0
 20
0.0
 30
0.0
 40
0.25
  0
ENDBLK
  5
8A
  8
0
  0
ENDSEC
  0
SECTION
  2
ENTITIES
  0
LINE
  5
8B
  8
DETAIL
  6
CONTINUOUS
 62
     5
 10
-1040.0
 20
400.0000000000008
 30
0.0
 11
1040.000000000007
 21
400.0000000000008
 31
0.0
  0
LINE
  5
8C
  8
DETAIL
  6
CONTINUOUS
 62
     5
 10
-1000.000000000007
 20
100.0000000000009
 30
0.0
 11
1000.000000000007
 21
100.0000000000009
 31
0.0
  0
LINE
  5
8D
  8
DETAIL
  6
CONTINUOUS
 62
     5
 10
-1010.0
 20
-400.0
 30
0.0
 11
1010.000000000007
 21
-400.0
 31
0.0
  0
LINE
  5
8E
  8
DETAIL
  6
CONTINUOUS
 62
     5
 10
-1015.0
 20
-330.0
 30
0.0
 11
1015.000000000007
 21
-330.0
 31
0.0
  0
LINE
  5
8F
  8
DETAIL
  6
CONTINUOUS
 62
     5
 10
-997.0
 20
-349.99999999999909
 30
0.0
 11
996.99999999999272
 21
-349.99999999999909
 31
0.0
  0
LINE
  5
90
  8
DETAIL
  6
CONTINUOUS
 62
     5
 10
-13.000000000007271
 20
-381.22025500000018
 30
0.0
 11
13.0
 21
-381.22025500000018
 31
0.0
  0
LINE
  5
91
  8
DETAIL
  6
CONTINUOUS
 62
     5
 10
-1050.0
 20
-360.0
 30
0.0
 11
-1050.0
 21
390.0
 31
0.0
  0
LINE
  5
92
  8
DETAIL
  6
CONTINUOUS
 62
     5
 10
-1035.0
 20
-310.0
 30
0.0
 11
-1035.0
 21
400.0000000000008
 31
0.0
  0
LINE
  5
93
  8
DETAIL
  6
CONTINUOUS
 62
     5
 10
-1000.000000000007
 20
-399.74937200000022
 30
0.0
 11
-1000.000000000007
 21
400.0000000000008
 31
0.0
  0
LINE
  5
94
  8
DETAIL
  6
CONTINUOUS
 62
     5
 10
-997.0
 20
-399.74937200000022
 30
0.0
 11
-997.0
 21
400.0000000000008
 31
0.0
  0
ARC
  5
95
  8
DETAIL
  6
CONTINUOUS
 62
     5
 10
-1015.0
 20
-310.0
 30
0.0
 40
20.0
 50
180.0
 51
270.0
  0
ARC
  5
96
  8
DETAIL
  6
CONTINUOUS
 62
     5
 10
-1010.0
 20
-360.0
 30
0.0
 40
40.0
 50
180.0
 51
270.0
  0
LINE
  5
9B
  8
DETAIL
  6
CONTINUOUS
 62
     5
 10
-10.0
 20
-381.22025500000018
 30
0.0
 11
-10.0
 21
-349.99999999999909
 31
0.0
  0
LINE
  5
9C
  8
DETAIL
  6
CONTINUOUS
 62
     5
 10
-13.000000000007271
 20
-400.0
 30
0.0
 11
-13.000000000007271
 21
-381.22025500000018
 31
0.0
  0
ARC
  5
A0
  8
DETAIL
  6
CONTINUOUS
 62
     5
 10
-1040.0
 20
390.0
 30
0.0
 40
10.0
 50
90.0
 51
180.0
  0
LINE
  5
A1
  8
DETAIL
  6
CONTINUOUS
 62
     5
 10
1050.000000000007
 20
-360.0
 30
0.0
 11
1050.000000000007
 21
390.0
 31
0.0
  0
LINE
  5
A2
  8
DETAIL
  6
CONTINUOUS
 62
     5
 10
1034.999999999993
 20
-310.0
 30
0.0
 11
1034.999999999993
 21
400.0000000000008
 31
0.0
  0
LINE
  5
A3
  8
DETAIL
  6
CONTINUOUS
 62
     5
 10
1000.000000000007
 20
-399.74937200000022
 30
0.0
 11
1000.000000000007
 21
400.0000000000008
 31
0.0
  0
LINE
  5
A4
  8
DETAIL
  6
CONTINUOUS
 62
     5
 10
996.99999999999272
 20
-399.74937200000022
 30
0.0
 11
996.99999999999272
 21
400.0000000000008
 31
0.0
  0
LINE
  5
A5
  8
DETAIL
  6
CONTINUOUS
 62
     5
 10
9.999999999992724
 20
-381.22025500000018
 30
0.0
 11
9.999999999992724
 21
-349.99999999999909
 31
0.0
  0
LINE
  5
A6
  8
DETAIL
  6
CONTINUOUS
 62
     5
 10
13.0
 20
-400.0
 30
0.0
 11
13.0
 21
-381.22025500000018
 31
0.0
  0
ARC
  5
A7
  8
DETAIL
  6
CONTINUOUS
 62
     5
 10
1015.000000000007
 20
-310.0
 30
0.0
 40
20.0
 50
270.0
 51
0.0
  0
ARC
  5
A8
  8
DETAIL
  6
CONTINUOUS
 62
     5
 10
1010.000000000007
 20
-360.0
 30
0.0
 40
40.0
 50
270.0
 51
0.0
  0
ARC
  5
B4
  8
DETAIL
  6
CONTINUOUS
 62
     5
 10
1040.000000000007
 20
390.0
 30
0.0
 40
10.0
 50
0.0
 51
90.0
  0
POINT
  5
BC
  8
DEFPOINTS
  6
CONTINUOUS
 62
     7
 10
-1035.0
 20
400.0000000000008
 30
0.0
  0
LINE
  5
C8
  8
SIZE
  6
CONTINUOUS
 62
    30
 10
-1060.0
 20
400.0000000000008
 30
0.0
 11
-1573.2282253632291
 21
400.0000000000008
 31
0.0
  0
LINE
  5
C9
  8
SIZE
  6
CONTINUOUS
 62
    30
 10
-1030.0
 20
-400.0
 30
0.0
 11
-1573.2282253632291
 21
-399.99999999999977
 31
0.0
  0
LINE
  5
CA
  8
SIZE
  6
CONTINUOUS
 62
    30
 10
-1553.2282253632291
 20
400.0000000000008
 30
0.0
 11
-1553.2282253632291
 21
-399.99999999999977
 31
0.0
  0
CIRCLE
  5
CB
  8
SIZE
  6
CONTINUOUS
 62
    30
 10
-1553.2282253632291
 20
400.0000000000008
 30
0.0
 40
7.5
  0
CIRCLE
  5
CC
  8
SIZE
  6
CONTINUOUS
 62
    30
 10
-1553.2282253632291
 20
-399.99999999999977
 30
0.0
 40
7.5
  0
TEXT
  5
CD
  8
SIZE
  6
CONTINUOUS
 62
    30
 10
-1573.2282253632291
 20
-86.544486512338025
 30
0.0
 40
60.0
  1
800
 50
90.0
 41
0.9
 72
     1
 11
-1573.2282253632291
 21
-17.115915083766591
 31
0.0
  0
POINT
  5
CE
  8
DEFPOINTS
  6
CONTINUOUS
 62
     7
 10
-1040.0
 20
400.0000000000008
 30
0.0
  0
POINT
  5
CF
  8
DEFPOINTS
  6
CONTINUOUS
 62
     7
 10
-1010.0
 20
-400.0
 30
0.0
  0
POINT
  5
D0
  8
DEFPOINTS
  6
CONTINUOUS
 62
     7
 10
-1553.2282253632291
 20
-399.99999999999977
 30
0.0
  0
POINT
  5
D9
  8
DEFPOINTS
  6
CONTINUOUS
 62
     7
 10
-1050.0
 20
-360.0
 30
0.0
  0
POINT
  5
EF
  8
DEFPOINTS
  6
CONTINUOUS
 62
     7
 10
1050.000000000007
 20
-360.0
 30
0.0
  0
LINE
  5
F1
  8
SIZE
  6
CONTINUOUS
 62
    30
 10
-1050.0
 20
-380.0
 30
0.0
 11
-1050.0
 21
-695.12472898276985
 31
0.0
  0
LINE
  5
F2
  8
SIZE
  6
CONTINUOUS
 62
    30
 10
1050.000000000007
 20
-380.0
 30
0.0
 11
1050.000000000007
 21
-695.12472898276985
 31
0.0
  0
LINE
  5
F3
  8
SIZE
  6
CONTINUOUS
 62
    30
 10
-1050.0
 20
-675.12472898276985
 30
0.0
 11
1050.000000000007
 21
-675.12472898276985
 31
0.0
  0
CIRCLE
  5
F4
  8
SIZE
  6
CONTINUOUS
 62
    30
 10
-1050.0
 20
-675.12472898276985
 30
0.0
 40
7.5
  0
CIRCLE
  5
F5
  8
SIZE
  6
CONTINUOUS
 62
    30
 10
1050.000000000007
 20
-675.12472898276985
 30
0.0
 40
7.5
  0
TEXT
  5
F6
  8
SIZE
  6
CONTINUOUS
 62
    30
 10
-89.999999999996348
 20
-655.12472898276985
 30
0.0
 40
60.0
  1
2100
 41
0.9
 72
     1
 11
0.000000000003638
 21
-655.12472898276985
 31
0.0
  0
POINT
  5
F7
  8
DEFPOINTS
  6
CONTINUOUS
 62
     7
 10
-1050.0
 20
-360.0
 30
0.0
  0
POINT
  5
F8
  8
DEFPOINTS
  6
CONTINUOUS
 62
     7
 10
1050.000000000007
 20
-360.0
 30
0.0
  0
POINT
  5
F9
  8
DEFPOINTS
  6
CONTINUOUS
 62
     7
 10
1050.000000000007
 20
-675.12472898276985
 30
0.0
  0
LINE
  5
10A
  8
SIZE
  6
CONTINUOUS
 62
    30
 10
1060.000000000007
 20
400.0000000000008
 30
0.0
 11
1768.742326761341
 21
400.00000000000068
 31
0.0
  0
LINE
  5
10B
  8
SIZE
  6
CONTINUOUS
 62
    30
 10
963.00000000000728
 20
310.0000000000008
 30
0.0
 11
1768.742326761341
 21
310.00000000000068
 31
0.0
  0
LINE
  5
10C
  8
SIZE
  6
CONTINUOUS
 62
    30
 10
1748.742326761341
 20
400.00000000000068
 30
0.0
 11
1748.742326761341
 21
310.00000000000068
 31
0.0
  0
LINE
  5
10D
  8
SIZE
  6
CONTINUOUS
 62
    30
 10
1748.742326761341
 20
310.00000000000068
 30
0.0
 11
1748.742326761341
 21
152.57142857142139
 31
0.0
  0
CIRCLE
  5
10E
  8
SIZE
  6
CONTINUOUS
 62
    30
 10
1748.742326761341
 20
400.00000000000068
 30
0.0
 40
7.5
  0
CIRCLE
  5
10F
  8
SIZE
  6
CONTINUOUS
 62
    30
 10
1748.742326761341
 20
310.00000000000068
 30
0.0
 40
7.5
  0
TEXT
  5
110
  8
SIZE
  6
CONTINUOUS
 62
    30
 10
1728.742326761341
 20
172.57142857142159
 30
0.0
 40
60.0
  1
90
 50
90.0
 41
0.9
 72
     1
 11
1728.742326761341
 21
216.2857142857074
 31
0.0
  0
POINT
  5
111
  8
DEFPOINTS
  6
CONTINUOUS
 62
     7
 10
1040.000000000007
 20
400.0000000000008
 30
0.0
  0
POINT
  5
113
  8
DEFPOINTS
  6
CONTINUOUS
 62
     7
 10
1748.742326761341
 20
310.00000000000068
 30
0.0
  0
LINE
  5
114
  8
SERVICESPACE
  6
DASHDOT
 62
     2
 10
1050.000000000007
 20
-400.0
 30
0.0
 11
1050.000000000007
 21
400.0000000000008
 31
0.0
  0
LINE
  5
115
  8
SERVICESPACE
  6
DASHDOT
 62
     2
 10
1550.000000000007
 20
-400.0
 30
0.0
 11
1550.000000000007
 21
400.0000000000008
 31
0.0
  0
LINE
  5
116
  8
SERVICESPACE
  6
DASHDOT
 62
     2
 10
1050.000000000007
 20
400.0000000000008
 30
0.0
 11
1550.000000000007
 21
400.0000000000008
 31
0.0
  0
LINE
  5
117
  8
SERVICESPACE
  6
DASHDOT
 62
     2
 10
1550.000000000007
 20
-400.0
 30
0.0
 11
1050.000000000007
 21
-400.0
 31
0.0
  0
LINE
  5
118
  8
SERVICESPACE
  6
DASHDOT
 62
     2
 10
1050.000000000007
 20
400.0000000000008
 30
0.0
 11
1550.000000000007
 21
-400.0
 31
0.0
  0
LINE
  5
119
  8
SERVICESPACE
  6
DASHDOT
 62
     2
 10
1050.000000000007
 20
-400.0
 30
0.0
 11
1550.000000000007
 21
400.0000000000008
 31
0.0
  0
LINE
  5
11A
  8
SERVICESPACE
  6
DASHDOT
 62
     2
 10
-1050.0
 20
-400.0
 30
0.0
 11
-1050.0
 21
400.0000000000008
 31
0.0
  0
LINE
  5
11B
  8
SERVICESPACE
  6
DASHDOT
 62
     2
 10
-1250.0
 20
-400.0
 30
0.0
 11
-1250.0
 21
400.0000000000008
 31
0.0
  0
LINE
  5
11C
  8
SERVICESPACE
  6
DASHDOT
 62
     2
 10
-1050.0
 20
-400.0
 30
0.0
 11
-1250.0
 21
-400.0
 31
0.0
  0
LINE
  5
11D
  8
SERVICESPACE
  6
DASHDOT
 62
     2
 10
-1050.0
 20
400.0000000000008
 30
0.0
 11
-1250.0
 21
400.0000000000008
 31
0.0
  0
LINE
  5
11E
  8
SERVICESPACE
  6
DASHDOT
 62
     2
 10
-1250.0
 20
400.0000000000008
 30
0.0
 11
-1050.0
 21
-400.0
 31
0.0
  0
LINE
  5
11F
  8
SERVICESPACE
  6
DASHDOT
 62
     2
 10
-1250.0
 20
-400.0
 30
0.0
 11
-1050.0
 21
400.0000000000008
 31
0.0
  0
LINE
  5
124
  8
SERVICESPACE
  6
DASHDOT
 62
     2
 10
1050.000000000007
 20
400.0000000000008
 30
0.0
 11
-1050.0
 21
400.0000000000008
 31
0.0
  0
LINE
  5
125
  8
SERVICESPACE
  6
DASHDOT
 62
     2
 10
1050.000000000007
 20
700.0
 30
0.0
 11
-1050.0
 21
700.0
 31
0.0
  0
LINE
  5
126
  8
SERVICESPACE
  6
DASHDOT
 62
     2
 10
-1050.0
 20
700.0
 30
0.0
 11
-1050.0
 21
400.0000000000008
 31
0.0
  0
LINE
  5
127
  8
SERVICESPACE
  6
DASHDOT
 62
     2
 10
1050.000000000007
 20
700.0
 30
0.0
 11
1050.000000000007
 21
400.0000000000008
 31
0.0
  0
LINE
  5
128
  8
SERVICESPACE
  6
DASHDOT
 62
     2
 10
-1050.0
 20
700.0
 30
0.0
 11
1050.000000000007
 21
400.0000000000008
 31
0.0
  0
LINE
  5
129
  8
SERVICESPACE
  6
DASHDOT
 62
     2
 10
-1050.0
 20
400.0000000000008
 30
0.0
 11
1050.000000000007
 21
700.0
 31
0.0
  0
LINE
  5
12B
  8
SIZE
  6
CONTINUOUS
 62
    30
 10
-1250.0
 20
-420.0
 30
0.0
 11
-1250.0
 21
-695.12472898276985
 31
0.0
  0
LINE
  5
12C
  8
SIZE
  6
CONTINUOUS
 62
    30
 10
-1050.0
 20
-420.0
 30
0.0
 11
-1050.0
 21
-695.12472898276985
 31
0.0
  0
LINE
  5
12D
  8
SIZE
  6
CONTINUOUS
 62
    30
 10
-1050.0
 20
-675.12472898276985
 30
0.0
 11
-1250.0
 21
-675.12472898276985
 31
0.0
  0
LINE
  5
12E
  8
SIZE
  6
CONTINUOUS
 62
    30
 10
-1250.0
 20
-675.12472898276985
 30
0.0
 11
-1589.485714285714
 21
-675.12472898276985
 31
0.0
  0
CIRCLE
  5
12F
  8
SIZE
  6
CONTINUOUS
 62
    30
 10
-1050.0
 20
-675.12472898276985
 30
0.0
 40
7.5
  0
CIRCLE
  5
130
  8
SIZE
  6
CONTINUOUS
 62
    30
 10
-1250.0
 20
-675.12472898276985
 30
0.0
 40
7.5
  0
TEXT
  5
131
  8
SIZE
  6
CONTINUOUS
 62
    30
 10
-1569.485714285714
 20
-655.12472898276985
 30
0.0
 40
60.0
  1
200以上
 41
0.9
 72
     1
 11
-1434.742857142857
 21
-655.12472898276985
 31
0.0
  0
POINT
  5
132
  8
DEFPOINTS
  6
CONTINUOUS
 62
     7
 10
-1250.0
 20
-400.0
 30
0.0
  0
POINT
  5
133
  8
DEFPOINTS
  6
CONTINUOUS
 62
     7
 10
-1050.0
 20
-400.0
 30
0.0
  0
POINT
  5
134
  8
DEFPOINTS
  6
CONTINUOUS
 62
     7
 10
-1050.0
 20
-675.12472898276985
 30
0.0
  0
LINE
  5
135
  8
SIZE
  6
CONTINUOUS
 62
    30
 10
1050.000000000007
 20
-420.0
 30
0.0
 11
1050.000000000007
 21
-695.12472898276985
 31
0.0
  0
LINE
  5
136
  8
SIZE
  6
CONTINUOUS
 62
    30
 10
1550.000000000007
 20
-420.0
 30
0.0
 11
1550.000000000007
 21
-695.12472898276985
 31
0.0
  0
LINE
  5
137
  8
SIZE
  6
CONTINUOUS
 62
    30
 10
1050.000000000007
 20
-675.12472898276985
 30
0.0
 11
1550.000000000007
 21
-675.12472898276985
 31
0.0
  0
CIRCLE
  5
138
  8
SIZE
  6
CONTINUOUS
 62
    30
 10
1050.000000000007
 20
-675.12472898276985
 30
0.0
 40
7.5
  0
CIRCLE
  5
139
  8
SIZE
  6
CONTINUOUS
 62
    30
 10
1550.000000000007
 20
-675.12472898276985
 30
0.0
 40
7.5
  0
TEXT
  5
13A
  8
SIZE
  6
CONTINUOUS
 62
    30
 10
1165.25714285715
 20
-655.12472898276985
 30
0.0
 40
60.0
  1
500以上
 41
0.9
 72
     1
 11
1300.000000000007
 21
-655.12472898276985
 31
0.0
  0
POINT
  5
13B
  8
DEFPOINTS
  6
CONTINUOUS
 62
     7
 10
1050.000000000007
 20
-400.0
 30
0.0
  0
POINT
  5
13D
  8
DEFPOINTS
  6
CONTINUOUS
 62
     7
 10
1550.000000000007
 20
-675.12472898276985
 30
0.0
  0
LINE
  5
13E
  8
SIZE
  6
CONTINUOUS
 62
    30
 10
-1070.0
 20
700.0
 30
0.0
 11
-1573.2282253632291
 21
700.0
 31
0.0
  0
LINE
  5
13F
  8
SIZE
  6
CONTINUOUS
 62
    30
 10
-1070.0
 20
400.0000000000008
 30
0.0
 11
-1573.2282253632291
 21
400.0000000000008
 31
0.0
  0
LINE
  5
140
  8
SIZE
  6
CONTINUOUS
 62
    30
 10
-1553.2282253632291
 20
700.0
 30
0.0
 11
-1553.2282253632291
 21
400.0000000000008
 31
0.0
  0
CIRCLE
  5
141
  8
SIZE
  6
CONTINUOUS
 62
    30
 10
-1553.2282253632291
 20
700.0
 30
0.0
 40
7.5
  0
CIRCLE
  5
142
  8
SIZE
  6
CONTINUOUS
 62
    30
 10
-1553.2282253632291
 20
400.0000000000008
 30
0.0
 40
7.5
  0
TEXT
  5
143
  8
SIZE
  6
CONTINUOUS
 62
    30
 10
-1573.2282253632291
 20
415.25714285714321
 30
0.0
 40
60.0
  1
300以上
 50
90.0
 41
0.9
 72
     1
 11
-1573.2282253632291
 21
550.00000000000034
 31
0.0
  0
POINT
  5
144
  8
DEFPOINTS
  6
CONTINUOUS
 62
     7
 10
-1050.0
 20
700.0
 30
0.0
  0
POINT
  5
145
  8
DEFPOINTS
  6
CONTINUOUS
 62
     7
 10
-1050.0
 20
400.0000000000008
 30
0.0
  0
POINT
  5
146
  8
DEFPOINTS
  6
CONTINUOUS
 62
     7
 10
-1553.2282253632291
 20
400.0000000000008
 30
0.0
  0
LINE
  5
147
  8
BASIS
  6
DASHDOT
 62
     6
 10
1100.0
 20
0.0
 30
0.0
 11
-1100.0
 21
0.0
 31
0.0
  0
LINE
  5
148
  8
BASIS
  6
DASHDOT
 62
     6
 10
0.0
 20
450.0
 30
0.0
 11
0.0
 21
-450.0
 31
0.0
  0
CIRCLE
  5
149
  8
ARRANGE
  6
CONTINUOUS
 62
     1
 10
0.0
 20
0.0
 30
0.0
 40
40.0
  0
LINE
  5
14A
  8
OUTLINE
  6
CONTINUOUS
 62
     3
 10
-1050.0
 20
-360.0
 30
0.0
 11
-1050.0
 21
390.0
 31
0.0
  0
ARC
  5
14B
  8
OUTLINE
  6
CONTINUOUS
 62
     3
 10
-1010.0
 20
-360.0
 30
0.0
 40
40.0
 50
180.0
 51
270.0
  0
LINE
  5
14C
  8
OUTLINE
  6
CONTINUOUS
 62
     3
 10
1010.000000000007
 20
-400.0
 30
0.0
 11
-1010.0
 21
-400.0
 31
0.0
  0
ARC
  5
14D
  8
OUTLINE
  6
CONTINUOUS
 62
     3
 10
1010.000000000007
 20
-360.0
 30
0.0
 40
40.0
 50
270.0
 51
0.0
  0
LINE
  5
14E
  8
OUTLINE
  6
CONTINUOUS
 62
     3
 10
1050.000000000007
 20
-360.0
 30
0.0
 11
1050.000000000007
 21
390.0
 31
0.0
  0
ARC
  5
14F
  8
OUTLINE
  6
CONTINUOUS
 62
     3
 10
1040.000000000007
 20
390.0
 30
0.0
 40
10.0
 50
0.0
 51
90.0
  0
ARC
  5
150
  8
OUTLINE
  6
CONTINUOUS
 62
     3
 10
-1040.0
 20
390.0
 30
0.0
 40
10.0
 50
90.0
 51
180.0
  0
LINE
  5
152
  8
OUTLINE
  6
CONTINUOUS
 62
     3
 10
1040.000000000007
 20
400.0
 30
0.0
 11
-1040.0
 21
400.0000000000008
 31
0.0
  0
LINE
  5
154
  8
DETAIL
  6
CONTINUOUS
 62
     5
 10
986.00000000000716
 20
471.199999999998
 30
0.0
 11
986.00000000000716
 21
689.39999999999873
 31
0.0
  0
LINE
  5
155
  8
DETAIL
  6
CONTINUOUS
 62
     5
 10
986.00000000000716
 20
468.99999999999801
 30
0.0
 11
986.00000000000716
 21
690.99999999999909
 31
0.0
  0
LINE
  5
156
  8
DETAIL
  6
CONTINUOUS
 62
     5
 10
986.00000000000716
 20
690.99999999999909
 30
0.0
 11
829.80000000000985
 21
690.99999999999909
 31
0.0
  0
LINE
  5
157
  8
DETAIL
  6
CONTINUOUS
 62
     5
 10
986.00000000000716
 20
468.99999999999801
 30
0.0
 11
981.10000000000582
 21
468.99999999999801
 31
0.0
  0
LINE
  5
158
  8
DETAIL
  6
CONTINUOUS
 62
     5
 10
829.00000000000728
 20
468.99999999999801
 30
0.0
 11
829.00000000000728
 21
690.20000000000243
 31
0.0
  0
ARC
  5
159
  8
DETAIL
  6
CONTINUOUS
 62
     5
 10
829.80000000000985
 20
690.20000000000243
 30
0.0
 40
0.7999999999974535
 50
90.0
 51
180.0
  0
LINE
  5
15A
  8
DETAIL
  6
CONTINUOUS
 62
     5
 10
959.10000000001276
 20
468.99999999999801
 30
0.0
 11
829.00000000000728
 21
468.99999999999801
 31
0.0
  0
LINE
  5
15B
  8
DETAIL
  6
CONTINUOUS
 62
     5
 10
962.10000000000605
 20
678.99999999999716
 30
0.0
 11
981.10000000000582
 21
678.99999999999716
 31
0.0
  0
LINE
  5
15C
  8
DETAIL
  6
CONTINUOUS
 62
     5
 10
959.10000000001276
 20
675.99999999999727
 30
0.0
 11
962.10000000000605
 21
678.99999999999716
 31
0.0
  0
LINE
  5
15D
  8
DETAIL
  6
CONTINUOUS
 62
     5
 10
981.10000000000582
 20
400.0000000000008
 30
0.0
 11
981.10000000000582
 21
678.99999999999716
 31
0.0
  0
LINE
  5
15E
  8
DETAIL
  6
CONTINUOUS
 62
     5
 10
959.10000000001276
 20
400.0000000000008
 30
0.0
 11
959.10000000001276
 21
675.99999999999727
 31
0.0
  0
LINE
  5
161
  8
DETAIL
  6
CONTINUOUS
 62
     5
 10
899.65470053838374
 20
468.99999999999801
 30
0.0
 11
931.34529946163809
 21
468.99999999999801
 31
0.0
  0
LINE
  5
162
  8
SIZE
  6
CONTINUOUS
 62
    30
 10
923.00000000000728
 20
350.0000000000008
 30
0.0
 11
923.00000000000728
 21
931.92871550217558
 31
0.0
  0
LINE
  5
163
  8
SIZE
  6
CONTINUOUS
 62
    30
 10
1050.000000000007
 20
410.0
 30
0.0
 11
1050.000000000007
 21
931.92871550217558
 31
0.0
  0
LINE
  5
164
  8
SIZE
  6
CONTINUOUS
 62
    30
 10
923.00000000000728
 20
911.92871550217581
 30
0.0
 11
1050.000000000007
 21
911.92871550217581
 31
0.0
  0
LINE
  5
165
  8
SIZE
  6
CONTINUOUS
 62
    30
 10
1050.000000000007
 20
911.92871550217581
 30
0.0
 11
1248.5714285714389
 21
911.92871550217581
 31
0.0
  0
CIRCLE
  5
166
  8
SIZE
  6
CONTINUOUS
 62
    30
 10
923.00000000000728
 20
911.92871550217581
 30
0.0
 40
7.5
  0
CIRCLE
  5
167
  8
SIZE
  6
CONTINUOUS
 62
    30
 10
1050.000000000007
 20
911.92871550217581
 30
0.0
 40
7.5
  0
TEXT
  5
168
  8
SIZE
  6
CONTINUOUS
 62
    30
 10
1100.00000000001
 20
931.92871550217592
 30
0.0
 40
60.0
  1
127
 41
0.9
 72
     1
 11
1164.2857142857249
 21
931.92871550217592
 31
0.0
  0
POINT
  5
16A
  8
DEFPOINTS
  6
CONTINUOUS
 62
     7
 10
1050.000000000007
 20
390.0
 30
0.0
  0
POINT
  5
16B
  8
DEFPOINTS
  6
CONTINUOUS
 62
     7
 10
1050.000000000007
 20
911.92871550217581
 30
0.0
  0
LINE
  5
16C
  8
SIZE
  6
CONTINUOUS
 62
    30
 10
1050.000000000007
 20
410.0
 30
0.0
 11
1050.000000000007
 21
1154.697824691573
 31
0.0
  0
LINE
  5
16D
  8
SIZE
  6
CONTINUOUS
 62
    30
 10
843.00000000000705
 20
350.0000000000008
 30
0.0
 11
843.00000000000705
 21
1154.697824691573
 31
0.0
  0
LINE
  5
16E
  8
SIZE
  6
CONTINUOUS
 62
    30
 10
1050.000000000007
 20
1134.697824691573
 30
0.0
 11
843.00000000000705
 21
1134.697824691573
 31
0.0
  0
CIRCLE
  5
16F
  8
SIZE
  6
CONTINUOUS
 62
    30
 10
1050.000000000007
 20
1134.697824691573
 30
0.0
 40
7.5
  0
CIRCLE
  5
170
  8
SIZE
  6
CONTINUOUS
 62
    30
 10
843.00000000000705
 20
1134.697824691573
 30
0.0
 40
7.5
  0
TEXT
  5
171
  8
SIZE
  6
CONTINUOUS
 62
    30
 10
880.02731110005072
 20
1154.697824691573
 30
0.0
 40
60.0
  1
207
 41
0.9
 72
     1
 11
949.45588252862206
 21
1154.697824691573
 31
0.0
  0
POINT
  5
172
  8
DEFPOINTS
  6
CONTINUOUS
 62
     7
 10
1050.000000000007
 20
390.0
 30
0.0
  0
POINT
  5
174
  8
DEFPOINTS
  6
CONTINUOUS
 62
     7
 10
843.00000000000705
 20
1134.697824691573
 30
0.0
  0
LINE
  5
175
  8
SIZE
  6
CONTINUOUS
 62
    30
 10
1060.000000000007
 20
400.0000000000008
 30
0.0
 11
1768.742326761341
 21
400.00000000000068
 31
0.0
  0
LINE
  5
176
  8
SIZE
  6
CONTINUOUS
 62
    30
 10
950.00000000000716
 20
650.99999999999727
 30
0.0
 11
1768.742326761341
 21
650.99999999999704
 31
0.0
  0
LINE
  5
177
  8
SIZE
  6
CONTINUOUS
 62
    30
 10
1748.742326761341
 20
400.00000000000068
 30
0.0
 11
1748.742326761341
 21
650.99999999999704
 31
0.0
  0
CIRCLE
  5
178
  8
SIZE
  6
CONTINUOUS
 62
    30
 10
1748.742326761341
 20
400.00000000000068
 30
0.0
 40
7.5
  0
CIRCLE
  5
179
  8
SIZE
  6
CONTINUOUS
 62
    30
 10
1748.742326761341
 20
650.99999999999704
 30
0.0
 40
7.5
  0
TEXT
  5
17A
  8
SIZE
  6
CONTINUOUS
 62
    30
 10
1728.742326761341
 20
467.64285714285529
 30
0.0
 40
60.0
  1
251
 50
90.0
 41
0.9
 72
     1
 11
1728.742326761341
 21
525.49999999999818
 31
0.0
  0
POINT
  5
17B
  8
DEFPOINTS
  6
CONTINUOUS
 62
     7
 10
1040.000000000007
 20
400.0000000000008
 30
0.0
  0
POINT
  5
17D
  8
DEFPOINTS
  6
CONTINUOUS
 62
     7
 10
1748.742326761341
 20
650.99999999999704
 30
0.0
  0
LINE
  5
17E
  8
SIZE
  6
CONTINUOUS
 62
    30
 10
1060.000000000007
 20
400.0000000000008
 30
0.0
 11
1900.2659353195629
 21
400.00000000000068
 31
0.0
  0
LINE
  5
17F
  8
SIZE
  6
CONTINUOUS
 62
    30
 10
1006.000000000007
 20
690.99999999999909
 30
0.0
 11
1900.2659353195629
 21
690.99999999999875
 31
0.0
  0
LINE
  5
180
  8
SIZE
  6
CONTINUOUS
 62
    30
 10
1880.265935319562
 20
400.00000000000068
 30
0.0
 11
1880.265935319562
 21
690.99999999999875
 31
0.0
  0
CIRCLE
  5
181
  8
SIZE
  6
CONTINUOUS
 62
    30
 10
1880.265935319562
 20
400.00000000000068
 30
0.0
 40
7.5
  0
CIRCLE
  5
182
  8
SIZE
  6
CONTINUOUS
 62
    30
 10
1880.265935319562
 20
690.99999999999875
 30
0.0
 40
7.5
  0
TEXT
  5
183
  8
SIZE
  6
CONTINUOUS
 62
    30
 10
1860.2659353195629
 20
487.64285714285433
 30
0.0
 40
60.0
  1
291
 50
90.0
 41
0.9
 72
     1
 11
1860.2659353195629
 21
545.49999999999704
 31
0.0
  0
POINT
  5
184
  8
DEFPOINTS
  6
CONTINUOUS
 62
     7
 10
1040.000000000007
 20
400.0000000000008
 30
0.0
  0
POINT
  5
185
  8
DEFPOINTS
  6
CONTINUOUS
 62
     7
 10
986.00000000000716
 20
690.99999999999909
 30
0.0
  0
POINT
  5
186
  8
DEFPOINTS
  6
CONTINUOUS
 62
     7
 10
1880.265935319562
 20
690.99999999999875
 30
0.0
  0
LINE
  5
187
  8
SIZE
  6
CONTINUOUS
 62
    30
 10
1050.000000000007
 20
410.0
 30
0.0
 11
1050.000000000007
 21
1028.788896112068
 31
0.0
  0
LINE
  5
188
  8
SIZE
  6
CONTINUOUS
 62
    30
 10
910.00000000000716
 20
690.99999999999909
 30
0.0
 11
910.00000000000716
 21
1028.788896112068
 31
0.0
  0
LINE
  5
189
  8
SIZE
  6
CONTINUOUS
 62
    30
 10
1050.000000000007
 20
1008.788896112068
 30
0.0
 11
910.00000000000716
 21
1008.788896112068
 31
0.0
  0
CIRCLE
  5
18A
  8
SIZE
  6
CONTINUOUS
 62
    30
 10
1050.000000000007
 20
1008.788896112068
 30
0.0
 40
7.5
  0
CIRCLE
  5
18B
  8
SIZE
  6
CONTINUOUS
 62
    30
 10
910.00000000000716
 20
1008.788896112068
 30
0.0
 40
7.5
  0
TEXT
  5
18C
  8
SIZE
  6
CONTINUOUS
 62
    30
 10
915.71428571429306
 20
1028.788896112068
 30
0.0
 40
60.0
  1
140
 41
0.9
 72
     1
 11
980.00000000000728
 21
1028.788896112068
 31
0.0
  0
POINT
  5
18D
  8
DEFPOINTS
  6
CONTINUOUS
 62
     7
 10
1050.000000000007
 20
390.0
 30
0.0
  0
POINT
  5
18F
  8
DEFPOINTS
  6
CONTINUOUS
 62
     7
 10
910.00000000000716
 20
1008.788896112068
 30
0.0
  0
LINE
  5
198
  8
SIZE
  6
CONTINUOUS
 62
    30
 10
1050.000000000007
 20
410.0
 30
0.0
 11
1050.000000000007
 21
1266.59478613858
 31
0.0
  0
LINE
  5
199
  8
SIZE
  6
CONTINUOUS
 62
    30
 10
829.00000000000728
 20
710.20000000000243
 30
0.0
 11
829.00000000000728
 21
1266.59478613858
 31
0.0
  0
LINE
  5
19A
  8
SIZE
  6
CONTINUOUS
 62
    30
 10
1050.000000000007
 20
1246.59478613858
 30
0.0
 11
829.00000000000728
 21
1246.59478613858
 31
0.0
  0
CIRCLE
  5
19B
  8
SIZE
  6
CONTINUOUS
 62
    30
 10
1050.000000000007
 20
1246.59478613858
 30
0.0
 40
7.5
  0
CIRCLE
  5
19C
  8
SIZE
  6
CONTINUOUS
 62
    30
 10
829.00000000000728
 20
1246.59478613858
 30
0.0
 40
7.5
  0
TEXT
  5
19D
  8
SIZE
  6
CONTINUOUS
 62
    30
 10
881.64285714286427
 20
1266.59478613858
 30
0.0
 40
60.0
  1
221
 41
0.9
 72
     1
 11
939.50000000000716
 21
1266.59478613858
 31
0.0
  0
POINT
  5
19E
  8
DEFPOINTS
  6
CONTINUOUS
 62
     7
 10
1050.000000000007
 20
390.0
 30
0.0
  0
POINT
  5
19F
  8
DEFPOINTS
  6
CONTINUOUS
 62
     7
 10
829.00000000000728
 20
690.20000000000243
 30
0.0
  0
POINT
  5
1A0
  8
DEFPOINTS
  6
CONTINUOUS
 62
     7
 10
829.00000000000728
 20
1246.59478613858
 30
0.0
  0
LINE
  5
1A1
  8
ARRANGE
  6
CONTINUOUS
 62
     1
 10
42.396855862607467
 20
-41.960496852383571
 30
0.0
 11
-42.396855862585639
 21
41.960496852380849
 31
0.0
  0
LINE
  5
1A2
  8
ARRANGE
  6
CONTINUOUS
 62
     1
 10
42.334505526407142
 20
42.023402110813549
 30
0.0
 11
-42.334505526392597
 21
-42.023402110813549
 31
0.0
  0
TEXT
  5
1C8
  8
ETC
  6
CONTINUOUS
 62
    61
 10
-33.736349455102747
 20
1485.6559018703911
 30
0.0
 40
64.0
  1
PCZG-P8_10MBA8(DRAIN-UP-USHIRO)_6
 41
0.9
  0
LINE
  5
1F3
  8
NOTE
  6
CONTINUOUS
 62
     4
 10
843.00000000000716
 20
290.0
 30
0.0
 11
843.00000000000716
 21
330.0
 31
0.0
  0
LINE
  5
1F4
  8
NOTE
  6
CONTINUOUS
 62
     4
 10
823.00000000000728
 20
310.0
 30
0.0
 11
863.00000000000728
 21
310.0
 31
0.0
  0
LINE
  5
1F5
  8
NOTE
  6
CONTINUOUS
 62
     4
 10
923.00000000000728
 20
290.0
 30
0.0
 11
923.00000000000728
 21
330.0
 31
0.0
  0
LINE
  5
1F6
  8
NOTE
  6
CONTINUOUS
 62
     4
 10
903.00000000000716
 20
310.0
 30
0.0
 11
943.00000000000716
 21
310.0
 31
0.0
  0
LINE
  5
1F7
  8
NOTE
  6
CONTINUOUS
 62
     4
 10
890.34375000000728
 20
651.0
 30
0.0
 11
929.65625000000728
 21
651.0
 31
0.0
  0
LINE
  5
1F8
  8
NOTE
  6
CONTINUOUS
 62
     4
 10
910.00000000000716
 20
631.0
 30
0.0
 11
910.00000000000716
 21
671.0
 31
0.0
  0
TEXT
  5
1F9
  8
NOTE
  6
CONTINUOUS
 62
     4
 10
246.6076259153233
 20
1011.165958606283
 30
0.0
 40
64.0
  1
D VP-20
 41
0.9
  0
LINE
  5
1FA
  8
NOTE
  6
CONTINUOUS
 62
     4
 10
910.00000000000716
 20
651.0
 30
0.0
 11
619.06742451682294
 21
987.71995957786203
 31
0.0
  0
LINE
  5
1FB
  8
NOTE
  6
CONTINUOUS
 62
     4
 10
619.06742451682294
 20
987.71995957786203
 30
0.0
 11
230.57404379539
 21
987.71995957786203
 31
0.0
  0
LINE
  5
1FC
  8
NOTE
  6
CONTINUOUS
 62
     4
 10
895.83494185662119
 20
678.63997502485086
 30
0.0
 11
910.00000000000716
 21
651.0
 31
0.0
  0
LINE
  5
1FD
  8
NOTE
  6
CONTINUOUS
 62
     4
 10
910.00000000000716
 20
651.0
 30
0.0
 11
883.9127123658036
 21
667.85439157814835
 31
0.0
  0
TEXT
  5
1FE
  8
NOTE
  6
CONTINUOUS
 62
     4
 10
1415.816486060801
 20
912.62935740968499
 30
0.0
 40
64.0
  1
RL %%C12.7
 41
0.9
  0
TEXT
  5
1FF
  8
NOTE
  6
CONTINUOUS
 62
     4
 10
1539.568731340192
 20
-238.80035519898729
 30
0.0
 40
55.0
  1
サービススペース
 50
90.00000299999769
 41
0.858516
  7
STANDARD1
  0
TEXT
  5
200
  8
NOTE
  6
CONTINUOUS
 62
     4
 10
-173.81608704561219
 20
623.22614442082704
 30
0.0
 40
55.0
  1
吸込スペース
 50
0.000003
 41
0.858516
  7
STANDARD1
  0
LINE
  5
201
  8
NOTE
  6
CONTINUOUS
 62
     4
 10
923.00000000000728
 20
310.0
 30
0.0
 11
1404.53705816518
 21
1009.681746921189
 31
0.0
  0
LINE
  5
202
  8
NOTE
  6
CONTINUOUS
 62
     4
 10
947.55368595828611
 20
329.01929539813869
 30
0.0
 11
923.00000000000728
 21
310.0
 31
0.0
  0
LINE
  5
203
  8
NOTE
  6
CONTINUOUS
 62
     4
 10
923.00000000000728
 20
310.0
 30
0.0
 11
934.75446822775837
 21
338.74803590267948
 31
0.0
  0
TEXT
  5
204
  8
NOTE
  6
CONTINUOUS
 62
     4
 10
-1170.19388538207
 20
-238.80035519898729
 30
0.0
 40
55.0
  1
サービススペース
 50
90.00000299999769
 41
0.858516
  7
STANDARD1
  0
TEXT
  5
205
  8
NOTE
  6
CONTINUOUS
 62
     4
 10
1415.070736065855
 20
851.38531845888485
 30
0.0
 40
45.0
  1
PCZG-P10MBA8
 50
359.9999970000153
 41
0.6309520000000001
  7
STANDARD1
  0
TEXT
  5
206
  8
NOTE
  6
CONTINUOUS
 62
     4
 10
1431.779047630625
 20
1087.1550772010139
 30
0.0
 40
64.0
  1
RL %%C9.52
 41
0.9
  0
LINE
  5
207
  8
NOTE
  6
CONTINUOUS
 62
     4
 10
1404.53705816518
 20
1009.681746921189
 30
0.0
 11
1811.4562926544079
 21
1009.681746921189
 31
0.0
  0
TEXT
  5
208
  8
NOTE
  6
CONTINUOUS
 62
     4
 10
1431.033297635679
 20
1025.9110382502131
 30
0.0
 40
45.0
  1
PCZG-P8MBA8
 50
359.9999970000153
 41
0.6309520000000001
  7
STANDARD1
  0
LINE
  5
209
  8
NOTE
  6
CONTINUOUS
 62
     4
 10
1284.867809979987
 20
835.15602712986072
 30
0.0
 11
1801.159548472453
 21
835.15602712986072
 31
0.0
  0
TEXT
  5
20A
  8
NOTE
  6
CONTINUOUS
 62
     4
 10
229.6447786628633
 20
857.28302229364999
 30
0.0
 40
64.0
  1
RG %%C25.4
 41
0.9
  0
LINE
  5
20B
  8
NOTE
  6
CONTINUOUS
 62
     4
 10
843.00000000000716
 20
310.0
 30
0.0
 11
637.57726386748982
 21
846.03151519260973
 31
0.0
  0
LINE
  5
20C
  8
NOTE
  6
CONTINUOUS
 62
     4
 10
637.57726386748982
 20
846.03151519260973
 30
0.0
 11
221.69812717149759
 21
846.03151519260973
 31
0.0
  0
LINE
  5
20D
  8
NOTE
  6
CONTINUOUS
 62
     4
 10
839.77062944525767
 20
340.8899378018105
 30
0.0
 11
843.00000000000716
 21
310.0
 31
0.0
  0
LINE
  5
20E
  8
NOTE
  6
CONTINUOUS
 62
     4
 10
843.00000000000716
 20
310.0
 30
0.0
 11
824.75831427448384
 21
335.13678566306771
 31
0.0
  0
ENDSEC
  0
EOF
