  0
SECTION
  2
HEADER
  9
$ACADVER
  1
AC1009
  9
$INSBASE
 10
0.0
 20
0.0
 30
0.0
  9
$EXTMIN
 10
-2074.2191635668391
 20
-711.77991113139797
 30
-0.0000000349181948
  9
$EXTMAX
 10
1658.469988997826
 20
1063.485685950229
 30
0.0000000814935746
  9
$LIMMIN
 10
-4267.1522210604826
 20
-2696.0832101984129
  9
$LIMMAX
 10
7190.7174225864646
 20
5141.155363923066
  9
$ORTHOMODE
 70
     0
  9
$REGENMODE
 70
     1
  9
$FILLMODE
 70
     1
  9
$QTEXTMODE
 70
     0
  9
$MIRRTEXT
 70
     0
  9
$DRAGMODE
 70
     2
  9
$LTSCALE
 40
20.0
  9
$OSMODE
 70
   431
  9
$ATTMODE
 70
     1
  9
$TEXTSIZE
 40
64.0
  9
$TRACEWID
 40
0.05
  9
$TEXTSTYLE
  7
STANDARD_MODELNAME
  9
$CLAYER
  8
SYMBOLLINE
  9
$CELTYPE
  6
CONTINUOUS
  9
$CECOLOR
 62
     7
  9
$DIMSCALE
 40
1.0
  9
$DIMASZ
 40
30.0
  9
$DIMEXO
 40
20.0
  9
$DIMDLI
 40
80.0
  9
$DIMRND
 40
0.0
  9
$DIMDLE
 40
0.0
  9
$DIMEXE
 40
20.0
  9
$DIMTP
 40
0.0
  9
$DIMTM
 40
0.0
  9
$DIMTXT
 40
60.0
  9
$DIMCEN
 40
0.09
  9
$DIMTSZ
 40
0.0
  9
$DIMTOL
 70
     0
  9
$DIMLIM
 70
     0
  9
$DIMTIH
 70
     0
  9
$DIMTOH
 70
     0
  9
$DIMSE1
 70
     0
  9
$DIMSE2
 70
     0
  9
$DIMTAD
 70
     1
  9
$DIMZIN
 70
     8
  9
$DIMBLK
  1
SMALL
  9
$DIMASO
 70
     1
  9
$DIMSHO
 70
     0
  9
$DIMPOST
  1

  9
$DIMAPOST
  1

  9
$DIMALT
 70
     0
  9
$DIMALTD
 70
     2
  9
$DIMALTF
 40
25.399999999999999
  9
$DIMLFAC
 40
1.0
  9
$DIMTOFL
 70
     1
  9
$DIMTVP
 40
0.0
  9
$DIMTIX
 70
     0
  9
$DIMSOXD
 70
     0
  9
$DIMSAH
 70
     0
  9
$DIMBLK1
  1

  9
$DIMBLK2
  1

  9
$DIMSTYLE
  2
STANDARD
  9
$DIMCLRD
 70
     0
  9
$DIMCLRE
 70
     0
  9
$DIMCLRT
 70
     0
  9
$DIMTFAC
 40
1.0
  9
$DIMGAP
 40
0.09
  9
$LUNITS
 70
     2
  9
$LUPREC
 70
     4
  9
$SKETCHINC
 40
0.1
  9
$FILLETRAD
 40
0.0
  9
$AUNITS
 70
     1
  9
$AUPREC
 70
     3
  9
$MENU
  1
ACAD
  9
$ELEVATION
 40
0.0
  9
$PELEVATION
 40
0.0
  9
$THICKNESS
 40
0.0
  9
$LIMCHECK
 70
     0
  9
$BLIPMODE
 70
     0
  9
$CHAMFERA
 40
0.0
  9
$CHAMFERB
 40
0.0
  9
$SKPOLY
 70
     0
  9
$TDCREATE
 40
2450330.4399309959
  9
$TDUPDATE
 40
2456832.6472649542
  9
$TDINDWG
 40
5.8899335763999998
  9
$TDUSRTIMER
 40
5.8899334954000002
  9
$USRTIMER
 70
     1
  9
$ANGBASE
 50
0.0
  9
$ANGDIR
 70
     0
  9
$PDMODE
 70
     3
  9
$PDSIZE
 40
-2.0
  9
$PLINEWID
 40
0.0
  9
$COORDS
 70
     1
  9
$SPLFRAME
 70
     0
  9
$SPLINETYPE
 70
     6
  9
$SPLINESEGS
 70
     8
  9
$ATTDIA
 70
     1
  9
$ATTREQ
 70
     1
  9
$HANDLING
 70
     1
  9
$HANDSEED
  5
289
  9
$SURFTAB1
 70
     6
  9
$SURFTAB2
 70
     6
  9
$SURFTYPE
 70
     6
  9
$SURFU
 70
     6
  9
$SURFV
 70
     6
  9
$UCSNAME
  2

  9
$UCSORG
 10
0.0
 20
0.0
 30
0.0
  9
$UCSXDIR
 10
1.0
 20
0.0
 30
0.0
  9
$UCSYDIR
 10
0.0
 20
1.0
 30
0.0
  9
$PUCSNAME
  2

  9
$PUCSORG
 10
0.0
 20
0.0
 30
0.0
  9
$PUCSXDIR
 10
1.0
 20
0.0
 30
0.0
  9
$PUCSYDIR
 10
0.0
 20
1.0
 30
0.0
  9
$USERI1
 70
     0
  9
$USERI2
 70
     0
  9
$USERI3
 70
     0
  9
$USERI4
 70
     0
  9
$USERI5
 70
     0
  9
$USERR1
 40
20.0
  9
$USERR2
 40
0.0
  9
$USERR3
 40
0.0
  9
$USERR4
 40
0.0
  9
$USERR5
 40
0.0
  9
$WORLDVIEW
 70
     1
  9
$SHADEDGE
 70
     3
  9
$SHADEDIF
 70
    70
  9
$TILEMODE
 70
     1
  9
$MAXACTVP
 70
    64
  9
$PLIMCHECK
 70
     0
  9
$PEXTMIN
 10
1.0000000000000000E+020
 20
1.0000000000000000E+020
 30
1.0000000000000000E+020
  9
$PEXTMAX
 10
-1.0000000000000000E+020
 20
-1.0000000000000000E+020
 30
-1.0000000000000000E+020
  9
$PLIMMIN
 10
0.0
 20
0.0
  9
$PLIMMAX
 10
12.0
 20
9.0
  9
$UNITMODE
 70
     0
  9
$VISRETAIN
 70
     1
  9
$PLINEGEN
 70
     0
  9
$PSLTSCALE
 70
     1
  0
ENDSEC
  0
SECTION
  2
TABLES
  0
TABLE
  2
VPORT
 70
     1
  0
VPORT
  2
*ACTIVE
 70
     0
 10
0.0
 20
0.0
 11
1.0
 21
1.0
 12
42192.611228886963
 22
-8069.4329108331531
 13
0.0
 23
0.0
 14
50.0
 24
50.0
 15
100.0
 25
100.0
 16
-0.000000000007276
 26
0.0
 36
47354.596007090979
 17
-42400.48581617148
 27
8245.2857982425685
 37
0.0
 40
2372.7877287560868
 41
1.58076923076923
 42
50.0
 43
0.0
 44
0.0
 50
0.0
 51
0.0
 71
     0
 72
  1000
 73
     1
 74
     0
 75
     0
 76
     0
 77
     0
 78
     0
  0
ENDTAB
  0
TABLE
  2
LTYPE
 70
     4
  0
LTYPE
  2
CONTINUOUS
 70
     0
  3
実線
 72
    65
 73
     0
 40
0.0
  0
LTYPE
  2
DASHDOT
 70
     0
  3
____ _ ____ _ ____ _ ____ _ ____ _ ____ _ ____
 72
    65
 73
     4
 40
5.5
 49
4.0
 49
-0.6
 49
0.3
 49
-0.6
  0
ENDTAB
  0
TABLE
  2
LAYER
 70
    12
  0
LAYER
  2
0
 70
     0
 62
     7
  6
CONTINUOUS
  0
LAYER
  2
NOTE
 70
     0
 62
     4
  6
CONTINUOUS
  0
LAYER
  2
OUTLINE
 70
     0
 62
     3
  6
CONTINUOUS
  0
LAYER
  2
DETAIL
 70
     0
 62
     5
  6
CONTINUOUS
  0
LAYER
  2
BASIS
 70
     0
 62
     6
  6
DASHDOT
  0
LAYER
  2
SIZE
 70
     0
 62
    30
  6
CONTINUOUS
  0
LAYER
  2
ARRANGE
 70
     0
 62
     1
  6
CONTINUOUS
  0
LAYER
  2
FIX
 70
     0
 62
    11
  6
CONTINUOUS
  0
LAYER
  2
SERVICESPACE
 70
     0
 62
     2
  6
DASHDOT
  0
LAYER
  2
ETC
 70
     0
 62
    61
  6
CONTINUOUS
  0
LAYER
  2
SYMBOLLINE
 70
     0
 62
    15
  6
CONTINUOUS
  0
LAYER
  2
DEFPOINTS
 70
     0
 62
     7
  6
CONTINUOUS
  0
ENDTAB
  0
TABLE
  2
STYLE
 70
     4
  0
STYLE
  2
STANDARD
 70
     0
 40
0.0
 41
0.9
 50
0.0
 71
     0
 42
64.0
  3
SIMPLEX
  4
BIGFONT
  0
STYLE
  2
ANNOTATIVE
 70
     0
 40
0.0
 41
1.0
 50
0.0
 71
     0
 42
0.2
  3
txt
  4

  0
STYLE
  2
STANDARD_MODELNAME
 70
     0
 40
80.0
 41
0.8
 50
0.0
 71
     0
 42
64.0
  3
MONOTXT.shx
  4
BIGFONT.shx
  0
STYLE
  2
STANDARD1
 70
     0
 40
60.0
 41
0.7
 50
0.0
 71
     0
 42
64.0
  3
MONOTXT.shx
  4
BIGFONT.shx
  0
ENDTAB
  0
TABLE
  2
VIEW
 70
     1
  0
VIEW
  2
ALL
 70
     0
 40
9000.0
 10
241.50664699999999
 20
0.0
 41
12483.01
 11
0.0
 21
0.0
 31
1.0
 12
0.0
 22
0.0
 32
0.0
 42
50.0
 43
0.0
 44
0.0
 50
0.0
 71
     0
  0
ENDTAB
  0
TABLE
  2
UCS
 70
     0
  0
ENDTAB
  0
TABLE
  2
APPID
 70
     5
  0
APPID
  2
ACAD
 70
     0
  0
APPID
  2
ACADANNOTATIVE
 70
     0
  0
APPID
  2
ACAD_NAV_VCDISPLAY
 70
     0
  0
APPID
  2
ACAD_EXEMPT_FROM_CAD_STANDARDS
 70
     0
  0
APPID
  2
ACAD_MLEADERVER
 70
     0
  0
ENDTAB
  0
TABLE
  2
DIMSTYLE
 70
     3
  0
DIMSTYLE
  2
STANDARD
 70
     0
  3

  4

  5

  6

  7

 40
1.0
 41
0.18
 42
0.0625
 43
0.38
 44
0.18
 45
0.0
 46
0.0
 47
0.0
 48
0.0
140
0.18
141
0.09
142
0.0
143
25.399999999999999
144
1.0
145
0.0
146
1.0
147
0.09
 71
     0
 72
     0
 73
     1
 74
     1
 75
     0
 76
     0
 77
     0
 78
     0
170
     0
171
     2
172
     0
173
     0
174
     0
175
     0
176
     0
177
     0
178
     0
  0
DIMSTYLE
  2
ANNOTATIVE
 70
     0
  3

  4

  5

  6

  7

 40
1.0
 41
0.18
 42
0.0625
 43
0.38
 44
0.18
 45
0.0
 46
0.0
 47
0.0
 48
0.0
140
0.18
141
0.09
142
0.0
143
25.399999999999999
144
1.0
145
0.0
146
1.0
147
0.09
 71
     0
 72
     0
 73
     1
 74
     1
 75
     0
 76
     0
 77
     0
 78
     0
170
     0
171
     2
172
     0
173
     0
174
     0
175
     0
176
     0
177
     0
178
     0
  0
ENDTAB
  0
ENDSEC
  0
SECTION
  2
BLOCKS
  0
BLOCK
  8
0
  2
$MODEL_SPACE
 70
     0
 10
0.0
 20
0.0
 30
0.0
  3
$MODEL_SPACE
  1

  0
ENDBLK
  5
71
  8
0
  0
BLOCK
 67
     1
  8
0
  2
$PAPER_SPACE
 70
     0
 10
0.0
 20
0.0
 30
0.0
  3
$PAPER_SPACE
  1

  0
ENDBLK
  5
6D
 67
     1
  8
0
  0
BLOCK
  8
0
  2
_SMALL
 70
     0
 10
0.0
 20
0.0
 30
0.0
  3
_SMALL
  1

  0
CIRCLE
  5
89
  8
0
  6
CONTINUOUS
 62
     7
 10
0.0
 20
0.0
 30
0.0
 40
0.25
  0
ENDBLK
  5
8A
  8
0
  0
ENDSEC
  0
SECTION
  2
ENTITIES
  0
ARC
  5
8C
  8
DETAIL
  6
CONTINUOUS
 62
     5
 10
522.8599030000039
 20
-156.54716399999961
 30
0.0
 40
527.14113699999996
 50
349.7884940000331
 51
10.44288999996129
  0
LINE
  5
8D
  8
DETAIL
  6
CONTINUOUS
 62
     5
 10
1032.5
 20
-61.0
 30
0.0
 11
1032.5
 21
0.0
 31
0.0
  0
ARC
  5
8E
  8
DETAIL
  6
CONTINUOUS
 62
     5
 10
512.84039600000688
 20
-156.54716399999961
 30
0.0
 40
527.14113699999996
 50
341.93630099990469
 51
349.7884940000331
  0
LINE
  5
96
  8
DETAIL
  6
CONTINUOUS
 62
     5
 10
1032.5
 20
-61.0
 30
0.0
 11
1032.5
 21
0.0
 31
0.0
  0
LINE
  5
97
  8
DETAIL
  6
CONTINUOUS
 62
     5
 10
1041.2700000000041
 20
-61.0
 30
0.0
 11
1032.5200000000041
 21
-61.0
 31
0.0
  0
ARC
  5
99
  8
OUTLINE
  6
CONTINUOUS
 62
     3
 10
-1006.6899999999951
 20
-310.0
 30
0.0
 40
10.0
 50
197.26148400002461
 51
270.0
  0
LINE
  5
9A
  8
DETAIL
  6
CONTINUOUS
 62
     5
 10
1032.5
 20
0.0
 30
0.0
 11
-1032.5
 21
0.0
 31
0.0
  0
LINE
  5
9B
  8
DETAIL
  6
CONTINUOUS
 62
     5
 10
1014.0
 20
-320.0
 30
0.0
 11
-1000.5
 21
-320.0
 31
0.0
  0
ARC
  5
9C
  8
OUTLINE
  6
CONTINUOUS
 62
     3
 10
-512.84039599998505
 20
-156.54716399999961
 30
0.0
 40
527.14113699999996
 50
190.2115059999669
 51
197.26148400002461
  0
ARC
  5
9F
  8
OUTLINE
  6
CONTINUOUS
 62
     3
 10
-522.85990299998946
 20
-156.54716399999961
 30
0.0
 40
527.14113699999996
 50
169.55711000003859
 51
190.2115059999669
  0
LINE
  5
A0
  8
BASIS
  6
DASHDOT
 62
     6
 10
0.0
 20
-400.0
 30
0.0
 11
0.0
 21
80.0
 31
0.0
  0
CIRCLE
  5
A1
  8
ARRANGE
  6
CONTINUOUS
 62
     1
 10
0.0
 20
0.0
 30
0.0
 40
40.0
  0
CIRCLE
  5
A2
  8
FIX
  6
CONTINUOUS
 62
    11
 10
-983.0
 20
0.0
 30
0.0
 40
7.0
  0
CIRCLE
  5
A3
  8
FIX
  6
CONTINUOUS
 62
    11
 10
1011.0
 20
0.0
 30
0.0
 40
7.0
  0
LINE
  5
A4
  8
OUTLINE
  6
CONTINUOUS
 62
     3
 10
1032.5
 20
0.0
 30
0.0
 11
-1032.5
 21
0.0
 31
0.0
  0
LINE
  5
A5
  8
OUTLINE
  6
CONTINUOUS
 62
     3
 10
-1032.5
 20
-61.0
 30
0.0
 11
-1032.5
 21
0.0
 31
0.0
  0
LINE
  5
A6
  8
OUTLINE
  6
CONTINUOUS
 62
     3
 10
1041.2700000000041
 20
-61.0
 30
0.0
 11
1032.5
 21
-61.0
 31
0.0
  0
LINE
  5
A7
  8
OUTLINE
  6
CONTINUOUS
 62
     3
 10
1041.6510000000051
 20
-250.0
 30
0.0
 11
1031.6320000000051
 21
-250.0
 31
0.0
  0
LINE
  5
A8
  8
OUTLINE
  6
CONTINUOUS
 62
     3
 10
1014.0
 20
-320.0
 30
0.0
 11
-1006.6899999999951
 21
-320.0
 31
0.0
  0
ARC
  5
A9
  8
OUTLINE
  6
CONTINUOUS
 62
     3
 10
512.84039600000688
 20
-156.54716399999961
 30
0.0
 40
527.14113699999996
 50
341.93630099990469
 51
349.7884940000331
  0
ARC
  5
AA
  8
OUTLINE
  6
CONTINUOUS
 62
     3
 10
522.8599030000039
 20
-156.54716399999961
 30
0.0
 40
527.14113699999996
 50
349.7884940000331
 51
10.44288999996129
  0
LINE
  5
AB
  8
OUTLINE
  6
CONTINUOUS
 62
     3
 10
1041.2700000000041
 20
-61.0
 30
0.0
 11
1032.5200000000041
 21
-61.0
 31
0.0
  0
LINE
  5
AC
  8
OUTLINE
  6
CONTINUOUS
 62
     3
 10
1032.5
 20
-61.0
 30
0.0
 11
1032.5
 21
0.0
 31
0.0
  0
LINE
  5
AD
  8
NOTE
  6
CONTINUOUS
 62
     4
 10
-843.0
 20
-234.0
 30
0.0
 11
-843.0
 21
-194.00000000000091
 31
0.0
  0
LINE
  5
AE
  8
NOTE
  6
CONTINUOUS
 62
     4
 10
-863.0
 20
-214.0
 30
0.0
 11
-823.0
 21
-214.0
 31
0.0
  0
LINE
  5
AF
  8
NOTE
  6
CONTINUOUS
 62
     4
 10
-923.0
 20
-156.0
 30
0.0
 11
-923.0
 21
-116.0
 31
0.0
  0
LINE
  5
B0
  8
NOTE
  6
CONTINUOUS
 62
     4
 10
-943.0
 20
-136.0
 30
0.0
 11
-903.0
 21
-136.0
 31
0.0
  0
LINE
  5
B1
  8
NOTE
  6
CONTINUOUS
 62
     4
 10
1011.0
 20
-20.0
 30
0.0
 11
1011.0
 21
20.0
 31
0.0
  0
LINE
  5
B2
  8
NOTE
  6
CONTINUOUS
 62
     4
 10
991.0
 20
0.0
 30
0.0
 11
1031.0
 21
0.0
 31
0.0
  0
LINE
  5
B3
  8
NOTE
  6
CONTINUOUS
 62
     4
 10
-983.0
 20
-20.0
 30
0.0
 11
-983.0
 21
20.0
 31
0.0
  0
LINE
  5
B4
  8
NOTE
  6
CONTINUOUS
 62
     4
 10
-1003.0
 20
0.0
 30
0.0
 11
-962.99999999998545
 21
0.0
 31
0.0
  0
LINE
  5
B5
  8
SIZE
  6
CONTINUOUS
 62
    30
 10
1052.5
 20
-0.0000000000000057
 30
0.0
 11
1447.6172215239419
 21
-0.0000000000001176
 31
0.0
  0
LINE
  5
B6
  8
SIZE
  6
CONTINUOUS
 62
    30
 10
1033.9999992230289
 20
-320.0000025039281
 30
0.0
 11
1447.6172215239419
 21
-320.0000025039281
 31
0.0
  0
LINE
  5
B7
  8
SIZE
  6
CONTINUOUS
 62
    30
 10
1427.6172215239419
 20
-0.0000000000001119
 30
0.0
 11
1427.6172215239419
 21
-320.0000025039281
 31
0.0
  0
CIRCLE
  5
B8
  8
SIZE
  6
CONTINUOUS
 62
    30
 10
1427.6172215239419
 20
-0.0000000000001119
 30
0.0
 40
7.5
  0
CIRCLE
  5
B9
  8
SIZE
  6
CONTINUOUS
 62
    30
 10
1427.6172215239419
 20
-320.0000025039281
 30
0.0
 40
7.5
  0
TEXT
  5
BA
  8
SIZE
  6
CONTINUOUS
 62
    30
 10
1407.6172215239419
 20
-229.42857268053561
 30
0.0
 40
60.0
  1
320
 50
90.0
 41
0.9
 72
     1
 11
1407.6172215239419
 21
-160.00000125196411
 31
0.0
  0
POINT
  5
BB
  8
DEFPOINTS
  6
CONTINUOUS
 62
     7
 10
1032.5
 20
0.0
 30
0.0
  0
POINT
  5
BC
  8
DEFPOINTS
  6
CONTINUOUS
 62
     7
 10
1013.999999223029
 20
-320.0000025039281
 30
0.0
  0
POINT
  5
BD
  8
DEFPOINTS
  6
CONTINUOUS
 62
     7
 10
1427.6172215239419
 20
-320.0000025039281
 30
0.0
  0
LINE
  5
BE
  8
SIZE
  6
CONTINUOUS
 62
    30
 10
1011.0
 20
40.0
 30
0.0
 11
1011.0
 21
537.42754943837645
 31
0.0
  0
LINE
  5
BF
  8
SIZE
  6
CONTINUOUS
 62
    30
 10
1049.999965371979
 20
-135.4827580089331
 30
0.0
 11
1049.999965371979
 21
537.42754943837645
 31
0.0
  0
LINE
  5
C0
  8
SIZE
  6
CONTINUOUS
 62
    30
 10
1011.0
 20
517.42754943837645
 30
0.0
 11
981.0
 21
517.42754943837645
 31
0.0
  0
LINE
  5
C1
  8
SIZE
  6
CONTINUOUS
 62
    30
 10
1049.999965371979
 20
517.42754943837645
 30
0.0
 11
1234.857108229121
 21
517.42754943837645
 31
0.0
  0
LINE
  5
C2
  8
SIZE
  6
CONTINUOUS
 62
    30
 10
1011.0
 20
517.42754943837645
 30
0.0
 11
1049.999965371979
 21
517.42754943837645
 31
0.0
  0
CIRCLE
  5
C3
  8
SIZE
  6
CONTINUOUS
 62
    30
 10
1011.0
 20
517.42754943837645
 30
0.0
 40
7.5
  0
CIRCLE
  5
C4
  8
SIZE
  6
CONTINUOUS
 62
    30
 10
1049.999965371979
 20
517.42754943837645
 30
0.0
 40
7.5
  0
TEXT
  5
C5
  8
SIZE
  6
CONTINUOUS
 62
    30
 10
1129.9999653719781
 20
537.42754943837645
 30
0.0
 40
60.0
  1
39
 41
0.9
 72
     1
 11
1172.4285368005501
 21
537.42754943837645
 31
0.0
  0
POINT
  5
C6
  8
DEFPOINTS
  6
CONTINUOUS
 62
     7
 10
1011.0
 20
20.0
 30
0.0
  0
POINT
  5
C7
  8
DEFPOINTS
  6
CONTINUOUS
 62
     7
 10
1049.999965371979
 20
-155.48275800893299
 30
0.0
  0
POINT
  5
C8
  8
DEFPOINTS
  6
CONTINUOUS
 62
     7
 10
1049.999965371979
 20
517.42754943837645
 30
0.0
  0
LINE
  5
C9
  8
SIZE
  6
CONTINUOUS
 62
    30
 10
1011.0
 20
40.0
 30
0.0
 11
1011.0
 21
537.42754943837645
 31
0.0
  0
LINE
  5
CA
  8
SIZE
  6
CONTINUOUS
 62
    30
 10
-983.0
 20
40.0
 30
0.0
 11
-983.0
 21
537.42754943837645
 31
0.0
  0
LINE
  5
CB
  8
SIZE
  6
CONTINUOUS
 62
    30
 10
1011.0
 20
517.42754943837645
 30
0.0
 11
-983.0
 21
517.42754943837645
 31
0.0
  0
CIRCLE
  5
CC
  8
SIZE
  6
CONTINUOUS
 62
    30
 10
1011.0
 20
517.42754943837645
 30
0.0
 40
7.5
  0
CIRCLE
  5
CD
  8
SIZE
  6
CONTINUOUS
 62
    30
 10
-983.0
 20
517.42754943837645
 30
0.0
 40
7.5
  0
TEXT
  5
CE
  8
SIZE
  6
CONTINUOUS
 62
    30
 10
-77.285714285699754
 20
537.42754943837645
 30
0.0
 40
60.0
  1
1994
 41
0.9
 72
     1
 11
14.00000000001455
 21
537.42754943837645
 31
0.0
  0
POINT
  5
CF
  8
DEFPOINTS
  6
CONTINUOUS
 62
     7
 10
1011.0
 20
20.0
 30
0.0
  0
POINT
  5
D0
  8
DEFPOINTS
  6
CONTINUOUS
 62
     7
 10
-983.0
 20
20.0
 30
0.0
  0
POINT
  5
D1
  8
DEFPOINTS
  6
CONTINUOUS
 62
     7
 10
-983.0
 20
517.42754943837645
 30
0.0
  0
LINE
  5
D2
  8
SIZE
  6
CONTINUOUS
 62
    30
 10
-1049.999965371979
 20
-135.48275800885131
 30
0.0
 11
-1050.0
 21
691.90586281836465
 31
0.0
  0
LINE
  5
D3
  8
SIZE
  6
CONTINUOUS
 62
    30
 10
1049.999965371979
 20
-135.4827580089331
 30
0.0
 11
1049.999965371979
 21
691.90586281836465
 31
0.0
  0
LINE
  5
D4
  8
SIZE
  6
CONTINUOUS
 62
    30
 10
-1050.0
 20
671.90586281836465
 30
0.0
 11
1049.999965371979
 21
671.90586281836465
 31
0.0
  0
CIRCLE
  5
D5
  8
SIZE
  6
CONTINUOUS
 62
    30
 10
-1050.0
 20
671.90586281836465
 30
0.0
 40
7.5
  0
CIRCLE
  5
D6
  8
SIZE
  6
CONTINUOUS
 62
    30
 10
1049.999965371979
 20
671.90586281836465
 30
0.0
 40
7.5
  0
TEXT
  5
D7
  8
SIZE
  6
CONTINUOUS
 62
    30
 10
-90.438672260686872
 20
691.90586281836465
 30
0.0
 40
60.0
  1
2100
 41
0.9
 72
     1
 11
-0.4386722606868716
 21
691.90586281836465
 31
0.0
  0
POINT
  5
D9
  8
DEFPOINTS
  6
CONTINUOUS
 62
     7
 10
1049.999965371979
 20
-155.48275800893299
 30
0.0
  0
POINT
  5
DA
  8
DEFPOINTS
  6
CONTINUOUS
 62
     7
 10
1049.999965371979
 20
671.90586281836465
 30
0.0
  0
TEXT
  5
DB
  8
NOTE
  6
CONTINUOUS
 62
     4
 10
-2041.9133933273699
 20
474.17180157660812
 30
0.0
 40
64.0
  1
AH 4-14\U+00D726長穴
 41
0.9
  0
LINE
  5
DC
  8
SIZE
  6
CONTINUOUS
 62
    30
 10
-1026.6899999999951
 20
-320.0
 30
0.0
 11
-1694.2708738673309
 21
-319.99999999999972
 31
0.0
  0
LINE
  5
DD
  8
SIZE
  6
CONTINUOUS
 62
    30
 10
-883.0
 20
-214.0
 30
0.0
 11
-1694.2708738673309
 21
-213.9999999999998
 31
0.0
  0
LINE
  5
DE
  8
SIZE
  6
CONTINUOUS
 62
    30
 10
-1674.2708738673321
 20
-213.9999999999998
 30
0.0
 11
-1674.2708738673321
 21
-319.99999999999972
 31
0.0
  0
LINE
  5
DF
  8
SIZE
  6
CONTINUOUS
 62
    30
 10
-1674.2708738673321
 20
-319.99999999999972
 30
0.0
 11
-1674.2708738673321
 21
-554.39947662010923
 31
0.0
  0
CIRCLE
  5
E0
  8
SIZE
  6
CONTINUOUS
 62
    30
 10
-1674.2708738673321
 20
-213.9999999999998
 30
0.0
 40
7.5
  0
CIRCLE
  5
E1
  8
SIZE
  6
CONTINUOUS
 62
    30
 10
-1674.2708738673321
 20
-319.99999999999972
 30
0.0
 40
7.5
  0
TEXT
  5
E2
  8
SIZE
  6
CONTINUOUS
 62
    30
 10
-1694.2708738673309
 20
-534.39947662010945
 30
0.0
 40
60.0
  1
106
 50
90.0
 41
0.9
 72
     1
 11
-1694.2708738673309
 21
-471.39947662010951
 31
0.0
  0
POINT
  5
E4
  8
DEFPOINTS
  6
CONTINUOUS
 62
     7
 10
-863.0
 20
-214.0
 30
0.0
  0
POINT
  5
E5
  8
DEFPOINTS
  6
CONTINUOUS
 62
     7
 10
-1674.2708738673321
 20
-213.9999999999998
 30
0.0
  0
TEXT
  5
E7
  8
NOTE
  6
CONTINUOUS
 62
     4
 10
-554.27024701984908
 20
64.192911482960881
 30
0.0
 40
64.0
  1
RG %%C25.4
 41
0.9
  0
LINE
  5
E8
  8
SIZE
  6
CONTINUOUS
 62
    30
 10
-1049.999965371979
 20
-175.48275800893501
 30
0.0
 11
-1049.999965371979
 21
-711.38075742893125
 31
0.0
  0
LINE
  5
E9
  8
SIZE
  6
CONTINUOUS
 62
    30
 10
-843.0
 20
-254.0
 30
0.0
 11
-843.0
 21
-711.38075742893125
 31
0.0
  0
LINE
  5
EA
  8
SIZE
  6
CONTINUOUS
 62
    30
 10
-1049.999965371979
 20
-691.38075742893125
 30
0.0
 11
-843.0
 21
-691.38075742893125
 31
0.0
  0
CIRCLE
  5
EB
  8
SIZE
  6
CONTINUOUS
 62
    30
 10
-1049.999965371979
 20
-691.38075742893125
 30
0.0
 40
7.5
  0
CIRCLE
  5
EC
  8
SIZE
  6
CONTINUOUS
 62
    30
 10
-843.0
 20
-691.38075742893125
 30
0.0
 40
7.5
  0
TEXT
  5
ED
  8
SIZE
  6
CONTINUOUS
 62
    30
 10
-1015.92855411456
 20
-671.38075742893125
 30
0.0
 40
60.0
  1
207
 41
0.9
 72
     1
 11
-946.49998268598915
 21
-671.38075742893125
 31
0.0
  0
POINT
  5
EF
  8
DEFPOINTS
  6
CONTINUOUS
 62
     7
 10
-843.0
 20
-234.0
 30
0.0
  0
POINT
  5
F0
  8
DEFPOINTS
  6
CONTINUOUS
 62
     7
 10
-843.0
 20
-691.38075742893125
 30
0.0
  0
LINE
  5
F1
  8
SIZE
  6
CONTINUOUS
 62
    30
 10
-1049.999965371979
 20
-175.48275800893501
 30
0.0
 11
-1049.999965371979
 21
-558.1899919825928
 31
0.0
  0
LINE
  5
F2
  8
SIZE
  6
CONTINUOUS
 62
    30
 10
-923.0
 20
-176.0
 30
0.0
 11
-923.0
 21
-558.1899919825928
 31
0.0
  0
LINE
  5
F3
  8
SIZE
  6
CONTINUOUS
 62
    30
 10
-923.0
 20
-538.1899919825928
 30
0.0
 11
-1049.999965371979
 21
-538.1899919825928
 31
0.0
  0
LINE
  5
F4
  8
SIZE
  6
CONTINUOUS
 62
    30
 10
-1049.999965371979
 20
-538.1899919825928
 30
0.0
 11
-1248.571393943407
 21
-538.1899919825928
 31
0.0
  0
CIRCLE
  5
F5
  8
SIZE
  6
CONTINUOUS
 62
    30
 10
-923.0
 20
-538.1899919825928
 30
0.0
 40
7.5
  0
CIRCLE
  5
F6
  8
SIZE
  6
CONTINUOUS
 62
    30
 10
-1049.999965371979
 20
-538.1899919825928
 30
0.0
 40
7.5
  0
TEXT
  5
F7
  8
SIZE
  6
CONTINUOUS
 62
    30
 10
-1228.571393943407
 20
-518.18999198259269
 30
0.0
 40
60.0
  1
127
 41
0.9
 72
     1
 11
-1164.285679657693
 21
-518.18999198259269
 31
0.0
  0
POINT
  5
F9
  8
DEFPOINTS
  6
CONTINUOUS
 62
     7
 10
-923.0
 20
-156.0
 30
0.0
  0
POINT
  5
FA
  8
DEFPOINTS
  6
CONTINUOUS
 62
     7
 10
-923.0
 20
-538.1899919825928
 30
0.0
  0
LINE
  5
FB
  8
DETAIL
  6
CONTINUOUS
 62
     5
 10
-1108.499999999985
 20
-0.1549724425494787
 30
0.0
 11
-1108.499999999985
 21
-3.2549724425480231
 31
0.0
  0
LINE
  5
FC
  8
DETAIL
  6
CONTINUOUS
 62
     5
 10
-1265.0
 20
-0.1549724425494787
 30
0.0
 11
-1108.499999999985
 21
-0.1549724425494787
 31
0.0
  0
LINE
  5
FD
  8
NOTE
  6
CONTINUOUS
 62
     4
 10
-1203.656249999985
 20
-0.1549724425494787
 30
0.0
 11
-1164.343749999985
 21
-0.1549724425494787
 31
0.0
  0
LINE
  5
FE
  8
NOTE
  6
CONTINUOUS
 62
     4
 10
-1183.999999999985
 20
19.845027557450521
 30
0.0
 11
-1183.999999999985
 21
-20.154972442549479
 31
0.0
  0
LINE
  5
FF
  8
SIZE
  6
CONTINUOUS
 62
    30
 10
-1049.999965371979
 20
-135.48275800885131
 30
0.0
 11
-1049.999965371971
 21
378.73438868121758
 31
0.0
  0
LINE
  5
100
  8
SIZE
  6
CONTINUOUS
 62
    30
 10
-1183.999999999985
 20
39.845027557450521
 30
0.0
 11
-1183.999999999985
 21
378.73438868121758
 31
0.0
  0
LINE
  5
101
  8
SIZE
  6
CONTINUOUS
 62
    30
 10
-1049.999965371971
 20
358.73438868121781
 30
0.0
 11
-1183.999999999985
 21
358.73438868121781
 31
0.0
  0
CIRCLE
  5
102
  8
SIZE
  6
CONTINUOUS
 62
    30
 10
-1049.999965371971
 20
358.73438868121781
 30
0.0
 40
7.5
  0
CIRCLE
  5
103
  8
SIZE
  6
CONTINUOUS
 62
    30
 10
-1183.999999999985
 20
358.73438868121781
 30
0.0
 40
7.5
  0
TEXT
  5
104
  8
SIZE
  6
CONTINUOUS
 62
    30
 10
-1182.571411257406
 20
378.73438868121758
 30
0.0
 40
60.0
  1
134
 41
0.9
 72
     1
 11
-1116.999982685978
 21
378.73438868121758
 31
0.0
  0
POINT
  5
106
  8
DEFPOINTS
  6
CONTINUOUS
 62
     7
 10
-1183.999999999985
 20
19.845027557450521
 30
0.0
  0
POINT
  5
107
  8
DEFPOINTS
  6
CONTINUOUS
 62
     7
 10
-1183.999999999985
 20
358.73438868121781
 30
0.0
  0
LINE
  5
108
  8
DETAIL
  6
CONTINUOUS
 62
     5
 10
-1265.0
 20
-369.0
 30
0.0
 11
-1108.499999999985
 21
-369.0
 31
0.0
  0
TEXT
  5
109
  8
NOTE
  6
CONTINUOUS
 62
     4
 10
-1739.958488467855
 20
280.12616666777092
 30
0.0
 40
64.0
  1
D VP-20
 41
0.9
  0
LINE
  5
10A
  8
SIZE
  6
CONTINUOUS
 62
    30
 10
-1049.999965371979
 20
-135.48275800885131
 30
0.0
 11
-1049.999965371979
 21
537.42754943837645
 31
0.0
  0
LINE
  5
10B
  8
SIZE
  6
CONTINUOUS
 62
    30
 10
-983.0
 20
40.0
 30
0.0
 11
-983.0
 21
537.42754943837645
 31
0.0
  0
LINE
  5
10C
  8
SIZE
  6
CONTINUOUS
 62
    30
 10
-983.0
 20
517.42754943837645
 30
0.0
 11
-1049.999965371979
 21
517.42754943837645
 31
0.0
  0
LINE
  5
10D
  8
SIZE
  6
CONTINUOUS
 62
    30
 10
-1049.999965371979
 20
517.42754943837645
 30
0.0
 11
-1207.4285368005501
 21
517.42754943837645
 31
0.0
  0
CIRCLE
  5
10E
  8
SIZE
  6
CONTINUOUS
 62
    30
 10
-983.0
 20
517.42754943837645
 30
0.0
 40
7.5
  0
CIRCLE
  5
10F
  8
SIZE
  6
CONTINUOUS
 62
    30
 10
-1049.999965371979
 20
517.42754943837645
 30
0.0
 40
7.5
  0
TEXT
  5
110
  8
SIZE
  6
CONTINUOUS
 62
    30
 10
-1187.4285368005501
 20
537.42754943837645
 30
0.0
 40
60.0
  1
67
 41
0.9
 72
     1
 11
-1143.7142510862641
 21
537.42754943837645
 31
0.0
  0
POINT
  5
112
  8
DEFPOINTS
  6
CONTINUOUS
 62
     7
 10
-983.0
 20
20.0
 30
0.0
  0
POINT
  5
113
  8
DEFPOINTS
  6
CONTINUOUS
 62
     7
 10
-983.0
 20
517.42754943837645
 30
0.0
  0
LINE
  5
114
  8
DETAIL
  6
CONTINUOUS
 62
     5
 10
-1265.0
 20
-0.1549724425494787
 30
0.0
 11
-1265.0
 21
-369.0
 31
0.0
  0
LINE
  5
115
  8
SIZE
  6
CONTINUOUS
 62
    30
 10
-1285.0
 20
-369.0
 30
0.0
 11
-1826.1008194725509
 21
-368.99999999999977
 31
0.0
  0
LINE
  5
116
  8
SIZE
  6
CONTINUOUS
 62
    30
 10
-1026.6899999999951
 20
-320.0
 30
0.0
 11
-1826.1008194725509
 21
-319.99999999999972
 31
0.0
  0
LINE
  5
117
  8
SIZE
  6
CONTINUOUS
 62
    30
 10
-1806.10081947255
 20
-319.99999999999972
 30
0.0
 11
-1806.10081947255
 21
-368.99999999999977
 31
0.0
  0
LINE
  5
118
  8
SIZE
  6
CONTINUOUS
 62
    30
 10
-1806.10081947255
 20
-368.99999999999977
 30
0.0
 11
-1806.10081947255
 21
-532.96536063416295
 31
0.0
  0
CIRCLE
  5
119
  8
SIZE
  6
CONTINUOUS
 62
    30
 10
-1806.10081947255
 20
-319.99999999999972
 30
0.0
 40
7.5
  0
CIRCLE
  5
11A
  8
SIZE
  6
CONTINUOUS
 62
    30
 10
-1806.10081947255
 20
-368.99999999999977
 30
0.0
 40
7.5
  0
TEXT
  5
11B
  8
SIZE
  6
CONTINUOUS
 62
    30
 10
-1826.1008194725509
 20
-512.96536063416329
 30
0.0
 40
60.0
  1
49
 50
90.0
 41
0.9
 72
     1
 11
-1826.1008194725509
 21
-470.53678920559179
 31
0.0
  0
POINT
  5
11C
  8
DEFPOINTS
  6
CONTINUOUS
 62
     7
 10
-1265.0
 20
-369.0
 30
0.0
  0
POINT
  5
11E
  8
DEFPOINTS
  6
CONTINUOUS
 62
     7
 10
-1806.10081947255
 20
-319.99999999999972
 30
0.0
  0
LINE
  5
11F
  8
SIZE
  6
CONTINUOUS
 62
    30
 10
-1026.6899999999951
 20
-320.0
 30
0.0
 11
-1826.1008194725509
 21
-319.99999999999972
 31
0.0
  0
LINE
  5
120
  8
SIZE
  6
CONTINUOUS
 62
    30
 10
-963.0
 20
-135.9999999999998
 30
0.0
 11
-1826.1008194725509
 21
-135.99999999999969
 31
0.0
  0
LINE
  5
121
  8
SIZE
  6
CONTINUOUS
 62
    30
 10
-1806.10081947255
 20
-319.99999999999972
 30
0.0
 11
-1806.10081947255
 21
-135.99999999999969
 31
0.0
  0
CIRCLE
  5
122
  8
SIZE
  6
CONTINUOUS
 62
    30
 10
-1806.10081947255
 20
-319.99999999999972
 30
0.0
 40
7.5
  0
CIRCLE
  5
123
  8
SIZE
  6
CONTINUOUS
 62
    30
 10
-1806.10081947255
 20
-135.99999999999969
 30
0.0
 40
7.5
  0
TEXT
  5
124
  8
SIZE
  6
CONTINUOUS
 62
    30
 10
-1826.1008194725509
 20
-302.56107915346558
 30
0.0
 40
60.0
  1
184
 50
90.0
 41
0.9
 72
     1
 11
-1826.1008194725509
 21
-236.989650582037
 31
0.0
  0
POINT
  5
126
  8
DEFPOINTS
  6
CONTINUOUS
 62
     7
 10
-943.0
 20
-136.0
 30
0.0
  0
POINT
  5
127
  8
DEFPOINTS
  6
CONTINUOUS
 62
     7
 10
-1806.10081947255
 20
-135.99999999999969
 30
0.0
  0
LINE
  5
128
  8
SIZE
  6
CONTINUOUS
 62
    30
 10
-1049.999965371979
 20
-135.48275800885131
 30
0.0
 11
-1049.999965371979
 21
691.90586281836465
 31
0.0
  0
LINE
  5
129
  8
SIZE
  6
CONTINUOUS
 62
    30
 10
-1265.0
 20
19.241334762027691
 30
0.0
 11
-1265.0
 21
691.90586281836465
 31
0.0
  0
LINE
  5
12A
  8
SIZE
  6
CONTINUOUS
 62
    30
 10
-1049.999965371979
 20
671.90586281836465
 30
0.0
 11
-1265.0
 21
671.90586281836465
 31
0.0
  0
CIRCLE
  5
12B
  8
SIZE
  6
CONTINUOUS
 62
    30
 10
-1049.999965371979
 20
671.90586281836465
 30
0.0
 40
7.5
  0
CIRCLE
  5
12C
  8
SIZE
  6
CONTINUOUS
 62
    30
 10
-1265.0
 20
671.90586281836465
 30
0.0
 40
7.5
  0
TEXT
  5
12D
  8
SIZE
  6
CONTINUOUS
 62
    30
 10
-1214.6482091072651
 20
691.90586281836465
 30
0.0
 40
60.0
  1
215
 41
0.9
 72
     1
 11
-1150.3624948215511
 21
691.90586281836465
 31
0.0
  0
POINT
  5
12E
  8
DEFPOINTS
  6
CONTINUOUS
 62
     7
 10
-1049.999965371979
 20
-320.0
 30
0.0
  0
POINT
  5
12F
  8
DEFPOINTS
  6
CONTINUOUS
 62
     7
 10
-1265.0
 20
-369.0
 30
0.0
  0
POINT
  5
130
  8
DEFPOINTS
  6
CONTINUOUS
 62
     7
 10
-1265.0
 20
671.90586281836465
 30
0.0
  0
LINE
  5
132
  8
OUTLINE
  6
CONTINUOUS
 62
     3
 10
-1032.5
 20
-61.0
 30
0.0
 11
-1041.26950779769
 21
-61.000003021012432
 31
0.0
  0
LINE
  5
135
  8
SERVICESPACE
  6
DASHDOT
 62
     2
 10
1049.999965371979
 20
0.0
 30
0.0
 11
1049.999965371979
 21
-320.0000018813098
 31
0.0
  0
LINE
  5
136
  8
SERVICESPACE
  6
DASHDOT
 62
     2
 10
1249.999965371979
 20
0.0
 30
0.0
 11
1249.999965371979
 21
-320.0000018813098
 31
0.0
  0
LINE
  5
137
  8
SERVICESPACE
  6
DASHDOT
 62
     2
 10
1049.999965371979
 20
0.0
 30
0.0
 11
1249.999965371979
 21
0.0
 31
0.0
  0
LINE
  5
138
  8
SERVICESPACE
  6
DASHDOT
 62
     2
 10
1049.999965371979
 20
-320.0000018813098
 30
0.0
 11
1249.999965371979
 21
-320.0000018813098
 31
0.0
  0
LINE
  5
139
  8
SERVICESPACE
  6
DASHDOT
 62
     2
 10
1249.999965371979
 20
0.0
 30
0.0
 11
1049.999965371979
 21
-320.0000018813098
 31
0.0
  0
LINE
  5
13A
  8
SERVICESPACE
  6
DASHDOT
 62
     2
 10
1049.999965371979
 20
0.0
 30
0.0
 11
1249.999965371979
 21
-320.0000018813098
 31
0.0
  0
LINE
  5
13B
  8
SIZE
  6
CONTINUOUS
 62
    30
 10
1049.999965371979
 20
-340.0000018813098
 30
0.0
 11
1049.999965371979
 21
-629.37267599457562
 31
0.0
  0
LINE
  5
13C
  8
SIZE
  6
CONTINUOUS
 62
    30
 10
1249.999965371979
 20
-340.0000018813098
 30
0.0
 11
1249.999965371979
 21
-629.37267599457562
 31
0.0
  0
LINE
  5
13D
  8
SIZE
  6
CONTINUOUS
 62
    30
 10
1049.999965371979
 20
-609.37267599457562
 30
0.0
 11
1249.999965371979
 21
-609.37267599457562
 31
0.0
  0
LINE
  5
13E
  8
SIZE
  6
CONTINUOUS
 62
    30
 10
1249.999965371979
 20
-609.37267599457562
 30
0.0
 11
1589.485679657693
 21
-609.37267599457562
 31
0.0
  0
CIRCLE
  5
13F
  8
SIZE
  6
CONTINUOUS
 62
    30
 10
1049.999965371979
 20
-609.37267599457562
 30
0.0
 40
7.5
  0
CIRCLE
  5
140
  8
SIZE
  6
CONTINUOUS
 62
    30
 10
1249.999965371979
 20
-609.37267599457562
 30
0.0
 40
7.5
  0
TEXT
  5
141
  8
SIZE
  6
CONTINUOUS
 62
    30
 10
1299.999965371979
 20
-589.37267599457562
 30
0.0
 40
60.0
  1
200以上
 41
0.9
 72
     1
 11
1434.742822514836
 21
-589.37267599457562
 31
0.0
  0
POINT
  5
142
  8
DEFPOINTS
  6
CONTINUOUS
 62
     7
 10
1049.999965371979
 20
-320.0000018813098
 30
0.0
  0
POINT
  5
143
  8
DEFPOINTS
  6
CONTINUOUS
 62
     7
 10
1249.999965371979
 20
-320.0000018813098
 30
0.0
  0
POINT
  5
144
  8
DEFPOINTS
  6
CONTINUOUS
 62
     7
 10
1249.999965371979
 20
-609.37267599457562
 30
0.0
  0
LINE
  5
145
  8
SERVICESPACE
  6
DASHDOT
 62
     2
 10
-1049.999965371971
 20
0.0
 30
0.0
 11
-1049.999965371979
 21
-320.0
 31
0.0
  0
LINE
  5
146
  8
SERVICESPACE
  6
DASHDOT
 62
     2
 10
-1549.999965371971
 20
0.0000000000118234
 30
0.0
 11
-1549.999965371971
 21
-319.99999999998818
 31
0.0
  0
LINE
  5
147
  8
SERVICESPACE
  6
DASHDOT
 62
     2
 10
-1049.999965371971
 20
0.0
 30
0.0
 11
-1549.999965371971
 21
0.0000000000118234
 31
0.0
  0
LINE
  5
148
  8
SERVICESPACE
  6
DASHDOT
 62
     2
 10
-1049.999965371979
 20
-320.0
 30
0.0
 11
-1549.999965371971
 21
-319.99999999998818
 31
0.0
  0
LINE
  5
149
  8
SERVICESPACE
  6
DASHDOT
 62
     2
 10
-1549.999965371971
 20
0.0000000000118234
 30
0.0
 11
-1049.999965371979
 21
-320.0
 31
0.0
  0
LINE
  5
14A
  8
SERVICESPACE
  6
DASHDOT
 62
     2
 10
-1049.999965371971
 20
0.0
 30
0.0
 11
-1549.999965371971
 21
-319.99999999998818
 31
0.0
  0
LINE
  5
14B
  8
SIZE
  6
CONTINUOUS
 62
    30
 10
-1049.999965371979
 20
-340.0
 30
0.0
 11
-1049.999965371979
 21
-711.38075742893125
 31
0.0
  0
LINE
  5
14C
  8
SIZE
  6
CONTINUOUS
 62
    30
 10
-1549.999965371971
 20
-339.99999999998818
 30
0.0
 11
-1549.999965371971
 21
-711.38075742893125
 31
0.0
  0
LINE
  5
14D
  8
SIZE
  6
CONTINUOUS
 62
    30
 10
-1049.999965371979
 20
-691.38075742893125
 30
0.0
 11
-1549.999965371971
 21
-691.38075742893125
 31
0.0
  0
CIRCLE
  5
14E
  8
SIZE
  6
CONTINUOUS
 62
    30
 10
-1049.999965371979
 20
-691.38075742893125
 30
0.0
 40
7.5
  0
CIRCLE
  5
14F
  8
SIZE
  6
CONTINUOUS
 62
    30
 10
-1549.999965371971
 20
-691.38075742893125
 30
0.0
 40
7.5
  0
TEXT
  5
150
  8
SIZE
  6
CONTINUOUS
 62
    30
 10
-1434.5302083364249
 20
-671.38075742893125
 30
0.0
 40
60.0
  1
500以上
 41
0.9
 72
     1
 11
-1299.7873511935679
 21
-671.38075742893125
 31
0.0
  0
POINT
  5
151
  8
DEFPOINTS
  6
CONTINUOUS
 62
     7
 10
-1049.999965371979
 20
-320.0
 30
0.0
  0
POINT
  5
152
  8
DEFPOINTS
  6
CONTINUOUS
 62
     7
 10
-1549.999965371971
 20
-319.99999999998818
 30
0.0
  0
POINT
  5
153
  8
DEFPOINTS
  6
CONTINUOUS
 62
     7
 10
-1549.999965371971
 20
-691.38075742893125
 30
0.0
  0
LINE
  5
158
  8
DETAIL
  6
CONTINUOUS
 62
     5
 10
1031.631631303622
 20
-249.9999996434652
 30
0.0
 11
1041.6511383036191
 21
-249.9999996434652
 31
0.0
  0
LINE
  5
15A
  8
ARRANGE
  6
CONTINUOUS
 62
     1
 10
42.396855862600198
 20
-41.960496852383571
 30
0.0
 11
-42.396855862585639
 21
41.960496852380849
 31
0.0
  0
LINE
  5
15B
  8
ARRANGE
  6
CONTINUOUS
 62
     1
 10
42.334505526399887
 20
42.023402110814452
 30
0.0
 11
-42.334505526399887
 21
-42.023402110812633
 31
0.0
  0
LINE
  5
15C
  8
DETAIL
  6
CONTINUOUS
 62
     5
 10
-1142.5
 20
-354.15497244255312
 30
0.0
 11
-1254.5
 21
-354.15497244255312
 31
0.0
  0
ARC
  5
161
  8
DETAIL
  6
CONTINUOUS
 62
     5
 10
-1253.5
 20
-29.154972442549479
 30
0.0
 40
0.7999999999992724
 50
90.0
 51
180.0
  0
LINE
  5
162
  8
DETAIL
  6
CONTINUOUS
 62
     5
 10
-1253.5
 20
-28.354972442551119
 30
0.0
 11
-1244.2999999999879
 21
-28.354972442551119
 31
0.0
  0
LINE
  5
163
  8
DETAIL
  6
CONTINUOUS
 62
     5
 10
-1244.2999999999879
 20
-28.354972442551119
 30
0.0
 11
-1244.2999999999879
 21
-93.854972442551116
 31
0.0
  0
LINE
  5
164
  8
DETAIL
  6
CONTINUOUS
 62
     5
 10
-1254.2999999999879
 20
-29.154972442549479
 30
0.0
 11
-1254.2999999999879
 21
-93.854972442551116
 31
0.0
  0
LINE
  5
165
  8
DETAIL
  6
CONTINUOUS
 62
     5
 10
-1254.2999999999879
 20
-29.154972442549479
 30
0.0
 11
-1244.2999999999879
 21
-29.154972442549479
 31
0.0
  0
LINE
  5
166
  8
DETAIL
  6
CONTINUOUS
 62
     5
 10
-1244.2999999999879
 20
-251.85497244255109
 30
0.0
 11
-1244.2999999999879
 21
-293.85497244255112
 31
0.0
  0
LINE
  5
167
  8
DETAIL
  6
CONTINUOUS
 62
     5
 10
-1254.2999999999879
 20
-251.85497244255109
 30
0.0
 11
-1254.2999999999879
 21
-293.85497244255112
 31
0.0
  0
LINE
  5
168
  8
DETAIL
  6
CONTINUOUS
 62
     5
 10
-1256.2999999999879
 20
-93.854972442551116
 30
0.0
 11
-1256.2999999999879
 21
-251.85497244255109
 31
0.0
  0
LINE
  5
169
  8
DETAIL
  6
CONTINUOUS
 62
     5
 10
-1212.5
 20
-93.854972442551116
 30
0.0
 11
-1256.2999999999879
 21
-93.854972442551116
 31
0.0
  0
LINE
  5
16A
  8
DETAIL
  6
CONTINUOUS
 62
     5
 10
-1212.5
 20
-251.85497244255109
 30
0.0
 11
-1256.2999999999879
 21
-251.85497244255109
 31
0.0
  0
ARC
  5
16B
  8
DETAIL
  6
CONTINUOUS
 62
     5
 10
-1178.5
 20
-328.8549724425493
 30
0.0
 40
17.499999999999719
 50
57.684798971955182
 51
90.0
  0
ARC
  5
16C
  8
DETAIL
  6
CONTINUOUS
 62
     5
 10
-1178.5
 20
-328.8549724425493
 30
0.0
 40
17.5
 50
270.0
 51
321.73405413037631
  0
LINE
  5
16E
  8
DETAIL
  6
CONTINUOUS
 62
     5
 10
-1218.5
 20
-28.8549724425493
 30
0.0
 11
-1238.5
 21
-28.8549724425493
 31
0.0
  0
LINE
  5
16F
  8
DETAIL
  6
CONTINUOUS
 62
     5
 10
-1238.5
 20
-30.8549724425493
 30
0.0
 11
-1238.5
 21
-28.8549724425493
 31
0.0
  0
LINE
  5
170
  8
DETAIL
  6
CONTINUOUS
 62
     5
 10
-1218.5
 20
-30.8549724425493
 30
0.0
 11
-1218.5
 21
-28.8549724425493
 31
0.0
  0
LINE
  5
171
  8
DETAIL
  6
CONTINUOUS
 62
     5
 10
-1188.18245836551
 20
-311.35497244255112
 30
0.0
 11
-1178.5
 21
-311.35497244255112
 31
0.0
  0
LINE
  5
172
  8
DETAIL
  6
CONTINUOUS
 62
     5
 10
-1188.18245836551
 20
-346.3549724425493
 30
0.0
 11
-1178.5
 21
-346.3549724425493
 31
0.0
  0
LINE
  5
173
  8
DETAIL
  6
CONTINUOUS
 62
     5
 10
-1244.2999999999879
 20
-29.85497244255113
 30
0.0
 11
-1238.5
 21
-29.85497244255113
 31
0.0
  0
LINE
  5
174
  8
DETAIL
  6
CONTINUOUS
 62
     5
 10
-1244.2999999999879
 20
-30.8549724425493
 30
0.0
 11
-1238.5
 21
-30.8549724425493
 31
0.0
  0
LINE
  5
175
  8
DETAIL
  6
CONTINUOUS
 62
     5
 10
-1218.5
 20
-29.85497244255113
 30
0.0
 11
-1212.5
 21
-29.85497244255113
 31
0.0
  0
LINE
  5
176
  8
DETAIL
  6
CONTINUOUS
 62
     5
 10
-1218.5
 20
-30.8549724425493
 30
0.0
 11
-1212.5
 21
-30.8549724425493
 31
0.0
  0
ARC
  5
177
  8
DETAIL
  6
CONTINUOUS
 62
     5
 10
-1178.5
 20
-328.8549724425493
 30
0.0
 40
16.999999999999108
 50
59.590259652341892
 51
319.82859344938907
  0
ARC
  5
178
  8
DETAIL
  6
CONTINUOUS
 62
     5
 10
-1178.5
 20
-328.8549724425493
 30
0.0
 40
15.999999999999959
 50
64.050338855368608
 51
315.36851424707572
  0
LINE
  5
179
  8
DETAIL
  6
CONTINUOUS
 62
     5
 10
-1142.5
 20
-335.88420525266969
 30
0.0
 11
-1142.5
 21
-367.85497244255112
 31
0.0
  0
ARC
  5
17A
  8
DETAIL
  6
CONTINUOUS
 62
     5
 10
-915.4997002105664
 20
-283.8549724425493
 30
0.0
 40
12.999999999998879
 50
279.70942655105608
 51
99.709426551056083
  0
LINE
  5
17B
  8
DETAIL
  6
CONTINUOUS
 62
     5
 10
-1180.692470143636
 20
-316.04118788570389
 30
0.0
 11
-917.69217035421025
 21
-271.04118788570759
 31
0.0
  0
LINE
  5
17C
  8
DETAIL
  6
CONTINUOUS
 62
     5
 10
-1176.307529856349
 20
-341.66875699939283
 30
0.0
 11
-913.30723006691528
 21
-296.66875699939283
 31
0.0
  0
ARC
  5
17D
  8
DETAIL
  6
CONTINUOUS
 62
     5
 10
-1178.5
 20
-328.8549724425493
 30
0.0
 40
13.00000000000067
 50
99.709426551056083
 51
279.70942655105608
  0
LINE
  5
17E
  8
DETAIL
  6
CONTINUOUS
 62
     5
 10
-1209.499999999985
 20
-4.854972442551114
 30
0.0
 11
-1209.499999999985
 21
-6.4549724425496589
 31
0.0
  0
LINE
  5
17F
  8
DETAIL
  6
CONTINUOUS
 62
     5
 10
-1003.499999999985
 20
-366.25497244254802
 30
0.0
 11
-1003.499999999985
 21
-367.85497244255112
 31
0.0
  0
LINE
  5
180
  8
DETAIL
  6
CONTINUOUS
 62
     5
 10
-997.49970021056652
 20
-6.4549724425496589
 30
0.0
 11
-1212.5
 21
-6.4549724425496589
 31
0.0
  0
LINE
  5
181
  8
DETAIL
  6
CONTINUOUS
 62
     5
 10
-1000.5
 20
-367.85497244255112
 30
0.0
 11
-1142.5
 21
-367.85497244255112
 31
0.0
  0
LINE
  5
182
  8
DETAIL
  6
CONTINUOUS
 62
     5
 10
-1000.5
 20
-311.58765500114617
 30
0.0
 11
-1000.5
 21
-367.85497244255112
 31
0.0
  0
LINE
  5
183
  8
DETAIL
  6
CONTINUOUS
 62
     5
 10
-1000.5
 20
-366.25497244254802
 30
0.0
 11
-1142.5
 21
-366.25497244255058
 31
0.0
  0
LINE
  5
184
  8
DETAIL
  6
CONTINUOUS
 62
     5
 10
-1142.5
 20
-297.8549724425493
 30
0.0
 11
-1142.5
 21
-309.50636204010613
 31
0.0
  0
LINE
  5
185
  8
DETAIL
  6
CONTINUOUS
 62
     5
 10
-1142.5
 20
-297.8549724425493
 30
0.0
 11
-1202.5
 21
-297.8549724425493
 31
0.0
  0
LINE
  5
186
  8
DETAIL
  6
CONTINUOUS
 62
     5
 10
-1202.5
 20
-297.8549724425493
 30
0.0
 11
-1212.5
 21
-287.85497244255112
 31
0.0
  0
LINE
  5
187
  8
DETAIL
  6
CONTINUOUS
 62
     5
 10
-1212.5
 20
-4.854972442551114
 30
0.0
 11
-1212.5
 21
-287.85497244255112
 31
0.0
  0
LINE
  5
188
  8
DETAIL
  6
CONTINUOUS
 62
     5
 10
-1100.999999999985
 20
-67.854972442549297
 30
0.0
 11
-1182.0
 21
-67.854972442549297
 31
0.0
  0
LINE
  5
189
  8
DETAIL
  6
CONTINUOUS
 62
     5
 10
-1100.999999999985
 20
-67.854972442549297
 30
0.0
 11
-1100.999999999985
 21
-181.85497244255109
 31
0.0
  0
LINE
  5
18A
  8
DETAIL
  6
CONTINUOUS
 62
     5
 10
-1182.0
 20
-67.854972442549297
 30
0.0
 11
-1182.0
 21
-181.85497244255109
 31
0.0
  0
LINE
  5
18B
  8
DETAIL
  6
CONTINUOUS
 62
     5
 10
-1100.999999999985
 20
-181.85497244255109
 30
0.0
 11
-1182.0
 21
-181.85497244255109
 31
0.0
  0
ARC
  5
18C
  8
DETAIL
  6
CONTINUOUS
 62
     5
 10
-1178.5
 20
-328.8549724425493
 30
0.0
 40
20.00000000000049
 50
50.25102842449963
 51
329.16782467773538
  0
LINE
  5
18D
  8
DETAIL
  6
CONTINUOUS
 62
     5
 10
-1206.5
 20
-293.85497244255112
 30
0.0
 11
-1254.5
 21
-293.85497244255112
 31
0.0
  0
LINE
  5
18E
  8
DETAIL
  6
CONTINUOUS
 62
     5
 10
-1254.5
 20
-293.85497244255112
 30
0.0
 11
-1254.5
 21
-354.15497244255312
 31
0.0
  0
ARC
  5
18F
  8
DETAIL
  6
CONTINUOUS
 62
     5
 10
-1254.2999999999879
 20
-29.85497244255113
 30
0.0
 40
5.0
 50
90.0
 51
180.0
  0
LINE
  5
190
  8
DETAIL
  6
CONTINUOUS
 62
     5
 10
-1259.2999999999879
 20
-29.85497244255113
 30
0.0
 11
-1259.2999999999879
 21
-91.854972442549283
 31
0.0
  0
LINE
  5
191
  8
DETAIL
  6
CONTINUOUS
 62
     5
 10
-1254.2999999999879
 20
-91.854972442549283
 30
0.0
 11
-1259.2999999999879
 21
-91.854972442549283
 31
0.0
  0
LINE
  5
192
  8
DETAIL
  6
CONTINUOUS
 62
     5
 10
-1254.2999999999879
 20
-24.8549724425493
 30
0.0
 11
-1212.5
 21
-24.8549724425493
 31
0.0
  0
LINE
  5
193
  8
DETAIL
  6
CONTINUOUS
 62
     5
 10
-1212.5
 20
-3.2549724425480231
 30
0.0
 11
-1212.5
 21
-43.254972442548009
 31
0.0
  0
LINE
  5
194
  8
DETAIL
  6
CONTINUOUS
 62
     5
 10
-1212.5
 20
-3.2549724425480231
 30
0.0
 11
-798.5
 21
-3.2549724425480231
 31
0.0
  0
LINE
  5
195
  8
DETAIL
  6
CONTINUOUS
 62
     5
 10
-1212.5
 20
-4.854972442551114
 30
0.0
 11
-798.5
 21
-4.854972442551114
 31
0.0
  0
LINE
  5
196
  8
DETAIL
  6
CONTINUOUS
 62
     5
 10
-798.5
 20
-3.2549724425480231
 30
0.0
 11
-798.5
 21
-40.254972442548009
 31
0.0
  0
LINE
  5
197
  8
DETAIL
  6
CONTINUOUS
 62
     5
 10
-801.49999999998545
 20
-43.254972442548009
 30
0.0
 11
-798.5
 21
-40.254972442548009
 31
0.0
  0
LINE
  5
198
  8
DETAIL
  6
CONTINUOUS
 62
     5
 10
-997.09999999998411
 20
-43.254972442548009
 30
0.0
 11
-801.49999999998545
 21
-43.254972442548009
 31
0.0
  0
LINE
  5
199
  8
DETAIL
  6
CONTINUOUS
 62
     5
 10
-801.49999999998545
 20
-3.2549724425480231
 30
0.0
 11
-801.49999999998545
 21
-4.854972442551114
 31
0.0
  0
LINE
  5
19A
  8
DETAIL
  6
CONTINUOUS
 62
     5
 10
-1209.499999999985
 20
-4.854972442551114
 30
0.0
 11
-1209.499999999985
 21
-3.2549724425480231
 31
0.0
  0
LINE
  5
19B
  8
DETAIL
  6
CONTINUOUS
 62
     5
 10
-995.89970021056786
 20
-44.854972442549283
 30
0.0
 11
-995.89970021056786
 21
-284.42268914769647
 31
0.0
  0
LINE
  5
19C
  8
DETAIL
  6
CONTINUOUS
 62
     5
 10
-997.49970021056652
 20
-44.854972442549283
 30
0.0
 11
-997.49970021056652
 21
-284.69645309419138
 31
0.0
  0
LINE
  5
19D
  8
DETAIL
  6
CONTINUOUS
 62
     5
 10
-997.49970021056652
 20
-44.854972442549283
 30
0.0
 11
-960.4997002105664
 21
-44.854972442549283
 31
0.0
  0
LINE
  5
19E
  8
DETAIL
  6
CONTINUOUS
 62
     5
 10
-997.49970021056652
 20
-4.854972442551114
 30
0.0
 11
-997.49970021056652
 21
-44.854972442549283
 31
0.0
  0
LINE
  5
1A1
  8
OUTLINE
  6
CONTINUOUS
 62
     3
 10
-1031.6316313036591
 20
-249.99999964311959
 30
0.0
 11
-1041.6511383036641
 21
-249.99999964311959
 31
0.0
  0
LINE
  5
1A3
  8
DETAIL
  6
CONTINUOUS
 62
     5
 10
-776.39999999999395
 20
-28.285568543310539
 30
0.0
 11
-776.39999999999395
 21
-304.08556854331169
 31
0.0
  0
LINE
  5
1A4
  8
DETAIL
  6
CONTINUOUS
 62
     5
 10
92.199850105280305
 20
-304.08556854331169
 30
0.0
 11
92.199850105280305
 21
-28.285568543310539
 31
0.0
  0
LINE
  5
1A5
  8
DETAIL
  6
CONTINUOUS
 62
     5
 10
112.1998501052949
 20
-28.285568543310539
 30
0.0
 11
112.1998501052949
 21
-302.48556854331122
 31
0.0
  0
LINE
  5
1A6
  8
DETAIL
  6
CONTINUOUS
 62
     5
 10
-776.39999999999395
 20
-28.285568543310539
 30
0.0
 11
-776.39999999999395
 21
-304.08556854331169
 31
0.0
  0
LINE
  5
1A7
  8
DETAIL
  6
CONTINUOUS
 62
     5
 10
-794.39999999999418
 20
-28.285568543310539
 30
0.0
 11
-794.39999999999418
 21
-304.08556854331169
 31
0.0
  0
LINE
  5
1A8
  8
DETAIL
  6
CONTINUOUS
 62
     5
 10
-798.5
 20
-28.285568543310539
 30
0.0
 11
989.0
 21
-28.285568543310539
 31
0.0
  0
LINE
  5
1A9
  8
DETAIL
  6
CONTINUOUS
 62
     5
 10
989.0
 20
-304.08556854331169
 30
0.0
 11
-956.65442250095646
 21
-304.08556854331169
 31
0.0
  0
ARC
  5
1AA
  8
DETAIL
  6
CONTINUOUS
 62
     5
 10
110.59985010528899
 20
-302.48556854331122
 30
0.0
 40
1.5999999999999091
 50
270.0
 51
0.0
  0
LINE
  5
1AB
  8
DETAIL
  6
CONTINUOUS
 62
     5
 10
92.199850105280305
 20
-302.48556854331122
 30
0.0
 11
112.1998501052949
 21
-302.48556854331122
 31
0.0
  0
LINE
  5
1AC
  8
DETAIL
  6
CONTINUOUS
 62
     5
 10
92.199850105280305
 20
-304.08556854331169
 30
0.0
 11
110.59985010528899
 21
-304.08556854331169
 31
0.0
  0
LINE
  5
1AD
  8
DETAIL
  6
CONTINUOUS
 62
     5
 10
110.59985010528899
 20
-28.285568543310539
 30
0.0
 11
110.59985010528899
 21
-302.48556854331122
 31
0.0
  0
LINE
  5
1AE
  8
DETAIL
  6
CONTINUOUS
 62
     5
 10
112.1998501052949
 20
-28.285568543310539
 30
0.0
 11
112.1998501052949
 21
-302.48556854331122
 31
0.0
  0
LINE
  5
1AF
  8
DETAIL
  6
CONTINUOUS
 62
     5
 10
989.0
 20
-304.08556854331169
 30
0.0
 11
989.0
 21
-28.285568543310539
 31
0.0
  0
LINE
  5
1BA
  8
NOTE
  6
CONTINUOUS
 62
     4
 10
-1183.999999999985
 20
-0.1549724425494787
 30
0.0
 11
-1365.810073318964
 21
251.04227593238829
 31
0.0
  0
LINE
  5
1BB
  8
NOTE
  6
CONTINUOUS
 62
     4
 10
-1365.810073318964
 20
251.04227593238829
 30
0.0
 11
-1760.7360493162851
 21
251.04227593238829
 31
0.0
  0
LINE
  5
1BC
  8
NOTE
  6
CONTINUOUS
 62
     4
 10
-1195.1801765955599
 20
28.821237504083911
 30
0.0
 11
-1183.999999999985
 21
-0.1549724425494787
 31
0.0
  0
LINE
  5
1BD
  8
NOTE
  6
CONTINUOUS
 62
     4
 10
-1183.999999999985
 20
-0.1549724425494787
 30
0.0
 11
-1208.1704218353991
 21
19.34907328849021
 31
0.0
  0
LINE
  5
1BF
  8
NOTE
  6
CONTINUOUS
 62
     4
 10
-843.0
 20
-214.0
 30
0.0
 11
-565.03701793876098
 21
52.941404381916982
 31
0.0
  0
LINE
  5
1C0
  8
NOTE
  6
CONTINUOUS
 62
     4
 10
-565.03701793876098
 20
52.941404381916982
 30
0.0
 11
-149.1578812427615
 21
52.941404381916982
 31
0.0
  0
LINE
  5
1C1
  8
NOTE
  6
CONTINUOUS
 62
     4
 10
-815.79419831225084
 20
-199.01796255155199
 30
0.0
 11
-843.0
 21
-214.0
 31
0.0
  0
LINE
  5
1C2
  8
NOTE
  6
CONTINUOUS
 62
     4
 10
-843.0
 20
-214.0
 30
0.0
 11
-826.93010321173654
 21
-187.42227419822481
 31
0.0
  0
LINE
  5
1C4
  8
NOTE
  6
CONTINUOUS
 62
     4
 10
-923.0
 20
-136.0
 30
0.0
 11
-660.97647180120157
 21
338.50603641301109
 31
0.0
  0
LINE
  5
1C6
  8
NOTE
  6
CONTINUOUS
 62
     4
 10
-901.38893124573008
 20
-113.69352562868499
 30
0.0
 11
-923.0
 21
-136.0
 31
0.0
  0
LINE
  5
1C7
  8
NOTE
  6
CONTINUOUS
 62
     4
 10
-923.0
 20
-136.0
 30
0.0
 11
-915.43750250486914
 21
-105.876492182753
 31
0.0
  0
LINE
  5
1C9
  8
NOTE
  6
CONTINUOUS
 62
     4
 10
-983.0
 20
0.0
 30
0.0
 11
-1308.415801650699
 21
459.20845927260319
 31
0.0
  0
LINE
  5
1CA
  8
NOTE
  6
CONTINUOUS
 62
     4
 10
-2074.0976034483178
 20
459.20845927260319
 30
0.0
 11
-1308.415801650699
 21
459.20845927260319
 31
0.0
  0
LINE
  5
1CB
  8
NOTE
  6
CONTINUOUS
 62
     4
 10
-993.54424867874081
 20
29.213625440546249
 30
0.0
 11
-983.0
 21
0.0
 31
0.0
  0
LINE
  5
1CC
  8
NOTE
  6
CONTINUOUS
 62
     4
 10
-983.0
 20
0.0
 30
0.0
 11
-1006.738399849023
 21
20.027617536483039
 31
0.0
  0
TEXT
  5
1D5
  8
ETC
  6
CONTINUOUS
 62
    61
 10
-89.018299049551729
 20
986.74619158648829
 30
0.0
 40
64.0
  1
PCZG-P8_10MBA8(DRAIN-UP-YOKO)_3
 41
0.9
  0
TEXT
  5
1DE
  8
NOTE
  6
CONTINUOUS
 62
     4
 10
1170.510195795619
 20
-235.82217663562301
 30
0.0
 40
45.0
  1
サービス
 50
90.00000299999769
 41
0.7
  7
STANDARD1
  0
TEXT
  5
1DF
  8
NOTE
  6
CONTINUOUS
 62
     4
 10
1243.9946132413661
 20
-235.82217663562301
 30
0.0
 40
45.0
  1
スペース
 50
90.00000299999769
 41
0.7
  7
STANDARD1
  0
TEXT
  5
1E6
  8
NOTE
  6
CONTINUOUS
 62
     4
 10
-1491.485700053558
 20
-244.81573736769059
 30
0.0
 40
45.0
  1
サービス
 50
90.00000299999769
 41
0.7
  7
STANDARD1
  0
TEXT
  5
1E7
  8
NOTE
  6
CONTINUOUS
 62
     4
 10
-1418.0012826078109
 20
-244.81573736769059
 30
0.0
 40
45.0
  1
スペース
 50
90.00000299999769
 41
0.7
  7
STANDARD1
  0
LINE
  5
1FD
  8
DETAIL
  6
CONTINUOUS
 62
     5
 10
-1108.499999999985
 20
-367.85497244255112
 30
0.0
 11
-1108.499999999985
 21
-369.0
 31
0.0
  0
LINE
  5
200
  8
DETAIL
  6
CONTINUOUS
 62
     5
 10
-960.4997002105664
 20
-42.807555063939589
 30
0.0
 11
-960.4997002105664
 21
-278.36566183147193
 31
0.0
  0
TEXT
  5
20C
  8
NOTE
  6
CONTINUOUS
 62
     4
 10
-649.69704390558059
 20
241.4536469015072
 30
0.0
 40
64.0
  1
RL %%C12.7
 41
0.9
  0
TEXT
  5
20D
  8
NOTE
  6
CONTINUOUS
 62
     4
 10
-650.44279390052657
 20
180.20960795070681
 30
0.0
 40
45.0
  1
PCZG-P10MBA8
 50
359.9999970000153
 41
0.6309520000000001
  7
STANDARD1
  0
TEXT
  5
20E
  8
NOTE
  6
CONTINUOUS
 62
     4
 10
-633.73448233575664
 20
415.97936669283598
 30
0.0
 40
64.0
  1
RL %%C9.52
 41
0.9
  0
LINE
  5
20F
  8
NOTE
  6
CONTINUOUS
 62
     4
 10
-660.97647180120157
 20
338.50603641301109
 30
0.0
 11
-254.05723731197281
 21
338.50603641301109
 31
0.0
  0
TEXT
  5
210
  8
NOTE
  6
CONTINUOUS
 62
     4
 10
-634.48023233070262
 20
354.73532774203539
 30
0.0
 40
45.0
  1
PCZG-P8MBA8
 50
359.9999970000153
 41
0.6309520000000001
  7
STANDARD1
  0
LINE
  5
211
  8
NOTE
  6
CONTINUOUS
 62
     4
 10
-757.35005053762757
 20
163.9803166216829
 30
0.0
 11
-288.60226525444182
 21
163.98031662168279
 31
0.0
  0
LINE
  5
221
  8
DETAIL
  6
CONTINUOUS
 62
     5
 10
-1032.5
 20
-3.2549724425480231
 30
0.0
 11
-1032.5
 21
0.0
 31
0.0
  0
ENDSEC
  0
EOF
