  0
SECTION
  2
HEADER
  9
$ACADVER
  1
AC1009
  9
$INSBASE
 10
0.0
 20
0.0
 30
0.0
  9
$EXTMIN
 10
-1240.8233484146481
 20
-572.93700016212824
 30
-0.0000000000000053
  9
$EXTMAX
 10
850.17701331546596
 20
567.48963201824699
 30
0.0000000000000099
  9
$LIMMIN
 10
-2970.0
 20
-2100.0
  9
$LIMMAX
 10
2970.0
 20
2100.0
  9
$ORTHOMODE
 70
     0
  9
$REGENMODE
 70
     0
  9
$FILLMODE
 70
     1
  9
$QTEXTMODE
 70
     0
  9
$MIRRTEXT
 70
     0
  9
$DRAGMODE
 70
     2
  9
$LTSCALE
 40
20.0
  9
$OSMODE
 70
   959
  9
$ATTMODE
 70
     1
  9
$TEXTSIZE
 40
64.0
  9
$TRACEWID
 40
0.05
  9
$TEXTSTYLE
  7
STANDARD
  9
$CLAYER
  8
SYMBOLLINE
  9
$CELTYPE
  6
CONTINUOUS
  9
$CECOLOR
 62
     6
  9
$DIMSCALE
 40
1.0
  9
$DIMASZ
 40
2.0
  9
$DIMEXO
 40
20.0
  9
$DIMDLI
 40
200.0
  9
$DIMRND
 40
0.0
  9
$DIMDLE
 40
0.0
  9
$DIMEXE
 40
30.0
  9
$DIMTP
 40
0.0
  9
$DIMTM
 40
0.0
  9
$DIMTXT
 40
64.0
  9
$DIMCEN
 40
0.09
  9
$DIMTSZ
 40
0.0
  9
$DIMTOL
 70
     0
  9
$DIMLIM
 70
     0
  9
$DIMTIH
 70
     0
  9
$DIMTOH
 70
     0
  9
$DIMSE1
 70
     0
  9
$DIMSE2
 70
     0
  9
$DIMTAD
 70
     1
  9
$DIMZIN
 70
     8
  9
$DIMBLK
  1

  9
$DIMASO
 70
     1
  9
$DIMSHO
 70
     0
  9
$DIMPOST
  1

  9
$DIMAPOST
  1

  9
$DIMALT
 70
     0
  9
$DIMALTD
 70
     2
  9
$DIMALTF
 40
25.399999999999999
  9
$DIMLFAC
 40
1.0
  9
$DIMTOFL
 70
     1
  9
$DIMTVP
 40
0.0
  9
$DIMTIX
 70
     1
  9
$DIMSOXD
 70
     0
  9
$DIMSAH
 70
     0
  9
$DIMBLK1
  1

  9
$DIMBLK2
  1

  9
$DIMSTYLE
  2
STANDARD
  9
$DIMCLRD
 70
     0
  9
$DIMCLRE
 70
     0
  9
$DIMCLRT
 70
     0
  9
$DIMTFAC
 40
1.0
  9
$DIMGAP
 40
0.09
  9
$LUNITS
 70
     2
  9
$LUPREC
 70
     4
  9
$SKETCHINC
 40
0.1
  9
$FILLETRAD
 40
0.0
  9
$AUNITS
 70
     1
  9
$AUPREC
 70
     3
  9
$MENU
  1
ACAD
  9
$ELEVATION
 40
0.0
  9
$PELEVATION
 40
0.0
  9
$THICKNESS
 40
0.0
  9
$LIMCHECK
 70
     1
  9
$BLIPMODE
 70
     0
  9
$CHAMFERA
 40
0.0
  9
$CHAMFERB
 40
0.0
  9
$SKPOLY
 70
     0
  9
$TDCREATE
 40
2450717.6598149999
  9
$TDUPDATE
 40
2455596.4410787728
  9
$TDINDWG
 40
0.0240761806
  9
$TDUSRTIMER
 40
0.0240754861
  9
$USRTIMER
 70
     1
  9
$ANGBASE
 50
0.0
  9
$ANGDIR
 70
     0
  9
$PDMODE
 70
     3
  9
$PDSIZE
 40
-2.0
  9
$PLINEWID
 40
0.0
  9
$COORDS
 70
     0
  9
$SPLFRAME
 70
     0
  9
$SPLINETYPE
 70
     6
  9
$SPLINESEGS
 70
     8
  9
$ATTDIA
 70
     0
  9
$ATTREQ
 70
     1
  9
$HANDLING
 70
     1
  9
$HANDSEED
  5
6B9
  9
$SURFTAB1
 70
     6
  9
$SURFTAB2
 70
     6
  9
$SURFTYPE
 70
     6
  9
$SURFU
 70
     6
  9
$SURFV
 70
     6
  9
$UCSNAME
  2

  9
$UCSORG
 10
0.0
 20
0.0
 30
0.0
  9
$UCSXDIR
 10
1.0
 20
0.0
 30
0.0
  9
$UCSYDIR
 10
0.0
 20
1.0
 30
0.0
  9
$PUCSNAME
  2

  9
$PUCSORG
 10
0.0
 20
0.0
 30
0.0
  9
$PUCSXDIR
 10
1.0
 20
0.0
 30
0.0
  9
$PUCSYDIR
 10
0.0
 20
1.0
 30
0.0
  9
$USERI1
 70
     0
  9
$USERI2
 70
     0
  9
$USERI3
 70
     0
  9
$USERI4
 70
     0
  9
$USERI5
 70
     0
  9
$USERR1
 40
20.0
  9
$USERR2
 40
0.0
  9
$USERR3
 40
0.0
  9
$USERR4
 40
0.0
  9
$USERR5
 40
0.0
  9
$WORLDVIEW
 70
     1
  9
$SHADEDGE
 70
     3
  9
$SHADEDIF
 70
    70
  9
$TILEMODE
 70
     1
  9
$MAXACTVP
 70
    48
  9
$PLIMCHECK
 70
     0
  9
$PEXTMIN
 10
1.0000000000000000E+020
 20
1.0000000000000000E+020
 30
1.0000000000000000E+020
  9
$PEXTMAX
 10
-1.0000000000000000E+020
 20
-1.0000000000000000E+020
 30
-1.0000000000000000E+020
  9
$PLIMMIN
 10
0.0
 20
0.0
  9
$PLIMMAX
 10
12.0
 20
9.0
  9
$UNITMODE
 70
     0
  9
$VISRETAIN
 70
     1
  9
$PLINEGEN
 70
     0
  9
$PSLTSCALE
 70
     1
  0
ENDSEC
  0
SECTION
  2
TABLES
  0
TABLE
  2
VPORT
 70
     1
  0
VPORT
  2
*ACTIVE
 70
     0
 10
0.0
 20
0.0
 11
1.0
 21
1.0
 12
0.0
 22
0.0
 13
0.0
 23
0.0
 14
400.0
 24
400.0
 15
400.0
 25
400.0
 16
0.0
 26
0.0
 36
1.0
 17
0.0
 27
0.0
 37
0.0
 40
4232.1839080459768
 41
1.5639386189258311
 42
50.0
 43
0.0
 44
0.0
 50
0.0
 51
0.0
 71
     0
 72
   500
 73
     1
 74
     0
 75
     0
 76
     0
 77
     0
 78
     0
  0
ENDTAB
  0
TABLE
  2
LTYPE
 70
     2
  0
LTYPE
  2
CONTINUOUS
 70
     0
  3
実線
 72
    65
 73
     0
 40
0.0
  0
LTYPE
  2
DASHDOT
 70
     0
  3
____ _ ____ _ ____ _ ____ _ ____ _ ____ _ ____
 72
    65
 73
     4
 40
5.5
 49
4.0
 49
-0.6
 49
0.3
 49
-0.6
  0
ENDTAB
  0
TABLE
  2
LAYER
 70
    12
  0
LAYER
  2
0
 70
     0
 62
     7
  6
CONTINUOUS
  0
LAYER
  2
SYMBOLLINE
 70
     0
 62
    15
  6
CONTINUOUS
  0
LAYER
  2
OUTLINE
 70
     0
 62
     3
  6
CONTINUOUS
  0
LAYER
  2
DETAIL
 70
     0
 62
     5
  6
CONTINUOUS
  0
LAYER
  2
BASIS
 70
     0
 62
     6
  6
DASHDOT
  0
LAYER
  2
SIZE
 70
     0
 62
    30
  6
CONTINUOUS
  0
LAYER
  2
NOTE
 70
     0
 62
     4
  6
CONTINUOUS
  0
LAYER
  2
ARRANGE
 70
     0
 62
     1
  6
CONTINUOUS
  0
LAYER
  2
FIX
 70
     0
 62
    11
  6
CONTINUOUS
  0
LAYER
  2
SERVICESPACE
 70
     0
 62
     2
  6
DASHDOT
  0
LAYER
  2
ETC
 70
     0
 62
    61
  6
CONTINUOUS
  0
LAYER
  2
DEFPOINTS
 70
     0
 62
     7
  6
CONTINUOUS
  0
ENDTAB
  0
TABLE
  2
STYLE
 70
     2
  0
STYLE
  2
STANDARD
 70
     0
 40
0.0
 41
0.9
 50
0.0
 71
     0
 42
64.0
  3
SIMPLEX
  4
BIGFONT
  0
STYLE
  2
ANNOTATIVE
 70
     0
 40
0.0
 41
1.0
 50
0.0
 71
     0
 42
0.2
  3
txt
  4

  0
ENDTAB
  0
TABLE
  2
VIEW
 70
     5
  0
VIEW
  2
ALL
 70
     0
 40
4508.0208510000002
 10
0.0
 20
41.309903999999989
 41
6252.631578999999
 11
0.0
 21
0.0
 31
1.0
 12
0.0
 22
0.0
 32
0.0
 42
50.0
 43
0.0
 44
0.0
 50
0.0
 71
     0
  0
ENDTAB
  0
TABLE
  2
UCS
 70
     0
  0
ENDTAB
  0
TABLE
  2
APPID
 70
     4
  0
APPID
  2
ACAD
 70
     0
  0
APPID
  2
ACADANNOTATIVE
 70
     0
  0
APPID
  2
ACAD_MLEADERVER
 70
     0
  0
APPID
  2
ACAD_EXEMPT_FROM_CAD_STANDARDS
 70
     0
  0
ENDTAB
  0
TABLE
  2
DIMSTYLE
 70
     2
  0
DIMSTYLE
  2
STANDARD
 70
     0
  3

  4

  5

  6

  7

 40
1.0
 41
0.18
 42
0.0625
 43
0.38
 44
0.18
 45
0.0
 46
0.0
 47
0.0
 48
0.0
140
0.18
141
0.09
142
0.0
143
25.399999999999999
144
1.0
145
0.0
146
1.0
147
0.09
 71
     0
 72
     0
 73
     1
 74
     1
 75
     0
 76
     0
 77
     0
 78
     0
170
     0
171
     2
172
     0
173
     0
174
     0
175
     0
176
     0
177
     0
178
     0
  0
DIMSTYLE
  2
ANNOTATIVE
 70
     0
  3

  4

  5

  6

  7

 40
1.0
 41
0.18
 42
0.0625
 43
0.38
 44
0.18
 45
0.0
 46
0.0
 47
0.0
 48
0.0
140
0.18
141
0.09
142
0.0
143
25.399999999999999
144
1.0
145
0.0
146
1.0
147
0.09
 71
     0
 72
     0
 73
     1
 74
     1
 75
     0
 76
     0
 77
     0
 78
     0
170
     0
171
     2
172
     0
173
     0
174
     0
175
     0
176
     0
177
     0
178
     0
  0
ENDTAB
  0
ENDSEC
  0
SECTION
  2
BLOCKS
  0
BLOCK
  8
0
  2
$MODEL_SPACE
 70
     0
 10
0.0
 20
0.0
 30
0.0
  3
$MODEL_SPACE
  1

  0
ENDBLK
  5
638
  8
0
  0
BLOCK
 67
     1
  8
0
  2
$PAPER_SPACE
 70
     0
 10
0.0
 20
0.0
 30
0.0
  3
$PAPER_SPACE
  1

  0
ENDBLK
  5
634
 67
     1
  8
0
  0
ENDSEC
  0
SECTION
  2
ENTITIES
  0
POINT
  5
36
  8
ARRANGE
  6
CONTINUOUS
 62
     1
 10
0.0
 20
0.0
 30
0.0
  0
TEXT
  5
38
  8
ETC
  6
CONTINUOUS
 62
    61
 10
-100.5690983125678
 20
503.40253499054018
 30
0.0
 40
64.0
  1
PCZG-P8MBA5_5
 41
0.9
  0
LINE
  5
4D
  8
BASIS
  6
DASHDOT
 62
     6
 10
0.0
 20
-379.64495799999997
 30
0.0
 11
0.0
 21
71.794438
 31
0.0
  0
LINE
  5
33D
  8
DETAIL
  6
CONTINUOUS
 62
     5
 10
321.0
 20
0.0
 30
0.0
 11
365.0
 21
-61.0
 31
0.0
  0
ARC
  5
33E
  8
DETAIL
  6
CONTINUOUS
 62
     5
 10
-365.58228800000001
 20
115.086033
 30
0.0
 40
785.57146799999998
 50
332.30664099999831
 51
347.04708599999083
  0
LINE
  5
33F
  8
DETAIL
  6
CONTINUOUS
 62
     5
 10
330.0
 20
-250.0
 30
0.0
 11
-15.0
 21
-320.0
 31
0.0
  0
LINE
  5
340
  8
DETAIL
  6
CONTINUOUS
 62
     5
 10
330.0
 20
-250.0
 30
0.0
 11
-400.0
 21
-250.0
 31
0.0
  0
LINE
  5
341
  8
DETAIL
  6
CONTINUOUS
 62
     5
 10
-15.0
 20
-320.0
 30
0.0
 11
-400.0
 21
-320.0
 31
0.0
  0
LINE
  5
342
  8
DETAIL
  6
CONTINUOUS
 62
     5
 10
400.0
 20
-61.0
 30
0.0
 11
-400.0
 21
-61.0
 31
0.0
  0
LINE
  5
343
  8
DETAIL
  6
CONTINUOUS
 62
     5
 10
321.0
 20
0.0
 30
0.0
 11
-400.0
 21
0.0
 31
0.0
  0
LINE
  5
344
  8
DETAIL
  6
CONTINUOUS
 62
     5
 10
-400.0
 20
-320.0
 30
0.0
 11
-400.0
 21
0.0
 31
0.0
  0
CIRCLE
  5
345
  8
ARRANGE
  6
CONTINUOUS
 62
     1
 10
0.0
 20
0.0
 30
0.0
 40
40.0
  0
LINE
  5
346
  8
NOTE
  6
CONTINUOUS
 62
     4
 10
-204.0
 20
-284.0
 30
0.0
 11
-472.47638482628082
 21
-566.03529668324666
 31
0.0
  0
LINE
  5
347
  8
NOTE
  6
CONTINUOUS
 62
     4
 10
-310.0
 20
-214.0
 30
0.0
 11
-678.58789724538258
 21
74.062658074357373
 31
0.0
  0
LINE
  5
348
  8
NOTE
  6
CONTINUOUS
 62
     4
 10
-310.0
 20
-136.0
 30
0.0
 11
-688.32453495920731
 21
221.51291753228179
 31
0.0
  0
LINE
  5
349
  8
OUTLINE
  6
CONTINUOUS
 62
     3
 10
321.0
 20
0.0
 30
0.0
 11
365.0
 21
-61.0
 31
0.0
  0
LINE
  5
34A
  8
OUTLINE
  6
CONTINUOUS
 62
     3
 10
321.0
 20
0.0
 30
0.0
 11
-400.0
 21
0.0
 31
0.0
  0
LINE
  5
34B
  8
OUTLINE
  6
CONTINUOUS
 62
     3
 10
400.0
 20
-61.0
 30
0.0
 11
365.0
 21
-61.0
 31
0.0
  0
ARC
  5
34C
  8
OUTLINE
  6
CONTINUOUS
 62
     3
 10
-365.58228800000001
 20
115.086033
 30
0.0
 40
785.57146799999998
 50
332.30664099999831
 51
347.04708599999083
  0
LINE
  5
34D
  8
OUTLINE
  6
CONTINUOUS
 62
     3
 10
330.0
 20
-250.0
 30
0.0
 11
-15.0
 21
-320.0
 31
0.0
  0
LINE
  5
34E
  8
OUTLINE
  6
CONTINUOUS
 62
     3
 10
-15.0
 20
-320.0
 30
0.0
 11
-400.0
 21
-320.0
 31
0.0
  0
LINE
  5
34F
  8
OUTLINE
  6
CONTINUOUS
 62
     3
 10
-400.0
 20
-320.0
 30
0.0
 11
-400.0
 21
0.0
 31
0.0
  0
CIRCLE
  5
350
  8
FIX
  6
CONTINUOUS
 62
    11
 10
-300.0
 20
0.0
 30
0.0
 40
15.0
  0
LINE
  5
351
  8
NOTE
  6
CONTINUOUS
 62
     4
 10
150.0
 20
0.0
 30
0.0
 11
229.6380223622364
 21
114.79893730951891
 31
0.0
  0
CIRCLE
  5
352
  8
FIX
  6
CONTINUOUS
 62
    11
 10
150.0
 20
0.0
 30
0.0
 40
15.0
  0
LINE
  5
353
  8
SIZE
  6
CONTINUOUS
 62
    30
 10
-300.0
 20
40.0
 30
0.0
 11
-300.0
 21
280.32563800000003
 31
0.0
  0
LINE
  5
354
  8
SIZE
  6
CONTINUOUS
 62
    30
 10
150.0
 20
40.0
 30
0.0
 11
150.0
 21
280.32563800000003
 31
0.0
  0
LINE
  5
355
  8
SIZE
  6
CONTINUOUS
 62
    30
 10
-300.0
 20
250.325638
 30
0.0
 11
150.0
 21
250.325638
 31
0.0
  0
TEXT
  5
356
  8
SIZE
  6
CONTINUOUS
 62
    30
 10
-138.6428571428572
 20
265.09706166727642
 30
0.0
 40
55.0
  1
450
 41
0.9
 72
     1
 11
-75.000000000000028
 21
265.09706166727642
 31
0.0
  0
LINE
  5
357
  8
SIZE
  6
CONTINUOUS
 62
    30
 10
-420.0
 20
-320.0
 30
0.0
 11
-1194.4300000000001
 21
-320.0
 31
0.0
  0
LINE
  5
358
  8
SIZE
  6
CONTINUOUS
 62
    30
 10
-420.0
 20
0.0
 30
0.0
 11
-1194.4300000000001
 21
0.0
 31
0.0
  0
LINE
  5
359
  8
SIZE
  6
CONTINUOUS
 62
    30
 10
-1164.4300000000001
 20
-320.0
 30
0.0
 11
-1164.4300000000001
 21
0.0
 31
0.0
  0
TEXT
  5
35A
  8
SIZE
  6
CONTINUOUS
 62
    30
 10
-1185.556324630913
 20
-223.6428571428572
 30
0.0
 40
55.0
  1
320
 50
90.0
 41
0.9
 72
     1
 11
-1185.556324630913
 21
-160.0
 31
0.0
  0
LINE
  5
35B
  8
SIZE
  6
CONTINUOUS
 62
    30
 10
-420.0
 20
-320.0
 30
0.0
 11
-1044.9670000000001
 21
-320.0
 31
0.0
  0
LINE
  5
35C
  8
SIZE
  6
CONTINUOUS
 62
    30
 10
-350.0
 20
-136.0
 30
0.0
 11
-1044.9670000000001
 21
-136.0
 31
0.0
  0
LINE
  5
35D
  8
SIZE
  6
CONTINUOUS
 62
    30
 10
-1014.967
 20
-320.0
 30
0.0
 11
-1014.967
 21
-136.0
 31
0.0
  0
TEXT
  5
35E
  8
SIZE
  6
CONTINUOUS
 62
    30
 10
-1036.0933316309131
 20
-288.10714285714289
 30
0.0
 40
55.0
  1
184
 50
90.0
 41
0.9
 72
     1
 11
-1036.0933316309131
 21
-228.0
 31
0.0
  0
LINE
  5
35F
  8
SIZE
  6
CONTINUOUS
 62
    30
 10
-420.0
 20
-320.0
 30
0.0
 11
-888.93407399999955
 21
-320.0
 31
0.0
  0
LINE
  5
360
  8
SIZE
  6
CONTINUOUS
 62
    30
 10
-350.0
 20
-214.0
 30
0.0
 11
-888.93407399999955
 21
-214.0
 31
0.0
  0
LINE
  5
361
  8
SIZE
  6
CONTINUOUS
 62
    30
 10
-858.93407400000001
 20
-326.0
 30
0.0
 11
-858.93407400000001
 21
-328.0
 31
0.0
  0
LINE
  5
362
  8
SIZE
  6
CONTINUOUS
 62
    30
 10
-858.93407400000001
 20
-214.0
 30
0.0
 11
-858.93407400000001
 21
-320.0
 31
0.0
  0
TEXT
  5
363
  8
SIZE
  6
CONTINUOUS
 62
    30
 10
-880.06039863091326
 20
-454.34790552082632
 30
0.0
 40
55.0
  1
106
 50
90.0
 41
0.9
 72
     1
 11
-880.06039863091326
 21
-396.59790552082632
 31
0.0
  0
LINE
  5
364
  8
SIZE
  6
CONTINUOUS
 62
    30
 10
-420.0
 20
-320.0
 30
0.0
 11
-731.258689
 21
-320.0
 31
0.0
  0
LINE
  5
365
  8
SIZE
  6
CONTINUOUS
 62
    30
 10
-244.0
 20
-284.0
 30
0.0
 11
-731.258689
 21
-284.0
 31
0.0
  0
LINE
  5
366
  8
SIZE
  6
CONTINUOUS
 62
    30
 10
-701.258689
 20
-284.0
 30
0.0
 11
-701.258689
 21
-320.0
 31
0.0
  0
TEXT
  5
367
  8
SIZE
  6
CONTINUOUS
 62
    30
 10
-722.38501363091325
 20
-419.89285714285711
 30
0.0
 40
55.0
  1
36
 50
90.0
 41
0.9
 72
     1
 11
-722.38501363091325
 21
-381.0
 31
0.0
  0
LINE
  5
368
  8
SIZE
  6
CONTINUOUS
 62
    30
 10
-400.0
 20
20.0
 30
0.0
 11
-400.0
 21
280.32563800000003
 31
0.0
  0
LINE
  5
369
  8
SIZE
  6
CONTINUOUS
 62
    30
 10
-300.0
 20
40.0
 30
0.0
 11
-300.0
 21
280.32563800000003
 31
0.0
  0
LINE
  5
36A
  8
SIZE
  6
CONTINUOUS
 62
    30
 10
-406.0
 20
250.325638
 30
0.0
 11
-408.0
 21
250.325638
 31
0.0
  0
LINE
  5
36B
  8
SIZE
  6
CONTINUOUS
 62
    30
 10
-300.0
 20
250.325638
 30
0.0
 11
-400.0
 21
250.325638
 31
0.0
  0
TEXT
  5
36C
  8
SIZE
  6
CONTINUOUS
 62
    30
 10
-529.59218440385007
 20
265.09706166727642
 30
0.0
 40
55.0
  1
100
 41
0.9
 72
     1
 11
-470.66361297527862
 21
265.09706166727642
 31
0.0
  0
LINE
  5
36D
  8
SIZE
  6
CONTINUOUS
 62
    30
 10
-400.0
 20
-340.0
 30
0.0
 11
-400.0
 21
-572.7278550000002
 31
0.0
  0
LINE
  5
36E
  8
SIZE
  6
CONTINUOUS
 62
    30
 10
400.0
 20
-81.0
 30
0.0
 11
400.0
 21
-572.7278550000002
 31
0.0
  0
LINE
  5
36F
  8
SIZE
  6
CONTINUOUS
 62
    30
 10
-400.0
 20
-542.72785500000009
 30
0.0
 11
400.0
 21
-542.72785500000009
 31
0.0
  0
TEXT
  5
370
  8
SIZE
  6
CONTINUOUS
 62
    30
 10
-63.642857142857189
 20
-527.95643133272335
 30
0.0
 40
55.0
  1
800
 41
0.9
 72
     1
 11
-0.0000000000000568
 21
-527.95643133272335
 31
0.0
  0
LINE
  5
371
  8
SIZE
  6
CONTINUOUS
 62
    30
 10
-400.0
 20
20.0
 30
0.0
 11
-400.0
 21
401.60614800000008
 31
0.0
  0
LINE
  5
372
  8
SIZE
  6
CONTINUOUS
 62
    30
 10
-204.0
 20
-244.0
 30
0.0
 11
-204.0
 21
401.60614800000008
 31
0.0
  0
LINE
  5
373
  8
SIZE
  6
CONTINUOUS
 62
    30
 10
-204.0
 20
371.60614800000008
 30
0.0
 11
-400.0
 21
371.60614800000008
 31
0.0
  0
TEXT
  5
374
  8
SIZE
  6
CONTINUOUS
 62
    30
 10
-359.75
 20
386.37757166727641
 30
0.0
 40
55.0
  1
196
 41
0.9
 72
     1
 11
-302.0
 21
386.37757166727641
 31
0.0
  0
LINE
  5
375
  8
SIZE
  6
CONTINUOUS
 62
    30
 10
-400.0
 20
20.0
 30
0.0
 11
-400.0
 21
146.30002400000001
 31
0.0
  0
LINE
  5
376
  8
SIZE
  6
CONTINUOUS
 62
    30
 10
-310.0
 20
-96.0
 30
0.0
 11
-310.0
 21
146.30002400000001
 31
0.0
  0
LINE
  5
377
  8
SIZE
  6
CONTINUOUS
 62
    30
 10
-310.0
 20
116.30002399999999
 30
0.0
 11
-400.0
 21
116.30002399999999
 31
0.0
  0
TEXT
  5
378
  8
SIZE
  6
CONTINUOUS
 62
    30
 10
-510.73067562080269
 20
131.0714476672764
 30
0.0
 40
55.0
  1
90
 41
0.9
 72
     1
 11
-470.65924704937419
 21
131.0714476672764
 31
0.0
  0
CIRCLE
  5
379
  8
SIZE
  6
CONTINUOUS
 62
    30
 10
-400.0
 20
116.30002399999999
 30
0.0
 40
6.0
  0
CIRCLE
  5
37A
  8
SIZE
  6
CONTINUOUS
 62
    30
 10
-310.0
 20
116.30002399999999
 30
0.0
 40
6.0
  0
CIRCLE
  5
37B
  8
SIZE
  6
CONTINUOUS
 62
    30
 10
-204.0
 20
371.60614800000008
 30
0.0
 40
6.0
  0
CIRCLE
  5
37C
  8
SIZE
  6
CONTINUOUS
 62
    30
 10
-400.0
 20
371.60614800000008
 30
0.0
 40
6.0
  0
CIRCLE
  5
37D
  8
SIZE
  6
CONTINUOUS
 62
    30
 10
400.0
 20
-542.72785500000009
 30
0.0
 40
6.0
  0
CIRCLE
  5
37E
  8
SIZE
  6
CONTINUOUS
 62
    30
 10
-400.0
 20
-542.72785500000009
 30
0.0
 40
6.0
  0
CIRCLE
  5
37F
  8
SIZE
  6
CONTINUOUS
 62
    30
 10
-400.0
 20
250.325638
 30
0.0
 40
6.0
  0
CIRCLE
  5
380
  8
SIZE
  6
CONTINUOUS
 62
    30
 10
-300.0
 20
250.325638
 30
0.0
 40
6.0
  0
CIRCLE
  5
381
  8
SIZE
  6
CONTINUOUS
 62
    30
 10
-701.258689
 20
-320.0
 30
0.0
 40
6.0
  0
CIRCLE
  5
382
  8
SIZE
  6
CONTINUOUS
 62
    30
 10
-701.258689
 20
-284.0
 30
0.0
 40
6.0
  0
CIRCLE
  5
383
  8
SIZE
  6
CONTINUOUS
 62
    30
 10
-858.93407400000001
 20
-320.0
 30
0.0
 40
6.0
  0
CIRCLE
  5
384
  8
SIZE
  6
CONTINUOUS
 62
    30
 10
-858.93407400000001
 20
-214.0
 30
0.0
 40
6.0
  0
CIRCLE
  5
385
  8
SIZE
  6
CONTINUOUS
 62
    30
 10
-1014.967
 20
-136.0
 30
0.0
 40
6.0
  0
CIRCLE
  5
386
  8
SIZE
  6
CONTINUOUS
 62
    30
 10
-1014.967
 20
-320.0
 30
0.0
 40
6.0
  0
CIRCLE
  5
387
  8
SIZE
  6
CONTINUOUS
 62
    30
 10
-1164.4300000000001
 20
0.0
 30
0.0
 40
6.0
  0
CIRCLE
  5
388
  8
SIZE
  6
CONTINUOUS
 62
    30
 10
-1164.4300000000001
 20
-320.0
 30
0.0
 40
6.0
  0
CIRCLE
  5
389
  8
SIZE
  6
CONTINUOUS
 62
    30
 10
150.0
 20
250.325638
 30
0.0
 40
6.0
  0
CIRCLE
  5
38A
  8
SIZE
  6
CONTINUOUS
 62
    30
 10
-300.0
 20
250.325638
 30
0.0
 40
6.0
  0
POLYLINE
  5
38B
  8
NOTE
  6
CONTINUOUS
 62
     4
 66
     1
 10
0.0
 20
0.0
 30
0.0
  0
VERTEX
  5
69D
  8
NOTE
  6
CONTINUOUS
 62
     4
 10
163.67060828541071
 20
37.591414799501877
 30
0.0
  0
VERTEX
  5
69E
  8
NOTE
  6
CONTINUOUS
 62
     4
 10
150.0
 20
0.0
 30
0.0
  0
VERTEX
  5
69F
  8
NOTE
  6
CONTINUOUS
 62
     4
 10
180.63480143414401
 20
25.719816780713359
 30
0.0
  0
SEQEND
  5
6A0
  8
NOTE
  6
CONTINUOUS
 62
     4
  0
LINE
  5
38C
  8
NOTE
  6
CONTINUOUS
 62
     4
 10
150.0
 20
-20.0
 30
0.0
 11
150.0
 21
20.0
 31
0.0
  0
LINE
  5
38D
  8
NOTE
  6
CONTINUOUS
 62
     4
 10
130.0
 20
0.0
 30
0.0
 11
170.0
 21
0.0
 31
0.0
  0
LINE
  5
38E
  8
NOTE
  6
CONTINUOUS
 62
     4
 10
-300.0
 20
-20.0
 30
0.0
 11
-300.0
 21
20.0
 31
0.0
  0
LINE
  5
38F
  8
NOTE
  6
CONTINUOUS
 62
     4
 10
-280.0
 20
0.0
 30
0.0
 11
-320.0
 21
0.0
 31
0.0
  0
POLYLINE
  5
390
  8
NOTE
  6
CONTINUOUS
 62
     4
 66
     1
 10
0.0
 20
0.0
 30
0.0
  0
VERTEX
  5
6A1
  8
NOTE
  6
CONTINUOUS
 62
     4
 10
-334.59263460842158
 20
-182.45317270346121
 30
0.0
  0
VERTEX
  5
6A2
  8
NOTE
  6
CONTINUOUS
 62
     4
 10
-310.0
 20
-214.0
 30
0.0
  0
VERTEX
  5
6A3
  8
NOTE
  6
CONTINUOUS
 62
     4
 10
-347.07125964588749
 20
-198.9759629470845
 30
0.0
  0
SEQEND
  5
6A4
  8
NOTE
  6
CONTINUOUS
 62
     4
  0
POLYLINE
  5
391
  8
NOTE
  6
CONTINUOUS
 62
     4
 66
     1
 10
0.0
 20
0.0
 30
0.0
  0
VERTEX
  5
6A5
  8
NOTE
  6
CONTINUOUS
 62
     4
 10
-331.1415485521905
 20
-102.04363180810481
 30
0.0
  0
VERTEX
  5
6A6
  8
NOTE
  6
CONTINUOUS
 62
     4
 10
-310.0
 20
-136.0
 30
0.0
  0
VERTEX
  5
6A7
  8
NOTE
  6
CONTINUOUS
 62
     4
 10
-345.2873019795577
 20
-117.16369660208559
 30
0.0
  0
SEQEND
  5
6A8
  8
NOTE
  6
CONTINUOUS
 62
     4
  0
POLYLINE
  5
392
  8
NOTE
  6
CONTINUOUS
 62
     4
 66
     1
 10
0.0
 20
0.0
 30
0.0
  0
VERTEX
  5
6A9
  8
NOTE
  6
CONTINUOUS
 62
     4
 10
-239.18891300000001
 20
-303.01947399999989
 30
0.0
  0
VERTEX
  5
6AA
  8
NOTE
  6
CONTINUOUS
 62
     4
 10
-204.0
 20
-284.0
 30
0.0
  0
VERTEX
  5
6AB
  8
NOTE
  6
CONTINUOUS
 62
     4
 10
-224.96475600000011
 20
-318.06580400000013
 30
0.0
  0
SEQEND
  5
6AC
  8
NOTE
  6
CONTINUOUS
 62
     4
  0
LINE
  5
393
  8
NOTE
  6
CONTINUOUS
 62
     4
 10
-204.0
 20
-304.0
 30
0.0
 11
-204.0
 21
-264.0
 31
0.0
  0
LINE
  5
394
  8
NOTE
  6
CONTINUOUS
 62
     4
 10
-184.0
 20
-284.0
 30
0.0
 11
-224.0
 21
-284.0
 31
0.0
  0
LINE
  5
395
  8
NOTE
  6
CONTINUOUS
 62
     4
 10
-310.0
 20
-234.0
 30
0.0
 11
-310.0
 21
-194.0
 31
0.0
  0
LINE
  5
396
  8
NOTE
  6
CONTINUOUS
 62
     4
 10
-290.0
 20
-214.0
 30
0.0
 11
-330.0
 21
-214.0
 31
0.0
  0
LINE
  5
397
  8
NOTE
  6
CONTINUOUS
 62
     4
 10
-310.0
 20
-156.0
 30
0.0
 11
-310.0
 21
-116.0
 31
0.0
  0
LINE
  5
398
  8
NOTE
  6
CONTINUOUS
 62
     4
 10
-290.0
 20
-136.0
 30
0.0
 11
-330.0
 21
-136.0
 31
0.0
  0
LINE
  5
399
  8
SIZE
  6
CONTINUOUS
 62
    30
 10
-408.00000218338369
 20
250.32564006546039
 30
0.0
 11
-533.32722376717345
 21
250.32564006546039
 31
0.0
  0
LINE
  5
39A
  8
SIZE
  6
CONTINUOUS
 62
    30
 10
-405.99563407409562
 20
116.07117717032369
 30
0.0
 11
-407.99563407409602
 21
116.07117717032369
 31
0.0
  0
LINE
  5
39B
  8
SIZE
  6
CONTINUOUS
 62
    30
 10
-407.99563625747959
 20
116.071179235784
 30
0.0
 11
-533.32285784126952
 21
116.071179235784
 31
0.0
  0
LINE
  5
39C
  8
SIZE
  6
CONTINUOUS
 62
    30
 10
-858.93407400000001
 20
-328.0
 30
0.0
 11
-858.93407400000001
 21
-465.19581104165252
 31
0.0
  0
LINE
  5
39D
  8
SIZE
  6
CONTINUOUS
 62
    30
 10
-701.258689
 20
-326.0
 30
0.0
 11
-701.258689
 21
-328.0
 31
0.0
  0
LINE
  5
39E
  8
SIZE
  6
CONTINUOUS
 62
    30
 10
-701.258689
 20
-328.0
 30
0.0
 11
-701.258689
 21
-434.0
 31
0.0
  0
LINE
  5
39F
  8
NOTE
  6
CONTINUOUS
 62
     4
 10
849.85433737347535
 20
114.79893730951891
 30
0.0
 11
229.6380223622364
 21
114.79893730951891
 31
0.0
  0
TEXT
  5
3A0
  8
NOTE
  6
CONTINUOUS
 62
     4
 10
237.70157208776101
 20
140.96452330951871
 30
0.0
 40
55.0
  1
AH 4-14×26長穴
 41
0.9
  0
LINE
  5
3A1
  8
NOTE
  6
CONTINUOUS
 62
     4
 10
-1035.224447925495
 20
74.062658074357373
 30
0.0
 11
-678.58789724538258
 21
74.062658074357373
 31
0.0
  0
TEXT
  5
3A2
  8
NOTE
  6
CONTINUOUS
 62
     4
 10
-1029.00557013868
 20
98.740554074357604
 30
0.0
 40
55.0
  1
RG φ25.4
 41
0.9
  0
LINE
  5
3A3
  8
NOTE
  6
CONTINUOUS
 62
     4
 10
-688.32453495920731
 20
221.51291753228179
 30
0.0
 11
-1048.655239877909
 21
221.51291753228179
 31
0.0
  0
TEXT
  5
3A4
  8
NOTE
  6
CONTINUOUS
 62
     4
 10
-1026.956511522686
 20
250.31999753228189
 30
0.0
 40
55.0
  1
RL φ9.52
 41
0.9
  0
LINE
  5
3A5
  8
NOTE
  6
CONTINUOUS
 62
     4
 10
-472.47638482628082
 20
-566.03529668324666
 30
0.0
 11
-811.96348468839665
 21
-566.03529668324666
 31
0.0
  0
TEXT
  5
3A6
  8
NOTE
  6
CONTINUOUS
 62
     4
 10
-801.24314839770921
 20
-535.67515968324676
 30
0.0
 40
55.0
  1
D VP-20
 41
0.9
  0
ENDSEC
  0
EOF
