  0
SECTION
  2
HEADER
  9
$ACADVER
  1
AC1009
  9
$INSBASE
 10
0.0
 20
0.0
 30
0.0
  9
$EXTMIN
 10
-1711.2304534544601
 20
-898.81895854931645
 30
-0.000000000000013
  9
$EXTMAX
 10
1432.067883133501
 20
489.94446591234731
 30
0.0000000000000023
  9
$LIMMIN
 10
-2970.0
 20
-2100.0
  9
$LIMMAX
 10
2970.0
 20
2100.0
  9
$ORTHOMODE
 70
     0
  9
$REGENMODE
 70
     0
  9
$FILLMODE
 70
     1
  9
$QTEXTMODE
 70
     0
  9
$MIRRTEXT
 70
     0
  9
$DRAGMODE
 70
     2
  9
$LTSCALE
 40
20.0
  9
$OSMODE
 70
   431
  9
$ATTMODE
 70
     1
  9
$TEXTSIZE
 40
64.0
  9
$TRACEWID
 40
0.05
  9
$TEXTSTYLE
  7
STANDARD
  9
$CLAYER
  8
SYMBOLLINE
  9
$CELTYPE
  6
CONTINUOUS
  9
$CECOLOR
 62
     1
  9
$DIMSCALE
 40
1.0
  9
$DIMASZ
 40
2.0
  9
$DIMEXO
 40
20.0
  9
$DIMDLI
 40
200.0
  9
$DIMRND
 40
0.0
  9
$DIMDLE
 40
0.0
  9
$DIMEXE
 40
30.0
  9
$DIMTP
 40
0.0
  9
$DIMTM
 40
0.0
  9
$DIMTXT
 40
64.0
  9
$DIMCEN
 40
0.09
  9
$DIMTSZ
 40
0.0
  9
$DIMTOL
 70
     0
  9
$DIMLIM
 70
     0
  9
$DIMTIH
 70
     0
  9
$DIMTOH
 70
     0
  9
$DIMSE1
 70
     0
  9
$DIMSE2
 70
     0
  9
$DIMTAD
 70
     1
  9
$DIMZIN
 70
     8
  9
$DIMBLK
  1

  9
$DIMASO
 70
     1
  9
$DIMSHO
 70
     0
  9
$DIMPOST
  1

  9
$DIMAPOST
  1

  9
$DIMALT
 70
     0
  9
$DIMALTD
 70
     2
  9
$DIMALTF
 40
25.399999999999999
  9
$DIMLFAC
 40
1.0
  9
$DIMTOFL
 70
     1
  9
$DIMTVP
 40
0.0
  9
$DIMTIX
 70
     1
  9
$DIMSOXD
 70
     0
  9
$DIMSAH
 70
     0
  9
$DIMBLK1
  1

  9
$DIMBLK2
  1

  9
$DIMSTYLE
  2
STANDARD
  9
$DIMCLRD
 70
     0
  9
$DIMCLRE
 70
     0
  9
$DIMCLRT
 70
     0
  9
$DIMTFAC
 40
1.0
  9
$DIMGAP
 40
0.09
  9
$LUNITS
 70
     2
  9
$LUPREC
 70
     4
  9
$SKETCHINC
 40
0.1
  9
$FILLETRAD
 40
0.0
  9
$AUNITS
 70
     1
  9
$AUPREC
 70
     3
  9
$MENU
  1
ACAD
  9
$ELEVATION
 40
0.0
  9
$PELEVATION
 40
0.0
  9
$THICKNESS
 40
0.0
  9
$LIMCHECK
 70
     1
  9
$BLIPMODE
 70
     0
  9
$CHAMFERA
 40
0.0
  9
$CHAMFERB
 40
0.0
  9
$SKPOLY
 70
     0
  9
$TDCREATE
 40
2450717.6034490052
  9
$TDUPDATE
 40
2455866.7629289241
  9
$TDINDWG
 40
0.0590312963
  9
$TDUSRTIMER
 40
0.059029213
  9
$USRTIMER
 70
     1
  9
$ANGBASE
 50
0.0
  9
$ANGDIR
 70
     0
  9
$PDMODE
 70
     3
  9
$PDSIZE
 40
-2.0
  9
$PLINEWID
 40
0.0
  9
$COORDS
 70
     0
  9
$SPLFRAME
 70
     0
  9
$SPLINETYPE
 70
     6
  9
$SPLINESEGS
 70
     8
  9
$ATTDIA
 70
     0
  9
$ATTREQ
 70
     1
  9
$HANDLING
 70
     1
  9
$HANDSEED
  5
706
  9
$SURFTAB1
 70
     6
  9
$SURFTAB2
 70
     6
  9
$SURFTYPE
 70
     6
  9
$SURFU
 70
     6
  9
$SURFV
 70
     6
  9
$UCSNAME
  2

  9
$UCSORG
 10
0.0
 20
0.0
 30
0.0
  9
$UCSXDIR
 10
1.0
 20
0.0
 30
0.0
  9
$UCSYDIR
 10
0.0
 20
1.0
 30
0.0
  9
$PUCSNAME
  2

  9
$PUCSORG
 10
0.0
 20
0.0
 30
0.0
  9
$PUCSXDIR
 10
1.0
 20
0.0
 30
0.0
  9
$PUCSYDIR
 10
0.0
 20
1.0
 30
0.0
  9
$USERI1
 70
     0
  9
$USERI2
 70
     0
  9
$USERI3
 70
     0
  9
$USERI4
 70
     0
  9
$USERI5
 70
     0
  9
$USERR1
 40
20.0
  9
$USERR2
 40
0.0
  9
$USERR3
 40
0.0
  9
$USERR4
 40
0.0
  9
$USERR5
 40
0.0
  9
$WORLDVIEW
 70
     1
  9
$SHADEDGE
 70
     3
  9
$SHADEDIF
 70
    70
  9
$TILEMODE
 70
     1
  9
$MAXACTVP
 70
    48
  9
$PLIMCHECK
 70
     0
  9
$PEXTMIN
 10
1.0000000000000000E+020
 20
1.0000000000000000E+020
 30
1.0000000000000000E+020
  9
$PEXTMAX
 10
-1.0000000000000000E+020
 20
-1.0000000000000000E+020
 30
-1.0000000000000000E+020
  9
$PLIMMIN
 10
0.0
 20
0.0
  9
$PLIMMAX
 10
12.0
 20
9.0
  9
$UNITMODE
 70
     0
  9
$VISRETAIN
 70
     1
  9
$PLINEGEN
 70
     0
  9
$PSLTSCALE
 70
     1
  0
ENDSEC
  0
SECTION
  2
TABLES
  0
TABLE
  2
VPORT
 70
     1
  0
VPORT
  2
*ACTIVE
 70
     0
 10
0.0
 20
0.0
 11
1.0
 21
1.0
 12
0.0000000000000568
 22
0.0
 13
0.0
 23
0.0
 14
400.0
 24
400.0
 15
400.0
 25
400.0
 16
0.0
 26
0.0
 36
1.0
 17
0.0
 27
0.0
 37
0.0
 40
4232.0203303684866
 41
1.555979643765903
 42
50.0
 43
0.0
 44
0.0
 50
0.0
 51
0.0
 71
     0
 72
   500
 73
     1
 74
     0
 75
     0
 76
     0
 77
     0
 78
     0
  0
ENDTAB
  0
TABLE
  2
LTYPE
 70
     2
  0
LTYPE
  2
CONTINUOUS
 70
     0
  3
実線
 72
    65
 73
     0
 40
0.0
  0
LTYPE
  2
DASHDOT
 70
     0
  3
____ _ ____ _ ____ _ ____ _ ____ _ ____ _ ____
 72
    65
 73
     4
 40
5.5
 49
4.0
 49
-0.6
 49
0.3
 49
-0.6
  0
ENDTAB
  0
TABLE
  2
LAYER
 70
    12
  0
LAYER
  2
0
 70
     0
 62
     7
  6
CONTINUOUS
  0
LAYER
  2
SYMBOLLINE
 70
     0
 62
    15
  6
CONTINUOUS
  0
LAYER
  2
SIZE
 70
     0
 62
    30
  6
CONTINUOUS
  0
LAYER
  2
OUTLINE
 70
     0
 62
     3
  6
CONTINUOUS
  0
LAYER
  2
DETAIL
 70
     0
 62
     5
  6
CONTINUOUS
  0
LAYER
  2
BASIS
 70
     0
 62
     6
  6
DASHDOT
  0
LAYER
  2
NOTE
 70
     0
 62
     4
  6
CONTINUOUS
  0
LAYER
  2
ARRANGE
 70
     0
 62
     1
  6
CONTINUOUS
  0
LAYER
  2
FIX
 70
     0
 62
    11
  6
CONTINUOUS
  0
LAYER
  2
SERVICESPACE
 70
     0
 62
     2
  6
DASHDOT
  0
LAYER
  2
ETC
 70
     0
 62
    61
  6
CONTINUOUS
  0
LAYER
  2
DEFPOINTS
 70
     0
 62
     7
  6
CONTINUOUS
  0
ENDTAB
  0
TABLE
  2
STYLE
 70
     2
  0
STYLE
  2
STANDARD
 70
     0
 40
0.0
 41
0.9
 50
0.0
 71
     0
 42
64.0
  3
SIMPLEX
  4
BIGFONT
  0
STYLE
  2
ANNOTATIVE
 70
     0
 40
0.0
 41
1.0
 50
0.0
 71
     0
 42
0.2
  3
txt
  4

  0
ENDTAB
  0
TABLE
  2
VIEW
 70
     2
  0
VIEW
  2
ALL
 70
     0
 40
4508.0208510000002
 10
0.0
 20
41.309903999999989
 41
6252.631578999999
 11
0.0
 21
0.0
 31
1.0
 12
0.0
 22
0.0
 32
0.0
 42
50.0
 43
0.0
 44
0.0
 50
0.0
 71
     0
  0
ENDTAB
  0
TABLE
  2
UCS
 70
     0
  0
ENDTAB
  0
TABLE
  2
APPID
 70
     4
  0
APPID
  2
ACAD
 70
     0
  0
APPID
  2
ACADANNOTATIVE
 70
     0
  0
APPID
  2
ACAD_MLEADERVER
 70
     0
  0
APPID
  2
ACAD_EXEMPT_FROM_CAD_STANDARDS
 70
     0
  0
ENDTAB
  0
TABLE
  2
DIMSTYLE
 70
     2
  0
DIMSTYLE
  2
STANDARD
 70
     0
  3

  4

  5

  6

  7

 40
1.0
 41
0.18
 42
0.0625
 43
0.38
 44
0.18
 45
0.0
 46
0.0
 47
0.0
 48
0.0
140
0.18
141
0.09
142
0.0
143
25.399999999999999
144
1.0
145
0.0
146
1.0
147
0.09
 71
     0
 72
     0
 73
     1
 74
     1
 75
     0
 76
     0
 77
     0
 78
     0
170
     0
171
     2
172
     0
173
     0
174
     0
175
     0
176
     0
177
     0
178
     0
  0
DIMSTYLE
  2
ANNOTATIVE
 70
     0
  3

  4

  5

  6

  7

 40
1.0
 41
0.18
 42
0.0625
 43
0.38
 44
0.18
 45
0.0
 46
0.0
 47
0.0
 48
0.0
140
0.18
141
0.09
142
0.0
143
25.399999999999999
144
1.0
145
0.0
146
1.0
147
0.09
 71
     0
 72
     0
 73
     1
 74
     1
 75
     0
 76
     0
 77
     0
 78
     0
170
     0
171
     2
172
     0
173
     0
174
     0
175
     0
176
     0
177
     0
178
     0
  0
ENDTAB
  0
ENDSEC
  0
SECTION
  2
BLOCKS
  0
BLOCK
  8
0
  2
$MODEL_SPACE
 70
     0
 10
0.0
 20
0.0
 30
0.0
  3
$MODEL_SPACE
  1

  0
ENDBLK
  5
6AE
  8
0
  0
BLOCK
 67
     1
  8
0
  2
$PAPER_SPACE
 70
     0
 10
0.0
 20
0.0
 30
0.0
  3
$PAPER_SPACE
  1

  0
ENDBLK
  5
6AA
 67
     1
  8
0
  0
ENDSEC
  0
SECTION
  2
ENTITIES
  0
LINE
  5
4B
  8
BASIS
  6
DASHDOT
 62
     6
 10
0.0
 20
-411.43316600000003
 30
0.0
 11
0.0
 21
83.024862999999982
 31
0.0
  0
POINT
  5
4D
  8
ARRANGE
  6
CONTINUOUS
 62
     1
 10
0.0
 20
0.0
 30
0.0
  0
TEXT
  5
250
  8
ETC
  6
CONTINUOUS
 62
    61
 10
677.5899306861719
 20
425.9000609858976
 30
0.0
 40
64.0
  1
PCZG-P8MBA6_3
 41
0.9
  0
LINE
  5
37E
  8
DETAIL
  6
CONTINUOUS
 62
     5
 10
1041.269507
 20
-61.0
 30
0.0
 11
1032.5
 21
-61.0
 31
0.0
  0
LINE
  5
380
  8
DETAIL
  6
CONTINUOUS
 62
     5
 10
1032.5
 20
0.0
 30
0.0
 11
-1032.5
 21
0.0
 31
0.0
  0
LINE
  5
381
  8
DETAIL
  6
CONTINUOUS
 62
     5
 10
1006.689747935765
 20
-320.00000035659201
 30
0.0
 11
-1006.689748
 21
-320.0
 31
0.0
  0
LINE
  5
382
  8
DETAIL
  6
CONTINUOUS
 62
     5
 10
-1032.519507
 20
-61.0
 30
0.0
 11
-1041.269507
 21
-61.0
 31
0.0
  0
CIRCLE
  5
385
  8
ARRANGE
  6
CONTINUOUS
 62
     1
 10
0.0
 20
0.0
 30
0.0
 40
40.0
  0
CIRCLE
  5
386
  8
FIX
  6
CONTINUOUS
 62
    11
 10
-983.0
 20
0.0
 30
0.0
 40
15.0
  0
LINE
  5
387
  8
OUTLINE
  6
CONTINUOUS
 62
     3
 10
1032.5
 20
0.0
 30
0.0
 11
-1032.5
 21
0.0
 31
0.0
  0
LINE
  5
388
  8
OUTLINE
  6
CONTINUOUS
 62
     3
 10
1006.689747935765
 20
-320.00000035659201
 30
0.0
 11
-1006.689748
 21
-320.0
 31
0.0
  0
LINE
  5
389
  8
SIZE
  6
CONTINUOUS
 62
    30
 10
1050.0
 20
-175.5
 30
0.0
 11
1050.0
 21
-898.55046400000003
 31
0.0
  0
CIRCLE
  5
38A
  8
SIZE
  6
CONTINUOUS
 62
    30
 10
1050.0
 20
-868.55046400000015
 30
0.0
 40
6.0
  0
POLYLINE
  5
38B
  8
NOTE
  6
CONTINUOUS
 62
     4
 66
     1
 10
0.0
 20
0.0
 30
0.0
  0
VERTEX
  5
6EA
  8
NOTE
  6
CONTINUOUS
 62
     4
 10
-889.9287019999997
 20
-314.33623999999998
 30
0.0
  0
VERTEX
  5
6EB
  8
NOTE
  6
CONTINUOUS
 62
     4
 10
-916.0
 20
-284.0
 30
0.0
  0
VERTEX
  5
6EC
  8
NOTE
  6
CONTINUOUS
 62
     4
 10
-908.58971399999996
 20
-323.30760299999997
 30
0.0
  0
SEQEND
  5
6ED
  8
NOTE
  6
CONTINUOUS
 62
     4
  0
POLYLINE
  5
38C
  8
NOTE
  6
CONTINUOUS
 62
     4
 66
     1
 10
0.0
 20
0.0
 30
0.0
  0
VERTEX
  5
6EE
  8
NOTE
  6
CONTINUOUS
 62
     4
 10
-812.80550199999971
 20
-240.23532499999999
 30
0.0
  0
VERTEX
  5
6EF
  8
NOTE
  6
CONTINUOUS
 62
     4
 10
-843.0
 20
-214.0
 30
0.0
  0
VERTEX
  5
6F0
  8
NOTE
  6
CONTINUOUS
 62
     4
 10
-829.96846000000005
 20
-251.8177069999999
 30
0.0
  0
SEQEND
  5
6F1
  8
NOTE
  6
CONTINUOUS
 62
     4
  0
POLYLINE
  5
38D
  8
NOTE
  6
CONTINUOUS
 62
     4
 66
     1
 10
0.0
 20
0.0
 30
0.0
  0
VERTEX
  5
6F2
  8
NOTE
  6
CONTINUOUS
 62
     4
 10
-936.18296271250961
 20
-98.234811023509906
 30
0.0
  0
VERTEX
  5
6F3
  8
NOTE
  6
CONTINUOUS
 62
     4
 10
-923.0
 20
-136.0
 30
0.0
  0
VERTEX
  5
6F4
  8
NOTE
  6
CONTINUOUS
 62
     4
 10
-915.53418658210046
 20
-96.702905441179965
 30
0.0
  0
SEQEND
  5
6F5
  8
NOTE
  6
CONTINUOUS
 62
     4
  0
LINE
  5
38E
  8
NOTE
  6
CONTINUOUS
 62
     4
 10
-843.0
 20
-234.0
 30
0.0
 11
-843.0
 21
-194.0
 31
0.0
  0
LINE
  5
38F
  8
NOTE
  6
CONTINUOUS
 62
     4
 10
-863.0
 20
-214.0
 30
0.0
 11
-823.0
 21
-214.0
 31
0.0
  0
LINE
  5
390
  8
NOTE
  6
CONTINUOUS
 62
     4
 10
-923.0
 20
-156.0
 30
0.0
 11
-923.0
 21
-116.0
 31
0.0
  0
LINE
  5
391
  8
NOTE
  6
CONTINUOUS
 62
     4
 10
-943.0
 20
-136.0
 30
0.0
 11
-903.0
 21
-136.0
 31
0.0
  0
LINE
  5
392
  8
NOTE
  6
CONTINUOUS
 62
     4
 10
-916.0
 20
-304.0
 30
0.0
 11
-916.0
 21
-264.0
 31
0.0
  0
LINE
  5
393
  8
NOTE
  6
CONTINUOUS
 62
     4
 10
-936.0
 20
-284.0
 30
0.0
 11
-896.0
 21
-284.0
 31
0.0
  0
LINE
  5
394
  8
NOTE
  6
CONTINUOUS
 62
     4
 10
-983.0
 20
-20.0
 30
0.0
 11
-983.0
 21
20.0
 31
0.0
  0
LINE
  5
395
  8
NOTE
  6
CONTINUOUS
 62
     4
 10
-1003.0
 20
0.0
 30
0.0
 11
-963.0
 21
0.0
 31
0.0
  0
LINE
  5
396
  8
DETAIL
  6
CONTINUOUS
 62
     5
 10
-1003.0
 20
0.0
 30
0.0
 11
-1003.0
 21
-320.0
 31
0.0
  0
ARC
  5
397
  8
DETAIL
  6
CONTINUOUS
 62
     5
 10
-512.84039600000006
 20
-156.5471639999999
 30
0.0
 40
527.14113699999996
 50
190.21150599999231
 51
197.26148400000781
  0
LINE
  5
398
  8
DETAIL
  6
CONTINUOUS
 62
     5
 10
-1032.5
 20
-61.0
 30
0.0
 11
-1032.5
 21
0.0
 31
0.0
  0
ARC
  5
399
  8
DETAIL
  6
CONTINUOUS
 62
     5
 10
-522.85990300000003
 20
-156.5471639999999
 30
0.0
 40
527.14113699999996
 50
169.5571100000021
 51
190.21150599999231
  0
ARC
  5
39A
  8
DETAIL
  6
CONTINUOUS
 62
     5
 10
-1006.689748
 20
-310.0
 30
0.0
 40
10.0
 50
197.26148400000781
 51
270.0
  0
LINE
  5
39B
  8
DETAIL
  6
CONTINUOUS
 62
     5
 10
-1032.5
 20
-61.0
 30
0.0
 11
-1032.5
 21
0.0
 31
0.0
  0
LINE
  5
39C
  8
NOTE
  6
CONTINUOUS
 62
     4
 10
-916.0
 20
-284.0
 30
0.0
 11
-770.82654267578425
 21
-569.94215360088265
 31
0.0
  0
LINE
  5
39D
  8
NOTE
  6
CONTINUOUS
 62
     4
 10
-843.0
 20
-214.0
 30
0.0
 11
-714.36050413746466
 21
-455.66228046791912
 31
0.0
  0
LINE
  5
39E
  8
NOTE
  6
CONTINUOUS
 62
     4
 10
-923.0
 20
-136.0
 30
0.0
 11
-941.08378548124904
 21
260.99434735563767
 31
0.0
  0
LINE
  5
39F
  8
OUTLINE
  6
CONTINUOUS
 62
     3
 10
-1032.5
 20
-61.0
 30
0.0
 11
-1032.5
 21
0.0
 31
0.0
  0
ARC
  5
3A0
  8
OUTLINE
  6
CONTINUOUS
 62
     3
 10
-522.85990300000003
 20
-156.5471639999999
 30
0.0
 40
527.14113699999996
 50
169.5571100000021
 51
190.21150599999231
  0
ARC
  5
3A1
  8
OUTLINE
  6
CONTINUOUS
 62
     3
 10
-512.84039600000006
 20
-156.5471639999999
 30
0.0
 40
527.14113699999996
 50
190.21150599999231
 51
197.26148400000781
  0
ARC
  5
3A2
  8
OUTLINE
  6
CONTINUOUS
 62
     3
 10
-1006.689748
 20
-310.0
 30
0.0
 40
10.0
 50
197.26148400000781
 51
270.0
  0
LINE
  5
3A3
  8
OUTLINE
  6
CONTINUOUS
 62
     3
 10
-1032.5
 20
-61.0
 30
0.0
 11
-1041.2695069999991
 21
-61.0
 31
0.0
  0
LINE
  5
3A4
  8
OUTLINE
  6
CONTINUOUS
 62
     3
 10
-1031.6316309999991
 20
-250.0
 30
0.0
 11
-1041.651137999999
 21
-250.0
 31
0.0
  0
LINE
  5
3A5
  8
SIZE
  6
CONTINUOUS
 62
    30
 10
-983.0
 20
40.0
 30
0.0
 11
-983.0
 21
143.63542499999991
 31
0.0
  0
LINE
  5
3A6
  8
SIZE
  6
CONTINUOUS
 62
    30
 10
-1050.0
 20
-135.5
 30
0.0
 11
-1050.0
 21
143.63542499999991
 31
0.0
  0
LINE
  5
3A7
  8
SIZE
  6
CONTINUOUS
 62
    30
 10
-1056.0
 20
113.6354249999999
 30
0.0
 11
-1058.0
 21
113.6354249999999
 31
0.0
  0
LINE
  5
3A8
  8
SIZE
  6
CONTINUOUS
 62
    30
 10
-1050.0
 20
113.6354249999999
 30
0.0
 11
-983.0
 21
113.6354249999999
 31
0.0
  0
TEXT
  5
3A9
  8
SIZE
  6
CONTINUOUS
 62
    30
 10
-1158.103071763584
 20
132.2046571019728
 30
0.0
 40
55.0
  1
67
 41
0.9
 72
     1
 11
-1118.031643192156
 21
132.2046571019728
 31
0.0
  0
LINE
  5
3AA
  8
SIZE
  6
CONTINUOUS
 62
    30
 10
-983.0
 20
40.0
 30
0.0
 11
-983.0
 21
143.63542499999991
 31
0.0
  0
LINE
  5
3AB
  8
SIZE
  6
CONTINUOUS
 62
    30
 10
1011.0
 20
113.6354249999999
 30
0.0
 11
-983.0
 21
113.6354249999999
 31
0.0
  0
TEXT
  5
3AC
  8
SIZE
  6
CONTINUOUS
 62
    30
 10
-69.678571428571203
 20
132.51942572547341
 30
0.0
 40
55.0
  1
1994
 41
0.9
 72
     1
 11
14.000000000000229
 21
132.51942572547341
 31
0.0
  0
LINE
  5
3AD
  8
SIZE
  6
CONTINUOUS
 62
    30
 10
-1026.6897479999991
 20
-320.0
 30
0.0
 11
-1664.79
 21
-320.0
 31
0.0
  0
LINE
  5
3AE
  8
SIZE
  6
CONTINUOUS
 62
    30
 10
-963.0
 20
-136.0
 30
0.0
 11
-1664.79
 21
-136.0
 31
0.0
  0
LINE
  5
3AF
  8
SIZE
  6
CONTINUOUS
 62
    30
 10
-1634.79
 20
-320.0
 30
0.0
 11
-1634.79
 21
-136.0
 31
0.0
  0
TEXT
  5
3B0
  8
SIZE
  6
CONTINUOUS
 62
    30
 10
-1655.8104350049539
 20
-288.10714285714289
 30
0.0
 40
55.0
  1
184
 50
90.0
 41
0.9
 72
     1
 11
-1655.8104350049539
 21
-228.0
 31
0.0
  0
LINE
  5
3B1
  8
SIZE
  6
CONTINUOUS
 62
    30
 10
-1026.6897479999991
 20
-320.0
 30
0.0
 11
-1546.8066410492611
 21
-320.0
 31
0.0
  0
LINE
  5
3B2
  8
SIZE
  6
CONTINUOUS
 62
    30
 10
-883.0
 20
-214.0
 30
0.0
 11
-1547.5581311500059
 21
-214.0
 31
0.0
  0
LINE
  5
3B3
  8
SIZE
  6
CONTINUOUS
 62
    30
 10
-1517.0419061088951
 20
-214.0
 30
0.0
 11
-1517.0419061088951
 21
-320.0
 31
0.0
  0
TEXT
  5
3B4
  8
SIZE
  6
CONTINUOUS
 62
    30
 10
-1534.848178307622
 20
-458.97348647142371
 30
0.0
 40
55.0
  1
106
 50
90.0
 41
0.9
 72
     1
 11
-1534.848178307622
 21
-401.22348647142371
 31
0.0
  0
LINE
  5
3B5
  8
SIZE
  6
CONTINUOUS
 62
    30
 10
-1026.6897479999991
 20
-320.0
 30
0.0
 11
-1422.0575964715611
 21
-320.0
 31
0.0
  0
LINE
  5
3B6
  8
SIZE
  6
CONTINUOUS
 62
    30
 10
-956.0
 20
-284.0
 30
0.0
 11
-1422.0575964715611
 21
-284.0
 31
0.0
  0
LINE
  5
3B7
  8
SIZE
  6
CONTINUOUS
 62
    30
 10
-1391.276219346589
 20
-328.00000033301689
 30
0.0
 11
-1391.276219346589
 21
-326.000000333017
 31
0.0
  0
LINE
  5
3B8
  8
SIZE
  6
CONTINUOUS
 62
    30
 10
-1391.276226000464
 20
-284.0
 30
0.0
 11
-1391.276226000464
 21
-320.0
 31
0.0
  0
TEXT
  5
3B9
  8
SIZE
  6
CONTINUOUS
 62
    30
 10
-1410.899206262191
 20
-417.8067272293676
 30
0.0
 40
55.0
  1
36
 50
90.0
 41
0.9
 72
     1
 11
-1410.899206262191
 21
-378.91387008651049
 31
0.0
  0
LINE
  5
3BA
  8
SIZE
  6
CONTINUOUS
 62
    30
 10
-1050.0
 20
-175.5
 30
0.0
 11
-1050.0
 21
-815.85014000000001
 31
0.0
  0
LINE
  5
3BB
  8
SIZE
  6
CONTINUOUS
 62
    30
 10
-843.0
 20
-254.0
 30
0.0
 11
-843.0
 21
-815.85014000000001
 31
0.0
  0
LINE
  5
3BC
  8
SIZE
  6
CONTINUOUS
 62
    30
 10
-1050.0
 20
-785.85014000000001
 30
0.0
 11
-843.0
 21
-785.85014000000001
 31
0.0
  0
TEXT
  5
3BD
  8
SIZE
  6
CONTINUOUS
 62
    30
 10
-1010.142857142857
 20
-767.77751790613911
 30
0.0
 40
55.0
  1
207
 41
0.9
 72
     1
 11
-946.49999999999955
 21
-767.77751790613911
 31
0.0
  0
LINE
  5
3BE
  8
SIZE
  6
CONTINUOUS
 62
    30
 10
-1050.0
 20
-175.5
 30
0.0
 11
-1050.0
 21
-678.0162650000002
 31
0.0
  0
LINE
  5
3BF
  8
SIZE
  6
CONTINUOUS
 62
    30
 10
-916.0
 20
-324.0
 30
0.0
 11
-916.0
 21
-678.0162650000002
 31
0.0
  0
LINE
  5
3C0
  8
SIZE
  6
CONTINUOUS
 62
    30
 10
-1056.0
 20
-648.0162650000002
 30
0.0
 11
-1058.0
 21
-648.0162650000002
 31
0.0
  0
LINE
  5
3C1
  8
SIZE
  6
CONTINUOUS
 62
    30
 10
-916.0
 20
-648.0162650000002
 30
0.0
 11
-1050.0
 21
-648.0162650000002
 31
0.0
  0
TEXT
  5
3C2
  8
SIZE
  6
CONTINUOUS
 62
    30
 10
-1192.769962164429
 20
-627.1743026558579
 30
0.0
 40
55.0
  1
134
 41
0.9
 72
     1
 11
-1132.6628193072861
 21
-627.1743026558579
 31
0.0
  0
LINE
  5
3C3
  8
SIZE
  6
CONTINUOUS
 62
    30
 10
-1050.0
 20
-175.5
 30
0.0
 11
-1050.0
 21
-529.57978600000001
 31
0.0
  0
LINE
  5
3C4
  8
SIZE
  6
CONTINUOUS
 62
    30
 10
-923.0
 20
-176.0
 30
0.0
 11
-923.0
 21
-529.57978600000001
 31
0.0
  0
LINE
  5
3C5
  8
SIZE
  6
CONTINUOUS
 62
    30
 10
-923.0
 20
-499.57978600000001
 30
0.0
 11
-1050.0
 21
-499.57978600000001
 31
0.0
  0
TEXT
  5
3C6
  8
SIZE
  6
CONTINUOUS
 62
    30
 10
-1190.1508598269029
 20
-478.40038694484429
 30
0.0
 40
55.0
  1
127
 41
0.9
 72
     1
 11
-1131.222288398332
 21
-478.40038694484429
 31
0.0
  0
LINE
  5
3C7
  8
SIZE
  6
CONTINUOUS
 62
    30
 10
-1050.0
 20
-175.5
 30
0.0
 11
-1050.0
 21
-898.55046400000003
 31
0.0
  0
LINE
  5
3C8
  8
SIZE
  6
CONTINUOUS
 62
    30
 10
-1050.0
 20
-868.55046400000015
 30
0.0
 11
1050.0
 21
-868.55046400000015
 31
0.0
  0
TEXT
  5
3C9
  8
SIZE
  6
CONTINUOUS
 62
    30
 10
-82.500000000000014
 20
-846.09167818035326
 30
0.0
 40
55.0
  1
2100
 41
0.9
 72
     1
 11
0.0
 21
-846.09167818035326
 31
0.0
  0
CIRCLE
  5
3CA
  8
SIZE
  6
CONTINUOUS
 62
    30
 10
-1050.0
 20
-868.55046400000015
 30
0.0
 40
6.0
  0
CIRCLE
  5
3CB
  8
SIZE
  6
CONTINUOUS
 62
    30
 10
-1050.0
 20
-499.57978600000001
 30
0.0
 40
6.0
  0
CIRCLE
  5
3CC
  8
SIZE
  6
CONTINUOUS
 62
    30
 10
-923.0
 20
-499.57978600000001
 30
0.0
 40
6.0
  0
CIRCLE
  5
3CD
  8
SIZE
  6
CONTINUOUS
 62
    30
 10
-1050.0
 20
-648.0162650000002
 30
0.0
 40
6.0
  0
CIRCLE
  5
3CE
  8
SIZE
  6
CONTINUOUS
 62
    30
 10
-916.0
 20
-648.0162650000002
 30
0.0
 40
6.0
  0
CIRCLE
  5
3CF
  8
SIZE
  6
CONTINUOUS
 62
    30
 10
-843.0
 20
-785.85014000000001
 30
0.0
 40
6.0
  0
CIRCLE
  5
3D0
  8
SIZE
  6
CONTINUOUS
 62
    30
 10
-1050.0
 20
-785.85014000000001
 30
0.0
 40
6.0
  0
CIRCLE
  5
3D1
  8
SIZE
  6
CONTINUOUS
 62
    30
 10
-1391.276226000464
 20
-320.0
 30
0.0
 40
6.0
  0
CIRCLE
  5
3D2
  8
SIZE
  6
CONTINUOUS
 62
    30
 10
-1391.276226000464
 20
-284.0
 30
0.0
 40
6.0
  0
CIRCLE
  5
3D3
  8
SIZE
  6
CONTINUOUS
 62
    30
 10
-1517.0419061088951
 20
-320.0
 30
0.0
 40
6.0
  0
CIRCLE
  5
3D4
  8
SIZE
  6
CONTINUOUS
 62
    30
 10
-1517.0419061088951
 20
-214.0
 30
0.0
 40
6.0
  0
CIRCLE
  5
3D5
  8
SIZE
  6
CONTINUOUS
 62
    30
 10
-1634.79
 20
-136.0
 30
0.0
 40
6.0
  0
CIRCLE
  5
3D6
  8
SIZE
  6
CONTINUOUS
 62
    30
 10
-1634.79
 20
-320.0
 30
0.0
 40
6.0
  0
CIRCLE
  5
3D7
  8
SIZE
  6
CONTINUOUS
 62
    30
 10
-983.0
 20
113.6354249999999
 30
0.0
 40
6.0
  0
CIRCLE
  5
3D8
  8
SIZE
  6
CONTINUOUS
 62
    30
 10
-983.0
 20
113.6354249999999
 30
0.0
 40
6.0
  0
CIRCLE
  5
3D9
  8
SIZE
  6
CONTINUOUS
 62
    30
 10
-1050.0
 20
113.6354249999999
 30
0.0
 40
6.0
  0
LINE
  5
3DA
  8
SIZE
  6
CONTINUOUS
 62
    30
 10
-1178.063294260864
 20
113.63542914343191
 30
0.0
 11
-1057.999992123448
 21
113.63542914343191
 31
0.0
  0
LINE
  5
3DB
  8
SIZE
  6
CONTINUOUS
 62
    30
 10
-1207.3256386145731
 20
-648.0162650000002
 30
0.0
 11
-1058.0
 21
-648.0162650000002
 31
0.0
  0
LINE
  5
3DC
  8
SIZE
  6
CONTINUOUS
 62
    30
 10
-1055.999997382241
 20
-499.57978527647668
 30
0.0
 11
-1057.999997382241
 21
-499.57978527647668
 31
0.0
  0
LINE
  5
3DD
  8
SIZE
  6
CONTINUOUS
 62
    30
 10
-1204.4445794144231
 20
-499.57978527647668
 30
0.0
 11
-1057.999997382241
 21
-499.57978527647668
 31
0.0
  0
LINE
  5
3DE
  8
SIZE
  6
CONTINUOUS
 62
    30
 10
-1391.276219346589
 20
-328.00000033301689
 30
0.0
 11
-1391.276219346589
 21
-429.82773984000369
 31
0.0
  0
LINE
  5
3DF
  8
SIZE
  6
CONTINUOUS
 62
    30
 10
-1517.0419061088951
 20
-328.0
 30
0.0
 11
-1517.0419061088951
 21
-326.0
 31
0.0
  0
LINE
  5
3E0
  8
SIZE
  6
CONTINUOUS
 62
    30
 10
-1517.0419061088951
 20
-328.0
 30
0.0
 11
-1517.0419061088951
 21
-474.44697294284708
 31
0.0
  0
LINE
  5
3E1
  8
NOTE
  6
CONTINUOUS
 62
     4
 10
-714.36050413746466
 20
-455.66228046791912
 30
0.0
 11
-357.72395345735282
 21
-455.66228046791912
 31
0.0
  0
TEXT
  5
3E2
  8
NOTE
  6
CONTINUOUS
 62
     4
 10
-708.14162635065122
 20
-430.98438446791857
 30
0.0
 40
55.0
  1
RG φ25.4
 41
0.9
  0
LINE
  5
3E3
  8
NOTE
  6
CONTINUOUS
 62
     4
 10
-941.08378548124904
 20
260.99434735563767
 30
0.0
 11
-1301.4144903999511
 21
260.99434735563767
 31
0.0
  0
TEXT
  5
3E4
  8
NOTE
  6
CONTINUOUS
 62
     4
 10
-1270.287190616157
 20
289.80142735563783
 30
0.0
 40
55.0
  1
RL φ9.52
 41
0.9
  0
LINE
  5
3E5
  8
NOTE
  6
CONTINUOUS
 62
     4
 10
-431.33944281366882
 20
-569.94215360088265
 30
0.0
 11
-770.82654267578425
 21
-569.94215360088265
 31
0.0
  0
TEXT
  5
3E6
  8
NOTE
  6
CONTINUOUS
 62
     4
 10
-760.10620638509715
 20
-539.5820166008823
 30
0.0
 40
55.0
  1
D VP-20
 41
0.9
  0
LINE
  5
3E7
  8
DETAIL
  6
CONTINUOUS
 62
     5
 10
1003.0
 20
0.0
 30
0.0
 11
1003.0
 21
-320.0
 31
0.0
  0
ARC
  5
3E8
  8
DETAIL
  6
CONTINUOUS
 62
     5
 10
522.85990300000003
 20
-156.5471639999999
 30
0.0
 40
527.14113699999996
 50
349.78849400000769
 51
10.442889999997711
  0
LINE
  5
3E9
  8
DETAIL
  6
CONTINUOUS
 62
     5
 10
1032.5
 20
-61.0
 30
0.0
 11
1032.5
 21
0.0
 31
0.0
  0
LINE
  5
3EA
  8
DETAIL
  6
CONTINUOUS
 62
     5
 10
1032.5
 20
-61.0
 30
0.0
 11
1032.5
 21
0.0
 31
0.0
  0
CIRCLE
  5
3EB
  8
FIX
  6
CONTINUOUS
 62
    11
 10
1011.0
 20
0.0
 30
0.0
 40
15.0
  0
LINE
  5
3EC
  8
OUTLINE
  6
CONTINUOUS
 62
     3
 10
1041.2695069999991
 20
-61.0
 30
0.0
 11
1032.5
 21
-61.0
 31
0.0
  0
LINE
  5
3ED
  8
OUTLINE
  6
CONTINUOUS
 62
     3
 10
1041.65113830362
 20
-249.9999996434199
 30
0.0
 11
1031.6316309999991
 21
-250.0
 31
0.0
  0
ARC
  5
3EE
  8
OUTLINE
  6
CONTINUOUS
 62
     3
 10
522.85990300000003
 20
-156.5471639999999
 30
0.0
 40
527.14113699999996
 50
349.78849400000769
 51
10.442889999997711
  0
LINE
  5
3EF
  8
OUTLINE
  6
CONTINUOUS
 62
     3
 10
1032.5
 20
-61.0
 30
0.0
 11
1032.5
 21
0.0
 31
0.0
  0
LINE
  5
3F0
  8
NOTE
  6
CONTINUOUS
 62
     4
 10
1011.0
 20
0.0
 30
0.0
 11
926.20466245389957
 21
261.22479803447078
 31
0.0
  0
LINE
  5
3F1
  8
SIZE
  6
CONTINUOUS
 62
    30
 10
1011.0
 20
40.0
 30
0.0
 11
1011.0
 21
143.63542499999991
 31
0.0
  0
LINE
  5
3F2
  8
SIZE
  6
CONTINUOUS
 62
    30
 10
1050.0
 20
-135.5
 30
0.0
 11
1050.0
 21
143.63542499999991
 31
0.0
  0
LINE
  5
3F3
  8
SIZE
  6
CONTINUOUS
 62
    30
 10
1011.0
 20
40.0
 30
0.0
 11
1011.0
 21
143.63542499999991
 31
0.0
  0
LINE
  5
3F4
  8
SIZE
  6
CONTINUOUS
 62
    30
 10
1056.0
 20
113.6354249999999
 30
0.0
 11
1058.0
 21
113.6354249999999
 31
0.0
  0
LINE
  5
3F5
  8
SIZE
  6
CONTINUOUS
 62
    30
 10
1011.0
 20
113.6354249999999
 30
0.0
 11
1050.0
 21
113.6354249999999
 31
0.0
  0
TEXT
  5
3F6
  8
SIZE
  6
CONTINUOUS
 62
    30
 10
1076.369413011862
 20
132.92001633105241
 30
0.0
 40
55.0
  1
39
 41
0.9
 72
     1
 11
1115.2622701547191
 21
132.92001633105241
 31
0.0
  0
LINE
  5
3F7
  8
SIZE
  6
CONTINUOUS
 62
    30
 10
1052.5
 20
0.0
 30
0.0
 11
1245.86493
 21
0.0
 31
0.0
  0
LINE
  5
3F8
  8
SIZE
  6
CONTINUOUS
 62
    30
 10
1034.0
 20
-320.0
 30
0.0
 11
1245.86493
 21
-320.0
 31
0.0
  0
LINE
  5
3F9
  8
SIZE
  6
CONTINUOUS
 62
    30
 10
1215.86493
 20
0.0
 30
0.0
 11
1215.86493
 21
-320.0
 31
0.0
  0
TEXT
  5
3FA
  8
SIZE
  6
CONTINUOUS
 62
    30
 10
1200.073074508615
 20
-223.6428571428572
 30
0.0
 40
55.0
  1
320
 50
90.0
 41
0.9
 72
     1
 11
1200.073074508615
 21
-160.0
 31
0.0
  0
CIRCLE
  5
3FB
  8
SIZE
  6
CONTINUOUS
 62
    30
 10
1215.86493
 20
-320.0
 30
0.0
 40
6.0
  0
CIRCLE
  5
3FC
  8
SIZE
  6
CONTINUOUS
 62
    30
 10
1215.86493
 20
0.0
 30
0.0
 40
6.0
  0
CIRCLE
  5
3FD
  8
SIZE
  6
CONTINUOUS
 62
    30
 10
1050.0
 20
113.6354249999999
 30
0.0
 40
6.0
  0
CIRCLE
  5
3FE
  8
SIZE
  6
CONTINUOUS
 62
    30
 10
1011.0
 20
113.6354249999999
 30
0.0
 40
6.0
  0
CIRCLE
  5
3FF
  8
SIZE
  6
CONTINUOUS
 62
    30
 10
1011.0
 20
113.6354249999999
 30
0.0
 40
6.0
  0
POLYLINE
  5
400
  8
NOTE
  6
CONTINUOUS
 62
     4
 66
     1
 10
0.0
 20
0.0
 30
0.0
  0
VERTEX
  5
6F6
  8
NOTE
  6
CONTINUOUS
 62
     4
 10
1007.123238663135
 20
39.811690509473578
 30
0.0
  0
VERTEX
  5
6F7
  8
NOTE
  6
CONTINUOUS
 62
     4
 10
1011.0
 20
0.0
 30
0.0
  0
VERTEX
  5
6F8
  8
NOTE
  6
CONTINUOUS
 62
     4
 10
987.7367804157268
 20
32.539554610160188
 30
0.0
  0
SEQEND
  5
6F9
  8
NOTE
  6
CONTINUOUS
 62
     4
  0
LINE
  5
401
  8
NOTE
  6
CONTINUOUS
 62
     4
 10
1011.0
 20
-20.0
 30
0.0
 11
1011.0
 21
20.0
 31
0.0
  0
LINE
  5
402
  8
NOTE
  6
CONTINUOUS
 62
     4
 10
991.0
 20
0.0
 30
0.0
 11
1031.0
 21
0.0
 31
0.0
  0
LINE
  5
403
  8
SIZE
  6
CONTINUOUS
 62
    30
 10
1058.0
 20
113.6354249999999
 30
0.0
 11
1172.524540309437
 21
113.6354249999999
 31
0.0
  0
LINE
  5
404
  8
NOTE
  6
CONTINUOUS
 62
     4
 10
926.20466245389957
 20
261.22479803447078
 30
0.0
 11
305.98834744266082
 21
261.22479803447078
 31
0.0
  0
TEXT
  5
405
  8
NOTE
  6
CONTINUOUS
 62
     4
 10
314.05189716818501
 20
287.39038403447091
 30
0.0
 40
55.0
  1
AH 4-14×26長穴
 41
0.9
  0
ARC
  5
406
  8
DETAIL
  6
CONTINUOUS
 62
     5
 10
1006.689747935765
 20
-310.00000035659201
 30
0.0
 40
10.0
 50
270.0
 51
342.73851599999227
  0
ARC
  5
407
  8
DETAIL
  6
CONTINUOUS
 62
     5
 10
512.84039593576472
 20
-156.54716435659211
 30
0.0
 40
527.14113699999996
 50
342.73851599999227
 51
349.78849400000769
  0
ARC
  5
408
  8
OUTLINE
  6
CONTINUOUS
 62
     3
 10
512.84039593576495
 20
-156.54716435659179
 30
0.0
 40
527.14113699999996
 50
342.73851599999227
 51
349.78849400000769
  0
ARC
  5
409
  8
OUTLINE
  6
CONTINUOUS
 62
     3
 10
1006.689747935765
 20
-310.00000035659201
 30
0.0
 40
10.0
 50
270.0
 51
342.73851599999227
  0
CIRCLE
  5
4D0
  8
DETAIL
  6
CONTINUOUS
 62
     5
 10
-843.0
 20
-214.0
 30
0.0
 40
12.699999999999999
  0
CIRCLE
  5
4D6
  8
DETAIL
  6
CONTINUOUS
 62
     5
 10
-923.0
 20
-136.0
 30
0.0
 40
4.759999999999998
  0
CIRCLE
  5
4DC
  8
DETAIL
  6
CONTINUOUS
 62
     5
 10
-916.0
 20
-284.0
 30
0.0
 40
16.0
  0
LINE
  5
5BE
  8
DETAIL
  6
CONTINUOUS
 62
     5
 10
1041.6511383036329
 20
-249.99999964335021
 30
0.0
 11
1031.6316312002571
 21
-250.00000459137181
 31
0.0
  0
LINE
  5
5C4
  8
DETAIL
  6
CONTINUOUS
 62
     5
 10
-1031.631631303633
 20
-249.99999964335001
 30
0.0
 11
-1041.6511458716141
 21
-250.0000042347794
 31
0.0
  0
ENDSEC
  0
EOF
