  0
SECTION
  2
HEADER
  9
$ACADVER
  1
AC1009
  9
$INSBASE
 10
0.0
 20
0.0
 30
0.0
  9
$EXTMIN
 10
-1302.909835303331
 20
-898.81895854931645
 30
-0.000000000000013
  9
$EXTMAX
 10
1665.005505474986
 20
489.94446591234731
 30
0.0000000000000023
  9
$LIMMIN
 10
-2970.0
 20
-2100.0
  9
$LIMMAX
 10
2970.0
 20
2100.0
  9
$ORTHOMODE
 70
     0
  9
$REGENMODE
 70
     0
  9
$FILLMODE
 70
     1
  9
$QTEXTMODE
 70
     0
  9
$MIRRTEXT
 70
     0
  9
$DRAGMODE
 70
     2
  9
$LTSCALE
 40
20.0
  9
$OSMODE
 70
   431
  9
$ATTMODE
 70
     1
  9
$TEXTSIZE
 40
64.0
  9
$TRACEWID
 40
0.05
  9
$TEXTSTYLE
  7
STANDARD
  9
$CLAYER
  8
SYMBOLLINE
  9
$CELTYPE
  6
CONTINUOUS
  9
$CECOLOR
 62
     1
  9
$DIMSCALE
 40
1.0
  9
$DIMASZ
 40
2.0
  9
$DIMEXO
 40
20.0
  9
$DIMDLI
 40
200.0
  9
$DIMRND
 40
0.0
  9
$DIMDLE
 40
0.0
  9
$DIMEXE
 40
30.0
  9
$DIMTP
 40
0.0
  9
$DIMTM
 40
0.0
  9
$DIMTXT
 40
64.0
  9
$DIMCEN
 40
0.09
  9
$DIMTSZ
 40
0.0
  9
$DIMTOL
 70
     0
  9
$DIMLIM
 70
     0
  9
$DIMTIH
 70
     0
  9
$DIMTOH
 70
     0
  9
$DIMSE1
 70
     0
  9
$DIMSE2
 70
     0
  9
$DIMTAD
 70
     1
  9
$DIMZIN
 70
     8
  9
$DIMBLK
  1

  9
$DIMASO
 70
     1
  9
$DIMSHO
 70
     0
  9
$DIMPOST
  1

  9
$DIMAPOST
  1

  9
$DIMALT
 70
     0
  9
$DIMALTD
 70
     2
  9
$DIMALTF
 40
25.399999999999999
  9
$DIMLFAC
 40
1.0
  9
$DIMTOFL
 70
     1
  9
$DIMTVP
 40
0.0
  9
$DIMTIX
 70
     1
  9
$DIMSOXD
 70
     0
  9
$DIMSAH
 70
     0
  9
$DIMBLK1
  1

  9
$DIMBLK2
  1

  9
$DIMSTYLE
  2
STANDARD
  9
$DIMCLRD
 70
     0
  9
$DIMCLRE
 70
     0
  9
$DIMCLRT
 70
     0
  9
$DIMTFAC
 40
1.0
  9
$DIMGAP
 40
0.09
  9
$LUNITS
 70
     2
  9
$LUPREC
 70
     4
  9
$SKETCHINC
 40
0.1
  9
$FILLETRAD
 40
0.0
  9
$AUNITS
 70
     1
  9
$AUPREC
 70
     3
  9
$MENU
  1
ACAD
  9
$ELEVATION
 40
0.0
  9
$PELEVATION
 40
0.0
  9
$THICKNESS
 40
0.0
  9
$LIMCHECK
 70
     1
  9
$BLIPMODE
 70
     0
  9
$CHAMFERA
 40
0.0
  9
$CHAMFERB
 40
0.0
  9
$SKPOLY
 70
     0
  9
$TDCREATE
 40
2450717.6034490052
  9
$TDUPDATE
 40
2456331.4852644219
  9
$TDINDWG
 40
0.0548678704
  9
$TDUSRTIMER
 40
0.0548650694
  9
$USRTIMER
 70
     1
  9
$ANGBASE
 50
0.0
  9
$ANGDIR
 70
     0
  9
$PDMODE
 70
     3
  9
$PDSIZE
 40
-2.0
  9
$PLINEWID
 40
0.0
  9
$COORDS
 70
     1
  9
$SPLFRAME
 70
     0
  9
$SPLINETYPE
 70
     6
  9
$SPLINESEGS
 70
     8
  9
$ATTDIA
 70
     0
  9
$ATTREQ
 70
     1
  9
$HANDLING
 70
     1
  9
$HANDSEED
  5
5C6
  9
$SURFTAB1
 70
     6
  9
$SURFTAB2
 70
     6
  9
$SURFTYPE
 70
     6
  9
$SURFU
 70
     6
  9
$SURFV
 70
     6
  9
$UCSNAME
  2

  9
$UCSORG
 10
0.0
 20
0.0
 30
0.0
  9
$UCSXDIR
 10
1.0
 20
0.0
 30
0.0
  9
$UCSYDIR
 10
0.0
 20
1.0
 30
0.0
  9
$PUCSNAME
  2

  9
$PUCSORG
 10
0.0
 20
0.0
 30
0.0
  9
$PUCSXDIR
 10
1.0
 20
0.0
 30
0.0
  9
$PUCSYDIR
 10
0.0
 20
1.0
 30
0.0
  9
$USERI1
 70
     0
  9
$USERI2
 70
     0
  9
$USERI3
 70
     0
  9
$USERI4
 70
     0
  9
$USERI5
 70
     0
  9
$USERR1
 40
20.0
  9
$USERR2
 40
0.0
  9
$USERR3
 40
0.0
  9
$USERR4
 40
0.0
  9
$USERR5
 40
0.0
  9
$WORLDVIEW
 70
     1
  9
$SHADEDGE
 70
     3
  9
$SHADEDIF
 70
    70
  9
$TILEMODE
 70
     1
  9
$MAXACTVP
 70
    48
  9
$PLIMCHECK
 70
     0
  9
$PEXTMIN
 10
1.0000000000000000E+020
 20
1.0000000000000000E+020
 30
1.0000000000000000E+020
  9
$PEXTMAX
 10
-1.0000000000000000E+020
 20
-1.0000000000000000E+020
 30
-1.0000000000000000E+020
  9
$PLIMMIN
 10
0.0
 20
0.0
  9
$PLIMMAX
 10
12.0
 20
9.0
  9
$UNITMODE
 70
     0
  9
$VISRETAIN
 70
     1
  9
$PLINEGEN
 70
     0
  9
$PSLTSCALE
 70
     1
  0
ENDSEC
  0
SECTION
  2
TABLES
  0
TABLE
  2
VPORT
 70
     1
  0
VPORT
  2
*ACTIVE
 70
     0
 10
0.0
 20
0.0
 11
1.0
 21
1.0
 12
181.0478350858275
 22
-204.43724631848451
 13
0.0
 23
0.0
 14
400.0
 24
400.0
 15
400.0
 25
400.0
 16
0.0
 26
0.0
 36
1.0
 17
0.0
 27
0.0
 37
0.0
 40
1921.6487496632731
 41
1.552030456852791
 42
50.0
 43
0.0
 44
0.0
 50
0.0
 51
0.0
 71
     0
 72
   500
 73
     1
 74
     0
 75
     0
 76
     0
 77
     0
 78
     0
  0
ENDTAB
  0
TABLE
  2
LTYPE
 70
     2
  0
LTYPE
  2
CONTINUOUS
 70
     0
  3
実線
 72
    65
 73
     0
 40
0.0
  0
LTYPE
  2
DASHDOT
 70
     0
  3
____ _ ____ _ ____ _ ____ _ ____ _ ____ _ ____
 72
    65
 73
     4
 40
5.5
 49
4.0
 49
-0.6
 49
0.3
 49
-0.6
  0
ENDTAB
  0
TABLE
  2
LAYER
 70
    12
  0
LAYER
  2
0
 70
     0
 62
     7
  6
CONTINUOUS
  0
LAYER
  2
SYMBOLLINE
 70
     0
 62
    15
  6
CONTINUOUS
  0
LAYER
  2
SIZE
 70
     0
 62
    30
  6
CONTINUOUS
  0
LAYER
  2
OUTLINE
 70
     0
 62
     3
  6
CONTINUOUS
  0
LAYER
  2
DETAIL
 70
     0
 62
     5
  6
CONTINUOUS
  0
LAYER
  2
BASIS
 70
     0
 62
     6
  6
DASHDOT
  0
LAYER
  2
NOTE
 70
     0
 62
     4
  6
CONTINUOUS
  0
LAYER
  2
ARRANGE
 70
     0
 62
     1
  6
CONTINUOUS
  0
LAYER
  2
FIX
 70
     0
 62
    11
  6
CONTINUOUS
  0
LAYER
  2
SERVICESPACE
 70
     0
 62
     2
  6
DASHDOT
  0
LAYER
  2
ETC
 70
     0
 62
    61
  6
CONTINUOUS
  0
LAYER
  2
DEFPOINTS
 70
     0
 62
     7
  6
CONTINUOUS
  0
ENDTAB
  0
TABLE
  2
STYLE
 70
     2
  0
STYLE
  2
STANDARD
 70
     0
 40
0.0
 41
0.9
 50
0.0
 71
     0
 42
64.0
  3
SIMPLEX
  4
BIGFONT
  0
STYLE
  2
ANNOTATIVE
 70
     0
 40
0.0
 41
1.0
 50
0.0
 71
     0
 42
0.2
  3
txt
  4

  0
ENDTAB
  0
TABLE
  2
VIEW
 70
     1
  0
VIEW
  2
ALL
 70
     0
 40
4508.0208510000002
 10
0.0
 20
41.309903999999989
 41
6252.631578999999
 11
0.0
 21
0.0
 31
1.0
 12
0.0
 22
0.0
 32
0.0
 42
50.0
 43
0.0
 44
0.0
 50
0.0
 71
     0
  0
ENDTAB
  0
TABLE
  2
UCS
 70
     0
  0
ENDTAB
  0
TABLE
  2
APPID
 70
     4
  0
APPID
  2
ACAD
 70
     0
  0
APPID
  2
ACADANNOTATIVE
 70
     0
  0
APPID
  2
ACAD_MLEADERVER
 70
     0
  0
APPID
  2
ACAD_EXEMPT_FROM_CAD_STANDARDS
 70
     0
  0
ENDTAB
  0
TABLE
  2
DIMSTYLE
 70
     2
  0
DIMSTYLE
  2
STANDARD
 70
     0
  3

  4

  5

  6

  7

 40
1.0
 41
0.18
 42
0.0625
 43
0.38
 44
0.18
 45
0.0
 46
0.0
 47
0.0
 48
0.0
140
0.18
141
0.09
142
0.0
143
25.399999999999999
144
1.0
145
0.0
146
1.0
147
0.09
 71
     0
 72
     0
 73
     1
 74
     1
 75
     0
 76
     0
 77
     0
 78
     0
170
     0
171
     2
172
     0
173
     0
174
     0
175
     0
176
     0
177
     0
178
     0
  0
DIMSTYLE
  2
ANNOTATIVE
 70
     0
  3

  4

  5

  6

  7

 40
1.0
 41
0.18
 42
0.0625
 43
0.38
 44
0.18
 45
0.0
 46
0.0
 47
0.0
 48
0.0
140
0.18
141
0.09
142
0.0
143
25.399999999999999
144
1.0
145
0.0
146
1.0
147
0.09
 71
     0
 72
     0
 73
     1
 74
     1
 75
     0
 76
     0
 77
     0
 78
     0
170
     0
171
     2
172
     0
173
     0
174
     0
175
     0
176
     0
177
     0
178
     0
  0
ENDTAB
  0
ENDSEC
  0
SECTION
  2
BLOCKS
  0
BLOCK
  8
0
  2
$MODEL_SPACE
 70
     0
 10
0.0
 20
0.0
 30
0.0
  3
$MODEL_SPACE
  1

  0
ENDBLK
  5
551
  8
0
  0
BLOCK
 67
     1
  8
0
  2
$PAPER_SPACE
 70
     0
 10
0.0
 20
0.0
 30
0.0
  3
$PAPER_SPACE
  1

  0
ENDBLK
  5
54D
 67
     1
  8
0
  0
ENDSEC
  0
SECTION
  2
ENTITIES
  0
LINE
  5
3B
  8
DETAIL
  6
CONTINUOUS
 62
     5
 10
-1041.269507
 20
-61.0
 30
0.0
 11
1041.269507
 21
-61.0
 31
0.0
  0
LINE
  5
42
  8
DETAIL
  6
CONTINUOUS
 62
     5
 10
-1041.6511379999999
 20
-250.0
 30
0.0
 11
1041.6511379999999
 21
-250.0
 31
0.0
  0
LINE
  5
43
  8
DETAIL
  6
CONTINUOUS
 62
     5
 10
-1032.5
 20
0.0
 30
0.0
 11
1032.5
 21
0.0
 31
0.0
  0
LINE
  5
44
  8
DETAIL
  6
CONTINUOUS
 62
     5
 10
-1006.689747935765
 20
-320.0000003565919
 30
0.0
 11
1006.689748
 21
-320.0
 31
0.0
  0
LINE
  5
49
  8
DETAIL
  6
CONTINUOUS
 62
     5
 10
-1003.0
 20
-83.0
 30
0.0
 11
1003.0
 21
-83.0
 31
0.0
  0
LINE
  5
4A
  8
DETAIL
  6
CONTINUOUS
 62
     5
 10
-1003.0
 20
-203.0
 30
0.0
 11
1003.0
 21
-203.0
 31
0.0
  0
LINE
  5
4B
  8
BASIS
  6
DASHDOT
 62
     6
 10
0.0
 20
-411.43316600000003
 30
0.0
 11
0.0
 21
83.024862999999982
 31
0.0
  0
POINT
  5
4D
  8
ARRANGE
  6
CONTINUOUS
 62
     1
 10
0.0
 20
0.0
 30
0.0
  0
CIRCLE
  5
4E
  8
ARRANGE
  6
CONTINUOUS
 62
     1
 10
0.0
 20
0.0
 30
0.0
 40
40.0
  0
CIRCLE
  5
58
  8
FIX
  6
CONTINUOUS
 62
    11
 10
983.0
 20
0.0
 30
0.0
 40
15.0
  0
LINE
  5
5C
  8
OUTLINE
  6
CONTINUOUS
 62
     3
 10
-1032.5
 20
0.0
 30
0.0
 11
1032.5
 21
0.0
 31
0.0
  0
LINE
  5
62
  8
OUTLINE
  6
CONTINUOUS
 62
     3
 10
-1006.689747935765
 20
-320.0000003565919
 30
0.0
 11
1006.689748
 21
-320.0
 31
0.0
  0
LINE
  5
A4
  8
SIZE
  6
CONTINUOUS
 62
    30
 10
-1050.0
 20
-175.5
 30
0.0
 11
-1050.0
 21
-898.55046400000003
 31
0.0
  0
CIRCLE
  5
A8
  8
SIZE
  6
CONTINUOUS
 62
    30
 10
-1050.0
 20
-868.55046400000015
 30
0.0
 40
6.0
  0
POLYLINE
  5
C8
  8
NOTE
  6
CONTINUOUS
 62
     4
 66
     1
 10
0.0
 20
0.0
 30
0.0
  0
VERTEX
  5
5AA
  8
NOTE
  6
CONTINUOUS
 62
     4
 10
889.92870199999993
 20
-314.33623999999998
 30
0.0
  0
VERTEX
  5
5AB
  8
NOTE
  6
CONTINUOUS
 62
     4
 10
916.0
 20
-284.0
 30
0.0
  0
VERTEX
  5
5AC
  8
NOTE
  6
CONTINUOUS
 62
     4
 10
908.58971399999996
 20
-323.30760299999997
 30
0.0
  0
SEQEND
  5
5AD
  8
NOTE
  6
CONTINUOUS
 62
     4
  0
POLYLINE
  5
CD
  8
NOTE
  6
CONTINUOUS
 62
     4
 66
     1
 10
0.0
 20
0.0
 30
0.0
  0
VERTEX
  5
5AE
  8
NOTE
  6
CONTINUOUS
 62
     4
 10
812.80550199999971
 20
-240.23532499999999
 30
0.0
  0
VERTEX
  5
5AF
  8
NOTE
  6
CONTINUOUS
 62
     4
 10
843.0
 20
-214.0
 30
0.0
  0
VERTEX
  5
5B0
  8
NOTE
  6
CONTINUOUS
 62
     4
 10
829.96845999999994
 20
-251.81770700000001
 30
0.0
  0
SEQEND
  5
5B1
  8
NOTE
  6
CONTINUOUS
 62
     4
  0
POLYLINE
  5
D2
  8
NOTE
  6
CONTINUOUS
 62
     4
 66
     1
 10
0.0
 20
0.0
 30
0.0
  0
VERTEX
  5
5B2
  8
NOTE
  6
CONTINUOUS
 62
     4
 10
936.18296271250995
 20
-98.234811023509906
 30
0.0
  0
VERTEX
  5
5B3
  8
NOTE
  6
CONTINUOUS
 62
     4
 10
923.0
 20
-136.0
 30
0.0
  0
VERTEX
  5
5B4
  8
NOTE
  6
CONTINUOUS
 62
     4
 10
915.53418658210069
 20
-96.702905441179965
 30
0.0
  0
SEQEND
  5
5B5
  8
NOTE
  6
CONTINUOUS
 62
     4
  0
LINE
  5
D7
  8
NOTE
  6
CONTINUOUS
 62
     4
 10
843.0
 20
-234.0
 30
0.0
 11
843.0
 21
-194.0
 31
0.0
  0
LINE
  5
D8
  8
NOTE
  6
CONTINUOUS
 62
     4
 10
863.0
 20
-214.0
 30
0.0
 11
823.0
 21
-214.0
 31
0.0
  0
LINE
  5
D9
  8
NOTE
  6
CONTINUOUS
 62
     4
 10
923.0
 20
-156.0
 30
0.0
 11
923.0
 21
-116.0
 31
0.0
  0
LINE
  5
DA
  8
NOTE
  6
CONTINUOUS
 62
     4
 10
943.0
 20
-136.0
 30
0.0
 11
903.0
 21
-136.0
 31
0.0
  0
LINE
  5
DB
  8
NOTE
  6
CONTINUOUS
 62
     4
 10
916.0
 20
-304.0
 30
0.0
 11
916.0
 21
-264.0
 31
0.0
  0
LINE
  5
DC
  8
NOTE
  6
CONTINUOUS
 62
     4
 10
936.0
 20
-284.0
 30
0.0
 11
896.0
 21
-284.0
 31
0.0
  0
LINE
  5
DF
  8
NOTE
  6
CONTINUOUS
 62
     4
 10
983.0
 20
-20.0
 30
0.0
 11
983.0
 21
20.0
 31
0.0
  0
LINE
  5
E0
  8
NOTE
  6
CONTINUOUS
 62
     4
 10
1003.0
 20
0.0
 30
0.0
 11
963.0
 21
0.0
 31
0.0
  0
LINE
  5
1FA
  8
DETAIL
  6
CONTINUOUS
 62
     5
 10
1003.0
 20
0.0
 30
0.0
 11
1003.0
 21
-320.0
 31
0.0
  0
ARC
  5
1FB
  8
DETAIL
  6
CONTINUOUS
 62
     5
 10
512.84039600000006
 20
-156.54716400000001
 30
0.0
 40
527.14113699999996
 50
342.73851599999841
 51
349.78849400000121
  0
LINE
  5
1FC
  8
DETAIL
  6
CONTINUOUS
 62
     5
 10
1032.5
 20
-61.0
 30
0.0
 11
1032.5
 21
0.0
 31
0.0
  0
ARC
  5
1FD
  8
DETAIL
  6
CONTINUOUS
 62
     5
 10
522.85990300000003
 20
-156.54716400000001
 30
0.0
 40
527.14113699999996
 50
349.78849400000121
 51
10.442889999997711
  0
ARC
  5
1FE
  8
DETAIL
  6
CONTINUOUS
 62
     5
 10
1006.689748
 20
-310.0
 30
0.0
 40
10.0
 50
270.0
 51
342.73851599999841
  0
LINE
  5
1FF
  8
DETAIL
  6
CONTINUOUS
 62
     5
 10
1032.5
 20
-61.0
 30
0.0
 11
1032.5
 21
0.0
 31
0.0
  0
LINE
  5
200
  8
NOTE
  6
CONTINUOUS
 62
     4
 10
916.0
 20
-284.0
 30
0.0
 11
770.82654267578414
 21
-569.94215360088265
 31
0.0
  0
LINE
  5
201
  8
NOTE
  6
CONTINUOUS
 62
     4
 10
843.0
 20
-214.0
 30
0.0
 11
714.36050413746466
 21
-455.66228046791912
 31
0.0
  0
LINE
  5
202
  8
NOTE
  6
CONTINUOUS
 62
     4
 10
923.0
 20
-136.0
 30
0.0
 11
941.08378548124904
 21
260.99434735563767
 31
0.0
  0
LINE
  5
203
  8
OUTLINE
  6
CONTINUOUS
 62
     3
 10
1032.5
 20
-61.0
 30
0.0
 11
1032.5
 21
0.0
 31
0.0
  0
ARC
  5
204
  8
OUTLINE
  6
CONTINUOUS
 62
     3
 10
522.85990300000003
 20
-156.54716400000001
 30
0.0
 40
527.14113699999996
 50
349.78849400000121
 51
10.442889999997711
  0
ARC
  5
205
  8
OUTLINE
  6
CONTINUOUS
 62
     3
 10
512.84039600000006
 20
-156.54716400000001
 30
0.0
 40
527.14113699999996
 50
342.73851599999841
 51
349.78849400000121
  0
ARC
  5
206
  8
OUTLINE
  6
CONTINUOUS
 62
     3
 10
1006.689748
 20
-310.0
 30
0.0
 40
10.0
 50
270.0
 51
342.73851599999841
  0
LINE
  5
207
  8
OUTLINE
  6
CONTINUOUS
 62
     3
 10
1032.5
 20
-61.0
 30
0.0
 11
1041.2695069999991
 21
-61.0
 31
0.0
  0
LINE
  5
208
  8
OUTLINE
  6
CONTINUOUS
 62
     3
 10
1031.6316309999991
 20
-250.0
 30
0.0
 11
1041.651137999999
 21
-250.0
 31
0.0
  0
LINE
  5
209
  8
SIZE
  6
CONTINUOUS
 62
    30
 10
983.0
 20
40.0
 30
0.0
 11
983.0
 21
143.63542499999991
 31
0.0
  0
LINE
  5
20A
  8
SIZE
  6
CONTINUOUS
 62
    30
 10
1050.0
 20
-135.5
 30
0.0
 11
1050.0
 21
143.63542499999991
 31
0.0
  0
LINE
  5
20B
  8
SIZE
  6
CONTINUOUS
 62
    30
 10
1056.0
 20
113.6354249999999
 30
0.0
 11
1058.0
 21
113.6354249999999
 31
0.0
  0
LINE
  5
20C
  8
SIZE
  6
CONTINUOUS
 62
    30
 10
1050.0
 20
113.6354249999999
 30
0.0
 11
983.0
 21
113.6354249999999
 31
0.0
  0
TEXT
  5
20D
  8
SIZE
  6
CONTINUOUS
 62
    30
 10
1077.9602146207269
 20
132.2046571019728
 30
0.0
 40
55.0
  1
67
 41
0.9
 72
     1
 11
1118.031643192156
 21
132.2046571019728
 31
0.0
  0
LINE
  5
20E
  8
SIZE
  6
CONTINUOUS
 62
    30
 10
983.0
 20
40.0
 30
0.0
 11
983.0
 21
143.63542499999991
 31
0.0
  0
LINE
  5
20F
  8
SIZE
  6
CONTINUOUS
 62
    30
 10
-1011.0
 20
113.6354249999999
 30
0.0
 11
983.0
 21
113.6354249999999
 31
0.0
  0
TEXT
  5
210
  8
SIZE
  6
CONTINUOUS
 62
    30
 10
-97.678571428571445
 20
132.51942572547341
 30
0.0
 40
55.0
  1
1994
 41
0.9
 72
     1
 11
-14.0
 21
132.51942572547341
 31
0.0
  0
LINE
  5
211
  8
SIZE
  6
CONTINUOUS
 62
    30
 10
1026.689748
 20
-320.0
 30
0.0
 11
1664.79
 21
-320.0
 31
0.0
  0
LINE
  5
212
  8
SIZE
  6
CONTINUOUS
 62
    30
 10
963.0
 20
-136.0
 30
0.0
 11
1664.79
 21
-136.0
 31
0.0
  0
LINE
  5
213
  8
SIZE
  6
CONTINUOUS
 62
    30
 10
1634.79
 20
-320.0
 30
0.0
 11
1634.79
 21
-136.0
 31
0.0
  0
TEXT
  5
214
  8
SIZE
  6
CONTINUOUS
 62
    30
 10
1620.254599448919
 20
-288.10714285714289
 30
0.0
 40
55.0
  1
184
 50
90.0
 41
0.9
 72
     1
 11
1620.254599448919
 21
-228.0
 31
0.0
  0
LINE
  5
215
  8
SIZE
  6
CONTINUOUS
 62
    30
 10
1026.689748
 20
-320.0
 30
0.0
 11
1546.8066410492611
 21
-320.0
 31
0.0
  0
LINE
  5
216
  8
SIZE
  6
CONTINUOUS
 62
    30
 10
883.0
 20
-214.0
 30
0.0
 11
1547.5581311500059
 21
-214.0
 31
0.0
  0
LINE
  5
217
  8
SIZE
  6
CONTINUOUS
 62
    30
 10
1517.0419061088951
 20
-214.0
 30
0.0
 11
1517.0419061088951
 21
-320.0
 31
0.0
  0
TEXT
  5
218
  8
SIZE
  6
CONTINUOUS
 62
    30
 10
1497.5113719450439
 20
-458.97348647142371
 30
0.0
 40
55.0
  1
106
 50
90.0
 41
0.9
 72
     1
 11
1497.5113719450439
 21
-401.22348647142371
 31
0.0
  0
LINE
  5
219
  8
SIZE
  6
CONTINUOUS
 62
    30
 10
1026.689748
 20
-320.0
 30
0.0
 11
1422.0575964715611
 21
-320.0
 31
0.0
  0
LINE
  5
21A
  8
SIZE
  6
CONTINUOUS
 62
    30
 10
956.0
 20
-284.0
 30
0.0
 11
1422.0575964715611
 21
-284.0
 31
0.0
  0
LINE
  5
21B
  8
SIZE
  6
CONTINUOUS
 62
    30
 10
1391.276219346589
 20
-328.00000033301689
 30
0.0
 11
1391.276219346589
 21
-326.000000333017
 31
0.0
  0
LINE
  5
21C
  8
SIZE
  6
CONTINUOUS
 62
    30
 10
1391.276226000464
 20
-284.0
 30
0.0
 11
1391.276226000464
 21
-320.0
 31
0.0
  0
TEXT
  5
21D
  8
SIZE
  6
CONTINUOUS
 62
    30
 10
1375.7781635123499
 20
-417.8067272293676
 30
0.0
 40
55.0
  1
36
 50
90.0
 41
0.9
 72
     1
 11
1375.7781635123499
 21
-378.91387008651049
 31
0.0
  0
LINE
  5
21E
  8
SIZE
  6
CONTINUOUS
 62
    30
 10
1050.0
 20
-175.5
 30
0.0
 11
1050.0
 21
-815.85014000000001
 31
0.0
  0
LINE
  5
21F
  8
SIZE
  6
CONTINUOUS
 62
    30
 10
843.0
 20
-254.0
 30
0.0
 11
843.0
 21
-815.85014000000001
 31
0.0
  0
LINE
  5
220
  8
SIZE
  6
CONTINUOUS
 62
    30
 10
1050.0
 20
-785.85014000000001
 30
0.0
 11
843.0
 21
-785.85014000000001
 31
0.0
  0
TEXT
  5
221
  8
SIZE
  6
CONTINUOUS
 62
    30
 10
882.85714285714289
 20
-767.77751790613911
 30
0.0
 40
55.0
  1
207
 41
0.9
 72
     1
 11
946.49999999999989
 21
-767.77751790613911
 31
0.0
  0
LINE
  5
222
  8
SIZE
  6
CONTINUOUS
 62
    30
 10
1050.0
 20
-175.5
 30
0.0
 11
1050.0
 21
-678.0162650000002
 31
0.0
  0
LINE
  5
223
  8
SIZE
  6
CONTINUOUS
 62
    30
 10
916.0
 20
-324.0
 30
0.0
 11
916.0
 21
-678.0162650000002
 31
0.0
  0
LINE
  5
224
  8
SIZE
  6
CONTINUOUS
 62
    30
 10
1056.0
 20
-648.0162650000002
 30
0.0
 11
1058.0
 21
-648.0162650000002
 31
0.0
  0
LINE
  5
225
  8
SIZE
  6
CONTINUOUS
 62
    30
 10
916.0
 20
-648.0162650000002
 30
0.0
 11
1050.0
 21
-648.0162650000002
 31
0.0
  0
TEXT
  5
226
  8
SIZE
  6
CONTINUOUS
 62
    30
 10
1072.555676450143
 20
-627.1743026558579
 30
0.0
 40
55.0
  1
134
 41
0.9
 72
     1
 11
1132.6628193072861
 21
-627.1743026558579
 31
0.0
  0
LINE
  5
227
  8
SIZE
  6
CONTINUOUS
 62
    30
 10
1050.0
 20
-175.5
 30
0.0
 11
1050.0
 21
-529.57978600000001
 31
0.0
  0
LINE
  5
228
  8
SIZE
  6
CONTINUOUS
 62
    30
 10
923.0
 20
-176.0
 30
0.0
 11
923.0
 21
-529.57978600000001
 31
0.0
  0
LINE
  5
229
  8
SIZE
  6
CONTINUOUS
 62
    30
 10
923.0
 20
-499.57978600000001
 30
0.0
 11
1050.0
 21
-499.57978600000001
 31
0.0
  0
TEXT
  5
22A
  8
SIZE
  6
CONTINUOUS
 62
    30
 10
1072.2937169697609
 20
-478.40038694484429
 30
0.0
 40
55.0
  1
127
 41
0.9
 72
     1
 11
1131.222288398332
 21
-478.40038694484429
 31
0.0
  0
LINE
  5
22B
  8
SIZE
  6
CONTINUOUS
 62
    30
 10
1050.0
 20
-175.5
 30
0.0
 11
1050.0
 21
-898.55046400000003
 31
0.0
  0
LINE
  5
22C
  8
SIZE
  6
CONTINUOUS
 62
    30
 10
1050.0
 20
-868.55046400000015
 30
0.0
 11
-1050.0
 21
-868.55046400000015
 31
0.0
  0
TEXT
  5
22D
  8
SIZE
  6
CONTINUOUS
 62
    30
 10
-82.500000000000014
 20
-846.09167818035326
 30
0.0
 40
55.0
  1
2100
 41
0.9
 72
     1
 11
0.0
 21
-846.09167818035326
 31
0.0
  0
CIRCLE
  5
22E
  8
SIZE
  6
CONTINUOUS
 62
    30
 10
1050.0
 20
-868.55046400000015
 30
0.0
 40
6.0
  0
CIRCLE
  5
22F
  8
SIZE
  6
CONTINUOUS
 62
    30
 10
1050.0
 20
-499.57978600000001
 30
0.0
 40
6.0
  0
CIRCLE
  5
230
  8
SIZE
  6
CONTINUOUS
 62
    30
 10
923.0
 20
-499.57978600000001
 30
0.0
 40
6.0
  0
CIRCLE
  5
231
  8
SIZE
  6
CONTINUOUS
 62
    30
 10
1050.0
 20
-648.0162650000002
 30
0.0
 40
6.0
  0
CIRCLE
  5
232
  8
SIZE
  6
CONTINUOUS
 62
    30
 10
916.0
 20
-648.0162650000002
 30
0.0
 40
6.0
  0
CIRCLE
  5
233
  8
SIZE
  6
CONTINUOUS
 62
    30
 10
843.0
 20
-785.85014000000001
 30
0.0
 40
6.0
  0
CIRCLE
  5
234
  8
SIZE
  6
CONTINUOUS
 62
    30
 10
1050.0
 20
-785.85014000000001
 30
0.0
 40
6.0
  0
CIRCLE
  5
235
  8
SIZE
  6
CONTINUOUS
 62
    30
 10
1391.276226000464
 20
-320.0
 30
0.0
 40
6.0
  0
CIRCLE
  5
236
  8
SIZE
  6
CONTINUOUS
 62
    30
 10
1391.276226000464
 20
-284.0
 30
0.0
 40
6.0
  0
CIRCLE
  5
237
  8
SIZE
  6
CONTINUOUS
 62
    30
 10
1517.0419061088951
 20
-320.0
 30
0.0
 40
6.0
  0
CIRCLE
  5
238
  8
SIZE
  6
CONTINUOUS
 62
    30
 10
1517.0419061088951
 20
-214.0
 30
0.0
 40
6.0
  0
CIRCLE
  5
239
  8
SIZE
  6
CONTINUOUS
 62
    30
 10
1634.79
 20
-136.0
 30
0.0
 40
6.0
  0
CIRCLE
  5
23A
  8
SIZE
  6
CONTINUOUS
 62
    30
 10
1634.79
 20
-320.0
 30
0.0
 40
6.0
  0
CIRCLE
  5
23B
  8
SIZE
  6
CONTINUOUS
 62
    30
 10
983.0
 20
113.6354249999999
 30
0.0
 40
6.0
  0
CIRCLE
  5
23C
  8
SIZE
  6
CONTINUOUS
 62
    30
 10
983.0
 20
113.6354249999999
 30
0.0
 40
6.0
  0
CIRCLE
  5
23D
  8
SIZE
  6
CONTINUOUS
 62
    30
 10
1050.0
 20
113.6354249999999
 30
0.0
 40
6.0
  0
LINE
  5
23E
  8
SIZE
  6
CONTINUOUS
 62
    30
 10
1178.063294260864
 20
113.63542914343191
 30
0.0
 11
1057.999992123448
 21
113.63542914343191
 31
0.0
  0
LINE
  5
23F
  8
SIZE
  6
CONTINUOUS
 62
    30
 10
1207.3256386145731
 20
-648.0162650000002
 30
0.0
 11
1058.0
 21
-648.0162650000002
 31
0.0
  0
LINE
  5
240
  8
SIZE
  6
CONTINUOUS
 62
    30
 10
1055.999997382241
 20
-499.57978527647651
 30
0.0
 11
1057.999997382241
 21
-499.57978527647651
 31
0.0
  0
LINE
  5
241
  8
SIZE
  6
CONTINUOUS
 62
    30
 10
1204.4445794144231
 20
-499.57978527647651
 30
0.0
 11
1057.999997382241
 21
-499.57978527647651
 31
0.0
  0
LINE
  5
242
  8
SIZE
  6
CONTINUOUS
 62
    30
 10
1391.276219346589
 20
-328.00000033301689
 30
0.0
 11
1391.276219346589
 21
-429.82773984000369
 31
0.0
  0
LINE
  5
243
  8
SIZE
  6
CONTINUOUS
 62
    30
 10
1517.0419061088951
 20
-328.0
 30
0.0
 11
1517.0419061088951
 21
-326.0
 31
0.0
  0
LINE
  5
244
  8
SIZE
  6
CONTINUOUS
 62
    30
 10
1517.0419061088951
 20
-328.0
 30
0.0
 11
1517.0419061088951
 21
-474.44697294284708
 31
0.0
  0
LINE
  5
245
  8
NOTE
  6
CONTINUOUS
 62
     4
 10
714.36050413746466
 20
-455.66228046791912
 30
0.0
 11
357.72395345735248
 21
-455.66228046791912
 31
0.0
  0
TEXT
  5
246
  8
NOTE
  6
CONTINUOUS
 62
     4
 10
366.8273406363657
 20
-430.98438446791857
 30
0.0
 40
55.0
  1
RG φ25.4
 41
0.9
  0
LINE
  5
247
  8
NOTE
  6
CONTINUOUS
 62
     4
 10
941.08378548124904
 20
260.99434735563767
 30
0.0
 11
1301.4144903999511
 21
260.99434735563767
 31
0.0
  0
TEXT
  5
248
  8
NOTE
  6
CONTINUOUS
 62
     4
 10
950.18719061615775
 20
289.80142735563783
 30
0.0
 40
55.0
  1
RL φ9.52
 41
0.9
  0
LINE
  5
249
  8
NOTE
  6
CONTINUOUS
 62
     4
 10
431.33944281366882
 20
-569.94215360088265
 30
0.0
 11
770.82654267578414
 21
-569.94215360088265
 31
0.0
  0
TEXT
  5
24A
  8
NOTE
  6
CONTINUOUS
 62
     4
 10
442.83477781366878
 20
-539.5820166008823
 30
0.0
 40
55.0
  1
D VP-20
 41
0.9
  0
TEXT
  5
250
  8
ETC
  6
CONTINUOUS
 62
    61
 10
677.5899306861719
 20
425.9000609858976
 30
0.0
 40
64.0
  1
PCZG-P8MBA8_2
 41
0.9
  0
LINE
  5
27F
  8
DETAIL
  6
CONTINUOUS
 62
     5
 10
-1003.0
 20
0.0
 30
0.0
 11
-1003.0
 21
-320.0
 31
0.0
  0
ARC
  5
280
  8
DETAIL
  6
CONTINUOUS
 62
     5
 10
-522.85990300000003
 20
-156.54716400000001
 30
0.0
 40
527.14113699999996
 50
169.5571099999992
 51
190.21150599999871
  0
LINE
  5
281
  8
DETAIL
  6
CONTINUOUS
 62
     5
 10
-1032.5
 20
-61.0
 30
0.0
 11
-1032.5
 21
0.0
 31
0.0
  0
LINE
  5
282
  8
DETAIL
  6
CONTINUOUS
 62
     5
 10
-1032.5
 20
-61.0
 30
0.0
 11
-1032.5
 21
0.0
 31
0.0
  0
CIRCLE
  5
283
  8
FIX
  6
CONTINUOUS
 62
    11
 10
-1011.0
 20
0.0
 30
0.0
 40
15.0
  0
LINE
  5
284
  8
OUTLINE
  6
CONTINUOUS
 62
     3
 10
-1041.2695069999991
 20
-61.0
 30
0.0
 11
-1032.5
 21
-61.0
 31
0.0
  0
LINE
  5
285
  8
OUTLINE
  6
CONTINUOUS
 62
     3
 10
-1041.65113830362
 20
-249.9999996434199
 30
0.0
 11
-1031.6316309999991
 21
-250.0
 31
0.0
  0
ARC
  5
286
  8
OUTLINE
  6
CONTINUOUS
 62
     3
 10
-522.85990300000003
 20
-156.54716400000001
 30
0.0
 40
527.14113699999996
 50
169.5571099999992
 51
190.21150599999871
  0
LINE
  5
287
  8
OUTLINE
  6
CONTINUOUS
 62
     3
 10
-1032.5
 20
-61.0
 30
0.0
 11
-1032.5
 21
0.0
 31
0.0
  0
LINE
  5
288
  8
NOTE
  6
CONTINUOUS
 62
     4
 10
-1011.0
 20
0.0
 30
0.0
 11
-926.20466245389957
 21
261.22479803447078
 31
0.0
  0
LINE
  5
289
  8
SIZE
  6
CONTINUOUS
 62
    30
 10
-1011.0
 20
40.0
 30
0.0
 11
-1011.0
 21
143.635425
 31
0.0
  0
LINE
  5
28A
  8
SIZE
  6
CONTINUOUS
 62
    30
 10
-1050.0
 20
-135.5
 30
0.0
 11
-1050.0
 21
143.635425
 31
0.0
  0
LINE
  5
28B
  8
SIZE
  6
CONTINUOUS
 62
    30
 10
-1011.0
 20
40.0
 30
0.0
 11
-1011.0
 21
143.635425
 31
0.0
  0
LINE
  5
28C
  8
SIZE
  6
CONTINUOUS
 62
    30
 10
-1056.0
 20
113.635425
 30
0.0
 11
-1058.0
 21
113.635425
 31
0.0
  0
LINE
  5
28D
  8
SIZE
  6
CONTINUOUS
 62
    30
 10
-1011.0
 20
113.635425
 30
0.0
 11
-1050.0
 21
113.635425
 31
0.0
  0
TEXT
  5
28E
  8
SIZE
  6
CONTINUOUS
 62
    30
 10
-1154.155127297576
 20
132.92001633105241
 30
0.0
 40
55.0
  1
39
 41
0.9
 72
     1
 11
-1115.2622701547191
 21
132.92001633105241
 31
0.0
  0
LINE
  5
28F
  8
SIZE
  6
CONTINUOUS
 62
    30
 10
-1052.5
 20
0.0
 30
0.0
 11
-1245.86493
 21
0.0
 31
0.0
  0
LINE
  5
290
  8
SIZE
  6
CONTINUOUS
 62
    30
 10
-1034.0
 20
-320.0
 30
0.0
 11
-1245.86493
 21
-320.0
 31
0.0
  0
LINE
  5
291
  8
SIZE
  6
CONTINUOUS
 62
    30
 10
-1215.86493
 20
0.0
 30
0.0
 11
-1215.86493
 21
-320.0
 31
0.0
  0
TEXT
  5
292
  8
SIZE
  6
CONTINUOUS
 62
    30
 10
-1247.86493
 20
-223.6428571428572
 30
0.0
 40
55.0
  1
320
 50
90.0
 41
0.9
 72
     1
 11
-1247.86493
 21
-160.0
 31
0.0
  0
CIRCLE
  5
293
  8
SIZE
  6
CONTINUOUS
 62
    30
 10
-1215.86493
 20
-320.0
 30
0.0
 40
6.0
  0
CIRCLE
  5
294
  8
SIZE
  6
CONTINUOUS
 62
    30
 10
-1215.86493
 20
0.0
 30
0.0
 40
6.0
  0
CIRCLE
  5
295
  8
SIZE
  6
CONTINUOUS
 62
    30
 10
-1050.0
 20
113.635425
 30
0.0
 40
6.0
  0
CIRCLE
  5
296
  8
SIZE
  6
CONTINUOUS
 62
    30
 10
-1011.0
 20
113.635425
 30
0.0
 40
6.0
  0
CIRCLE
  5
297
  8
SIZE
  6
CONTINUOUS
 62
    30
 10
-1011.0
 20
113.635425
 30
0.0
 40
6.0
  0
POLYLINE
  5
298
  8
NOTE
  6
CONTINUOUS
 62
     4
 66
     1
 10
0.0
 20
0.0
 30
0.0
  0
VERTEX
  5
5B6
  8
NOTE
  6
CONTINUOUS
 62
     4
 10
-1012.191031886228
 20
39.982263852002013
 30
0.0
  0
VERTEX
  5
5B7
  8
NOTE
  6
CONTINUOUS
 62
     4
 10
-1011.0
 20
0.0
 30
0.0
  0
VERTEX
  5
5B8
  8
NOTE
  6
CONTINUOUS
 62
     4
 10
-992.04033141214222
 20
35.221172136831349
 30
0.0
  0
SEQEND
  5
5B9
  8
NOTE
  6
CONTINUOUS
 62
     4
  0
LINE
  5
299
  8
NOTE
  6
CONTINUOUS
 62
     4
 10
-1011.0
 20
-20.0
 30
0.0
 11
-1011.0
 21
20.0
 31
0.0
  0
LINE
  5
29A
  8
NOTE
  6
CONTINUOUS
 62
     4
 10
-991.0
 20
0.0
 30
0.0
 11
-1031.0
 21
0.0
 31
0.0
  0
LINE
  5
29B
  8
SIZE
  6
CONTINUOUS
 62
    30
 10
-1058.0
 20
113.635425
 30
0.0
 11
-1172.524540309437
 21
113.635425
 31
0.0
  0
LINE
  5
29C
  8
NOTE
  6
CONTINUOUS
 62
     4
 10
-926.20466245389957
 20
261.22479803447078
 30
0.0
 11
-305.98834744266082
 21
261.22479803447078
 31
0.0
  0
TEXT
  5
29D
  8
NOTE
  6
CONTINUOUS
 62
     4
 10
-900.03761145389922
 20
287.3903840344708
 30
0.0
 40
55.0
  1
AH 4-14×26長穴
 41
0.9
  0
ARC
  5
29E
  8
DETAIL
  6
CONTINUOUS
 62
     5
 10
-1006.689747935765
 20
-310.0000003565919
 30
0.0
 40
10.0
 50
197.26148400000159
 51
270.0
  0
ARC
  5
29F
  8
DETAIL
  6
CONTINUOUS
 62
     5
 10
-512.84039593576483
 20
-156.54716435659211
 30
0.0
 40
527.14113699999996
 50
190.21150599999871
 51
197.26148400000159
  0
ARC
  5
2A0
  8
OUTLINE
  6
CONTINUOUS
 62
     3
 10
-512.84039593576495
 20
-156.54716435659179
 30
0.0
 40
527.14113699999996
 50
190.21150599999871
 51
197.26148400000159
  0
ARC
  5
2A1
  8
OUTLINE
  6
CONTINUOUS
 62
     3
 10
-1006.689747935765
 20
-310.0000003565919
 30
0.0
 40
10.0
 50
197.26148400000159
 51
270.0
  0
ENDSEC
  0
EOF
