  0
SECTION
  2
HEADER
  9
$ACADVER
  1
AC1009
  9
$INSBASE
 10
0.0
 20
0.0
 30
0.0
  9
$EXTMIN
 10
-1677.347762649013
 20
-939.59270852311226
 30
-0.0015258207003583
  9
$EXTMAX
 10
1890.1240007150991
 20
1067.0732892015369
 30
0.0000000349246037
  9
$LIMMIN
 10
-4267.1522210000003
 20
-2696.0832100000011
  9
$LIMMAX
 10
7190.7174229999991
 20
5141.1553640000002
  9
$ORTHOMODE
 70
     0
  9
$REGENMODE
 70
     1
  9
$FILLMODE
 70
     1
  9
$QTEXTMODE
 70
     0
  9
$MIRRTEXT
 70
     0
  9
$DRAGMODE
 70
     2
  9
$LTSCALE
 40
20.0
  9
$OSMODE
 70
   959
  9
$ATTMODE
 70
     1
  9
$TEXTSIZE
 40
64.0
  9
$TRACEWID
 40
0.05
  9
$TEXTSTYLE
  7
STANDARD1
  9
$CLAYER
  8
SYMBOLLINE
  9
$CELTYPE
  6
CONTINUOUS
  9
$CECOLOR
 62
     7
  9
$DIMSCALE
 40
1.0
  9
$DIMASZ
 40
20.0
  9
$DIMEXO
 40
20.0
  9
$DIMDLI
 40
80.0
  9
$DIMRND
 40
0.0
  9
$DIMDLE
 40
0.0
  9
$DIMEXE
 40
18.0
  9
$DIMTP
 40
0.0
  9
$DIMTM
 40
0.0
  9
$DIMTXT
 40
55.0
  9
$DIMCEN
 40
0.09
  9
$DIMTSZ
 40
0.0
  9
$DIMTOL
 70
     0
  9
$DIMLIM
 70
     0
  9
$DIMTIH
 70
     0
  9
$DIMTOH
 70
     0
  9
$DIMSE1
 70
     0
  9
$DIMSE2
 70
     0
  9
$DIMTAD
 70
     1
  9
$DIMZIN
 70
     8
  9
$DIMBLK
  1
ORIGIN
  9
$DIMASO
 70
     1
  9
$DIMSHO
 70
     0
  9
$DIMPOST
  1

  9
$DIMAPOST
  1

  9
$DIMALT
 70
     0
  9
$DIMALTD
 70
     2
  9
$DIMALTF
 40
25.399999999999999
  9
$DIMLFAC
 40
1.0
  9
$DIMTOFL
 70
     0
  9
$DIMTVP
 40
0.0
  9
$DIMTIX
 70
     0
  9
$DIMSOXD
 70
     0
  9
$DIMSAH
 70
     0
  9
$DIMBLK1
  1

  9
$DIMBLK2
  1

  9
$DIMSTYLE
  2
STANDARD
  9
$DIMCLRD
 70
     0
  9
$DIMCLRE
 70
     0
  9
$DIMCLRT
 70
     0
  9
$DIMTFAC
 40
1.0
  9
$DIMGAP
 40
0.09
  9
$LUNITS
 70
     2
  9
$LUPREC
 70
     4
  9
$SKETCHINC
 40
0.1
  9
$FILLETRAD
 40
0.8
  9
$AUNITS
 70
     1
  9
$AUPREC
 70
     3
  9
$MENU
  1
ACAD
  9
$ELEVATION
 40
0.0
  9
$PELEVATION
 40
0.0
  9
$THICKNESS
 40
0.0
  9
$LIMCHECK
 70
     0
  9
$BLIPMODE
 70
     0
  9
$CHAMFERA
 40
0.0
  9
$CHAMFERB
 40
0.0
  9
$SKPOLY
 70
     0
  9
$TDCREATE
 40
2450330.4399309959
  9
$TDUPDATE
 40
2455580.448576597
  9
$TDINDWG
 40
3.6993342593
  9
$TDUSRTIMER
 40
3.6993340740999998
  9
$USRTIMER
 70
     1
  9
$ANGBASE
 50
0.0
  9
$ANGDIR
 70
     0
  9
$PDMODE
 70
     3
  9
$PDSIZE
 40
-2.0
  9
$PLINEWID
 40
0.0
  9
$COORDS
 70
     0
  9
$SPLFRAME
 70
     0
  9
$SPLINETYPE
 70
     6
  9
$SPLINESEGS
 70
     8
  9
$ATTDIA
 70
     0
  9
$ATTREQ
 70
     1
  9
$HANDLING
 70
     1
  9
$HANDSEED
  5
A1A
  9
$SURFTAB1
 70
     6
  9
$SURFTAB2
 70
     6
  9
$SURFTYPE
 70
     6
  9
$SURFU
 70
     6
  9
$SURFV
 70
     6
  9
$UCSNAME
  2

  9
$UCSORG
 10
0.0
 20
0.0
 30
0.0
  9
$UCSXDIR
 10
1.0
 20
0.0
 30
0.0
  9
$UCSYDIR
 10
0.0
 20
1.0
 30
0.0
  9
$PUCSNAME
  2

  9
$PUCSORG
 10
0.0
 20
0.0
 30
0.0
  9
$PUCSXDIR
 10
1.0
 20
0.0
 30
0.0
  9
$PUCSYDIR
 10
0.0
 20
1.0
 30
0.0
  9
$USERI1
 70
     0
  9
$USERI2
 70
     0
  9
$USERI3
 70
     0
  9
$USERI4
 70
     0
  9
$USERI5
 70
     0
  9
$USERR1
 40
20.0
  9
$USERR2
 40
0.0
  9
$USERR3
 40
0.0
  9
$USERR4
 40
0.0
  9
$USERR5
 40
0.0
  9
$WORLDVIEW
 70
     1
  9
$SHADEDGE
 70
     3
  9
$SHADEDIF
 70
    70
  9
$TILEMODE
 70
     1
  9
$MAXACTVP
 70
    48
  9
$PLIMCHECK
 70
     0
  9
$PEXTMIN
 10
1.0000000000000000E+020
 20
1.0000000000000000E+020
 30
1.0000000000000000E+020
  9
$PEXTMAX
 10
-1.0000000000000000E+020
 20
-1.0000000000000000E+020
 30
-1.0000000000000000E+020
  9
$PLIMMIN
 10
0.0
 20
0.0
  9
$PLIMMAX
 10
12.0
 20
9.0
  9
$UNITMODE
 70
     0
  9
$VISRETAIN
 70
     1
  9
$PLINEGEN
 70
     0
  9
$PSLTSCALE
 70
     1
  0
ENDSEC
  0
SECTION
  2
TABLES
  0
TABLE
  2
VPORT
 70
     1
  0
VPORT
  2
*ACTIVE
 70
     0
 10
0.0
 20
0.0
 11
1.0
 21
1.0
 12
1461.782600999999
 22
1222.536077
 13
0.0
 23
0.0
 14
50.0
 24
50.0
 15
100.0
 25
100.0
 16
0.0
 26
0.0
 36
1.0
 17
0.0
 27
0.0
 37
0.0
 40
8236.8690819650637
 41
1.5639386189258311
 42
50.0
 43
0.0
 44
0.0
 50
0.0
 51
0.0
 71
     0
 72
  1000
 73
     1
 74
     0
 75
     0
 76
     0
 77
     0
 78
     0
  0
ENDTAB
  0
TABLE
  2
LTYPE
 70
     3
  0
LTYPE
  2
CONTINUOUS
 70
     0
  3
実線
 72
    65
 73
     0
 40
0.0
  0
LTYPE
  2
DASHDOT
 70
     0
  3
____ _ ____ _ ____ _ ____ _ ____ _ ____ _ ____
 72
    65
 73
     4
 40
5.5
 49
4.0
 49
-0.6
 49
0.3
 49
-0.6
  0
ENDTAB
  0
TABLE
  2
LAYER
 70
    12
  0
LAYER
  2
0
 70
     0
 62
     7
  6
CONTINUOUS
  0
LAYER
  2
NOTE
 70
     0
 62
     4
  6
CONTINUOUS
  0
LAYER
  2
OUTLINE
 70
     0
 62
     3
  6
CONTINUOUS
  0
LAYER
  2
DETAIL
 70
     0
 62
     5
  6
CONTINUOUS
  0
LAYER
  2
BASIS
 70
     0
 62
     6
  6
DASHDOT
  0
LAYER
  2
SIZE
 70
     0
 62
    30
  6
CONTINUOUS
  0
LAYER
  2
ARRANGE
 70
     0
 62
     1
  6
CONTINUOUS
  0
LAYER
  2
FIX
 70
     0
 62
    11
  6
CONTINUOUS
  0
LAYER
  2
SERVICESPACE
 70
     0
 62
     2
  6
DASHDOT
  0
LAYER
  2
ETC
 70
     0
 62
    61
  6
CONTINUOUS
  0
LAYER
  2
SYMBOLLINE
 70
     0
 62
    15
  6
CONTINUOUS
  0
LAYER
  2
DEFPOINTS
 70
     0
 62
     7
  6
CONTINUOUS
  0
ENDTAB
  0
TABLE
  2
STYLE
 70
     4
  0
STYLE
  2
STANDARD
 70
     0
 40
0.0
 41
0.9
 50
0.0
 71
     0
 42
64.0
  3
SIMPLEX
  4
BIGFONT
  0
STYLE
  2
ANNOTATIVE
 70
     0
 40
0.0
 41
1.0
 50
0.0
 71
     0
 42
0.2
  3
txt
  4

  0
STYLE
  2
STANDARD1
 70
     0
 40
0.0
 41
1.0
 50
0.0
 71
     0
 42
64.0
  3
MONOTXT
  4
BIGFONT
  0
STYLE
  2

 70
     1
 40
0.0
 41
1.0
 50
0.0
 71
     0
 42
64.0
  3
ltypeshp.shx
  4

  0
ENDTAB
  0
TABLE
  2
VIEW
 70
     9
  0
VIEW
  2
ALL
 70
     0
 40
9000.0
 10
241.50664699999999
 20
0.0
 41
12483.01
 11
0.0
 21
0.0
 31
1.0
 12
0.0
 22
0.0
 32
0.0
 42
50.0
 43
0.0
 44
0.0
 50
0.0
 71
     0
  0
ENDTAB
  0
TABLE
  2
UCS
 70
     0
  0
ENDTAB
  0
TABLE
  2
APPID
 70
     4
  0
APPID
  2
ACAD
 70
     0
  0
APPID
  2
ACADANNOTATIVE
 70
     0
  0
APPID
  2
ACAD_MLEADERVER
 70
     0
  0
APPID
  2
ACAD_EXEMPT_FROM_CAD_STANDARDS
 70
     0
  0
ENDTAB
  0
TABLE
  2
DIMSTYLE
 70
     3
  0
DIMSTYLE
  2
STANDARD
 70
     0
  3

  4

  5

  6

  7

 40
1.0
 41
0.18
 42
0.0625
 43
0.38
 44
0.18
 45
0.0
 46
0.0
 47
0.0
 48
0.0
140
0.18
141
0.09
142
0.0
143
25.399999999999999
144
1.0
145
0.0
146
1.0
147
0.09
 71
     0
 72
     0
 73
     1
 74
     1
 75
     0
 76
     0
 77
     0
 78
     0
170
     0
171
     2
172
     0
173
     0
174
     0
175
     0
176
     0
177
     0
178
     0
  0
DIMSTYLE
  2
ANNOTATIVE
 70
     0
  3

  4

  5

  6

  7

 40
1.0
 41
0.18
 42
0.0625
 43
0.38
 44
0.18
 45
0.0
 46
0.0
 47
0.0
 48
0.0
140
0.18
141
0.09
142
0.0
143
25.399999999999999
144
1.0
145
0.0
146
1.0
147
0.09
 71
     0
 72
     0
 73
     1
 74
     1
 75
     0
 76
     0
 77
     0
 78
     0
170
     0
171
     2
172
     0
173
     0
174
     0
175
     0
176
     0
177
     0
178
     0
  0
ENDTAB
  0
ENDSEC
  0
SECTION
  2
BLOCKS
  0
BLOCK
  8
0
  2
$MODEL_SPACE
 70
     0
 10
0.0
 20
0.0
 30
0.0
  3
$MODEL_SPACE
  1

  0
ENDBLK
  5
8DA
  8
0
  0
BLOCK
 67
     1
  8
0
  2
$PAPER_SPACE
 70
     0
 10
0.0
 20
0.0
 30
0.0
  3
$PAPER_SPACE
  1

  0
ENDBLK
  5
8D6
 67
     1
  8
0
  0
BLOCK
  8
0
  2
_ORIGIN
 70
     0
 10
0.0
 20
0.0
 30
0.0
  3
_ORIGIN
  1

  0
CIRCLE
  5
34
  8
0
  6
CONTINUOUS
 62
     7
 10
0.0
 20
0.0
 30
0.0
 40
0.5
  0
LINE
  5
35
  8
0
  6
CONTINUOUS
 62
     7
 10
-0.5
 20
0.0
 30
0.0
 11
-1.0
 21
0.0
 31
0.0
  0
ENDBLK
  5
36
  8
0
  0
BLOCK
  8
0
 62
     7
  2
A$C7BA37111
 70
     0
 10
0.0
 20
0.0
 30
0.0
  3
A$C7BA37111
  1

  0
LINE
  5
33F
  8
NOTE
  6
CONTINUOUS
 62
     4
 10
2923.494893
 20
1599.5914150000001
 30
0.0
 11
3808.6703050000001
 21
1599.5914150000001
 31
0.0
  0
TEXT
  5
340
  8
NOTE
  6
CONTINUOUS
 62
     4
 10
2947.4272580000002
 20
1617.230836
 30
0.0
 40
60.0
  1
外気取入口%%C150（ノックアウト穴）
 50
0.000003
 41
0.7
  7
STANDARD1
  0
LINE
  5
341
  8
SIZE
  6
CONTINUOUS
 62
    30
 10
2511.000188
 20
551.55797900000005
 30
0.0
 11
3390.5373330000002
 21
551.55797900000005
 31
0.0
  0
LINE
  5
342
  8
SIZE
  6
CONTINUOUS
 62
    30
 10
2535.000188
 20
801.55797900000005
 30
0.0
 11
3390.5373330000002
 21
801.55797900000005
 31
0.0
  0
LINE
  5
343
  8
SIZE
  6
CONTINUOUS
 62
    30
 10
2535.000188
 20
801.55797900000005
 30
0.0
 11
3390.5373330000002
 21
801.55797900000005
 31
0.0
  0
LINE
  5
344
  8
SIZE
  6
CONTINUOUS
 62
    30
 10
2535.000188
 20
1401.5579789999999
 30
0.0
 11
3390.5373330000002
 21
1401.5579789999999
 31
0.0
  0
LINE
  5
345
  8
NOTE
  6
CONTINUOUS
 62
     4
 10
3624.3760659999998
 20
1736.744526
 30
0.0
 11
2918.4890300000002
 21
1736.744526
 31
0.0
  0
TEXT
  5
346
  8
NOTE
  6
CONTINUOUS
 62
     4
 10
2933.0367289999999
 20
1752.571056
 30
0.0
 40
60.0
  1
AH 4-14×30長穴(M10)
 50
0.000003
 41
0.7
  7
STANDARD1
  0
LINE
  5
347
  8
BASIS
  6
DASHDOT
 62
     6
 10
2563.000188
 20
939.05797900000005
 30
0.0
 11
913.00018800000009
 21
939.05797900000005
 31
0.0
  0
LINE
  5
348
  8
SIZE
  6
CONTINUOUS
 62
    30
 10
2493.0001990000001
 20
1566.978818
 30
0.0
 11
983.00019900000007
 21
1566.978818
 31
0.0
  0
LINE
  5
349
  8
SERVICESPACE
  6
CONTINUOUS
 62
     2
 10
963.00018800000009
 20
818.55797900000005
 30
0.0
 11
2513.000188
 21
818.55797900000005
 31
0.0
  0
LINE
  5
34A
  8
SERVICESPACE
  6
CONTINUOUS
 62
     2
 10
963.00018800000009
 20
1384.5579789999999
 30
0.0
 11
2513.000188
 21
1384.5579789999999
 31
0.0
  0
LINE
  5
34B
  8
OUTLINE
  6
CONTINUOUS
 62
     3
 10
2493.000188
 20
1326.5579789999999
 30
0.0
 11
983.00018800000009
 21
1326.5579789999999
 31
0.0
  0
LINE
  5
34C
  8
OUTLINE
  6
CONTINUOUS
 62
     3
 10
983.00018800000009
 20
551.55797900000005
 30
0.0
 11
2493.000188
 21
551.55797900000005
 31
0.0
  0
LINE
  5
34D
  8
OUTLINE
  6
CONTINUOUS
 62
     3
 10
959.00018799999998
 20
1401.5579789999999
 30
0.0
 11
2517.000188
 21
1401.5579789999999
 31
0.0
  0
LINE
  5
34E
  8
SIZE
  6
CONTINUOUS
 62
    30
 10
2513.000188
 20
1671.207989
 30
0.0
 11
963.00018800000009
 21
1671.207989
 31
0.0
  0
LINE
  5
34F
  8
DETAIL
  6
CONTINUOUS
 62
     5
 10
959.00018799999998
 20
1401.5579789999999
 30
0.0
 11
2517.000188
 21
1401.5579789999999
 31
0.0
  0
LINE
  5
350
  8
SIZE
  6
CONTINUOUS
 62
    30
 10
1003.000188
 20
129.49455
 30
0.0
 11
2473.000188
 21
129.49455
 31
0.0
  0
ARC
  5
351
  8
DETAIL
  6
CONTINUOUS
 62
     5
 10
1435.738965
 20
436.59560199999987
 30
0.0
 40
100.0
 50
85.835943999999998
 51
121.227886
  0
LINE
  5
352
  8
SIZE
  6
CONTINUOUS
 62
    30
 10
987.00018800000021
 20
29.999994999999998
 30
0.0
 11
2489.000188
 21
29.999994999999998
 31
0.0
  0
TEXT
  5
353
  8
SIZE
  6
CONTINUOUS
 62
    30
 10
1385.1430451428571
 20
372.615295
 30
0.0
 40
50.0
  1
320
 41
0.9
 72
     1
 11
1443.000188
 21
372.615295
 31
0.0
  0
LINE
  5
354
  8
SIZE
  6
CONTINUOUS
 62
    30
 10
1303.000188
 20
354.615295
 30
0.0
 11
1583.000188
 21
354.615295
 31
0.0
  0
LINE
  5
355
  8
SIZE
  6
CONTINUOUS
 62
    30
 10
1010.000188
 20
224.37408099999999
 30
0.0
 11
2466.000188
 21
224.37408099999999
 31
0.0
  0
LINE
  5
356
  8
DETAIL
  6
CONTINUOUS
 62
     5
 10
983.00018800000009
 20
551.55797900000005
 30
0.0
 11
2493.000188
 21
551.55797900000005
 31
0.0
  0
LINE
  5
357
  8
DETAIL
  6
CONTINUOUS
 62
     5
 10
1016.3362049999999
 20
1309.5559430000001
 30
0.0
 11
2460.026175
 21
1309.5559430000001
 31
0.0
  0
LINE
  5
358
  8
DETAIL
  6
CONTINUOUS
 62
     5
 10
2493.000188
 20
1326.5579789999999
 30
0.0
 11
983.00018800000009
 21
1326.5579789999999
 31
0.0
  0
LINE
  5
359
  8
SERVICESPACE
  6
CONTINUOUS
 62
     2
 10
963.00018800000009
 20
1384.5579789999999
 30
0.0
 11
963.00018800000009
 21
818.55797900000005
 31
0.0
  0
POLYLINE
  5
35A
  8
NOTE
  6
CONTINUOUS
 62
     4
 66
     1
 10
0.0
 20
0.0
 30
0.0
  0
VERTEX
  5
9F7
  8
NOTE
  6
CONTINUOUS
 62
     4
 10
983.00021800000013
 20
743.55797900000005
 30
0.0
  0
VERTEX
  5
9F8
  8
NOTE
  6
CONTINUOUS
 62
     4
 10
605.43329699999992
 20
1178.49513
 30
0.0
  0
SEQEND
  5
9F9
  8
NOTE
  6
CONTINUOUS
 62
     4
  0
POLYLINE
  5
35E
  8
NOTE
  6
CONTINUOUS
 62
     4
 66
     1
 10
0.0
 20
0.0
 30
0.0
  0
VERTEX
  5
9FA
  8
NOTE
  6
CONTINUOUS
 62
     4
 10
944.00018799999998
 20
739.55797900000005
 30
0.0
  0
VERTEX
  5
9FB
  8
NOTE
  6
CONTINUOUS
 62
     4
 10
605.43329699999992
 20
1057.7219230000001
 30
0.0
  0
SEQEND
  5
9FC
  8
NOTE
  6
CONTINUOUS
 62
     4
  0
POLYLINE
  5
362
  8
NOTE
  6
CONTINUOUS
 62
     4
 66
     1
 10
0.0
 20
0.0
 30
0.0
  0
VERTEX
  5
9FD
  8
NOTE
  6
CONTINUOUS
 62
     4
 10
936.00018799999998
 20
675.55797900000005
 30
0.0
  0
VERTEX
  5
9FE
  8
NOTE
  6
CONTINUOUS
 62
     4
 10
596.24859000000004
 20
951.76413200000002
 30
0.0
  0
SEQEND
  5
9FF
  8
NOTE
  6
CONTINUOUS
 62
     4
  0
POLYLINE
  5
366
  8
NOTE
  6
CONTINUOUS
 62
     4
 66
     1
 10
0.0
 20
0.0
 30
0.0
  0
VERTEX
  5
A00
  8
NOTE
  6
CONTINUOUS
 62
     4
 10
949.00018800000009
 20
824.55797900000005
 30
0.0
  0
VERTEX
  5
A01
  8
NOTE
  6
CONTINUOUS
 62
     4
 10
536.71322099999998
 20
1373.6197320000001
 30
0.0
  0
SEQEND
  5
A02
  8
NOTE
  6
CONTINUOUS
 62
     4
  0
LINE
  5
36A
  8
OUTLINE
  6
CONTINUOUS
 62
     3
 10
983.00018800000009
 20
551.55797900000005
 30
0.0
 11
983.00018800000009
 21
1326.5579789999999
 31
0.0
  0
LINE
  5
36B
  8
OUTLINE
  6
CONTINUOUS
 62
     3
 10
943.00018799999998
 20
1385.5579789999999
 30
0.0
 11
943.00018799999998
 21
817.55797900000005
 31
0.0
  0
LINE
  5
36C
  8
DETAIL
  6
CONTINUOUS
 62
     5
 10
943.00018799999998
 20
1385.5579789999999
 30
0.0
 11
943.00018799999998
 21
817.55797900000005
 31
0.0
  0
LINE
  5
36D
  8
SIZE
  6
CONTINUOUS
 62
    30
 10
983.00018800000009
 20
620.78895599999987
 30
0.0
 11
983.00018800000009
 21
1162.2670350000001
 31
0.0
  0
LINE
  5
36E
  8
SIZE
  6
CONTINUOUS
 62
    30
 10
944.00018799999998
 20
777.55797900000005
 30
0.0
 11
944.00018799999998
 21
1162.2670350000001
 31
0.0
  0
LINE
  5
36F
  8
SIZE
  6
CONTINUOUS
 62
    30
 10
983.00018800000009
 20
620.55978600000003
 30
0.0
 11
983.00018800000009
 21
1074.241004
 31
0.0
  0
LINE
  5
370
  8
SIZE
  6
CONTINUOUS
 62
    30
 10
949.00018800000009
 20
862.55797899999993
 30
0.0
 11
949.00018800000009
 21
1074.241004
 31
0.0
  0
TEXT
  5
371
  8
SIZE
  6
CONTINUOUS
 62
    30
 10
111.146866
 20
881.20083614285716
 30
0.0
 40
50.0
  1
775
 50
90.0
 41
0.9
 72
     1
 11
111.146866
 21
939.05797900000005
 31
0.0
  0
LINE
  5
372
  8
SIZE
  6
CONTINUOUS
 62
    30
 10
129.14686599999999
 20
571.55797900000005
 30
0.0
 11
129.14686599999999
 21
1306.5579789999999
 31
0.0
  0
LINE
  5
373
  8
DETAIL
  6
CONTINUOUS
 62
     5
 10
983.00018800000009
 20
602.55978600000003
 30
0.0
 11
983.00018800000009
 21
1278.5561829999999
 31
0.0
  0
LINE
  5
374
  8
SIZE
  6
CONTINUOUS
 62
    30
 10
963.00018800000009
 20
551.55797900000005
 30
0.0
 11
331.08290299999999
 21
551.55797900000005
 31
0.0
  0
LINE
  5
375
  8
SIZE
  6
CONTINUOUS
 62
    30
 10
936.3388829999999
 20
743.55797900000005
 30
0.0
 11
331.08290299999999
 21
743.55797900000005
 31
0.0
  0
LINE
  5
376
  8
SIZE
  6
CONTINUOUS
 62
    30
 10
965.00018800000009
 20
551.55797900000005
 30
0.0
 11
99.146866000000017
 21
551.55797900000005
 31
0.0
  0
LINE
  5
377
  8
SIZE
  6
CONTINUOUS
 62
    30
 10
965.00018800000009
 20
551.55797900000005
 30
0.0
 11
219.38928000000001
 21
551.55797900000005
 31
0.0
  0
LINE
  5
378
  8
SIZE
  6
CONTINUOUS
 62
    30
 10
910.99923000000013
 20
824.55797900000005
 30
0.0
 11
219.38928000000001
 21
824.55797900000005
 31
0.0
  0
LINE
  5
379
  8
SIZE
  6
CONTINUOUS
 62
    30
 10
905.99923000000013
 20
739.55797900000005
 30
0.0
 11
419.40966299999991
 21
739.55797900000005
 31
0.0
  0
LINE
  5
37A
  8
SIZE
  6
CONTINUOUS
 62
    30
 10
891.33885299999997
 20
675.55797900000005
 30
0.0
 11
419.40966299999991
 21
675.55797900000005
 31
0.0
  0
LINE
  5
37B
  8
SIZE
  6
CONTINUOUS
 62
    30
 10
891.33885299999997
 20
675.55797900000005
 30
0.0
 11
419.40966299999991
 21
675.55797900000005
 31
0.0
  0
LINE
  5
37C
  8
SIZE
  6
CONTINUOUS
 62
    30
 10
965.00018800000009
 20
551.55797900000005
 30
0.0
 11
419.40966299999991
 21
551.55797900000005
 31
0.0
  0
LINE
  5
37D
  8
SIZE
  6
CONTINUOUS
 62
    30
 10
1167.500188
 20
481.55797899999999
 30
0.0
 11
99.146866000000017
 21
481.55797899999999
 31
0.0
  0
LINE
  5
37E
  8
SIZE
  6
CONTINUOUS
 62
    30
 10
965.00018800000009
 20
551.55797900000005
 30
0.0
 11
99.146866000000017
 21
551.55797900000005
 31
0.0
  0
TEXT
  5
37F
  8
SIZE
  6
CONTINUOUS
 62
    30
 10
111.146866
 20
350.70083657142862
 30
0.0
 40
50.0
  1
70
 50
90.0
 41
0.9
 72
     1
 11
111.146866
 21
387.12940800000001
 31
0.0
  0
TEXT
  5
380
  8
SIZE
  6
CONTINUOUS
 62
    30
 10
331.08290299999999
 20
588.62940757142849
 30
0.0
 40
55.0
  1
192
 50
90.0
 41
0.9
 72
     1
 11
331.08290299999999
 21
647.55797900000005
 31
0.0
  0
LINE
  5
381
  8
SIZE
  6
CONTINUOUS
 62
    30
 10
349.08290299999999
 20
723.55797900000005
 30
0.0
 11
349.08290299999999
 21
571.55797900000005
 31
0.0
  0
TEXT
  5
382
  8
SIZE
  6
CONTINUOUS
 62
    30
 10
231.38928000000001
 20
630.20083614285716
 30
0.0
 40
50.0
  1
273
 50
90.0
 41
0.9
 72
     1
 11
231.38928000000001
 21
688.05797900000005
 31
0.0
  0
LINE
  5
383
  8
SIZE
  6
CONTINUOUS
 62
    30
 10
249.38928000000001
 20
804.55797900000005
 30
0.0
 11
249.38928000000001
 21
571.55797900000005
 31
0.0
  0
TEXT
  5
384
  8
SIZE
  6
CONTINUOUS
 62
    30
 10
431.40966299999991
 20
558.91512185714294
 30
0.0
 40
50.0
  1
124
 50
90.0
 41
0.9
 72
     1
 11
431.40966299999991
 21
613.55797900000005
 31
0.0
  0
LINE
  5
385
  8
SIZE
  6
CONTINUOUS
 62
    30
 10
449.40966299999991
 20
571.55797900000005
 30
0.0
 11
449.40966299999991
 21
655.55797900000005
 31
0.0
  0
CIRCLE
  5
386
  8
SIZE
  6
CONTINUOUS
 62
    30
 10
129.14686599999999
 20
481.55797899999999
 30
0.0
 40
10.0
  0
LINE
  5
387
  8
SIZE
  6
CONTINUOUS
 62
    30
 10
129.14686599999999
 20
471.55797899999988
 30
0.0
 11
129.14686599999999
 21
461.55797899999988
 31
0.0
  0
LINE
  5
388
  8
SIZE
  6
CONTINUOUS
 62
    30
 10
129.14686599999999
 20
461.55797899999988
 30
0.0
 11
129.14686599999999
 21
332.70083599999998
 31
0.0
  0
LINE
  5
389
  8
SIZE
  6
CONTINUOUS
 62
    30
 10
129.14686599999999
 20
561.55797900000005
 30
0.0
 11
129.14686599999999
 21
571.55797900000005
 31
0.0
  0
CIRCLE
  5
38A
  8
SIZE
  6
CONTINUOUS
 62
    30
 10
129.14686599999999
 20
551.55797900000005
 30
0.0
 40
10.0
  0
POINT
  5
38B
  8
DEFPOINTS
  6
CONTINUOUS
 62
     7
 10
129.14686599999999
 20
481.55797899999999
 30
0.0
  0
LINE
  5
38C
  8
SIZE
  6
CONTINUOUS
 62
    30
 10
129.14686599999999
 20
561.55797900000005
 30
0.0
 11
129.14686599999999
 21
571.55797900000005
 31
0.0
  0
CIRCLE
  5
38D
  8
SIZE
  6
CONTINUOUS
 62
    30
 10
129.14686599999999
 20
551.55797900000005
 30
0.0
 40
10.0
  0
LINE
  5
38E
  8
SIZE
  6
CONTINUOUS
 62
    30
 10
129.14686599999999
 20
551.55797900000005
 30
0.0
 11
129.14686599999999
 21
481.55797899999999
 31
0.0
  0
LINE
  5
38F
  8
SIZE
  6
CONTINUOUS
 62
    30
 10
129.14686599999999
 20
571.55797900000005
 30
0.0
 11
129.14686599999999
 21
591.55797900000005
 31
0.0
  0
POINT
  5
390
  8
DEFPOINTS
  6
CONTINUOUS
 62
     7
 10
249.38928000000001
 20
551.55797900000005
 30
0.0
  0
LINE
  5
391
  8
SIZE
  6
CONTINUOUS
 62
    30
 10
249.38928000000001
 20
561.55797900000005
 30
0.0
 11
249.38928000000001
 21
571.55797900000005
 31
0.0
  0
CIRCLE
  5
392
  8
SIZE
  6
CONTINUOUS
 62
    30
 10
249.38928000000001
 20
551.55797900000005
 30
0.0
 40
10.0
  0
POINT
  5
393
  8
DEFPOINTS
  6
CONTINUOUS
 62
     7
 10
349.08290299999999
 20
551.55797900000005
 30
0.0
  0
LINE
  5
394
  8
SIZE
  6
CONTINUOUS
 62
    30
 10
349.08290299999999
 20
561.55797900000005
 30
0.0
 11
349.08290299999999
 21
571.55797900000005
 31
0.0
  0
CIRCLE
  5
395
  8
SIZE
  6
CONTINUOUS
 62
    30
 10
349.08290299999999
 20
551.55797900000005
 30
0.0
 40
10.0
  0
LINE
  5
396
  8
SIZE
  6
CONTINUOUS
 62
    30
 10
449.40966299999991
 20
561.55797900000005
 30
0.0
 11
449.40966299999991
 21
571.55797900000005
 31
0.0
  0
CIRCLE
  5
397
  8
SIZE
  6
CONTINUOUS
 62
    30
 10
449.40966299999991
 20
551.55797900000005
 30
0.0
 40
10.0
  0
LINE
  5
398
  8
SIZE
  6
CONTINUOUS
 62
    30
 10
249.38928000000001
 20
814.55797900000005
 30
0.0
 11
249.38928000000001
 21
804.55797900000005
 31
0.0
  0
CIRCLE
  5
399
  8
SIZE
  6
CONTINUOUS
 62
    30
 10
249.38928000000001
 20
824.55797900000005
 30
0.0
 40
10.0
  0
LINE
  5
39A
  8
SIZE
  6
CONTINUOUS
 62
    30
 10
449.40966299999991
 20
759.55797900000005
 30
0.0
 11
449.40966299999991
 21
932.51748900000007
 31
0.0
  0
LINE
  5
39B
  8
SIZE
  6
CONTINUOUS
 62
    30
 10
349.08290299999999
 20
733.55797900000005
 30
0.0
 11
349.08290299999999
 21
723.55797900000005
 31
0.0
  0
CIRCLE
  5
39C
  8
SIZE
  6
CONTINUOUS
 62
    30
 10
349.08290299999999
 20
743.55797900000005
 30
0.0
 40
10.0
  0
POINT
  5
39D
  8
DEFPOINTS
  6
CONTINUOUS
 62
     7
 10
449.40966299999991
 20
739.55797900000005
 30
0.0
  0
LINE
  5
39E
  8
SIZE
  6
CONTINUOUS
 62
    30
 10
449.40966299999991
 20
749.55797900000005
 30
0.0
 11
449.40966299999991
 21
759.55797900000005
 31
0.0
  0
CIRCLE
  5
39F
  8
SIZE
  6
CONTINUOUS
 62
    30
 10
449.40966299999991
 20
739.55797900000005
 30
0.0
 40
10.0
  0
LINE
  5
3A0
  8
SIZE
  6
CONTINUOUS
 62
    30
 10
449.40966299999991
 20
665.55797900000005
 30
0.0
 11
449.40966299999991
 21
655.55797900000005
 31
0.0
  0
CIRCLE
  5
3A1
  8
SIZE
  6
CONTINUOUS
 62
    30
 10
449.40966299999991
 20
675.55797900000005
 30
0.0
 40
10.0
  0
LINE
  5
3A2
  8
SIZE
  6
CONTINUOUS
 62
    30
 10
449.40966299999991
 20
675.55797900000005
 30
0.0
 11
449.40966299999991
 21
739.55797900000005
 31
0.0
  0
LINE
  5
3A3
  8
SIZE
  6
CONTINUOUS
 62
    30
 10
449.40966299999991
 20
655.55797900000005
 30
0.0
 11
449.40966299999991
 21
635.55797900000005
 31
0.0
  0
POINT
  5
3A4
  8
DEFPOINTS
  6
CONTINUOUS
 62
     7
 10
449.40966299999991
 20
675.55797900000005
 30
0.0
  0
LINE
  5
3A5
  8
SIZE
  6
CONTINUOUS
 62
    30
 10
449.40966299999991
 20
665.55797900000005
 30
0.0
 11
449.40966299999991
 21
655.55797900000005
 31
0.0
  0
CIRCLE
  5
3A6
  8
SIZE
  6
CONTINUOUS
 62
    30
 10
449.40966299999991
 20
675.55797900000005
 30
0.0
 40
10.0
  0
TEXT
  5
3A7
  8
SIZE
  6
CONTINUOUS
 62
    30
 10
431.40966299999991
 20
839.51748900000007
 30
0.0
 40
50.0
  1
64
 50
90.0
 41
0.9
 72
     1
 11
431.40966299999991
 21
877.01748900000007
 31
0.0
  0
LINE
  5
3A8
  8
SIZE
  6
CONTINUOUS
 62
    30
 10
983.00018800000009
 20
533.55797900000005
 30
0.0
 11
983.00018800000009
 21
99.494550000000004
 31
0.0
  0
LINE
  5
3A9
  8
SIZE
  6
CONTINUOUS
 62
    30
 10
967.00018799999998
 20
538.05444599999998
 30
0.0
 11
967.00018799999998
 21
99.494550000000004
 31
0.0
  0
LINE
  5
3AA
  8
SIZE
  6
CONTINUOUS
 62
    30
 10
983.00018800000009
 20
533.55797900000005
 30
0.0
 11
983.00018800000009
 21
99.494550000000004
 31
0.0
  0
LINE
  5
3AB
  8
SIZE
  6
CONTINUOUS
 62
    30
 10
967.00018799999998
 20
538.05444599999998
 30
0.0
 11
967.00018799999998
 21
-0.000005
 31
0.0
  0
LINE
  5
3AC
  8
SIZE
  6
CONTINUOUS
 62
    30
 10
967.00018799999998
 20
538.05444599999998
 30
0.0
 11
967.00018799999998
 21
194.37408099999999
 31
0.0
  0
LINE
  5
3AD
  8
SIZE
  6
CONTINUOUS
 62
    30
 10
990.00018800000009
 20
547.55797900000005
 30
0.0
 11
990.00018800000009
 21
194.37408099999999
 31
0.0
  0
LINE
  5
3AE
  8
SIZE
  6
CONTINUOUS
 62
    30
 10
1283.000188
 20
391.61346400000002
 30
0.0
 11
1283.000188
 21
324.615295
 31
0.0
  0
LINE
  5
3AF
  8
SIZE
  6
CONTINUOUS
 62
    30
 10
990.00018800000009
 20
547.55797900000005
 30
0.0
 11
990.00018800000009
 21
194.37408099999999
 31
0.0
  0
CIRCLE
  5
3B0
  8
SIZE
  6
CONTINUOUS
 62
    30
 10
967.00018799999998
 20
129.49455
 30
0.0
 40
10.0
  0
CIRCLE
  5
3B1
  8
SIZE
  6
CONTINUOUS
 62
    30
 10
967.00018799999998
 20
29.999994999999998
 30
0.0
 40
10.0
  0
CIRCLE
  5
3B2
  8
SIZE
  6
CONTINUOUS
 62
    30
 10
967.00018799999998
 20
224.37408099999999
 30
0.0
 40
10.0
  0
TEXT
  5
3B3
  8
SIZE
  6
CONTINUOUS
 62
    30
 10
846.85733042857134
 20
147.49455
 30
0.0
 40
50.0
  1
16
 41
0.9
 72
     1
 11
877.92875900000001
 21
147.49455
 31
0.0
  0
LINE
  5
3B4
  8
SIZE
  6
CONTINUOUS
 62
    30
 10
947.00018800000009
 20
129.49455
 30
0.0
 11
828.85733100000004
 21
129.49455
 31
0.0
  0
LINE
  5
3B5
  8
SIZE
  6
CONTINUOUS
 62
    30
 10
957.00018800000009
 20
129.49455
 30
0.0
 11
947.00018800000009
 21
129.49455
 31
0.0
  0
TEXT
  5
3B6
  8
SIZE
  6
CONTINUOUS
 62
    30
 10
836.14304557142839
 20
242.37408099999999
 30
0.0
 40
50.0
  1
23
 41
0.9
 72
     1
 11
872.57161699999995
 21
242.37408099999999
 31
0.0
  0
LINE
  5
3B7
  8
SIZE
  6
CONTINUOUS
 62
    30
 10
947.00018800000009
 20
224.37408099999999
 30
0.0
 11
818.14304500000003
 21
224.37408099999999
 31
0.0
  0
LINE
  5
3B8
  8
SIZE
  6
CONTINUOUS
 62
    30
 10
957.00018800000009
 20
224.37408099999999
 30
0.0
 11
947.00018800000009
 21
224.37408099999999
 31
0.0
  0
LINE
  5
3B9
  8
SIZE
  6
CONTINUOUS
 62
    30
 10
993.00018799999998
 20
129.49455
 30
0.0
 11
1003.000188
 21
129.49455
 31
0.0
  0
CIRCLE
  5
3BA
  8
SIZE
  6
CONTINUOUS
 62
    30
 10
983.00018800000009
 20
129.49455
 30
0.0
 40
10.0
  0
POINT
  5
3BB
  8
DEFPOINTS
  6
CONTINUOUS
 62
     7
 10
967.00018799999998
 20
129.49455
 30
0.0
  0
LINE
  5
3BC
  8
SIZE
  6
CONTINUOUS
 62
    30
 10
993.00018799999998
 20
129.49455
 30
0.0
 11
1003.000188
 21
129.49455
 31
0.0
  0
CIRCLE
  5
3BD
  8
SIZE
  6
CONTINUOUS
 62
    30
 10
983.00018800000009
 20
129.49455
 30
0.0
 40
10.0
  0
LINE
  5
3BE
  8
SIZE
  6
CONTINUOUS
 62
    30
 10
983.00018800000009
 20
129.49455
 30
0.0
 11
967.00018799999998
 21
129.49455
 31
0.0
  0
LINE
  5
3BF
  8
SIZE
  6
CONTINUOUS
 62
    30
 10
1003.000188
 20
129.49455
 30
0.0
 11
1023.000188
 21
129.49455
 31
0.0
  0
LINE
  5
3C0
  8
SIZE
  6
CONTINUOUS
 62
    30
 10
977.00018799999998
 20
29.999994999999998
 30
0.0
 11
987.00018800000021
 21
29.999994999999998
 31
0.0
  0
POINT
  5
3C1
  8
DEFPOINTS
  6
CONTINUOUS
 62
     7
 10
967.00018799999998
 20
224.37408099999999
 30
0.0
  0
LINE
  5
3C2
  8
SIZE
  6
CONTINUOUS
 62
    30
 10
1000.000188
 20
224.37408099999999
 30
0.0
 11
1010.000188
 21
224.37408099999999
 31
0.0
  0
CIRCLE
  5
3C3
  8
SIZE
  6
CONTINUOUS
 62
    30
 10
990.00018800000009
 20
224.37408099999999
 30
0.0
 40
10.0
  0
LINE
  5
3C4
  8
SIZE
  6
CONTINUOUS
 62
    30
 10
990.00018800000009
 20
224.37408099999999
 30
0.0
 11
967.00018799999998
 21
224.37408099999999
 31
0.0
  0
LINE
  5
3C5
  8
SIZE
  6
CONTINUOUS
 62
    30
 10
1010.000188
 20
224.37408099999999
 30
0.0
 11
1030.000188
 21
224.37408099999999
 31
0.0
  0
LINE
  5
3C6
  8
SIZE
  6
CONTINUOUS
 62
    30
 10
1000.000188
 20
224.37408099999999
 30
0.0
 11
1010.000188
 21
224.37408099999999
 31
0.0
  0
CIRCLE
  5
3C7
  8
SIZE
  6
CONTINUOUS
 62
    30
 10
990.00018800000009
 20
224.37408099999999
 30
0.0
 40
10.0
  0
LINE
  5
3C8
  8
NOTE
  6
CONTINUOUS
 62
     4
 10
983.00021800000013
 20
743.55797900000005
 30
0.0
 11
957.58969499999978
 21
761.41637700000001
 31
0.0
  0
LINE
  5
3C9
  8
NOTE
  6
CONTINUOUS
 62
     4
 10
956.33888300000001
 20
743.55797900000005
 30
0.0
 11
1009.661553
 21
743.55797900000005
 31
0.0
  0
LINE
  5
3CA
  8
OUTLINE
  6
CONTINUOUS
 62
     3
 10
959.00018799999998
 20
801.55797900000005
 30
0.0
 11
983.00018800000009
 21
801.55797900000005
 31
0.0
  0
LINE
  5
3CB
  8
SIZE
  6
CONTINUOUS
 62
    30
 10
983.00018800000009
 20
373.44054399999999
 30
0.0
 11
936.00018799999998
 21
373.44054399999999
 31
0.0
  0
LINE
  5
3CC
  8
DETAIL
  6
CONTINUOUS
 62
     5
 10
959.00018799999998
 20
801.55797900000005
 30
0.0
 11
983.00018800000009
 21
801.55797900000005
 31
0.0
  0
LINE
  5
3CD
  8
NOTE
  6
CONTINUOUS
 62
     4
 10
909.33885299999997
 20
675.55797900000005
 30
0.0
 11
962.66152299999999
 21
675.55797900000005
 31
0.0
  0
LINE
  5
3CE
  8
DETAIL
  6
CONTINUOUS
 62
     5
 10
983.00018800000009
 20
683.49797899999999
 30
0.0
 11
936.00018799999998
 21
683.49797899999999
 31
0.0
  0
LINE
  5
3CF
  8
DETAIL
  6
CONTINUOUS
 62
     5
 10
936.00018799999998
 20
667.61797899999988
 30
0.0
 11
983.00018800000009
 21
667.61797899999988
 31
0.0
  0
LINE
  5
3D0
  8
NOTE
  6
CONTINUOUS
 62
     4
 10
923.99923000000001
 20
739.55797900000005
 30
0.0
 11
964.00114599999995
 21
739.55797900000005
 31
0.0
  0
LINE
  5
3D1
  8
DETAIL
  6
CONTINUOUS
 62
     5
 10
944.00018799999998
 20
734.79797900000005
 30
0.0
 11
983.00018800000009
 21
734.79797900000005
 31
0.0
  0
LINE
  5
3D2
  8
DETAIL
  6
CONTINUOUS
 62
     5
 10
983.00018800000009
 20
744.31797900000004
 30
0.0
 11
944.00018799999998
 21
744.31797900000004
 31
0.0
  0
LINE
  5
3D3
  8
NOTE
  6
CONTINUOUS
 62
     4
 10
928.99923000000013
 20
824.55797900000005
 30
0.0
 11
969.00114599999995
 21
824.55797900000005
 31
0.0
  0
LINE
  5
3D4
  8
DETAIL
  6
CONTINUOUS
 62
     5
 10
949.00018800000009
 20
808.55797900000005
 30
0.0
 11
983.00018800000009
 21
808.55797900000005
 31
0.0
  0
LINE
  5
3D5
  8
DETAIL
  6
CONTINUOUS
 62
     5
 10
949.00018800000009
 20
840.55797899999993
 30
0.0
 11
983.00018800000009
 21
840.55797899999993
 31
0.0
  0
LINE
  5
3D6
  8
SIZE
  6
CONTINUOUS
 62
    30
 10
936.00018799999998
 20
637.55797900000005
 30
0.0
 11
936.00018799999998
 21
343.44054399999999
 31
0.0
  0
TEXT
  5
3D7
  8
SIZE
  6
CONTINUOUS
 62
    30
 10
805.1430455714285
 20
391.44054399999999
 30
0.0
 40
50.0
  1
47
 41
0.9
 72
     1
 11
841.57161699999995
 21
391.44054399999999
 31
0.0
  0
LINE
  5
3D8
  8
SIZE
  6
CONTINUOUS
 62
    30
 10
916.00018800000009
 20
373.44054399999999
 30
0.0
 11
787.14304500000003
 21
373.44054399999999
 31
0.0
  0
LINE
  5
3D9
  8
SIZE
  6
CONTINUOUS
 62
    30
 10
926.00018799999998
 20
373.44054399999999
 30
0.0
 11
916.00018800000009
 21
373.44054399999999
 31
0.0
  0
CIRCLE
  5
3DA
  8
SIZE
  6
CONTINUOUS
 62
    30
 10
936.00018799999998
 20
373.44054399999999
 30
0.0
 40
10.0
  0
POINT
  5
3DB
  8
DEFPOINTS
  6
CONTINUOUS
 62
     7
 10
956.33888300000001
 20
743.55797900000005
 30
0.0
  0
LINE
  5
3DC
  8
NOTE
  6
CONTINUOUS
 62
     4
 10
936.00018799999998
 20
675.55797900000005
 30
0.0
 11
908.03209600000014
 21
689.06364199999985
 31
0.0
  0
LINE
  5
3DD
  8
NOTE
  6
CONTINUOUS
 62
     4
 10
918.53194199999984
 20
701.23827199999994
 30
0.0
 11
936.00018799999998
 21
675.55797900000005
 31
0.0
  0
LINE
  5
3DE
  8
NOTE
  6
CONTINUOUS
 62
     4
 10
944.00018799999998
 20
739.55797900000005
 30
0.0
 11
916.80583300000001
 21
754.56078300000001
 31
0.0
  0
LINE
  5
3DF
  8
NOTE
  6
CONTINUOUS
 62
     4
 10
927.95058800000004
 20
766.147966
 30
0.0
 11
944.00018799999998
 21
739.55797900000005
 31
0.0
  0
POINT
  5
3E0
  8
DEFPOINTS
  6
CONTINUOUS
 62
     7
 10
936.00018799999998
 20
655.55797900000005
 30
0.0
  0
POINT
  5
3E1
  8
DEFPOINTS
  6
CONTINUOUS
 62
     7
 10
944.00018799999998
 20
759.55797900000005
 30
0.0
  0
POINT
  5
3E2
  8
DEFPOINTS
  6
CONTINUOUS
 62
     7
 10
923.99923000000001
 20
739.55797900000005
 30
0.0
  0
POINT
  5
3E3
  8
DEFPOINTS
  6
CONTINUOUS
 62
     7
 10
909.33885299999997
 20
675.55797900000005
 30
0.0
  0
POINT
  5
3E4
  8
DEFPOINTS
  6
CONTINUOUS
 62
     7
 10
909.33885299999997
 20
675.55797900000005
 30
0.0
  0
LINE
  5
3E5
  8
NOTE
  6
CONTINUOUS
 62
     4
 10
936.00018799999998
 20
655.55797900000005
 30
0.0
 11
936.00018799999998
 21
695.55797900000005
 31
0.0
  0
LINE
  5
3E6
  8
DETAIL
  6
CONTINUOUS
 62
     5
 10
936.00018799999998
 20
683.49797899999999
 30
0.0
 11
936.00018799999998
 21
667.61797899999988
 31
0.0
  0
LINE
  5
3E7
  8
NOTE
  6
CONTINUOUS
 62
     4
 10
944.00018799999998
 20
719.55797900000005
 30
0.0
 11
944.00018799999998
 21
759.55797900000005
 31
0.0
  0
LINE
  5
3E8
  8
DETAIL
  6
CONTINUOUS
 62
     5
 10
944.00018799999998
 20
744.31797900000004
 30
0.0
 11
944.00018799999998
 21
734.79797900000005
 31
0.0
  0
LINE
  5
3E9
  8
NOTE
  6
CONTINUOUS
 62
     4
 10
949.00018800000009
 20
824.55797900000005
 30
0.0
 11
924.27051599999993
 21
843.34788100000003
 31
0.0
  0
LINE
  5
3EA
  8
NOTE
  6
CONTINUOUS
 62
     4
 10
936.97861499999988
 20
853.19534799999997
 30
0.0
 11
949.00018800000009
 21
824.55797900000005
 31
0.0
  0
ARC
  5
3EB
  8
OUTLINE
  6
CONTINUOUS
 62
     3
 10
959.00018799999998
 20
817.55797900000005
 30
0.0
 40
16.0
 50
180.0
 51
270.0
  0
ARC
  5
3EC
  8
DETAIL
  6
CONTINUOUS
 62
     5
 10
959.00018799999998
 20
817.55797900000005
 30
0.0
 40
16.0
 50
180.0
 51
270.0
  0
POINT
  5
3ED
  8
DEFPOINTS
  6
CONTINUOUS
 62
     7
 10
949.00018800000009
 20
844.55797900000005
 30
0.0
  0
POINT
  5
3EE
  8
DEFPOINTS
  6
CONTINUOUS
 62
     7
 10
928.99923000000013
 20
824.55797900000005
 30
0.0
  0
LINE
  5
3EF
  8
NOTE
  6
CONTINUOUS
 62
     4
 10
949.00018800000009
 20
804.55797900000005
 30
0.0
 11
949.00018800000009
 21
844.55797900000005
 31
0.0
  0
LINE
  5
3F0
  8
DETAIL
  6
CONTINUOUS
 62
     5
 10
949.00018800000009
 20
840.55797899999993
 30
0.0
 11
949.00018800000009
 21
808.55797900000005
 31
0.0
  0
LINE
  5
3F1
  8
DETAIL
  6
CONTINUOUS
 62
     5
 10
1183.0002179999999
 20
521.55809199999987
 30
0.0
 11
1383.0002179999999
 21
521.55809199999987
 31
0.0
  0
LINE
  5
3F2
  8
DETAIL
  6
CONTINUOUS
 62
     5
 10
1185.5002179999999
 20
481.55809199999999
 30
0.0
 11
1380.5002179999999
 21
481.55809199999999
 31
0.0
  0
LINE
  5
3F3
  8
SIZE
  6
CONTINUOUS
 62
    30
 10
983.00018800000009
 20
533.55797900000005
 30
0.0
 11
983.00018800000009
 21
343.44054399999999
 31
0.0
  0
POINT
  5
3F4
  8
DEFPOINTS
  6
CONTINUOUS
 62
     7
 10
983.00018800000009
 20
373.44054399999999
 30
0.0
  0
LINE
  5
3F5
  8
SIZE
  6
CONTINUOUS
 62
    30
 10
993.00018799999998
 20
373.44054399999999
 30
0.0
 11
1003.000188
 21
373.44054399999999
 31
0.0
  0
CIRCLE
  5
3F6
  8
SIZE
  6
CONTINUOUS
 62
    30
 10
983.00018800000009
 20
373.44054399999999
 30
0.0
 40
10.0
  0
LINE
  5
3F7
  8
SIZE
  6
CONTINUOUS
 62
    30
 10
1003.000188
 20
373.44054399999999
 30
0.0
 11
1023.000188
 21
373.44054399999999
 31
0.0
  0
LINE
  5
3F8
  8
DETAIL
  6
CONTINUOUS
 62
     5
 10
1178.4873359999999
 20
529.09330499999987
 30
0.0
 11
1019.336565
 21
543.55702099999985
 31
0.0
  0
POINT
  5
3F9
  8
DEFPOINTS
  6
CONTINUOUS
 62
     7
 10
983.00018800000009
 20
551.55797900000005
 30
0.0
  0
POINT
  5
3FA
  8
DEFPOINTS
  6
CONTINUOUS
 62
     7
 10
983.00018800000009
 20
551.55797900000005
 30
0.0
  0
POINT
  5
3FB
  8
DEFPOINTS
  6
CONTINUOUS
 62
     7
 10
983.00018800000009
 20
602.78895599999998
 30
0.0
  0
POINT
  5
3FC
  8
DEFPOINTS
  6
CONTINUOUS
 62
     7
 10
983.00018800000009
 20
602.55978600000003
 30
0.0
  0
POINT
  5
3FD
  8
DEFPOINTS
  6
CONTINUOUS
 62
     7
 10
983.00018800000009
 20
551.55797900000005
 30
0.0
  0
POINT
  5
3FE
  8
DEFPOINTS
  6
CONTINUOUS
 62
     7
 10
983.00018800000009
 20
551.55797900000005
 30
0.0
  0
POINT
  5
3FF
  8
DEFPOINTS
  6
CONTINUOUS
 62
     7
 10
967.00018799999998
 20
556.05444599999998
 30
0.0
  0
POINT
  5
400
  8
DEFPOINTS
  6
CONTINUOUS
 62
     7
 10
983.00018800000009
 20
551.55797900000005
 30
0.0
  0
POINT
  5
401
  8
DEFPOINTS
  6
CONTINUOUS
 62
     7
 10
967.00018799999998
 20
556.05444599999998
 30
0.0
  0
POINT
  5
402
  8
DEFPOINTS
  6
CONTINUOUS
 62
     7
 10
967.00018799999998
 20
556.05444599999998
 30
0.0
  0
POINT
  5
403
  8
DEFPOINTS
  6
CONTINUOUS
 62
     7
 10
990.00018800000009
 20
565.55797900000005
 30
0.0
  0
POINT
  5
404
  8
DEFPOINTS
  6
CONTINUOUS
 62
     7
 10
983.00018800000009
 20
551.55797900000005
 30
0.0
  0
POINT
  5
405
  8
DEFPOINTS
  6
CONTINUOUS
 62
     7
 10
983.00018800000009
 20
551.55797900000005
 30
0.0
  0
POINT
  5
406
  8
DEFPOINTS
  6
CONTINUOUS
 62
     7
 10
983.00018800000009
 20
551.55797900000005
 30
0.0
  0
POINT
  5
407
  8
DEFPOINTS
  6
CONTINUOUS
 62
     7
 10
990.00018800000009
 20
565.55797900000005
 30
0.0
  0
ARC
  5
408
  8
DETAIL
  6
CONTINUOUS
 62
     5
 10
985.00018799999998
 20
602.55978600000003
 30
0.0
 40
2.0
 50
180.0
 51
270.0
  0
ARC
  5
409
  8
DETAIL
  6
CONTINUOUS
 62
     5
 10
985.00018799999998
 20
568.55619300000001
 30
0.0
 40
2.0
 50
90.0
 51
180.0
  0
CIRCLE
  5
40A
  8
FIX
  6
CONTINUOUS
 62
    11
 10
990.00018800000009
 20
585.55797900000005
 30
0.0
 40
18.598564
  0
LINE
  5
40B
  8
NOTE
  6
CONTINUOUS
 62
     4
 10
969.99923000000013
 20
585.55797900000005
 30
0.0
 11
1010.0011459999999
 21
585.55797900000005
 31
0.0
  0
LINE
  5
40C
  8
NOTE
  6
CONTINUOUS
 62
     4
 10
990.00018800000009
 20
565.55797900000005
 30
0.0
 11
990.00018800000009
 21
605.55797900000005
 31
0.0
  0
LINE
  5
40D
  8
DETAIL
  6
CONTINUOUS
 62
     5
 10
983.00018800000009
 20
551.55797900000005
 30
0.0
 11
983.00018800000009
 21
568.55619300000001
 31
0.0
  0
LINE
  5
40E
  8
DETAIL
  6
CONTINUOUS
 62
     5
 10
996.80100199999993
 20
570.55619300000001
 30
0.0
 11
996.80100199999993
 21
600.55978600000003
 31
0.0
  0
LINE
  5
40F
  8
DETAIL
  6
CONTINUOUS
 62
     5
 10
985.00018799999998
 20
600.55978600000003
 30
0.0
 11
996.80100199999993
 21
600.55978600000003
 31
0.0
  0
LINE
  5
410
  8
DETAIL
  6
CONTINUOUS
 62
     5
 10
985.00018799999998
 20
570.55619300000001
 30
0.0
 11
996.80100199999993
 21
570.55619300000001
 31
0.0
  0
LINE
  5
411
  8
DETAIL
  6
CONTINUOUS
 62
     5
 10
983.00018800000009
 20
615.06151199999999
 30
0.0
 11
967.00018799999998
 21
615.06151199999999
 31
0.0
  0
LINE
  5
412
  8
DETAIL
  6
CONTINUOUS
 62
     5
 10
983.00018800000009
 20
556.05444599999998
 30
0.0
 11
967.00018799999998
 21
556.05444599999998
 31
0.0
  0
LINE
  5
413
  8
DETAIL
  6
CONTINUOUS
 62
     5
 10
997.00102600000002
 20
577.55702099999985
 30
0.0
 11
997.00102600000002
 21
593.55893700000001
 31
0.0
  0
LINE
  5
414
  8
DETAIL
  6
CONTINUOUS
 62
     5
 10
982.99935000000005
 20
579.55725999999981
 30
0.0
 11
967.00018799999998
 21
579.55725999999981
 31
0.0
  0
LINE
  5
415
  8
DETAIL
  6
CONTINUOUS
 62
     5
 10
982.99935000000005
 20
591.55869800000005
 30
0.0
 11
967.00018799999998
 21
591.55869800000005
 31
0.0
  0
LINE
  5
416
  8
DETAIL
  6
CONTINUOUS
 62
     5
 10
967.00018799999998
 20
556.05444599999998
 30
0.0
 11
967.00018799999998
 21
579.55725999999981
 31
0.0
  0
LINE
  5
417
  8
DETAIL
  6
CONTINUOUS
 62
     5
 10
982.99935000000005
 20
591.55869800000005
 30
0.0
 11
982.99935000000005
 21
593.55893700000001
 31
0.0
  0
ARC
  5
418
  8
DETAIL
  6
CONTINUOUS
 62
     5
 10
990.00018800000009
 20
577.55702099999985
 30
0.0
 40
7.0008379999999999
 50
180.0
 51
0.0
  0
ARC
  5
419
  8
DETAIL
  6
CONTINUOUS
 62
     5
 10
990.00018800000009
 20
593.55893700000001
 30
0.0
 40
7.0008379999999999
 50
0.0
 51
180.0
  0
LINE
  5
41A
  8
DETAIL
  6
CONTINUOUS
 62
     5
 10
982.99935000000005
 20
577.55702099999985
 30
0.0
 11
982.99935000000005
 21
579.55725999999981
 31
0.0
  0
LINE
  5
41B
  8
DETAIL
  6
CONTINUOUS
 62
     5
 10
967.00018799999998
 20
591.55869800000005
 30
0.0
 11
967.00018799999998
 21
615.06151199999999
 31
0.0
  0
ARC
  5
41C
  8
DETAIL
  6
CONTINUOUS
 62
     5
 10
1013.3358459999999
 20
549.55773899999997
 30
0.0
 40
2.0002399999999998
 50
0.0
 51
90.0
  0
ARC
  5
41D
  8
DETAIL
  6
CONTINUOUS
 62
     5
 10
1019.336565
 20
547.5575
 30
0.0
 40
4.0004790000000003
 50
180.0
 51
270.0
  0
LINE
  5
41E
  8
DETAIL
  6
CONTINUOUS
 62
     5
 10
1015.336086
 20
549.55773899999997
 30
0.0
 11
1015.336086
 21
547.5575
 31
0.0
  0
LINE
  5
41F
  8
DETAIL
  6
CONTINUOUS
 62
     5
 10
1185.5002179999999
 20
481.55809199999999
 30
0.0
 11
1182.8265280000001
 21
524.44311300000004
 31
0.0
  0
POINT
  5
420
  8
DEFPOINTS
  6
CONTINUOUS
 62
     7
 10
1185.500188
 20
481.55797899999999
 30
0.0
  0
ARC
  5
421
  8
DETAIL
  6
CONTINUOUS
 62
     5
 10
1177.999589
 20
524.11654999999996
 30
0.0
 40
5.0005990000000002
 50
0.0
 51
84.402604999999994
  0
LINE
  5
422
  8
DETAIL
  6
CONTINUOUS
 62
     5
 10
1183.000188
 20
523.65042500000004
 30
0.0
 11
1183.000188
 21
524.11654999999996
 31
0.0
  0
LINE
  5
423
  8
NOTE
  6
CONTINUOUS
 62
     4
 10
1283.000188
 20
553.50249399999996
 30
0.0
 11
1283.000188
 21
409.61346400000002
 31
0.0
  0
LINE
  5
424
  8
SIZE
  6
CONTINUOUS
 62
    30
 10
1293.000188
 20
354.615295
 30
0.0
 11
1303.000188
 21
354.615295
 31
0.0
  0
POINT
  5
425
  8
DEFPOINTS
  6
CONTINUOUS
 62
     7
 10
1283.000188
 20
409.61346400000002
 30
0.0
  0
CIRCLE
  5
426
  8
SIZE
  6
CONTINUOUS
 62
    30
 10
1283.000188
 20
354.615295
 30
0.0
 40
10.0
  0
LINE
  5
427
  8
NOTE
  6
CONTINUOUS
 62
     4
 10
1211.0556730000001
 20
481.55797899999999
 30
0.0
 11
1354.9447029999999
 21
481.55797899999999
 31
0.0
  0
ARC
  5
428
  8
DETAIL
  6
CONTINUOUS
 62
     5
 10
1384.9315260000001
 20
520.39658199999997
 30
0.0
 40
2.0
 50
121.227886
 51
176.423666
  0
ARC
  5
429
  8
DETAIL
  6
CONTINUOUS
 62
     5
 10
1384.9315260000001
 20
520.39658199999997
 30
0.0
 40
2.0
 50
121.227886
 51
176.423666
  0
LINE
  5
42A
  8
DETAIL
  6
CONTINUOUS
 62
     5
 10
1380.5002179999999
 20
481.55809199999999
 30
0.0
 11
1382.9354209999999
 21
520.52133800000001
 31
0.0
  0
LINE
  5
42B
  8
NOTE
  6
CONTINUOUS
 62
     4
 10
969.92325800000003
 20
771.72906699999987
 30
0.0
 11
983.00021800000013
 21
743.55797900000005
 31
0.0
  0
LINE
  5
42C
  8
NOTE
  6
CONTINUOUS
 62
     4
 10
605.43329699999992
 20
1178.49513
 30
0.0
 11
170.50249700000001
 21
1178.49513
 31
0.0
  0
TEXT
  5
42D
  8
NOTE
  6
CONTINUOUS
 62
     4
 10
192.17776900000001
 20
1194.3216609999999
 30
0.0
 40
60.0
  1
D2（自然排水口）
 50
0.000003
 41
0.7
  7
STANDARD1
  0
LINE
  5
42E
  8
SIZE
  6
CONTINUOUS
 62
    30
 10
965.00018800000009
 20
1326.5579789999999
 30
0.0
 11
99.146866000000017
 21
1326.5579789999999
 31
0.0
  0
TEXT
  5
42F
  8
NOTE
  6
CONTINUOUS
 62
     4
 10
259.83045099999998
 20
1389.4462619999999
 30
0.0
 40
60.0
  1
RD VP25
 50
0.000003
 41
0.7
  7
STANDARD1
  0
LINE
  5
430
  8
NOTE
  6
CONTINUOUS
 62
     4
 10
536.71322099999998
 20
1373.6197320000001
 30
0.0
 11
238.155179
 21
1373.6197320000001
 31
0.0
  0
LINE
  5
431
  8
NOTE
  6
CONTINUOUS
 62
     4
 10
536.71322099999998
 20
1373.6197320000001
 30
0.0
 11
238.155179
 21
1373.6197320000001
 31
0.0
  0
TEXT
  5
432
  8
ETC
  6
CONTINUOUS
 62
    61
 10
0.000011
 20
1821.6734240000001
 30
0.0
 40
65.0
  1
MPD-RP112_160FA3_1
 50
0.000003
 41
0.85
  7
STANDARD1
  0
LINE
  5
433
  8
NOTE
  6
CONTINUOUS
 62
     4
 10
605.43329699999992
 20
1057.7219230000001
 30
0.0
 11
262.56943699999999
 21
1057.7219230000001
 31
0.0
  0
TEXT
  5
434
  8
NOTE
  6
CONTINUOUS
 62
     4
 10
284.244709
 20
1073.548454
 30
0.0
 40
60.0
  1
RL %%C9.52
 50
0.000003
 41
0.7
  7
STANDARD1
  0
LINE
  5
435
  8
NOTE
  6
CONTINUOUS
 62
     4
 10
596.24859000000004
 20
951.76413200000002
 30
0.0
 11
224.45178999999999
 21
951.76413200000002
 31
0.0
  0
TEXT
  5
436
  8
NOTE
  6
CONTINUOUS
 62
     4
 10
246.127062
 20
967.59066199999995
 30
0.0
 40
60.0
  1
RG %%C15.88
 50
0.000003
 41
0.7
  7
STANDARD1
  0
POINT
  5
437
  8
DEFPOINTS
  6
CONTINUOUS
 62
     7
 10
129.14686599999999
 20
1326.5579789999999
 30
0.0
  0
LINE
  5
438
  8
SIZE
  6
CONTINUOUS
 62
    30
 10
129.14686599999999
 20
1316.5579789999999
 30
0.0
 11
129.14686599999999
 21
1306.5579789999999
 31
0.0
  0
CIRCLE
  5
439
  8
SIZE
  6
CONTINUOUS
 62
    30
 10
129.14686599999999
 20
1326.5579789999999
 30
0.0
 40
10.0
  0
LINE
  5
43A
  8
SIZE
  6
CONTINUOUS
 62
    30
 10
943.00019899999995
 20
1403.55799
 30
0.0
 11
943.00019899999995
 21
1596.978818
 31
0.0
  0
LINE
  5
43B
  8
SIZE
  6
CONTINUOUS
 62
    30
 10
963.00019899999995
 20
1402.55799
 30
0.0
 11
963.00019899999995
 21
1596.978818
 31
0.0
  0
LINE
  5
43C
  8
SIZE
  6
CONTINUOUS
 62
    30
 10
963.00019899999995
 20
1402.55799
 30
0.0
 11
963.00019899999995
 21
1596.978818
 31
0.0
  0
LINE
  5
43D
  8
SIZE
  6
CONTINUOUS
 62
    30
 10
943.00018799999998
 20
1403.5579789999999
 30
0.0
 11
943.00018799999998
 21
1701.207989
 31
0.0
  0
LINE
  5
43E
  8
SIZE
  6
CONTINUOUS
 62
    30
 10
983.00018800000009
 20
1132.2670350000001
 30
0.0
 11
944.00018799999998
 21
1132.2670350000001
 31
0.0
  0
LINE
  5
43F
  8
SIZE
  6
CONTINUOUS
 62
    30
 10
983.00018800000009
 20
1044.241004
 30
0.0
 11
949.00018800000009
 21
1044.241004
 31
0.0
  0
TEXT
  5
440
  8
SIZE
  6
CONTINUOUS
 62
    30
 10
816.00018800000009
 20
1062.241004
 30
0.0
 40
50.0
  1
34
 41
0.9
 72
     1
 11
853.50018800000009
 21
1062.241004
 31
0.0
  0
LINE
  5
441
  8
SIZE
  6
CONTINUOUS
 62
    30
 10
929.00018800000009
 20
1044.241004
 30
0.0
 11
798.00018799999987
 21
1044.241004
 31
0.0
  0
LINE
  5
442
  8
SIZE
  6
CONTINUOUS
 62
    30
 10
939.00018800000009
 20
1044.241004
 30
0.0
 11
929.00018800000009
 21
1044.241004
 31
0.0
  0
CIRCLE
  5
443
  8
SIZE
  6
CONTINUOUS
 62
    30
 10
949.00018800000009
 20
1044.241004
 30
0.0
 40
10.0
  0
TEXT
  5
444
  8
SIZE
  6
CONTINUOUS
 62
    30
 10
815.28590214285703
 20
1150.2670350000001
 30
0.0
 40
50.0
  1
39
 41
0.9
 72
     1
 11
850.64304499999992
 21
1150.2670350000001
 31
0.0
  0
LINE
  5
445
  8
SIZE
  6
CONTINUOUS
 62
    30
 10
924.00018800000009
 20
1132.2670350000001
 30
0.0
 11
797.28590199999985
 21
1132.2670350000001
 31
0.0
  0
LINE
  5
446
  8
SIZE
  6
CONTINUOUS
 62
    30
 10
934.00018799999998
 20
1132.2670350000001
 30
0.0
 11
924.00018800000009
 21
1132.2670350000001
 31
0.0
  0
CIRCLE
  5
447
  8
SIZE
  6
CONTINUOUS
 62
    30
 10
944.00018799999998
 20
1132.2670350000001
 30
0.0
 40
10.0
  0
ARC
  5
448
  8
OUTLINE
  6
CONTINUOUS
 62
     3
 10
959.00018799999998
 20
1385.5579789999999
 30
0.0
 40
16.0
 50
90.0
 51
180.0
  0
ARC
  5
449
  8
DETAIL
  6
CONTINUOUS
 62
     5
 10
959.00018799999998
 20
1385.5579789999999
 30
0.0
 40
16.0
 50
90.0
 51
180.0
  0
POINT
  5
44A
  8
DEFPOINTS
  6
CONTINUOUS
 62
     7
 10
943.00019899999995
 20
1385.55799
 30
0.0
  0
POINT
  5
44B
  8
DEFPOINTS
  6
CONTINUOUS
 62
     7
 10
943.00018799999998
 20
1385.5579789999999
 30
0.0
  0
POINT
  5
44C
  8
DEFPOINTS
  6
CONTINUOUS
 62
     7
 10
983.00018800000009
 20
1044.241004
 30
0.0
  0
LINE
  5
44D
  8
SIZE
  6
CONTINUOUS
 62
    30
 10
993.00018799999998
 20
1044.241004
 30
0.0
 11
1003.000188
 21
1044.241004
 31
0.0
  0
CIRCLE
  5
44E
  8
SIZE
  6
CONTINUOUS
 62
    30
 10
983.00018800000009
 20
1044.241004
 30
0.0
 40
10.0
  0
LINE
  5
44F
  8
SIZE
  6
CONTINUOUS
 62
    30
 10
1003.000188
 20
1044.241004
 30
0.0
 11
1023.000188
 21
1044.241004
 31
0.0
  0
POINT
  5
450
  8
DEFPOINTS
  6
CONTINUOUS
 62
     7
 10
983.00018800000009
 20
1132.2670350000001
 30
0.0
  0
LINE
  5
451
  8
SIZE
  6
CONTINUOUS
 62
    30
 10
993.00018799999998
 20
1132.2670350000001
 30
0.0
 11
1003.000188
 21
1132.2670350000001
 31
0.0
  0
CIRCLE
  5
452
  8
SIZE
  6
CONTINUOUS
 62
    30
 10
983.00018800000009
 20
1132.2670350000001
 30
0.0
 40
10.0
  0
LINE
  5
453
  8
SIZE
  6
CONTINUOUS
 62
    30
 10
1003.000188
 20
1132.2670350000001
 30
0.0
 11
1023.000188
 21
1132.2670350000001
 31
0.0
  0
POINT
  5
454
  8
DEFPOINTS
  6
CONTINUOUS
 62
     7
 10
963.00019899999995
 20
1384.55799
 30
0.0
  0
POINT
  5
455
  8
DEFPOINTS
  6
CONTINUOUS
 62
     7
 10
963.00019899999995
 20
1384.55799
 30
0.0
  0
POINT
  5
456
  8
DEFPOINTS
  6
CONTINUOUS
 62
     7
 10
983.00018800000009
 20
1326.5579789999999
 30
0.0
  0
ARC
  5
457
  8
DETAIL
  6
CONTINUOUS
 62
     5
 10
985.00018799999998
 20
1278.5561829999999
 30
0.0
 40
2.0
 50
90.0
 51
180.0
  0
ARC
  5
458
  8
DETAIL
  6
CONTINUOUS
 62
     5
 10
985.00018799999998
 20
1312.5597749999999
 30
0.0
 40
2.0
 50
180.0
 51
270.0
  0
CIRCLE
  5
459
  8
FIX
  6
CONTINUOUS
 62
    11
 10
990.00018800000009
 20
1295.5579789999999
 30
0.0
 40
18.598564
  0
LINE
  5
45A
  8
NOTE
  6
CONTINUOUS
 62
     4
 10
990.00018800000009
 20
1275.5579789999999
 30
0.0
 11
990.00018800000009
 21
1315.5579789999999
 31
0.0
  0
LINE
  5
45B
  8
NOTE
  6
CONTINUOUS
 62
     4
 10
969.86777599999982
 20
1295.5579789999999
 30
0.0
 11
1010.0011459999999
 21
1295.5579789999999
 31
0.0
  0
LINE
  5
45C
  8
DETAIL
  6
CONTINUOUS
 62
     5
 10
983.00018800000009
 20
1312.5597749999999
 30
0.0
 11
983.00018800000009
 21
1325.757883
 31
0.0
  0
LINE
  5
45D
  8
DETAIL
  6
CONTINUOUS
 62
     5
 10
996.86765600000001
 20
1280.5561829999999
 30
0.0
 11
996.86765600000001
 21
1310.5597749999999
 31
0.0
  0
LINE
  5
45E
  8
DETAIL
  6
CONTINUOUS
 62
     5
 10
985.00018799999998
 20
1280.5561829999999
 30
0.0
 11
996.86765600000001
 21
1280.5561829999999
 31
0.0
  0
LINE
  5
45F
  8
DETAIL
  6
CONTINUOUS
 62
     5
 10
985.00018799999998
 20
1310.5597749999999
 30
0.0
 11
996.86765600000001
 21
1310.5597749999999
 31
0.0
  0
LINE
  5
460
  8
DETAIL
  6
CONTINUOUS
 62
     5
 10
983.00018800000009
 20
1324.757979
 30
0.0
 11
967.00018799999998
 21
1324.757979
 31
0.0
  0
LINE
  5
461
  8
DETAIL
  6
CONTINUOUS
 62
     5
 10
983.00018800000009
 20
1266.3579789999999
 30
0.0
 11
967.00018799999998
 21
1266.3579789999999
 31
0.0
  0
LINE
  5
462
  8
DETAIL
  6
CONTINUOUS
 62
     5
 10
997.00102600000002
 20
1303.558867
 30
0.0
 11
997.00102600000002
 21
1287.5570909999999
 31
0.0
  0
LINE
  5
463
  8
DETAIL
  6
CONTINUOUS
 62
     5
 10
967.00018799999998
 20
1289.5579789999999
 30
0.0
 11
967.00018799999998
 21
1266.3579789999999
 31
0.0
  0
LINE
  5
464
  8
DETAIL
  6
CONTINUOUS
 62
     5
 10
982.99935000000005
 20
1301.5579789999999
 30
0.0
 11
967.00018799999998
 21
1301.5579789999999
 31
0.0
  0
LINE
  5
465
  8
DETAIL
  6
CONTINUOUS
 62
     5
 10
982.99935000000005
 20
1289.5579789999999
 30
0.0
 11
967.00018799999998
 21
1289.5579789999999
 31
0.0
  0
LINE
  5
466
  8
DETAIL
  6
CONTINUOUS
 62
     5
 10
967.00018799999998
 20
1324.757979
 30
0.0
 11
967.00018799999998
 21
1301.5579789999999
 31
0.0
  0
LINE
  5
467
  8
DETAIL
  6
CONTINUOUS
 62
     5
 10
982.99935000000005
 20
1289.5579789999999
 30
0.0
 11
982.99935000000005
 21
1287.5570210000001
 31
0.0
  0
ARC
  5
468
  8
DETAIL
  6
CONTINUOUS
 62
     5
 10
990.00018800000009
 20
1303.558937
 30
0.0
 40
7.0008379999999999
 50
359.99943000000002
 51
180.0
  0
ARC
  5
469
  8
DETAIL
  6
CONTINUOUS
 62
     5
 10
990.00018800000009
 20
1287.5570210000001
 30
0.0
 40
7.0008379999999999
 50
180.0
 51
0.00057
  0
LINE
  5
46A
  8
DETAIL
  6
CONTINUOUS
 62
     5
 10
982.99935000000005
 20
1303.558937
 30
0.0
 11
982.99935000000005
 21
1301.5579789999999
 31
0.0
  0
LINE
  5
46B
  8
DETAIL
  6
CONTINUOUS
 62
     5
 10
1013.3358459999999
 20
1312.556302
 30
0.0
 11
1016.3362049999999
 21
1309.5559430000001
 31
0.0
  0
LINE
  5
46C
  8
DETAIL
  6
CONTINUOUS
 62
     5
 10
1013.3358459999999
 20
1312.556302
 30
0.0
 11
1013.3358459999999
 21
1326.5579789999999
 31
0.0
  0
LINE
  5
46D
  8
DETAIL
  6
CONTINUOUS
 62
     5
 10
983.00018800000009
 20
1326.5579789999999
 30
0.0
 11
983.00018800000009
 21
1325.757883
 31
0.0
  0
LINE
  5
46E
  8
DETAIL
  6
CONTINUOUS
 62
     5
 10
1013.3358459999999
 20
1325.757883
 30
0.0
 11
983.00018800000009
 21
1325.757883
 31
0.0
  0
CIRCLE
  5
46F
  8
SIZE
  6
CONTINUOUS
 62
    30
 10
963.00019899999995
 20
1566.978818
 30
0.0
 40
10.0
  0
LINE
  5
470
  8
SIZE
  6
CONTINUOUS
 62
    30
 10
963.00019899999995
 20
1566.978818
 30
0.0
 11
943.00019899999995
 21
1566.978818
 31
0.0
  0
CIRCLE
  5
471
  8
SIZE
  6
CONTINUOUS
 62
    30
 10
963.00019899999995
 20
1566.978818
 30
0.0
 40
10.0
  0
LINE
  5
472
  8
SIZE
  6
CONTINUOUS
 62
    30
 10
953.00018799999998
 20
1671.207989
 30
0.0
 11
963.00018800000009
 21
1671.207989
 31
0.0
  0
TEXT
  5
473
  8
SIZE
  6
CONTINUOUS
 62
    30
 10
812.14305657142836
 20
1584.978818
 30
0.0
 40
50.0
  1
20
 41
0.9
 72
     1
 11
848.57162800000003
 21
1584.978818
 31
0.0
  0
LINE
  5
474
  8
SIZE
  6
CONTINUOUS
 62
    30
 10
923.00019900000007
 20
1566.978818
 30
0.0
 11
794.143056
 21
1566.978818
 31
0.0
  0
POINT
  5
475
  8
DEFPOINTS
  6
CONTINUOUS
 62
     7
 10
943.00019899999995
 20
1566.978818
 30
0.0
  0
LINE
  5
476
  8
SIZE
  6
CONTINUOUS
 62
    30
 10
933.00019900000007
 20
1566.978818
 30
0.0
 11
923.00019900000007
 21
1566.978818
 31
0.0
  0
CIRCLE
  5
477
  8
SIZE
  6
CONTINUOUS
 62
    30
 10
943.00019899999995
 20
1566.978818
 30
0.0
 40
10.0
  0
POINT
  5
478
  8
DEFPOINTS
  6
CONTINUOUS
 62
     7
 10
943.00018799999998
 20
1671.207989
 30
0.0
  0
CIRCLE
  5
479
  8
SIZE
  6
CONTINUOUS
 62
    30
 10
943.00018799999998
 20
1671.207989
 30
0.0
 40
10.0
  0
LINE
  5
47A
  8
SIZE
  6
CONTINUOUS
 62
    30
 10
973.00019900000007
 20
1566.978818
 30
0.0
 11
983.00019900000007
 21
1566.978818
 31
0.0
  0
LINE
  5
47B
  8
SIZE
  6
CONTINUOUS
 62
    30
 10
983.00019900000007
 20
1566.978818
 30
0.0
 11
1003.000199
 21
1566.978818
 31
0.0
  0
POINT
  5
47C
  8
DEFPOINTS
  6
CONTINUOUS
 62
     7
 10
963.00019899999995
 20
1566.978818
 30
0.0
  0
LINE
  5
47D
  8
SIZE
  6
CONTINUOUS
 62
    30
 10
973.00019900000007
 20
1566.978818
 30
0.0
 11
983.00019900000007
 21
1566.978818
 31
0.0
  0
CIRCLE
  5
47E
  8
ARRANGE
  6
CONTINUOUS
 62
     1
 10
1738.000188
 20
939.05797900000005
 30
0.0
 40
50.0
  0
LINE
  5
47F
  8
BASIS
  6
DASHDOT
 62
     6
 10
1738.000188
 20
1416.4478300000001
 30
0.0
 11
1738.000188
 21
470.66812800000002
 31
0.0
  0
TEXT
  5
480
  8
SIZE
  6
CONTINUOUS
 62
    30
 10
2914.6970209999999
 20
810.13941199999999
 30
0.0
 40
50.0
  1
(吊りボルトピッチ)
 50
90.0
 41
0.9
 72
     1
 11
2914.6970209999999
 21
1048.639412
 31
0.0
  0
TEXT
  5
481
  8
SIZE
  6
CONTINUOUS
 62
    30
 10
2986.3304229999999
 20
850.08608957142837
 30
0.0
 40
55.0
  1
710
 50
90.0
 41
0.9
 72
     1
 11
2986.3304229999999
 21
909.01466099999993
 31
0.0
  0
LINE
  5
482
  8
SIZE
  6
CONTINUOUS
 62
    30
 10
3007.8262789999999
 20
1275.5579789999999
 30
0.0
 11
3007.8262789999999
 21
605.55797900000005
 31
0.0
  0
TEXT
  5
483
  8
SIZE
  6
CONTINUOUS
 62
    30
 10
3146.635491
 20
854.91975171428589
 30
0.0
 40
50.0
  1
566（天井開口寸法）
 50
90.0
 41
0.9
 72
     1
 11
3146.635491
 21
1117.2054659999999
 31
0.0
  0
LINE
  5
484
  8
SIZE
  6
CONTINUOUS
 62
    30
 10
3164.635491
 20
1364.55799
 30
0.0
 11
3164.635491
 21
838.5579899999999
 31
0.0
  0
LINE
  5
485
  8
SERVICESPACE
  6
CONTINUOUS
 62
     2
 10
2513.000188
 20
1384.5579789999999
 30
0.0
 11
2513.000188
 21
818.55797900000005
 31
0.0
  0
LINE
  5
486
  8
OUTLINE
  6
CONTINUOUS
 62
     3
 10
2493.000188
 20
551.55797900000005
 30
0.0
 11
2493.000188
 21
1326.5579789999999
 31
0.0
  0
LINE
  5
487
  8
OUTLINE
  6
CONTINUOUS
 62
     3
 10
2533.000188
 20
1385.5579789999999
 30
0.0
 11
2533.000188
 21
817.55797900000005
 31
0.0
  0
LINE
  5
488
  8
DETAIL
  6
CONTINUOUS
 62
     5
 10
2533.000188
 20
1385.5579789999999
 30
0.0
 11
2533.000188
 21
817.55797900000005
 31
0.0
  0
LINE
  5
489
  8
ARRANGE
  6
CONTINUOUS
 62
     1
 10
1787.963951
 20
988.65457400000003
 30
0.0
 11
1688.036425
 21
889.46138399999995
 31
0.0
  0
LINE
  5
48A
  8
ARRANGE
  6
CONTINUOUS
 62
     1
 10
1788.037538
 20
889.53562599999987
 30
0.0
 11
1687.9628379999999
 21
988.580332
 31
0.0
  0
LINE
  5
48B
  8
DETAIL
  6
CONTINUOUS
 62
     5
 10
2493.000188
 20
602.560025
 30
0.0
 11
2493.000188
 21
1278.5458470000001
 31
0.0
  0
TEXT
  5
48C
  8
NOTE
  6
CONTINUOUS
 62
     4
 10
1831.516918
 20
699.59141499999987
 30
0.0
 40
60.0
  1
%%C200 吹出円形フランジ
 50
0.000003
 41
0.7
  7
STANDARD1
  0
LINE
  5
48D
  8
NOTE
  6
CONTINUOUS
 62
     4
 10
2409.4606100000001
 20
684.79574799999989
 30
0.0
 11
1815.1421760000001
 21
684.79574799999989
 31
0.0
  0
LINE
  5
48E
  8
DETAIL
  6
CONTINUOUS
 62
     5
 10
2340.5002180000001
 20
481.55809199999999
 30
0.0
 11
2145.5002180000001
 21
481.55809199999999
 31
0.0
  0
LINE
  5
48F
  8
DETAIL
  6
CONTINUOUS
 62
     5
 10
2143.0002180000001
 20
521.55809199999987
 30
0.0
 11
2343.0002180000001
 21
521.55809199999987
 31
0.0
  0
LINE
  5
490
  8
NOTE
  6
CONTINUOUS
 62
     4
 10
2171.0556729999998
 20
481.55797899999999
 30
0.0
 11
2314.9447030000001
 21
481.55797899999999
 31
0.0
  0
LINE
  5
491
  8
SIZE
  6
CONTINUOUS
 62
    30
 10
2263.000188
 20
354.615295
 30
0.0
 11
2473.000188
 21
354.615295
 31
0.0
  0
LINE
  5
492
  8
SIZE
  6
CONTINUOUS
 62
    30
 10
2243.000188
 20
391.61346400000002
 30
0.0
 11
2243.000188
 21
324.615295
 31
0.0
  0
LINE
  5
493
  8
SIZE
  6
CONTINUOUS
 62
    30
 10
2243.000188
 20
391.61346400000002
 30
0.0
 11
2243.000188
 21
324.615295
 31
0.0
  0
LINE
  5
494
  8
SIZE
  6
CONTINUOUS
 62
    30
 10
1923.000188
 20
391.61346400000002
 30
0.0
 11
1923.000188
 21
324.615295
 31
0.0
  0
LINE
  5
495
  8
SIZE
  6
CONTINUOUS
 62
    30
 10
1923.000188
 20
391.61346400000002
 30
0.0
 11
1923.000188
 21
324.615295
 31
0.0
  0
LINE
  5
496
  8
SIZE
  6
CONTINUOUS
 62
    30
 10
1603.000188
 20
391.61346400000002
 30
0.0
 11
1603.000188
 21
324.615295
 31
0.0
  0
LINE
  5
497
  8
SIZE
  6
CONTINUOUS
 62
    30
 10
1603.000188
 20
391.61346400000002
 30
0.0
 11
1603.000188
 21
324.615295
 31
0.0
  0
TEXT
  5
498
  8
SIZE
  6
CONTINUOUS
 62
    30
 10
1418.071616571428
 20
255.46931900000001
 30
0.0
 40
50.0
  1
1496(吊りボルトピッチ)
 41
0.9
 72
     1
 11
1738.000188
 21
255.46931900000001
 31
0.0
  0
TEXT
  5
499
  8
SIZE
  6
CONTINUOUS
 62
    30
 10
1667.285902285714
 20
147.49455
 30
0.0
 40
50.0
  1
1510
 41
0.9
 72
     1
 11
1738.000188
 21
147.49455
 31
0.0
  0
TEXT
  5
49A
  8
SIZE
  6
CONTINUOUS
 62
    30
 10
1663.000188
 20
47.999994999999998
 30
0.0
 40
50.0
  1
1542
 41
0.9
 72
     1
 11
1738.000188
 21
47.999994999999998
 31
0.0
  0
LINE
  5
49B
  8
DETAIL
  6
CONTINUOUS
 62
     5
 10
1823.0002179999999
 20
521.55809199999987
 30
0.0
 11
2023.0002179999999
 21
521.55809199999987
 31
0.0
  0
LINE
  5
49C
  8
DETAIL
  6
CONTINUOUS
 62
     5
 10
1825.5002179999999
 20
481.55809199999999
 30
0.0
 11
2020.5002179999999
 21
481.55809199999999
 31
0.0
  0
LINE
  5
49D
  8
SIZE
  6
CONTINUOUS
 62
    30
 10
1623.000188
 20
354.615295
 30
0.0
 11
1903.000188
 21
354.615295
 31
0.0
  0
LINE
  5
49E
  8
NOTE
  6
CONTINUOUS
 62
     4
 10
1851.0556730000001
 20
481.55797899999999
 30
0.0
 11
1994.9447029999999
 21
481.55797899999999
 31
0.0
  0
POLYLINE
  5
49F
  8
NOTE
  6
CONTINUOUS
 62
     4
 66
     1
 10
0.0
 20
0.0
 30
0.0
  0
VERTEX
  5
A03
  8
NOTE
  6
CONTINUOUS
 62
     4
 10
1603.000188
 20
481.55797899999999
 30
0.0
  0
VERTEX
  5
A04
  8
NOTE
  6
CONTINUOUS
 62
     4
 10
1815.1421760000001
 20
684.79574799999989
 30
0.0
  0
SEQEND
  5
A05
  8
NOTE
  6
CONTINUOUS
 62
     4
  0
LINE
  5
4A3
  8
DETAIL
  6
CONTINUOUS
 62
     5
 10
1505.5002179999999
 20
481.55809199999999
 30
0.0
 11
1700.5002179999999
 21
481.55809199999999
 31
0.0
  0
LINE
  5
4A4
  8
DETAIL
  6
CONTINUOUS
 62
     5
 10
1503.0002179999999
 20
521.55809199999987
 30
0.0
 11
1703.0002179999999
 21
521.55809199999987
 31
0.0
  0
LINE
  5
4A5
  8
NOTE
  6
CONTINUOUS
 62
     4
 10
1531.0556730000001
 20
481.55797899999999
 30
0.0
 11
1674.9447029999999
 21
481.55797899999999
 31
0.0
  0
LINE
  5
4A6
  8
NOTE
  6
CONTINUOUS
 62
     4
 10
1603.000188
 20
553.50249399999996
 30
0.0
 11
1603.000188
 21
409.61346400000002
 31
0.0
  0
POINT
  5
4A7
  8
DEFPOINTS
  6
CONTINUOUS
 62
     7
 10
1603.000188
 20
409.61346400000002
 30
0.0
  0
LINE
  5
4A8
  8
SIZE
  6
CONTINUOUS
 62
    30
 10
1613.000188
 20
354.615295
 30
0.0
 11
1623.000188
 21
354.615295
 31
0.0
  0
CIRCLE
  5
4A9
  8
SIZE
  6
CONTINUOUS
 62
    30
 10
1603.000188
 20
354.615295
 30
0.0
 40
10.0
  0
POINT
  5
4AA
  8
DEFPOINTS
  6
CONTINUOUS
 62
     7
 10
1603.000188
 20
354.615295
 30
0.0
  0
POINT
  5
4AB
  8
DEFPOINTS
  6
CONTINUOUS
 62
     7
 10
1603.000188
 20
409.61346400000002
 30
0.0
  0
LINE
  5
4AC
  8
SIZE
  6
CONTINUOUS
 62
    30
 10
1593.000188
 20
354.615295
 30
0.0
 11
1583.000188
 21
354.615295
 31
0.0
  0
CIRCLE
  5
4AD
  8
SIZE
  6
CONTINUOUS
 62
    30
 10
1603.000188
 20
354.615295
 30
0.0
 40
10.0
  0
ARC
  5
4AE
  8
DETAIL
  6
CONTINUOUS
 62
     5
 10
1501.06891
 20
520.39658199999997
 30
0.0
 40
2.0
 50
3.5763339999999988
 51
58.772114000000002
  0
LINE
  5
4AF
  8
DETAIL
  6
CONTINUOUS
 62
     5
 10
1505.5002179999999
 20
481.55809199999999
 30
0.0
 11
1503.0650149999999
 21
520.52133800000001
 31
0.0
  0
ARC
  5
4B0
  8
DETAIL
  6
CONTINUOUS
 62
     5
 10
1501.06891
 20
520.39658199999997
 30
0.0
 40
2.0
 50
3.5763339999999988
 51
58.772114000000002
  0
ARC
  5
4B1
  8
DETAIL
  6
CONTINUOUS
 62
     5
 10
1450.261471
 20
436.59560199999987
 30
0.0
 40
100.0
 50
58.772114000000002
 51
94.164056000000002
  0
LINE
  5
4B2
  8
NOTE
  6
CONTINUOUS
 62
     4
 10
1603.000188
 20
481.55797899999999
 30
0.0
 11
1619.10221
 21
508.11625400000003
 31
0.0
  0
LINE
  5
4B3
  8
NOTE
  6
CONTINUOUS
 62
     4
 10
1630.2240859999999
 20
496.5071089999999
 30
0.0
 11
1603.000188
 21
481.55797899999999
 31
0.0
  0
TEXT
  5
4B4
  8
SIZE
  6
CONTINUOUS
 62
    30
 10
1705.1430451428571
 20
372.615295
 30
0.0
 40
50.0
  1
320
 41
0.9
 72
     1
 11
1763.000188
 21
372.615295
 31
0.0
  0
ARC
  5
4B5
  8
DETAIL
  6
CONTINUOUS
 62
     5
 10
1755.738965
 20
436.59560199999987
 30
0.0
 40
100.0
 50
85.835943999999998
 51
121.227886
  0
ARC
  5
4B6
  8
DETAIL
  6
CONTINUOUS
 62
     5
 10
1704.9315260000001
 20
520.39658199999997
 30
0.0
 40
2.0
 50
121.227886
 51
176.423666
  0
LINE
  5
4B7
  8
DETAIL
  6
CONTINUOUS
 62
     5
 10
1700.5002179999999
 20
481.55809199999999
 30
0.0
 11
1702.9354209999999
 21
520.52133800000001
 31
0.0
  0
ARC
  5
4B8
  8
DETAIL
  6
CONTINUOUS
 62
     5
 10
1704.9315260000001
 20
520.39658199999997
 30
0.0
 40
2.0
 50
121.227886
 51
176.423666
  0
ARC
  5
4B9
  8
DETAIL
  6
CONTINUOUS
 62
     5
 10
1821.06891
 20
520.39658199999997
 30
0.0
 40
2.0
 50
3.5763339999999988
 51
58.772114000000002
  0
ARC
  5
4BA
  8
DETAIL
  6
CONTINUOUS
 62
     5
 10
1821.06891
 20
520.39658199999997
 30
0.0
 40
2.0
 50
3.5763339999999988
 51
58.772114000000002
  0
ARC
  5
4BB
  8
DETAIL
  6
CONTINUOUS
 62
     5
 10
1770.261471
 20
436.59560199999987
 30
0.0
 40
100.0
 50
58.772114000000002
 51
94.164056000000002
  0
LINE
  5
4BC
  8
DETAIL
  6
CONTINUOUS
 62
     5
 10
1825.5002179999999
 20
481.55809199999999
 30
0.0
 11
1823.0650149999999
 21
520.52133800000001
 31
0.0
  0
ARC
  5
4BD
  8
DETAIL
  6
CONTINUOUS
 62
     5
 10
2075.738965
 20
436.59560199999987
 30
0.0
 40
100.0
 50
85.835943999999998
 51
121.227886
  0
TEXT
  5
4BE
  8
SIZE
  6
CONTINUOUS
 62
    30
 10
2025.1430451428571
 20
372.615295
 30
0.0
 40
50.0
  1
320
 41
0.9
 72
     1
 11
2083.000188
 21
372.615295
 31
0.0
  0
LINE
  5
4BF
  8
SIZE
  6
CONTINUOUS
 62
    30
 10
1943.000188
 20
354.615295
 30
0.0
 11
2223.000188
 21
354.615295
 31
0.0
  0
LINE
  5
4C0
  8
NOTE
  6
CONTINUOUS
 62
     4
 10
1923.000188
 20
553.50249399999996
 30
0.0
 11
1923.000188
 21
409.61346400000002
 31
0.0
  0
POINT
  5
4C1
  8
DEFPOINTS
  6
CONTINUOUS
 62
     7
 10
1923.000188
 20
409.61346400000002
 30
0.0
  0
LINE
  5
4C2
  8
SIZE
  6
CONTINUOUS
 62
    30
 10
1933.000188
 20
354.615295
 30
0.0
 11
1943.000188
 21
354.615295
 31
0.0
  0
CIRCLE
  5
4C3
  8
SIZE
  6
CONTINUOUS
 62
    30
 10
1923.000188
 20
354.615295
 30
0.0
 40
10.0
  0
POINT
  5
4C4
  8
DEFPOINTS
  6
CONTINUOUS
 62
     7
 10
1923.000188
 20
354.615295
 30
0.0
  0
POINT
  5
4C5
  8
DEFPOINTS
  6
CONTINUOUS
 62
     7
 10
1923.000188
 20
409.61346400000002
 30
0.0
  0
LINE
  5
4C6
  8
SIZE
  6
CONTINUOUS
 62
    30
 10
1913.000188
 20
354.615295
 30
0.0
 11
1903.000188
 21
354.615295
 31
0.0
  0
CIRCLE
  5
4C7
  8
SIZE
  6
CONTINUOUS
 62
    30
 10
1923.000188
 20
354.615295
 30
0.0
 40
10.0
  0
ARC
  5
4C8
  8
DETAIL
  6
CONTINUOUS
 62
     5
 10
2024.9315260000001
 20
520.39658199999997
 30
0.0
 40
2.0
 50
121.227886
 51
176.423666
  0
LINE
  5
4C9
  8
DETAIL
  6
CONTINUOUS
 62
     5
 10
2020.5002179999999
 20
481.55809199999999
 30
0.0
 11
2022.9354209999999
 21
520.52133800000001
 31
0.0
  0
ARC
  5
4CA
  8
DETAIL
  6
CONTINUOUS
 62
     5
 10
2024.9315260000001
 20
520.39658199999997
 30
0.0
 40
2.0
 50
121.227886
 51
176.423666
  0
LINE
  5
4CB
  8
NOTE
  6
CONTINUOUS
 62
     4
 10
2243.000188
 20
553.50249399999996
 30
0.0
 11
2243.000188
 21
409.61346400000002
 31
0.0
  0
POINT
  5
4CC
  8
DEFPOINTS
  6
CONTINUOUS
 62
     7
 10
2243.000188
 20
409.61346400000002
 30
0.0
  0
LINE
  5
4CD
  8
SIZE
  6
CONTINUOUS
 62
    30
 10
2253.000188
 20
354.615295
 30
0.0
 11
2263.000188
 21
354.615295
 31
0.0
  0
CIRCLE
  5
4CE
  8
SIZE
  6
CONTINUOUS
 62
    30
 10
2243.000188
 20
354.615295
 30
0.0
 40
10.0
  0
POINT
  5
4CF
  8
DEFPOINTS
  6
CONTINUOUS
 62
     7
 10
2243.000188
 20
354.615295
 30
0.0
  0
POINT
  5
4D0
  8
DEFPOINTS
  6
CONTINUOUS
 62
     7
 10
2243.000188
 20
409.61346400000002
 30
0.0
  0
LINE
  5
4D1
  8
SIZE
  6
CONTINUOUS
 62
    30
 10
2233.000188
 20
354.615295
 30
0.0
 11
2223.000188
 21
354.615295
 31
0.0
  0
CIRCLE
  5
4D2
  8
SIZE
  6
CONTINUOUS
 62
    30
 10
2243.000188
 20
354.615295
 30
0.0
 40
10.0
  0
ARC
  5
4D3
  8
DETAIL
  6
CONTINUOUS
 62
     5
 10
2141.06891
 20
520.39658199999997
 30
0.0
 40
2.0
 50
3.5763339999999988
 51
58.772114000000002
  0
ARC
  5
4D4
  8
DETAIL
  6
CONTINUOUS
 62
     5
 10
2141.06891
 20
520.39658199999997
 30
0.0
 40
2.0
 50
3.5763339999999988
 51
58.772114000000002
  0
ARC
  5
4D5
  8
DETAIL
  6
CONTINUOUS
 62
     5
 10
2090.2614709999998
 20
436.59560199999987
 30
0.0
 40
100.0
 50
58.772114000000002
 51
94.164056000000002
  0
LINE
  5
4D6
  8
DETAIL
  6
CONTINUOUS
 62
     5
 10
2145.5002180000001
 20
481.55809199999999
 30
0.0
 11
2143.0650150000001
 21
520.52133800000001
 31
0.0
  0
LINE
  5
4D7
  8
SIZE
  6
CONTINUOUS
 62
    30
 10
2493.000188
 20
533.55797900000005
 30
0.0
 11
2493.000188
 21
99.494550000000004
 31
0.0
  0
LINE
  5
4D8
  8
SIZE
  6
CONTINUOUS
 62
    30
 10
2509.000188
 20
538.05444599999998
 30
0.0
 11
2509.000188
 21
-0.000005
 31
0.0
  0
LINE
  5
4D9
  8
SIZE
  6
CONTINUOUS
 62
    30
 10
2509.000188
 20
538.05444599999998
 30
0.0
 11
2509.000188
 21
99.494550000000004
 31
0.0
  0
LINE
  5
4DA
  8
SIZE
  6
CONTINUOUS
 62
    30
 10
2493.000188
 20
533.55797900000005
 30
0.0
 11
2493.000188
 21
99.494550000000004
 31
0.0
  0
LINE
  5
4DB
  8
SIZE
  6
CONTINUOUS
 62
    30
 10
2509.000188
 20
538.05444599999998
 30
0.0
 11
2509.000188
 21
194.37408099999999
 31
0.0
  0
LINE
  5
4DC
  8
SIZE
  6
CONTINUOUS
 62
    30
 10
2486.000188
 20
547.55797900000005
 30
0.0
 11
2486.000188
 21
194.37408099999999
 31
0.0
  0
LINE
  5
4DD
  8
SIZE
  6
CONTINUOUS
 62
    30
 10
2493.000188
 20
533.55797900000005
 30
0.0
 11
2493.000188
 21
324.615295
 31
0.0
  0
LINE
  5
4DE
  8
SIZE
  6
CONTINUOUS
 62
    30
 10
2486.000188
 20
547.55797900000005
 30
0.0
 11
2486.000188
 21
194.37408099999999
 31
0.0
  0
LINE
  5
4DF
  8
SIZE
  6
CONTINUOUS
 62
    30
 10
2519.000188
 20
129.49455
 30
0.0
 11
2529.000188
 21
129.49455
 31
0.0
  0
LINE
  5
4E0
  8
SIZE
  6
CONTINUOUS
 62
    30
 10
2519.000188
 20
224.37408099999999
 30
0.0
 11
2529.000188
 21
224.37408099999999
 31
0.0
  0
POINT
  5
4E1
  8
DEFPOINTS
  6
CONTINUOUS
 62
     7
 10
2493.000188
 20
129.49455
 30
0.0
  0
LINE
  5
4E2
  8
SIZE
  6
CONTINUOUS
 62
    30
 10
2483.000188
 20
129.49455
 30
0.0
 11
2473.000188
 21
129.49455
 31
0.0
  0
CIRCLE
  5
4E3
  8
SIZE
  6
CONTINUOUS
 62
    30
 10
2493.000188
 20
129.49455
 30
0.0
 40
10.0
  0
POINT
  5
4E4
  8
DEFPOINTS
  6
CONTINUOUS
 62
     7
 10
2509.000188
 20
29.999994999999998
 30
0.0
  0
LINE
  5
4E5
  8
SIZE
  6
CONTINUOUS
 62
    30
 10
2499.000188
 20
29.999994999999998
 30
0.0
 11
2489.000188
 21
29.999994999999998
 31
0.0
  0
CIRCLE
  5
4E6
  8
SIZE
  6
CONTINUOUS
 62
    30
 10
2509.000188
 20
29.999994999999998
 30
0.0
 40
10.0
  0
POINT
  5
4E7
  8
DEFPOINTS
  6
CONTINUOUS
 62
     7
 10
2509.000188
 20
129.49455
 30
0.0
  0
CIRCLE
  5
4E8
  8
SIZE
  6
CONTINUOUS
 62
    30
 10
2509.000188
 20
129.49455
 30
0.0
 40
10.0
  0
LINE
  5
4E9
  8
SIZE
  6
CONTINUOUS
 62
    30
 10
2483.000188
 20
129.49455
 30
0.0
 11
2473.000188
 21
129.49455
 31
0.0
  0
CIRCLE
  5
4EA
  8
SIZE
  6
CONTINUOUS
 62
    30
 10
2493.000188
 20
129.49455
 30
0.0
 40
10.0
  0
LINE
  5
4EB
  8
SIZE
  6
CONTINUOUS
 62
    30
 10
2493.000188
 20
129.49455
 30
0.0
 11
2509.000188
 21
129.49455
 31
0.0
  0
LINE
  5
4EC
  8
SIZE
  6
CONTINUOUS
 62
    30
 10
2473.000188
 20
129.49455
 30
0.0
 11
2453.000188
 21
129.49455
 31
0.0
  0
POINT
  5
4ED
  8
DEFPOINTS
  6
CONTINUOUS
 62
     7
 10
2509.000188
 20
224.37408099999999
 30
0.0
  0
CIRCLE
  5
4EE
  8
SIZE
  6
CONTINUOUS
 62
    30
 10
2509.000188
 20
224.37408099999999
 30
0.0
 40
10.0
  0
LINE
  5
4EF
  8
SIZE
  6
CONTINUOUS
 62
    30
 10
2476.000188
 20
224.37408099999999
 30
0.0
 11
2466.000188
 21
224.37408099999999
 31
0.0
  0
CIRCLE
  5
4F0
  8
SIZE
  6
CONTINUOUS
 62
    30
 10
2486.000188
 20
224.37408099999999
 30
0.0
 40
10.0
  0
LINE
  5
4F1
  8
SIZE
  6
CONTINUOUS
 62
    30
 10
2486.000188
 20
224.37408099999999
 30
0.0
 11
2509.000188
 21
224.37408099999999
 31
0.0
  0
LINE
  5
4F2
  8
SIZE
  6
CONTINUOUS
 62
    30
 10
2466.000188
 20
224.37408099999999
 30
0.0
 11
2446.000188
 21
224.37408099999999
 31
0.0
  0
POINT
  5
4F3
  8
DEFPOINTS
  6
CONTINUOUS
 62
     7
 10
2486.000188
 20
224.37408099999999
 30
0.0
  0
LINE
  5
4F4
  8
SIZE
  6
CONTINUOUS
 62
    30
 10
2476.000188
 20
224.37408099999999
 30
0.0
 11
2466.000188
 21
224.37408099999999
 31
0.0
  0
CIRCLE
  5
4F5
  8
SIZE
  6
CONTINUOUS
 62
    30
 10
2486.000188
 20
224.37408099999999
 30
0.0
 40
10.0
  0
TEXT
  5
4F6
  8
SIZE
  6
CONTINUOUS
 62
    30
 10
2567.0001884285721
 20
147.49455
 30
0.0
 40
50.0
  1
16
 41
0.9
 72
     1
 11
2598.0716170000001
 21
147.49455
 31
0.0
  0
LINE
  5
4F7
  8
SIZE
  6
CONTINUOUS
 62
    30
 10
2529.000188
 20
129.49455
 30
0.0
 11
2647.1430449999998
 21
129.49455
 31
0.0
  0
LINE
  5
4F8
  8
SIZE
  6
CONTINUOUS
 62
    30
 10
2529.000188
 20
224.37408099999999
 30
0.0
 11
2657.8573310000002
 21
224.37408099999999
 31
0.0
  0
TEXT
  5
4F9
  8
SIZE
  6
CONTINUOUS
 62
    30
 10
2567.0001875714288
 20
242.37408099999999
 30
0.0
 40
50.0
  1
23
 41
0.9
 72
     1
 11
2603.4287589999999
 21
242.37408099999999
 31
0.0
  0
LINE
  5
4FA
  8
SIZE
  6
CONTINUOUS
 62
    30
 10
2513.000188
 20
551.55797900000005
 30
0.0
 11
3025.8262789999999
 21
551.55797900000005
 31
0.0
  0
LINE
  5
4FB
  8
SIZE
  6
CONTINUOUS
 62
    30
 10
2526.0765929999998
 20
585.55797900000005
 30
0.0
 11
3025.8262789999999
 21
585.55797900000005
 31
0.0
  0
LINE
  5
4FC
  8
SIZE
  6
CONTINUOUS
 62
    30
 10
2526.0765929999998
 20
585.55797900000005
 30
0.0
 11
3025.8262789999999
 21
585.55797900000005
 31
0.0
  0
LINE
  5
4FD
  8
SIZE
  6
CONTINUOUS
 62
    30
 10
2531.0001990000001
 20
818.55799000000002
 30
0.0
 11
3194.635491
 21
818.55799000000002
 31
0.0
  0
LINE
  5
4FE
  8
SIZE
  6
CONTINUOUS
 62
    30
 10
2511.0001990000001
 20
551.55799000000002
 30
0.0
 11
3195.3166000000001
 21
551.55799000000002
 31
0.0
  0
LINE
  5
4FF
  8
SIZE
  6
CONTINUOUS
 62
    30
 10
2531.0001990000001
 20
818.55799000000002
 30
0.0
 11
3195.3166000000001
 21
818.55799000000002
 31
0.0
  0
TEXT
  5
500
  8
SIZE
  6
CONTINUOUS
 62
    30
 10
2310.1430451428569
 20
372.615295
 30
0.0
 40
50.0
  1
250
 41
0.9
 72
     1
 11
2368.000188
 21
372.615295
 31
0.0
  0
POINT
  5
501
  8
DEFPOINTS
  6
CONTINUOUS
 62
     7
 10
2493.000188
 20
354.615295
 30
0.0
  0
LINE
  5
502
  8
SIZE
  6
CONTINUOUS
 62
    30
 10
2483.000188
 20
354.615295
 30
0.0
 11
2473.000188
 21
354.615295
 31
0.0
  0
CIRCLE
  5
503
  8
SIZE
  6
CONTINUOUS
 62
    30
 10
2493.000188
 20
354.615295
 30
0.0
 40
10.0
  0
LINE
  5
504
  8
DETAIL
  6
CONTINUOUS
 62
     5
 10
2457.4942019999999
 20
543.58453499999996
 30
0.0
 11
2351.8304199999998
 21
533.48703699999987
 31
0.0
  0
LINE
  5
505
  8
DETAIL
  6
CONTINUOUS
 62
     5
 10
2340.5002180000001
 20
481.55809199999999
 30
0.0
 11
2343.4236580000002
 21
528.44900700000005
 31
0.0
  0
ARC
  5
506
  8
DETAIL
  6
CONTINUOUS
 62
     5
 10
2352.9076879999998
 20
523.63827099999992
 30
0.0
 40
9.9075070000000007
 50
96.242253000000005
 51
179.92971399999999
  0
POINT
  5
507
  8
DEFPOINTS
  6
CONTINUOUS
 62
     7
 10
2493.000188
 20
551.55797900000005
 30
0.0
  0
POINT
  5
508
  8
DEFPOINTS
  6
CONTINUOUS
 62
     7
 10
2506.0765929999998
 20
585.55797900000005
 30
0.0
  0
POINT
  5
509
  8
DEFPOINTS
  6
CONTINUOUS
 62
     7
 10
2506.0765929999998
 20
585.55797900000005
 30
0.0
  0
POINT
  5
50A
  8
DEFPOINTS
  6
CONTINUOUS
 62
     7
 10
2493.0001990000001
 20
551.55799000000002
 30
0.0
  0
POINT
  5
50B
  8
DEFPOINTS
  6
CONTINUOUS
 62
     7
 10
2493.000188
 20
551.55797900000005
 30
0.0
  0
POINT
  5
50C
  8
DEFPOINTS
  6
CONTINUOUS
 62
     7
 10
2493.000188
 20
551.55797900000005
 30
0.0
  0
POINT
  5
50D
  8
DEFPOINTS
  6
CONTINUOUS
 62
     7
 10
2509.000188
 20
556.05444599999998
 30
0.0
  0
POINT
  5
50E
  8
DEFPOINTS
  6
CONTINUOUS
 62
     7
 10
2509.000188
 20
556.05444599999998
 30
0.0
  0
POINT
  5
50F
  8
DEFPOINTS
  6
CONTINUOUS
 62
     7
 10
2493.000188
 20
551.55797900000005
 30
0.0
  0
POINT
  5
510
  8
DEFPOINTS
  6
CONTINUOUS
 62
     7
 10
2509.000188
 20
556.05444599999998
 30
0.0
  0
POINT
  5
511
  8
DEFPOINTS
  6
CONTINUOUS
 62
     7
 10
2486.000188
 20
565.55797900000005
 30
0.0
  0
POINT
  5
512
  8
DEFPOINTS
  6
CONTINUOUS
 62
     7
 10
2493.000188
 20
551.55797900000005
 30
0.0
  0
POINT
  5
513
  8
DEFPOINTS
  6
CONTINUOUS
 62
     7
 10
2486.000188
 20
565.55797900000005
 30
0.0
  0
CIRCLE
  5
514
  8
FIX
  6
CONTINUOUS
 62
    11
 10
2486.000188
 20
585.55797900000005
 30
0.0
 40
18.598564
  0
LINE
  5
515
  8
NOTE
  6
CONTINUOUS
 62
     4
 10
2465.9237830000002
 20
585.55797900000005
 30
0.0
 11
2506.0765929999998
 21
585.55797900000005
 31
0.0
  0
LINE
  5
516
  8
NOTE
  6
CONTINUOUS
 62
     4
 10
2486.000188
 20
565.55797900000005
 30
0.0
 11
2486.000188
 21
605.55797900000005
 31
0.0
  0
LINE
  5
517
  8
DETAIL
  6
CONTINUOUS
 62
     5
 10
2493.000188
 20
551.55797900000005
 30
0.0
 11
2493.000188
 21
568.55587000000003
 31
0.0
  0
LINE
  5
518
  8
DETAIL
  6
CONTINUOUS
 62
     5
 10
2479.1993739999998
 20
570.55619300000001
 30
0.0
 11
2479.1993739999998
 21
600.55978600000003
 31
0.0
  0
LINE
  5
519
  8
DETAIL
  6
CONTINUOUS
 62
     5
 10
2490.9998639999999
 20
600.55978600000003
 30
0.0
 11
2479.1993739999998
 21
600.55978600000003
 31
0.0
  0
LINE
  5
51A
  8
DETAIL
  6
CONTINUOUS
 62
     5
 10
2490.9998639999999
 20
570.55619300000001
 30
0.0
 11
2479.1993739999998
 21
570.55619300000001
 31
0.0
  0
ARC
  5
51B
  8
DETAIL
  6
CONTINUOUS
 62
     5
 10
2490.999948000001
 20
602.560025
 30
0.0
 40
2.0002399999999998
 50
269.997589
 51
0.0
  0
ARC
  5
51C
  8
DETAIL
  6
CONTINUOUS
 62
     5
 10
2490.999948000001
 20
568.55595400000004
 30
0.0
 40
2.0002399999999998
 50
359.99759
 51
90.002410999999995
  0
LINE
  5
51D
  8
DETAIL
  6
CONTINUOUS
 62
     5
 10
2478.99935
 20
577.55702099999985
 30
0.0
 11
2478.99935
 21
593.55893700000001
 31
0.0
  0
LINE
  5
51E
  8
DETAIL
  6
CONTINUOUS
 62
     5
 10
2509.000188
 20
591.55869800000005
 30
0.0
 11
2509.000188
 21
615.06151199999999
 31
0.0
  0
LINE
  5
51F
  8
DETAIL
  6
CONTINUOUS
 62
     5
 10
2493.0010259999999
 20
579.55725999999981
 30
0.0
 11
2509.000188
 21
579.55725999999981
 31
0.0
  0
LINE
  5
520
  8
DETAIL
  6
CONTINUOUS
 62
     5
 10
2493.0010259999999
 20
591.55869800000005
 30
0.0
 11
2509.000188
 21
591.55869800000005
 31
0.0
  0
LINE
  5
521
  8
DETAIL
  6
CONTINUOUS
 62
     5
 10
2509.000188
 20
556.05444599999998
 30
0.0
 11
2509.000188
 21
579.55725999999981
 31
0.0
  0
LINE
  5
522
  8
DETAIL
  6
CONTINUOUS
 62
     5
 10
2493.000188
 20
615.06151199999999
 30
0.0
 11
2509.000188
 21
615.06151199999999
 31
0.0
  0
LINE
  5
523
  8
DETAIL
  6
CONTINUOUS
 62
     5
 10
2493.000188
 20
556.05444599999998
 30
0.0
 11
2509.000188
 21
556.05444599999998
 31
0.0
  0
LINE
  5
524
  8
DETAIL
  6
CONTINUOUS
 62
     5
 10
2493.0010259999999
 20
591.55869800000005
 30
0.0
 11
2493.0010259999999
 21
593.55893700000001
 31
0.0
  0
ARC
  5
525
  8
DETAIL
  6
CONTINUOUS
 62
     5
 10
2486.000188
 20
577.55702099999985
 30
0.0
 40
7.0008379999999999
 50
180.0
 51
0.0
  0
ARC
  5
526
  8
DETAIL
  6
CONTINUOUS
 62
     5
 10
2486.000188
 20
593.55893700000001
 30
0.0
 40
7.0008379999999999
 50
0.0
 51
180.0
  0
LINE
  5
527
  8
DETAIL
  6
CONTINUOUS
 62
     5
 10
2493.0010259999999
 20
577.55702099999985
 30
0.0
 11
2493.0010259999999
 21
579.55725999999981
 31
0.0
  0
LINE
  5
528
  8
DETAIL
  6
CONTINUOUS
 62
     5
 10
2461.0262950000001
 20
549.55773899999997
 30
0.0
 11
2461.0262950000001
 21
547.5575
 31
0.0
  0
ARC
  5
529
  8
DETAIL
  6
CONTINUOUS
 62
     5
 10
2463.0265340000001
 20
549.55773899999997
 30
0.0
 40
2.0002399999999998
 50
90.0
 51
180.0
  0
ARC
  5
52A
  8
DETAIL
  6
CONTINUOUS
 62
     5
 10
2457.0258159999998
 20
547.5575
 30
0.0
 40
4.0004790000000003
 50
274.91189500000002
 51
0.0
  0
ARC
  5
52B
  8
OUTLINE
  6
CONTINUOUS
 62
     3
 10
2517.000188
 20
817.55797900000005
 30
0.0
 40
16.0
 50
270.0
 51
0.0
  0
ARC
  5
52C
  8
DETAIL
  6
CONTINUOUS
 62
     5
 10
2517.000188
 20
817.55797900000005
 30
0.0
 40
16.0
 50
270.0
 51
0.0
  0
POINT
  5
52D
  8
DEFPOINTS
  6
CONTINUOUS
 62
     7
 10
2513.0001990000001
 20
818.55799000000002
 30
0.0
  0
POINT
  5
52E
  8
DEFPOINTS
  6
CONTINUOUS
 62
     7
 10
2513.0001990000001
 20
818.55799000000002
 30
0.0
  0
LINE
  5
52F
  8
OUTLINE
  6
CONTINUOUS
 62
     3
 10
2493.000188
 20
801.55797900000005
 30
0.0
 11
2517.000188
 21
801.55797900000005
 31
0.0
  0
POINT
  5
530
  8
DEFPOINTS
  6
CONTINUOUS
 62
     7
 10
2517.000188
 20
801.55797900000005
 30
0.0
  0
POINT
  5
531
  8
DEFPOINTS
  6
CONTINUOUS
 62
     7
 10
2517.000188
 20
801.55797900000005
 30
0.0
  0
LINE
  5
532
  8
DETAIL
  6
CONTINUOUS
 62
     5
 10
2493.000188
 20
801.55797900000005
 30
0.0
 11
2517.000188
 21
801.55797900000005
 31
0.0
  0
TEXT
  5
533
  8
SIZE
  6
CONTINUOUS
 62
    30
 10
3147.3166000000001
 20
627.20084714285713
 30
0.0
 40
50.0
  1
267
 50
90.0
 41
0.9
 72
     1
 11
3147.3166000000001
 21
685.05799000000002
 31
0.0
  0
LINE
  5
534
  8
SIZE
  6
CONTINUOUS
 62
    30
 10
3165.316600000001
 20
798.55799000000002
 30
0.0
 11
3165.316600000001
 21
571.55799000000002
 31
0.0
  0
TEXT
  5
535
  8
SIZE
  6
CONTINUOUS
 62
    30
 10
2989.8262789999999
 20
398.03782699999999
 30
0.0
 40
55.0
  1
34
 50
90.0
 41
0.9
 72
     1
 11
2989.8262789999999
 21
439.28782699999988
 31
0.0
  0
LINE
  5
536
  8
SIZE
  6
CONTINUOUS
 62
    30
 10
3007.8262789999999
 20
380.03782699999999
 30
0.0
 11
3007.8262789999999
 21
551.55797900000005
 31
0.0
  0
POINT
  5
537
  8
DEFPOINTS
  6
CONTINUOUS
 62
     7
 10
3007.8262789999999
 20
551.55797900000005
 30
0.0
  0
LINE
  5
538
  8
SIZE
  6
CONTINUOUS
 62
    30
 10
3007.8262789999999
 20
541.55797900000005
 30
0.0
 11
3007.8262789999999
 21
531.55797900000005
 31
0.0
  0
CIRCLE
  5
539
  8
SIZE
  6
CONTINUOUS
 62
    30
 10
3007.8262789999999
 20
551.55797900000005
 30
0.0
 40
10.0
  0
LINE
  5
53A
  8
SIZE
  6
CONTINUOUS
 62
    30
 10
3007.8262789999999
 20
595.55797900000005
 30
0.0
 11
3007.8262789999999
 21
605.55797900000005
 31
0.0
  0
CIRCLE
  5
53B
  8
SIZE
  6
CONTINUOUS
 62
    30
 10
3007.8262789999999
 20
585.55797900000005
 30
0.0
 40
10.0
  0
LINE
  5
53C
  8
SIZE
  6
CONTINUOUS
 62
    30
 10
3007.8262789999999
 20
585.55797900000005
 30
0.0
 11
3007.8262789999999
 21
551.55797900000005
 31
0.0
  0
LINE
  5
53D
  8
SIZE
  6
CONTINUOUS
 62
    30
 10
3007.8262789999999
 20
531.55797900000005
 30
0.0
 11
3007.8262789999999
 21
511.55797899999988
 31
0.0
  0
LINE
  5
53E
  8
SIZE
  6
CONTINUOUS
 62
    30
 10
3007.8262789999999
 20
605.55797900000005
 30
0.0
 11
3007.8262789999999
 21
625.55797900000005
 31
0.0
  0
POINT
  5
53F
  8
DEFPOINTS
  6
CONTINUOUS
 62
     7
 10
3007.8262789999999
 20
585.55797900000005
 30
0.0
  0
LINE
  5
540
  8
SIZE
  6
CONTINUOUS
 62
    30
 10
3007.8262789999999
 20
595.55797900000005
 30
0.0
 11
3007.8262789999999
 21
605.55797900000005
 31
0.0
  0
CIRCLE
  5
541
  8
SIZE
  6
CONTINUOUS
 62
    30
 10
3007.8262789999999
 20
585.55797900000005
 30
0.0
 40
10.0
  0
POINT
  5
542
  8
DEFPOINTS
  6
CONTINUOUS
 62
     7
 10
3165.316600000001
 20
551.55799000000002
 30
0.0
  0
LINE
  5
543
  8
SIZE
  6
CONTINUOUS
 62
    30
 10
3165.316600000001
 20
561.55799000000002
 30
0.0
 11
3165.316600000001
 21
571.55799000000002
 31
0.0
  0
CIRCLE
  5
544
  8
SIZE
  6
CONTINUOUS
 62
    30
 10
3165.316600000001
 20
551.55799000000002
 30
0.0
 40
10.0
  0
POINT
  5
545
  8
DEFPOINTS
  6
CONTINUOUS
 62
     7
 10
3164.635491
 20
818.55799000000002
 30
0.0
  0
LINE
  5
546
  8
SIZE
  6
CONTINUOUS
 62
    30
 10
3164.635491
 20
828.55799000000002
 30
0.0
 11
3164.635491
 21
838.5579899999999
 31
0.0
  0
CIRCLE
  5
547
  8
SIZE
  6
CONTINUOUS
 62
    30
 10
3164.635491
 20
818.55799000000002
 30
0.0
 40
10.0
  0
LINE
  5
548
  8
SIZE
  6
CONTINUOUS
 62
    30
 10
3165.316600000001
 20
808.55799000000002
 30
0.0
 11
3165.316600000001
 21
798.55799000000002
 31
0.0
  0
CIRCLE
  5
549
  8
SIZE
  6
CONTINUOUS
 62
    30
 10
3165.316600000001
 20
818.55799000000002
 30
0.0
 40
10.0
  0
TEXT
  5
54A
  8
SIZE
  6
CONTINUOUS
 62
    30
 10
1458.5716275714281
 20
1584.978818
 30
0.0
 40
50.0
  1
1550（天井開口寸法）
 41
0.9
 72
     1
 11
1738.0001990000001
 21
1584.978818
 31
0.0
  0
TEXT
  5
54B
  8
SIZE
  6
CONTINUOUS
 62
    30
 10
1663.000188
 20
1689.207989
 30
0.0
 40
50.0
  1
1590
 41
0.9
 72
     1
 11
1738.000188
 21
1689.207989
 31
0.0
  0
LINE
  5
54C
  8
SIZE
  6
CONTINUOUS
 62
    30
 10
3007.8262789999999
 20
1366.5579789999999
 30
0.0
 11
3007.8262789999999
 21
1557.700836
 31
0.0
  0
LINE
  5
54D
  8
SIZE
  6
CONTINUOUS
 62
    30
 10
2533.0001990000001
 20
1403.55799
 30
0.0
 11
2533.0001990000001
 21
1596.978818
 31
0.0
  0
LINE
  5
54E
  8
SIZE
  6
CONTINUOUS
 62
    30
 10
2513.0001990000001
 20
1402.55799
 30
0.0
 11
2513.0001990000001
 21
1596.978818
 31
0.0
  0
LINE
  5
54F
  8
SIZE
  6
CONTINUOUS
 62
    30
 10
2513.0001990000001
 20
1402.55799
 30
0.0
 11
2513.0001990000001
 21
1596.978818
 31
0.0
  0
POLYLINE
  5
550
  8
NOTE
  6
CONTINUOUS
 62
     4
 66
     1
 10
0.0
 20
0.0
 30
0.0
  0
VERTEX
  5
A06
  8
NOTE
  6
CONTINUOUS
 62
     4
 10
2486.000188
 20
1295.5579789999999
 30
0.0
  0
VERTEX
  5
A07
  8
NOTE
  6
CONTINUOUS
 62
     4
 10
2918.4890300000002
 20
1736.744526
 30
0.0
  0
SEQEND
  5
A08
  8
NOTE
  6
CONTINUOUS
 62
     4
  0
POLYLINE
  5
554
  8
NOTE
  6
CONTINUOUS
 62
     4
 66
     1
 10
0.0
 20
0.0
 30
0.0
  0
VERTEX
  5
A09
  8
NOTE
  6
CONTINUOUS
 62
     4
 10
2493.000188
 20
1170.5579789999999
 30
0.0
  0
VERTEX
  5
A0A
  8
NOTE
  6
CONTINUOUS
 62
     4
 10
2923.494893
 20
1599.5914150000001
 30
0.0
  0
SEQEND
  5
A0B
  8
NOTE
  6
CONTINUOUS
 62
     4
  0
LINE
  5
558
  8
SIZE
  6
CONTINUOUS
 62
    30
 10
2533.000188
 20
1403.5579789999999
 30
0.0
 11
2533.000188
 21
1701.207989
 31
0.0
  0
LINE
  5
559
  8
SIZE
  6
CONTINUOUS
 62
    30
 10
2513.000188
 20
1326.5579789999999
 30
0.0
 11
3025.8262789999999
 21
1326.5579789999999
 31
0.0
  0
LINE
  5
55A
  8
SIZE
  6
CONTINUOUS
 62
    30
 10
2537.000188
 20
1401.5579789999999
 30
0.0
 11
3025.8262789999999
 21
1401.5579789999999
 31
0.0
  0
LINE
  5
55B
  8
SIZE
  6
CONTINUOUS
 62
    30
 10
2526.0765929999998
 20
1295.5579789999999
 30
0.0
 11
3025.8262789999999
 21
1295.5579789999999
 31
0.0
  0
LINE
  5
55C
  8
SIZE
  6
CONTINUOUS
 62
    30
 10
2526.0765929999998
 20
1295.5579789999999
 30
0.0
 11
3025.8262789999999
 21
1295.5579789999999
 31
0.0
  0
LINE
  5
55D
  8
SIZE
  6
CONTINUOUS
 62
    30
 10
2513.000188
 20
1326.5579789999999
 30
0.0
 11
3025.8262789999999
 21
1326.5579789999999
 31
0.0
  0
LINE
  5
55E
  8
SIZE
  6
CONTINUOUS
 62
    30
 10
2537.0001989999992
 20
1401.55799
 30
0.0
 11
3182.635491
 21
1401.55799
 31
0.0
  0
LINE
  5
55F
  8
SIZE
  6
CONTINUOUS
 62
    30
 10
2533.0001990000001
 20
1384.55799
 30
0.0
 11
3182.635491
 21
1384.55799
 31
0.0
  0
LINE
  5
560
  8
SIZE
  6
CONTINUOUS
 62
    30
 10
2531.0001990000001
 20
1384.55799
 30
0.0
 11
3194.635491
 21
1384.55799
 31
0.0
  0
LINE
  5
561
  8
SIZE
  6
CONTINUOUS
 62
    30
 10
2531.0765929999998
 20
1170.5579789999999
 30
0.0
 11
2762.4869880000001
 21
1170.5579789999999
 31
0.0
  0
LINE
  5
562
  8
SIZE
  6
CONTINUOUS
 62
    30
 10
2511.000188
 20
1326.5579789999999
 30
0.0
 11
2762.4869880000001
 21
1326.5579789999999
 31
0.0
  0
LINE
  5
563
  8
SIZE
  6
CONTINUOUS
 62
    30
 10
2732.4869880000001
 20
1306.5579789999999
 30
0.0
 11
2732.4869880000001
 21
1190.5579789999999
 31
0.0
  0
LINE
  5
564
  8
NOTE
  6
CONTINUOUS
 62
     4
 10
2493.000188
 20
1170.5579789999999
 30
0.0
 11
2508.669214
 21
1197.3739949999999
 31
0.0
  0
LINE
  5
565
  8
NOTE
  6
CONTINUOUS
 62
     4
 10
2519.9779699999999
 20
1185.946817
 30
0.0
 11
2493.000188
 21
1170.5579789999999
 31
0.0
  0
POINT
  5
566
  8
DEFPOINTS
  6
CONTINUOUS
 62
     7
 10
2513.0765929999998
 20
1170.5579789999999
 30
0.0
  0
LINE
  5
567
  8
NOTE
  6
CONTINUOUS
 62
     4
 10
2493.000188
 20
1150.5579789999999
 30
0.0
 11
2493.000188
 21
1190.5579789999999
 31
0.0
  0
LINE
  5
568
  8
NOTE
  6
CONTINUOUS
 62
     4
 10
2472.9237830000002
 20
1170.5579789999999
 30
0.0
 11
2513.0765929999998
 21
1170.5579789999999
 31
0.0
  0
TEXT
  5
569
  8
SIZE
  6
CONTINUOUS
 62
    30
 10
2714.4869880000001
 20
1027.5579789999999
 30
0.0
 40
50.0
  1
156
 50
90.0
 41
0.9
 72
     1
 11
2714.4869880000001
 21
1080.0579789999999
 31
0.0
  0
LINE
  5
56A
  8
SIZE
  6
CONTINUOUS
 62
    30
 10
2732.4869880000001
 20
1170.5579789999999
 30
0.0
 11
2732.4869880000001
 21
1009.557979
 31
0.0
  0
POINT
  5
56B
  8
DEFPOINTS
  6
CONTINUOUS
 62
     7
 10
2732.4869880000001
 20
1170.5579789999999
 30
0.0
  0
LINE
  5
56C
  8
SIZE
  6
CONTINUOUS
 62
    30
 10
2732.4869880000001
 20
1180.5579789999999
 30
0.0
 11
2732.4869880000001
 21
1190.5579789999999
 31
0.0
  0
CIRCLE
  5
56D
  8
SIZE
  6
CONTINUOUS
 62
    30
 10
2732.4869880000001
 20
1170.5579789999999
 30
0.0
 40
10.0
  0
ARC
  5
56E
  8
OUTLINE
  6
CONTINUOUS
 62
     3
 10
2517.000188
 20
1385.5579789999999
 30
0.0
 40
16.0
 50
0.0
 51
90.0
  0
ARC
  5
56F
  8
DETAIL
  6
CONTINUOUS
 62
     5
 10
2517.000188
 20
1385.5579789999999
 30
0.0
 40
16.0
 50
0.0
 51
90.0
  0
POINT
  5
570
  8
DEFPOINTS
  6
CONTINUOUS
 62
     7
 10
2506.0765929999998
 20
1295.5579789999999
 30
0.0
  0
POINT
  5
571
  8
DEFPOINTS
  6
CONTINUOUS
 62
     7
 10
2506.0765929999998
 20
1295.5579789999999
 30
0.0
  0
POINT
  5
572
  8
DEFPOINTS
  6
CONTINUOUS
 62
     7
 10
2493.000188
 20
1326.5579789999999
 30
0.0
  0
POINT
  5
573
  8
DEFPOINTS
  6
CONTINUOUS
 62
     7
 10
2513.0001990000001
 20
1384.55799
 30
0.0
  0
POINT
  5
574
  8
DEFPOINTS
  6
CONTINUOUS
 62
     7
 10
2513.0001990000001
 20
1384.55799
 30
0.0
  0
POINT
  5
575
  8
DEFPOINTS
  6
CONTINUOUS
 62
     7
 10
2513.0001990000001
 20
1384.55799
 30
0.0
  0
POINT
  5
576
  8
DEFPOINTS
  6
CONTINUOUS
 62
     7
 10
2513.0001990000001
 20
1384.55799
 30
0.0
  0
LINE
  5
577
  8
NOTE
  6
CONTINUOUS
 62
     4
 10
2486.000188
 20
1295.5579789999999
 30
0.0
 11
2501.3529859999999
 21
1322.556288
 31
0.0
  0
LINE
  5
578
  8
NOTE
  6
CONTINUOUS
 62
     4
 10
2512.7952559999999
 20
1311.2628010000001
 30
0.0
 11
2486.000188
 21
1295.5579789999999
 31
0.0
  0
POINT
  5
579
  8
DEFPOINTS
  6
CONTINUOUS
 62
     7
 10
2493.000188
 20
1326.5579789999999
 30
0.0
  0
ARC
  5
57A
  8
DETAIL
  6
CONTINUOUS
 62
     5
 10
2491.000188
 20
1312.5494389999999
 30
0.0
 40
2.0
 50
270.0
 51
0.0
  0
ARC
  5
57B
  8
DETAIL
  6
CONTINUOUS
 62
     5
 10
2491.000188
 20
1278.5458470000001
 30
0.0
 40
2.0
 50
0.0
 51
90.0
  0
CIRCLE
  5
57C
  8
FIX
  6
CONTINUOUS
 62
    11
 10
2486.000188
 20
1295.5579789999999
 30
0.0
 40
18.598564
  0
LINE
  5
57D
  8
NOTE
  6
CONTINUOUS
 62
     4
 10
2465.9237830000002
 20
1295.5579789999999
 30
0.0
 11
2506.0765929999998
 21
1295.5579789999999
 31
0.0
  0
LINE
  5
57E
  8
NOTE
  6
CONTINUOUS
 62
     4
 10
2486.000188
 20
1275.5579789999999
 30
0.0
 11
2486.000188
 21
1315.5579789999999
 31
0.0
  0
LINE
  5
57F
  8
DETAIL
  6
CONTINUOUS
 62
     5
 10
2493.000188
 20
1312.5494389999999
 30
0.0
 11
2493.000188
 21
1325.757883
 31
0.0
  0
LINE
  5
580
  8
DETAIL
  6
CONTINUOUS
 62
     5
 10
2479.1327200000001
 20
1280.5458470000001
 30
0.0
 11
2479.1327200000001
 21
1310.5494389999999
 31
0.0
  0
LINE
  5
581
  8
DETAIL
  6
CONTINUOUS
 62
     5
 10
2491.000188
 20
1280.5458470000001
 30
0.0
 11
2479.1327200000001
 21
1280.5458470000001
 31
0.0
  0
LINE
  5
582
  8
DETAIL
  6
CONTINUOUS
 62
     5
 10
2491.000188
 20
1310.5494389999999
 30
0.0
 11
2479.1327200000001
 21
1310.5494389999999
 31
0.0
  0
LINE
  5
583
  8
DETAIL
  6
CONTINUOUS
 62
     5
 10
2493.000188
 20
1326.5579789999999
 30
0.0
 11
2463.0265340000001
 21
1326.5579789999999
 31
0.0
  0
LINE
  5
584
  8
DETAIL
  6
CONTINUOUS
 62
     5
 10
2493.000188
 20
1266.3579789999999
 30
0.0
 11
2509.000188
 21
1266.3579789999999
 31
0.0
  0
LINE
  5
585
  8
DETAIL
  6
CONTINUOUS
 62
     5
 10
2493.000188
 20
1324.757979
 30
0.0
 11
2509.000188
 21
1324.757979
 31
0.0
  0
LINE
  5
586
  8
DETAIL
  6
CONTINUOUS
 62
     5
 10
2478.99935
 20
1303.558937
 30
0.0
 11
2478.99935
 21
1287.5570210000001
 31
0.0
  0
LINE
  5
587
  8
DETAIL
  6
CONTINUOUS
 62
     5
 10
2509.000188
 20
1289.5579789999999
 30
0.0
 11
2509.000188
 21
1266.3579789999999
 31
0.0
  0
LINE
  5
588
  8
DETAIL
  6
CONTINUOUS
 62
     5
 10
2493.0010259999999
 20
1301.5579789999999
 30
0.0
 11
2509.000188
 21
1301.5579789999999
 31
0.0
  0
LINE
  5
589
  8
DETAIL
  6
CONTINUOUS
 62
     5
 10
2493.0010259999999
 20
1289.5579789999999
 30
0.0
 11
2509.000188
 21
1289.5579789999999
 31
0.0
  0
LINE
  5
58A
  8
DETAIL
  6
CONTINUOUS
 62
     5
 10
2509.000188
 20
1324.757979
 30
0.0
 11
2509.000188
 21
1301.5579789999999
 31
0.0
  0
LINE
  5
58B
  8
DETAIL
  6
CONTINUOUS
 62
     5
 10
2493.0010259999999
 20
1289.5579789999999
 30
0.0
 11
2493.0010259999999
 21
1287.5570210000001
 31
0.0
  0
ARC
  5
58C
  8
DETAIL
  6
CONTINUOUS
 62
     5
 10
2486.000188
 20
1303.558937
 30
0.0
 40
7.0008379999999999
 50
0.0
 51
180.0
  0
ARC
  5
58D
  8
DETAIL
  6
CONTINUOUS
 62
     5
 10
2486.000188
 20
1287.5570210000001
 30
0.0
 40
7.0008379999999999
 50
180.0
 51
0.0
  0
LINE
  5
58E
  8
DETAIL
  6
CONTINUOUS
 62
     5
 10
2493.0010259999999
 20
1303.558937
 30
0.0
 11
2493.0010259999999
 21
1301.5579789999999
 31
0.0
  0
LINE
  5
58F
  8
DETAIL
  6
CONTINUOUS
 62
     5
 10
2460.026175
 20
1309.5559430000001
 30
0.0
 11
2463.0265340000001
 21
1312.556302
 31
0.0
  0
LINE
  5
590
  8
DETAIL
  6
CONTINUOUS
 62
     5
 10
2463.0265340000001
 20
1312.556302
 30
0.0
 11
2463.0265340000001
 21
1326.5579789999999
 31
0.0
  0
LINE
  5
591
  8
DETAIL
  6
CONTINUOUS
 62
     5
 10
2493.000188
 20
1326.5579789999999
 30
0.0
 11
2493.000188
 21
1325.757883
 31
0.0
  0
POINT
  5
592
  8
DEFPOINTS
  6
CONTINUOUS
 62
     7
 10
2517.0001990000001
 20
1401.55799
 30
0.0
  0
POINT
  5
593
  8
DEFPOINTS
  6
CONTINUOUS
 62
     7
 10
2517.000188
 20
1401.5579789999999
 30
0.0
  0
POINT
  5
594
  8
DEFPOINTS
  6
CONTINUOUS
 62
     7
 10
2533.0001990000001
 20
1385.55799
 30
0.0
  0
POINT
  5
595
  8
DEFPOINTS
  6
CONTINUOUS
 62
     7
 10
2533.000188
 20
1385.5579789999999
 30
0.0
  0
LINE
  5
596
  8
SIZE
  6
CONTINUOUS
 62
    30
 10
2732.4869880000001
 20
1316.5579789999999
 30
0.0
 11
2732.4869880000001
 21
1306.5579789999999
 31
0.0
  0
CIRCLE
  5
597
  8
SIZE
  6
CONTINUOUS
 62
    30
 10
2732.4869880000001
 20
1326.5579789999999
 30
0.0
 40
10.0
  0
TEXT
  5
598
  8
SIZE
  6
CONTINUOUS
 62
    30
 10
2989.8262789999999
 20
1459.5579794285709
 30
0.0
 40
55.0
  1
75
 50
90.0
 41
0.9
 72
     1
 11
2989.8262789999999
 21
1499.629408
 31
0.0
  0
LINE
  5
599
  8
SIZE
  6
CONTINUOUS
 62
    30
 10
3007.8262789999999
 20
1311.0579789999999
 30
0.0
 11
2919.5536030000012
 21
1439.9518519999999
 31
0.0
  0
TEXT
  5
59A
  8
SIZE
  6
CONTINUOUS
 62
    30
 10
2901.5536029999998
 20
1457.951852285714
 30
0.0
 40
55.0
  1
31
 50
90.0
 41
0.9
 72
     1
 11
2901.5536029999998
 21
1487.416138
 31
0.0
  0
LINE
  5
59B
  8
SIZE
  6
CONTINUOUS
 62
    30
 10
2919.5536030000012
 20
1439.9518519999999
 30
0.0
 11
2919.5536030000012
 21
1534.8804239999999
 31
0.0
  0
CIRCLE
  5
59C
  8
SIZE
  6
CONTINUOUS
 62
    30
 10
3007.8262789999999
 20
1401.5579789999999
 30
0.0
 40
10.0
  0
CIRCLE
  5
59D
  8
SIZE
  6
CONTINUOUS
 62
    30
 10
3164.635491
 20
1401.55799
 30
0.0
 40
10.0
  0
LINE
  5
59E
  8
SIZE
  6
CONTINUOUS
 62
    30
 10
3007.8262789999999
 20
1316.5579789999999
 30
0.0
 11
3007.8262789999999
 21
1306.5579789999999
 31
0.0
  0
CIRCLE
  5
59F
  8
SIZE
  6
CONTINUOUS
 62
    30
 10
3007.8262789999999
 20
1326.5579789999999
 30
0.0
 40
10.0
  0
LINE
  5
5A0
  8
SIZE
  6
CONTINUOUS
 62
    30
 10
3007.8262789999999
 20
1306.5579789999999
 30
0.0
 11
3007.8262789999999
 21
1286.5579789999999
 31
0.0
  0
LINE
  5
5A1
  8
SIZE
  6
CONTINUOUS
 62
    30
 10
3007.8262789999999
 20
1285.5579789999999
 30
0.0
 11
3007.8262789999999
 21
1275.5579789999999
 31
0.0
  0
CIRCLE
  5
5A2
  8
SIZE
  6
CONTINUOUS
 62
    30
 10
3007.8262789999999
 20
1295.5579789999999
 30
0.0
 40
10.0
  0
POINT
  5
5A3
  8
DEFPOINTS
  6
CONTINUOUS
 62
     7
 10
3007.8262789999999
 20
1295.5579789999999
 30
0.0
  0
LINE
  5
5A4
  8
SIZE
  6
CONTINUOUS
 62
    30
 10
3007.8262789999999
 20
1285.5579789999999
 30
0.0
 11
3007.8262789999999
 21
1275.5579789999999
 31
0.0
  0
CIRCLE
  5
5A5
  8
SIZE
  6
CONTINUOUS
 62
    30
 10
3007.8262789999999
 20
1295.5579789999999
 30
0.0
 40
10.0
  0
LINE
  5
5A6
  8
SIZE
  6
CONTINUOUS
 62
    30
 10
3007.8262789999999
 20
1336.5579789999999
 30
0.0
 11
3007.8262789999999
 21
1346.5579789999999
 31
0.0
  0
CIRCLE
  5
5A7
  8
SIZE
  6
CONTINUOUS
 62
    30
 10
3007.8262789999999
 20
1326.5579789999999
 30
0.0
 40
10.0
  0
LINE
  5
5A8
  8
SIZE
  6
CONTINUOUS
 62
    30
 10
3007.8262789999999
 20
1326.5579789999999
 30
0.0
 11
3007.8262789999999
 21
1295.5579789999999
 31
0.0
  0
LINE
  5
5A9
  8
SIZE
  6
CONTINUOUS
 62
    30
 10
3007.8262789999999
 20
1275.5579789999999
 30
0.0
 11
3007.8262789999999
 21
1255.5579789999999
 31
0.0
  0
LINE
  5
5AA
  8
SIZE
  6
CONTINUOUS
 62
    30
 10
3007.8262789999999
 20
1346.5579789999999
 30
0.0
 11
3007.8262789999999
 21
1366.5579789999999
 31
0.0
  0
LINE
  5
5AB
  8
SIZE
  6
CONTINUOUS
 62
    30
 10
3164.635491
 20
1374.55799
 30
0.0
 11
3164.635491
 21
1364.55799
 31
0.0
  0
CIRCLE
  5
5AC
  8
SIZE
  6
CONTINUOUS
 62
    30
 10
3164.635491
 20
1384.55799
 30
0.0
 40
10.0
  0
LINE
  5
5AD
  8
SIZE
  6
CONTINUOUS
 62
    30
 10
3164.635491
 20
1364.55799
 30
0.0
 11
3164.635491
 21
1344.55799
 31
0.0
  0
LINE
  5
5AE
  8
SIZE
  6
CONTINUOUS
 62
    30
 10
3164.635491
 20
1374.55799
 30
0.0
 11
3164.635491
 21
1364.55799
 31
0.0
  0
CIRCLE
  5
5AF
  8
SIZE
  6
CONTINUOUS
 62
    30
 10
3164.635491
 20
1384.55799
 30
0.0
 40
10.0
  0
LINE
  5
5B0
  8
SIZE
  6
CONTINUOUS
 62
    30
 10
3007.8262789999999
 20
1411.5579789999999
 30
0.0
 11
3007.8262789999999
 21
1421.5579789999999
 31
0.0
  0
POINT
  5
5B1
  8
DEFPOINTS
  6
CONTINUOUS
 62
     7
 10
3164.635491
 20
1401.55799
 30
0.0
  0
TEXT
  5
5B2
  8
SIZE
  6
CONTINUOUS
 62
    30
 10
3146.635491
 20
1459.5579901428571
 30
0.0
 40
55.0
  1
17
 50
90.0
 41
0.9
 72
     1
 11
3146.635491
 21
1494.915133
 31
0.0
  0
LINE
  5
5B3
  8
SIZE
  6
CONTINUOUS
 62
    30
 10
3164.635491
 20
1411.55799
 30
0.0
 11
3164.635491
 21
1421.55799
 31
0.0
  0
LINE
  5
5B4
  8
SIZE
  6
CONTINUOUS
 62
    30
 10
3164.635491
 20
1421.55799
 30
0.0
 11
3164.635491
 21
1548.2722759999999
 31
0.0
  0
CIRCLE
  5
5B5
  8
SIZE
  6
CONTINUOUS
 62
    30
 10
2533.0001990000001
 20
1566.978818
 30
0.0
 40
10.0
  0
LINE
  5
5B6
  8
SIZE
  6
CONTINUOUS
 62
    30
 10
2513.0001990000001
 20
1566.978818
 30
0.0
 11
2533.0001990000001
 21
1566.978818
 31
0.0
  0
CIRCLE
  5
5B7
  8
SIZE
  6
CONTINUOUS
 62
    30
 10
2533.000188
 20
1671.207989
 30
0.0
 40
10.0
  0
LINE
  5
5B8
  8
SIZE
  6
CONTINUOUS
 62
    30
 10
2503.0001990000001
 20
1566.978818
 30
0.0
 11
2493.0001990000001
 21
1566.978818
 31
0.0
  0
CIRCLE
  5
5B9
  8
SIZE
  6
CONTINUOUS
 62
    30
 10
2513.0001990000001
 20
1566.978818
 30
0.0
 40
10.0
  0
LINE
  5
5BA
  8
SIZE
  6
CONTINUOUS
 62
    30
 10
2493.0001990000001
 20
1566.978818
 30
0.0
 11
2473.0001990000001
 21
1566.978818
 31
0.0
  0
LINE
  5
5BB
  8
SIZE
  6
CONTINUOUS
 62
    30
 10
2503.0001990000001
 20
1566.978818
 30
0.0
 11
2493.0001990000001
 21
1566.978818
 31
0.0
  0
CIRCLE
  5
5BC
  8
SIZE
  6
CONTINUOUS
 62
    30
 10
2513.0001990000001
 20
1566.978818
 30
0.0
 40
10.0
  0
LINE
  5
5BD
  8
SIZE
  6
CONTINUOUS
 62
    30
 10
2523.000188
 20
1671.207989
 30
0.0
 11
2513.000188
 21
1671.207989
 31
0.0
  0
TEXT
  5
5BE
  8
SIZE
  6
CONTINUOUS
 62
    30
 10
2591.0001985714289
 20
1584.978818
 30
0.0
 40
50.0
  1
20
 41
0.9
 72
     1
 11
2627.42877
 21
1584.978818
 31
0.0
  0
LINE
  5
5BF
  8
SIZE
  6
CONTINUOUS
 62
    30
 10
2553.0001989999992
 20
1566.978818
 30
0.0
 11
2681.8573420000012
 21
1566.978818
 31
0.0
  0
POINT
  5
5C0
  8
DEFPOINTS
  6
CONTINUOUS
 62
     7
 10
2533.0001990000001
 20
1566.978818
 30
0.0
  0
LINE
  5
5C1
  8
SIZE
  6
CONTINUOUS
 62
    30
 10
2543.0001990000001
 20
1566.978818
 30
0.0
 11
2553.0001989999992
 21
1566.978818
 31
0.0
  0
LINE
  5
5C2
  8
SIZE
  6
CONTINUOUS
 62
    30
 10
3360.5373330000002
 20
1381.5579789999999
 30
0.0
 11
3360.5373330000002
 21
821.55797900000005
 31
0.0
  0
TEXT
  5
5C3
  8
SIZE
  6
CONTINUOUS
 62
    30
 10
3342.5373330000002
 20
618.70083614285716
 30
0.0
 40
50.0
  1
250
 50
90.0
 41
0.9
 72
     1
 11
3342.5373330000002
 21
676.55797900000005
 31
0.0
  0
LINE
  5
5C4
  8
SIZE
  6
CONTINUOUS
 62
    30
 10
3360.5373330000002
 20
781.55797900000005
 30
0.0
 11
3360.5373330000002
 21
571.55797900000005
 31
0.0
  0
POINT
  5
5C5
  8
DEFPOINTS
  6
CONTINUOUS
 62
     7
 10
3360.5373330000002
 20
551.55797900000005
 30
0.0
  0
LINE
  5
5C6
  8
SIZE
  6
CONTINUOUS
 62
    30
 10
3360.5373330000002
 20
561.55797900000005
 30
0.0
 11
3360.5373330000002
 21
571.55797900000005
 31
0.0
  0
CIRCLE
  5
5C7
  8
SIZE
  6
CONTINUOUS
 62
    30
 10
3360.5373330000002
 20
551.55797900000005
 30
0.0
 40
10.0
  0
LINE
  5
5C8
  8
SIZE
  6
CONTINUOUS
 62
    30
 10
3360.5373330000002
 20
791.55797900000005
 30
0.0
 11
3360.5373330000002
 21
781.55797900000005
 31
0.0
  0
CIRCLE
  5
5C9
  8
SIZE
  6
CONTINUOUS
 62
    30
 10
3360.5373330000002
 20
801.55797900000005
 30
0.0
 40
10.0
  0
POINT
  5
5CA
  8
DEFPOINTS
  6
CONTINUOUS
 62
     7
 10
3360.5373330000002
 20
801.55797900000005
 30
0.0
  0
LINE
  5
5CB
  8
SIZE
  6
CONTINUOUS
 62
    30
 10
3360.5373330000002
 20
811.55797899999993
 30
0.0
 11
3360.5373330000002
 21
821.55797900000005
 31
0.0
  0
CIRCLE
  5
5CC
  8
SIZE
  6
CONTINUOUS
 62
    30
 10
3360.5373330000002
 20
801.55797900000005
 30
0.0
 40
10.0
  0
TEXT
  5
5CD
  8
SIZE
  6
CONTINUOUS
 62
    30
 10
3342.5373330000002
 20
1043.700836142857
 30
0.0
 40
50.0
  1
600
 50
90.0
 41
0.9
 72
     1
 11
3342.5373330000002
 21
1101.5579789999999
 31
0.0
  0
CIRCLE
  5
5CE
  8
SIZE
  6
CONTINUOUS
 62
    30
 10
3360.5373330000002
 20
1401.5579789999999
 30
0.0
 40
10.0
  0
LINE
  5
5CF
  8
SIZE
  6
CONTINUOUS
 62
    30
 10
3360.5373330000002
 20
1391.5579789999999
 30
0.0
 11
3360.5373330000002
 21
1381.5579789999999
 31
0.0
  0
ENDBLK
  5
5D1
  8
0
 62
     7
  0
BLOCK
  8
0
  2
_DOTBLANK
 70
     0
 10
0.0
 20
0.0
 30
0.0
  3
_DOTBLANK
  1

  0
CIRCLE
  5
920
  8
0
  6
CONTINUOUS
 62
     7
 10
0.0
 20
0.0
 30
0.0
 40
0.5
  0
LINE
  5
921
  8
0
  6
CONTINUOUS
 62
     7
 10
-0.5
 20
0.0
 30
0.0
 11
-1.0
 21
0.0
 31
0.0
  0
ENDBLK
  5
922
  8
0
  0
ENDSEC
  0
SECTION
  2
ENTITIES
  0
LINE
  5
5D5
  8
SIZE
  6
CONTINUOUS
 62
    30
 10
773.0
 20
-387.5
 30
0.0
 11
1652.537145
 21
-387.5
 31
0.0
  0
LINE
  5
5D6
  8
SIZE
  6
CONTINUOUS
 62
    30
 10
797.0
 20
-137.5
 30
0.0
 11
1652.537145
 21
-137.5
 31
0.0
  0
LINE
  5
5D7
  8
SIZE
  6
CONTINUOUS
 62
    30
 10
797.0
 20
-137.5
 30
0.0
 11
1652.537145
 21
-137.5
 31
0.0
  0
LINE
  5
5D8
  8
SIZE
  6
CONTINUOUS
 62
    30
 10
797.0
 20
462.5
 30
0.0
 11
1652.537145
 21
462.5
 31
0.0
  0
LINE
  5
5D9
  8
NOTE
  6
CONTINUOUS
 62
     4
 10
1886.3758780000001
 20
797.68654700000002
 30
0.0
 11
1180.488842
 21
797.68654700000002
 31
0.0
  0
TEXT
  5
5DA
  8
NOTE
  6
CONTINUOUS
 62
     4
 10
1195.0365409999999
 20
813.51307699999995
 30
0.0
 40
60.0
  1
AH 4-14×30長穴(M10)
 50
0.000003
 41
0.7
  7
STANDARD1
  0
LINE
  5
5DB
  8
BASIS
  6
DASHDOT
 62
     6
 10
825.0
 20
0.0
 30
0.0
 11
-825.0
 21
0.0
 31
0.0
  0
LINE
  5
5DC
  8
SIZE
  6
CONTINUOUS
 62
    30
 10
755.00001099999997
 20
627.92083899999989
 30
0.0
 11
-754.99998899999991
 21
627.92083899999989
 31
0.0
  0
LINE
  5
5DD
  8
SERVICESPACE
  6
DASHDOT
 62
     2
 10
-775.0
 20
-120.5
 30
0.0
 11
775.0
 21
-120.5
 31
0.0
  0
LINE
  5
5DE
  8
SERVICESPACE
  6
DASHDOT
 62
     2
 10
-775.0
 20
445.5
 30
0.0
 11
775.0
 21
445.5
 31
0.0
  0
LINE
  5
5DF
  8
OUTLINE
  6
CONTINUOUS
 62
     3
 10
755.0
 20
387.5
 30
0.0
 11
-755.0
 21
387.5
 31
0.0
  0
LINE
  5
5E0
  8
OUTLINE
  6
CONTINUOUS
 62
     3
 10
-755.0
 20
-387.5
 30
0.0
 11
755.0
 21
-387.5
 31
0.0
  0
LINE
  5
5E1
  8
OUTLINE
  6
CONTINUOUS
 62
     3
 10
-779.0
 20
462.5
 30
0.0
 11
779.0
 21
462.5
 31
0.0
  0
LINE
  5
5E2
  8
SIZE
  6
CONTINUOUS
 62
    30
 10
775.0
 20
732.15000999999995
 30
0.0
 11
-775.0
 21
732.15000999999995
 31
0.0
  0
LINE
  5
5E3
  8
DETAIL
  6
CONTINUOUS
 62
     5
 10
-779.0
 20
462.5
 30
0.0
 11
779.0
 21
462.5
 31
0.0
  0
LINE
  5
5E4
  8
SIZE
  6
CONTINUOUS
 62
    30
 10
-735.0
 20
-809.56342900000016
 30
0.0
 11
735.0
 21
-809.56342900000016
 31
0.0
  0
ARC
  5
5E5
  8
DETAIL
  6
CONTINUOUS
 62
     5
 10
-289.16406592274461
 20
-555.6540888652944
 30
0.0
 40
153.03904651658701
 50
92.185414725023819
 51
115.47963382440069
  0
LINE
  5
5E6
  8
SIZE
  6
CONTINUOUS
 62
    30
 10
-751.0
 20
-909.05798400000003
 30
0.0
 11
751.0
 21
-909.05798400000003
 31
0.0
  0
TEXT
  5
5E7
  8
SIZE
  6
CONTINUOUS
 62
    30
 10
-352.85714285714289
 20
-566.44268399999987
 30
0.0
 40
50.0
  1
320
 41
0.9
 72
     1
 11
-295.0
 21
-566.44268399999987
 31
0.0
  0
LINE
  5
5E8
  8
SIZE
  6
CONTINUOUS
 62
    30
 10
-435.0
 20
-584.44268399999987
 30
0.0
 11
-155.0
 21
-584.44268399999987
 31
0.0
  0
LINE
  5
5E9
  8
SIZE
  6
CONTINUOUS
 62
    30
 10
-728.0
 20
-714.683898
 30
0.0
 11
728.0
 21
-714.683898
 31
0.0
  0
LINE
  5
5EA
  8
DETAIL
  6
CONTINUOUS
 62
     5
 10
-755.0
 20
-387.5
 30
0.0
 11
755.0
 21
-387.5
 31
0.0
  0
LINE
  5
5EB
  8
DETAIL
  6
CONTINUOUS
 62
     5
 10
-721.66398300000003
 20
370.49796400000002
 30
0.0
 11
722.02598699999987
 21
370.49796400000002
 31
0.0
  0
LINE
  5
5ED
  8
SERVICESPACE
  6
DASHDOT
 62
     2
 10
-775.0
 20
445.5
 30
0.0
 11
-775.0
 21
-120.5
 31
0.0
  0
LINE
  5
5FE
  8
OUTLINE
  6
CONTINUOUS
 62
     3
 10
-755.0
 20
-387.5
 30
0.0
 11
-755.0
 21
387.5
 31
0.0
  0
LINE
  5
5FF
  8
OUTLINE
  6
CONTINUOUS
 62
     3
 10
-795.0
 20
446.49999999999989
 30
0.0
 11
-795.0
 21
-121.5
 31
0.0
  0
LINE
  5
600
  8
DETAIL
  6
CONTINUOUS
 62
     5
 10
-795.0
 20
446.49999999999989
 30
0.0
 11
-795.0
 21
-121.5
 31
0.0
  0
LINE
  5
601
  8
SIZE
  6
CONTINUOUS
 62
    30
 10
-755.0
 20
-318.269023
 30
0.0
 11
-755.0
 21
223.209056
 31
0.0
  0
LINE
  5
602
  8
SIZE
  6
CONTINUOUS
 62
    30
 10
-794.0
 20
-161.5
 30
0.0
 11
-794.0
 21
223.209056
 31
0.0
  0
LINE
  5
603
  8
SIZE
  6
CONTINUOUS
 62
    30
 10
-755.0
 20
-318.49819300000001
 30
0.0
 11
-755.0
 21
135.18302499999999
 31
0.0
  0
LINE
  5
604
  8
SIZE
  6
CONTINUOUS
 62
    30
 10
-789.0
 20
-76.5
 30
0.0
 11
-789.0
 21
135.18302499999999
 31
0.0
  0
TEXT
  5
605
  8
SIZE
  6
CONTINUOUS
 62
    30
 10
-1626.8533219999999
 20
-57.857142857142861
 30
0.0
 40
50.0
  1
775
 50
90.0
 41
0.9
 72
     1
 11
-1626.8533219999999
 21
0.0
 31
0.0
  0
LINE
  5
606
  8
SIZE
  6
CONTINUOUS
 62
    30
 10
-1608.8533219999999
 20
-367.5
 30
0.0
 11
-1608.8533219999999
 21
367.5
 31
0.0
  0
LINE
  5
607
  8
DETAIL
  6
CONTINUOUS
 62
     5
 10
-755.0
 20
-336.49819300000001
 30
0.0
 11
-755.0
 21
339.49820399999999
 31
0.0
  0
LINE
  5
608
  8
SIZE
  6
CONTINUOUS
 62
    30
 10
-773.0
 20
-387.5
 30
0.0
 11
-1406.917285
 21
-387.5
 31
0.0
  0
LINE
  5
609
  8
SIZE
  6
CONTINUOUS
 62
    30
 10
-801.66130499999997
 20
-195.5
 30
0.0
 11
-1406.917285
 21
-195.5
 31
0.0
  0
LINE
  5
60A
  8
SIZE
  6
CONTINUOUS
 62
    30
 10
-773.0
 20
-387.5
 30
0.0
 11
-1638.8533219999999
 21
-387.5
 31
0.0
  0
LINE
  5
60B
  8
SIZE
  6
CONTINUOUS
 62
    30
 10
-773.0
 20
-387.5
 30
0.0
 11
-1518.6109080000001
 21
-387.5
 31
0.0
  0
LINE
  5
60C
  8
SIZE
  6
CONTINUOUS
 62
    30
 10
-827.00095799999986
 20
-114.5
 30
0.0
 11
-1518.6109080000001
 21
-114.5
 31
0.0
  0
LINE
  5
60D
  8
SIZE
  6
CONTINUOUS
 62
    30
 10
-832.00095799999997
 20
-199.5
 30
0.0
 11
-1318.5905250000001
 21
-199.5
 31
0.0
  0
LINE
  5
60E
  8
SIZE
  6
CONTINUOUS
 62
    30
 10
-846.66133499999989
 20
-263.5
 30
0.0
 11
-1318.5905250000001
 21
-263.5
 31
0.0
  0
LINE
  5
60F
  8
SIZE
  6
CONTINUOUS
 62
    30
 10
-846.66133499999989
 20
-263.5
 30
0.0
 11
-1318.5905250000001
 21
-263.5
 31
0.0
  0
LINE
  5
610
  8
SIZE
  6
CONTINUOUS
 62
    30
 10
-773.0
 20
-387.5
 30
0.0
 11
-1318.5905250000001
 21
-387.5
 31
0.0
  0
LINE
  5
611
  8
SIZE
  6
CONTINUOUS
 62
    30
 10
-570.5
 20
-457.5
 30
0.0
 11
-1638.8533219999999
 21
-457.5
 31
0.0
  0
LINE
  5
612
  8
SIZE
  6
CONTINUOUS
 62
    30
 10
-773.0
 20
-387.5
 30
0.0
 11
-1638.8533219999999
 21
-387.5
 31
0.0
  0
TEXT
  5
613
  8
SIZE
  6
CONTINUOUS
 62
    30
 10
-1626.8533219999999
 20
-588.35714242857136
 30
0.0
 40
50.0
  1
70
 50
90.0
 41
0.9
 72
     1
 11
-1626.8533219999999
 21
-551.92857100000003
 31
0.0
  0
TEXT
  5
614
  8
SIZE
  6
CONTINUOUS
 62
    30
 10
-1406.917285
 20
-350.42857142857139
 30
0.0
 40
55.0
  1
192
 50
90.0
 41
0.9
 72
     1
 11
-1406.917285
 21
-291.5
 31
0.0
  0
LINE
  5
615
  8
SIZE
  6
CONTINUOUS
 62
    30
 10
-1388.917285
 20
-215.5
 30
0.0
 11
-1388.917285
 21
-367.5
 31
0.0
  0
TEXT
  5
616
  8
SIZE
  6
CONTINUOUS
 62
    30
 10
-1506.6109080000001
 20
-308.85714285714289
 30
0.0
 40
50.0
  1
273
 50
90.0
 41
0.9
 72
     1
 11
-1506.6109080000001
 21
-251.0
 31
0.0
  0
LINE
  5
617
  8
SIZE
  6
CONTINUOUS
 62
    30
 10
-1488.6109080000001
 20
-134.5
 30
0.0
 11
-1488.6109080000001
 21
-367.5
 31
0.0
  0
TEXT
  5
618
  8
SIZE
  6
CONTINUOUS
 62
    30
 10
-1306.5905250000001
 20
-380.14285714285711
 30
0.0
 40
50.0
  1
124
 50
90.0
 41
0.9
 72
     1
 11
-1306.5905250000001
 21
-325.5
 31
0.0
  0
LINE
  5
619
  8
SIZE
  6
CONTINUOUS
 62
    30
 10
-1288.5905250000001
 20
-367.5
 30
0.0
 11
-1288.5905250000001
 21
-283.5
 31
0.0
  0
CIRCLE
  5
61A
  8
SIZE
  6
CONTINUOUS
 62
    30
 10
-1608.8533219999999
 20
-457.5
 30
0.0
 40
10.0
  0
LINE
  5
61B
  8
SIZE
  6
CONTINUOUS
 62
    30
 10
-1608.8533219999999
 20
-467.49999999999989
 30
0.0
 11
-1608.8533219999999
 21
-477.5
 31
0.0
  0
LINE
  5
61C
  8
SIZE
  6
CONTINUOUS
 62
    30
 10
-1608.8533219999999
 20
-477.5
 30
0.0
 11
-1608.8533219999999
 21
-606.35714299999995
 31
0.0
  0
LINE
  5
61D
  8
SIZE
  6
CONTINUOUS
 62
    30
 10
-1608.8533219999999
 20
-377.5
 30
0.0
 11
-1608.8533219999999
 21
-367.5
 31
0.0
  0
CIRCLE
  5
61E
  8
SIZE
  6
CONTINUOUS
 62
    30
 10
-1608.8533219999999
 20
-387.5
 30
0.0
 40
10.0
  0
POINT
  5
61F
  8
DEFPOINTS
  6
CONTINUOUS
 62
     7
 10
-1608.8533219999999
 20
-457.5
 30
0.0
  0
LINE
  5
620
  8
SIZE
  6
CONTINUOUS
 62
    30
 10
-1608.8533219999999
 20
-377.5
 30
0.0
 11
-1608.8533219999999
 21
-367.5
 31
0.0
  0
CIRCLE
  5
621
  8
SIZE
  6
CONTINUOUS
 62
    30
 10
-1608.8533219999999
 20
-387.5
 30
0.0
 40
10.0
  0
LINE
  5
622
  8
SIZE
  6
CONTINUOUS
 62
    30
 10
-1608.8533219999999
 20
-387.5
 30
0.0
 11
-1608.8533219999999
 21
-457.5
 31
0.0
  0
LINE
  5
623
  8
SIZE
  6
CONTINUOUS
 62
    30
 10
-1608.8533219999999
 20
-367.5
 30
0.0
 11
-1608.8533219999999
 21
-347.5
 31
0.0
  0
POINT
  5
624
  8
DEFPOINTS
  6
CONTINUOUS
 62
     7
 10
-1488.6109080000001
 20
-387.5
 30
0.0
  0
LINE
  5
625
  8
SIZE
  6
CONTINUOUS
 62
    30
 10
-1488.6109080000001
 20
-377.5
 30
0.0
 11
-1488.6109080000001
 21
-367.5
 31
0.0
  0
CIRCLE
  5
626
  8
SIZE
  6
CONTINUOUS
 62
    30
 10
-1488.6109080000001
 20
-387.5
 30
0.0
 40
10.0
  0
POINT
  5
627
  8
DEFPOINTS
  6
CONTINUOUS
 62
     7
 10
-1388.917285
 20
-387.5
 30
0.0
  0
LINE
  5
628
  8
SIZE
  6
CONTINUOUS
 62
    30
 10
-1388.917285
 20
-377.5
 30
0.0
 11
-1388.917285
 21
-367.5
 31
0.0
  0
CIRCLE
  5
629
  8
SIZE
  6
CONTINUOUS
 62
    30
 10
-1388.917285
 20
-387.5
 30
0.0
 40
10.0
  0
LINE
  5
62A
  8
SIZE
  6
CONTINUOUS
 62
    30
 10
-1288.5905250000001
 20
-377.5
 30
0.0
 11
-1288.5905250000001
 21
-367.5
 31
0.0
  0
CIRCLE
  5
62B
  8
SIZE
  6
CONTINUOUS
 62
    30
 10
-1288.5905250000001
 20
-387.5
 30
0.0
 40
10.0
  0
LINE
  5
62C
  8
SIZE
  6
CONTINUOUS
 62
    30
 10
-1488.6109080000001
 20
-124.5
 30
0.0
 11
-1488.6109080000001
 21
-134.5
 31
0.0
  0
CIRCLE
  5
62D
  8
SIZE
  6
CONTINUOUS
 62
    30
 10
-1488.6109080000001
 20
-114.5
 30
0.0
 40
10.0
  0
LINE
  5
62E
  8
SIZE
  6
CONTINUOUS
 62
    30
 10
-1288.5905250000001
 20
-179.5
 30
0.0
 11
-1288.5905250000001
 21
-6.5404900000000001
 31
0.0
  0
LINE
  5
62F
  8
SIZE
  6
CONTINUOUS
 62
    30
 10
-1388.917285
 20
-205.5
 30
0.0
 11
-1388.917285
 21
-215.5
 31
0.0
  0
CIRCLE
  5
630
  8
SIZE
  6
CONTINUOUS
 62
    30
 10
-1388.917285
 20
-195.5
 30
0.0
 40
10.0
  0
POINT
  5
631
  8
DEFPOINTS
  6
CONTINUOUS
 62
     7
 10
-1288.5905250000001
 20
-199.5
 30
0.0
  0
LINE
  5
632
  8
SIZE
  6
CONTINUOUS
 62
    30
 10
-1288.5905250000001
 20
-189.5
 30
0.0
 11
-1288.5905250000001
 21
-179.5
 31
0.0
  0
CIRCLE
  5
633
  8
SIZE
  6
CONTINUOUS
 62
    30
 10
-1288.5905250000001
 20
-199.5
 30
0.0
 40
10.0
  0
LINE
  5
634
  8
SIZE
  6
CONTINUOUS
 62
    30
 10
-1288.5905250000001
 20
-273.5
 30
0.0
 11
-1288.5905250000001
 21
-283.5
 31
0.0
  0
CIRCLE
  5
635
  8
SIZE
  6
CONTINUOUS
 62
    30
 10
-1288.5905250000001
 20
-263.5
 30
0.0
 40
10.0
  0
LINE
  5
636
  8
SIZE
  6
CONTINUOUS
 62
    30
 10
-1288.5905250000001
 20
-263.5
 30
0.0
 11
-1288.5905250000001
 21
-199.5
 31
0.0
  0
LINE
  5
637
  8
SIZE
  6
CONTINUOUS
 62
    30
 10
-1288.5905250000001
 20
-283.5
 30
0.0
 11
-1288.5905250000001
 21
-303.5
 31
0.0
  0
POINT
  5
638
  8
DEFPOINTS
  6
CONTINUOUS
 62
     7
 10
-1288.5905250000001
 20
-263.5
 30
0.0
  0
LINE
  5
639
  8
SIZE
  6
CONTINUOUS
 62
    30
 10
-1288.5905250000001
 20
-273.5
 30
0.0
 11
-1288.5905250000001
 21
-283.5
 31
0.0
  0
CIRCLE
  5
63A
  8
SIZE
  6
CONTINUOUS
 62
    30
 10
-1288.5905250000001
 20
-263.5
 30
0.0
 40
10.0
  0
TEXT
  5
63B
  8
SIZE
  6
CONTINUOUS
 62
    30
 10
-1306.5905250000001
 20
-99.540490000000005
 30
0.0
 40
50.0
  1
64
 50
90.0
 41
0.9
 72
     1
 11
-1306.5905250000001
 21
-62.040490000000013
 31
0.0
  0
LINE
  5
63C
  8
SIZE
  6
CONTINUOUS
 62
    30
 10
-755.0
 20
-405.49999999999989
 30
0.0
 11
-755.0
 21
-839.56342900000004
 31
0.0
  0
LINE
  5
63D
  8
SIZE
  6
CONTINUOUS
 62
    30
 10
-771.0
 20
-401.003533
 30
0.0
 11
-771.0
 21
-839.56342900000004
 31
0.0
  0
LINE
  5
63E
  8
SIZE
  6
CONTINUOUS
 62
    30
 10
-755.0
 20
-405.49999999999989
 30
0.0
 11
-755.0
 21
-839.56342900000004
 31
0.0
  0
LINE
  5
63F
  8
SIZE
  6
CONTINUOUS
 62
    30
 10
-771.0
 20
-401.003533
 30
0.0
 11
-771.0
 21
-939.05798400000003
 31
0.0
  0
LINE
  5
640
  8
SIZE
  6
CONTINUOUS
 62
    30
 10
-771.0
 20
-401.003533
 30
0.0
 11
-771.0
 21
-744.68389799999989
 31
0.0
  0
LINE
  5
641
  8
SIZE
  6
CONTINUOUS
 62
    30
 10
-748.0
 20
-391.5
 30
0.0
 11
-748.0
 21
-744.68389799999989
 31
0.0
  0
LINE
  5
642
  8
SIZE
  6
CONTINUOUS
 62
    30
 10
-455.0
 20
-547.44451500000002
 30
0.0
 11
-455.0
 21
-614.44268399999999
 31
0.0
  0
LINE
  5
643
  8
SIZE
  6
CONTINUOUS
 62
    30
 10
-748.0
 20
-391.5
 30
0.0
 11
-748.0
 21
-744.68389799999989
 31
0.0
  0
CIRCLE
  5
644
  8
SIZE
  6
CONTINUOUS
 62
    30
 10
-771.0
 20
-809.56342900000016
 30
0.0
 40
10.0
  0
CIRCLE
  5
645
  8
SIZE
  6
CONTINUOUS
 62
    30
 10
-771.0
 20
-909.05798400000003
 30
0.0
 40
10.0
  0
CIRCLE
  5
646
  8
SIZE
  6
CONTINUOUS
 62
    30
 10
-771.0
 20
-714.683898
 30
0.0
 40
10.0
  0
TEXT
  5
647
  8
SIZE
  6
CONTINUOUS
 62
    30
 10
-891.14285757142852
 20
-791.56342900000004
 30
0.0
 40
50.0
  1
16
 41
0.9
 72
     1
 11
-860.07142899999985
 21
-791.56342900000004
 31
0.0
  0
LINE
  5
648
  8
SIZE
  6
CONTINUOUS
 62
    30
 10
-791.0
 20
-809.56342900000016
 30
0.0
 11
-909.14285700000005
 21
-809.56342900000016
 31
0.0
  0
LINE
  5
649
  8
SIZE
  6
CONTINUOUS
 62
    30
 10
-781.0
 20
-809.56342900000016
 30
0.0
 11
-791.0
 21
-809.56342900000016
 31
0.0
  0
TEXT
  5
64A
  8
SIZE
  6
CONTINUOUS
 62
    30
 10
-901.85714242857148
 20
-696.683898
 30
0.0
 40
50.0
  1
23
 41
0.9
 72
     1
 11
-865.42857099999992
 21
-696.683898
 31
0.0
  0
LINE
  5
64B
  8
SIZE
  6
CONTINUOUS
 62
    30
 10
-791.0
 20
-714.683898
 30
0.0
 11
-919.85714299999995
 21
-714.683898
 31
0.0
  0
LINE
  5
64C
  8
SIZE
  6
CONTINUOUS
 62
    30
 10
-781.0
 20
-714.683898
 30
0.0
 11
-791.0
 21
-714.683898
 31
0.0
  0
LINE
  5
64D
  8
SIZE
  6
CONTINUOUS
 62
    30
 10
-745.0
 20
-809.56342900000016
 30
0.0
 11
-735.0
 21
-809.56342900000016
 31
0.0
  0
CIRCLE
  5
64E
  8
SIZE
  6
CONTINUOUS
 62
    30
 10
-755.0
 20
-809.56342900000016
 30
0.0
 40
10.0
  0
POINT
  5
64F
  8
DEFPOINTS
  6
CONTINUOUS
 62
     7
 10
-771.0
 20
-809.56342900000016
 30
0.0
  0
LINE
  5
650
  8
SIZE
  6
CONTINUOUS
 62
    30
 10
-745.0
 20
-809.56342900000016
 30
0.0
 11
-735.0
 21
-809.56342900000016
 31
0.0
  0
CIRCLE
  5
651
  8
SIZE
  6
CONTINUOUS
 62
    30
 10
-755.0
 20
-809.56342900000016
 30
0.0
 40
10.0
  0
LINE
  5
652
  8
SIZE
  6
CONTINUOUS
 62
    30
 10
-755.0
 20
-809.56342900000016
 30
0.0
 11
-771.0
 21
-809.56342900000016
 31
0.0
  0
LINE
  5
653
  8
SIZE
  6
CONTINUOUS
 62
    30
 10
-735.0
 20
-809.56342900000016
 30
0.0
 11
-715.0
 21
-809.56342900000016
 31
0.0
  0
LINE
  5
654
  8
SIZE
  6
CONTINUOUS
 62
    30
 10
-761.0
 20
-909.05798400000003
 30
0.0
 11
-751.0
 21
-909.05798400000003
 31
0.0
  0
POINT
  5
655
  8
DEFPOINTS
  6
CONTINUOUS
 62
     7
 10
-771.0
 20
-714.683898
 30
0.0
  0
LINE
  5
656
  8
SIZE
  6
CONTINUOUS
 62
    30
 10
-738.0
 20
-714.683898
 30
0.0
 11
-728.0
 21
-714.683898
 31
0.0
  0
CIRCLE
  5
657
  8
SIZE
  6
CONTINUOUS
 62
    30
 10
-748.0
 20
-714.683898
 30
0.0
 40
10.0
  0
LINE
  5
658
  8
SIZE
  6
CONTINUOUS
 62
    30
 10
-748.0
 20
-714.683898
 30
0.0
 11
-771.0
 21
-714.683898
 31
0.0
  0
LINE
  5
659
  8
SIZE
  6
CONTINUOUS
 62
    30
 10
-728.0
 20
-714.683898
 30
0.0
 11
-708.0
 21
-714.683898
 31
0.0
  0
LINE
  5
65A
  8
SIZE
  6
CONTINUOUS
 62
    30
 10
-738.0
 20
-714.683898
 30
0.0
 11
-728.0
 21
-714.683898
 31
0.0
  0
CIRCLE
  5
65B
  8
SIZE
  6
CONTINUOUS
 62
    30
 10
-748.0
 20
-714.683898
 30
0.0
 40
10.0
  0
LINE
  5
65E
  8
OUTLINE
  6
CONTINUOUS
 62
     3
 10
-779.0
 20
-137.5
 30
0.0
 11
-755.0
 21
-137.5
 31
0.0
  0
LINE
  5
65F
  8
SIZE
  6
CONTINUOUS
 62
    30
 10
-755.0
 20
-565.61743499999989
 30
0.0
 11
-802.0
 21
-565.61743499999989
 31
0.0
  0
LINE
  5
660
  8
DETAIL
  6
CONTINUOUS
 62
     5
 10
-779.0
 20
-137.5
 30
0.0
 11
-755.0
 21
-137.5
 31
0.0
  0
LINE
  5
661
  8
NOTE
  6
CONTINUOUS
 62
     4
 10
-828.66133499999989
 20
-263.5
 30
0.0
 11
-775.33866499999999
 21
-263.5
 31
0.0
  0
LINE
  5
664
  8
NOTE
  6
CONTINUOUS
 62
     4
 10
-814.00095799999986
 20
-199.5
 30
0.0
 11
-773.99904200000003
 21
-199.5
 31
0.0
  0
LINE
  5
667
  8
NOTE
  6
CONTINUOUS
 62
     4
 10
-809.00095799999997
 20
-114.5
 30
0.0
 11
-768.99904200000003
 21
-114.5
 31
0.0
  0
LINE
  5
668
  8
DETAIL
  6
CONTINUOUS
 62
     5
 10
-789.0
 20
-130.5
 30
0.0
 11
-755.0
 21
-130.5
 31
0.0
  0
LINE
  5
669
  8
DETAIL
  6
CONTINUOUS
 62
     5
 10
-789.0
 20
-98.500000000000014
 30
0.0
 11
-755.0
 21
-98.500000000000014
 31
0.0
  0
LINE
  5
66A
  8
SIZE
  6
CONTINUOUS
 62
    30
 10
-802.0
 20
-301.5
 30
0.0
 11
-802.0
 21
-595.617435
 31
0.0
  0
TEXT
  5
66B
  8
SIZE
  6
CONTINUOUS
 62
    30
 10
-932.85714242857136
 20
-547.61743499999989
 30
0.0
 40
50.0
  1
47
 41
0.9
 72
     1
 11
-896.42857100000003
 21
-547.61743499999989
 31
0.0
  0
LINE
  5
66C
  8
SIZE
  6
CONTINUOUS
 62
    30
 10
-822.0
 20
-565.61743499999989
 30
0.0
 11
-950.85714299999995
 21
-565.61743499999989
 31
0.0
  0
LINE
  5
66D
  8
SIZE
  6
CONTINUOUS
 62
    30
 10
-812.0
 20
-565.61743499999989
 30
0.0
 11
-822.0
 21
-565.61743499999989
 31
0.0
  0
CIRCLE
  5
66E
  8
SIZE
  6
CONTINUOUS
 62
    30
 10
-802.0
 20
-565.61743499999989
 30
0.0
 40
10.0
  0
LINE
  5
670
  8
NOTE
  6
CONTINUOUS
 62
     4
 10
-802.0
 20
-263.5
 30
0.0
 11
-829.96809199999996
 21
-249.994337
 31
0.0
  0
LINE
  5
671
  8
NOTE
  6
CONTINUOUS
 62
     4
 10
-819.46824600000014
 20
-237.81970699999999
 30
0.0
 11
-802.0
 21
-263.5
 31
0.0
  0
LINE
  5
672
  8
NOTE
  6
CONTINUOUS
 62
     4
 10
-794.0
 20
-199.5
 30
0.0
 11
-821.19435499999986
 21
-184.497196
 31
0.0
  0
LINE
  5
673
  8
NOTE
  6
CONTINUOUS
 62
     4
 10
-810.04960000000005
 20
-172.91001299999999
 30
0.0
 11
-794.0
 21
-199.5
 31
0.0
  0
POINT
  5
674
  8
DEFPOINTS
  6
CONTINUOUS
 62
     7
 10
-802.0
 20
-283.5
 30
0.0
  0
POINT
  5
675
  8
DEFPOINTS
  6
CONTINUOUS
 62
     7
 10
-794.0
 20
-179.5
 30
0.0
  0
POINT
  5
676
  8
DEFPOINTS
  6
CONTINUOUS
 62
     7
 10
-814.00095799999986
 20
-199.5
 30
0.0
  0
POINT
  5
677
  8
DEFPOINTS
  6
CONTINUOUS
 62
     7
 10
-828.66133499999989
 20
-263.5
 30
0.0
  0
POINT
  5
678
  8
DEFPOINTS
  6
CONTINUOUS
 62
     7
 10
-828.66133499999989
 20
-263.5
 30
0.0
  0
LINE
  5
679
  8
NOTE
  6
CONTINUOUS
 62
     4
 10
-802.0
 20
-283.5
 30
0.0
 11
-802.0
 21
-243.5
 31
0.0
  0
LINE
  5
67B
  8
NOTE
  6
CONTINUOUS
 62
     4
 10
-794.0
 20
-219.5
 30
0.0
 11
-794.0
 21
-179.5
 31
0.0
  0
LINE
  5
67D
  8
NOTE
  6
CONTINUOUS
 62
     4
 10
-789.0
 20
-114.5
 30
0.0
 11
-813.72967200000005
 21
-95.710098000000002
 31
0.0
  0
LINE
  5
67E
  8
NOTE
  6
CONTINUOUS
 62
     4
 10
-801.02157299999999
 20
-85.862631000000007
 30
0.0
 11
-789.0
 21
-114.5
 31
0.0
  0
ARC
  5
67F
  8
OUTLINE
  6
CONTINUOUS
 62
     3
 10
-779.0
 20
-121.5
 30
0.0
 40
16.0
 50
180.0
 51
270.0
  0
ARC
  5
680
  8
DETAIL
  6
CONTINUOUS
 62
     5
 10
-779.0
 20
-121.5
 30
0.0
 40
16.0
 50
180.0
 51
270.0
  0
POINT
  5
681
  8
DEFPOINTS
  6
CONTINUOUS
 62
     7
 10
-789.0
 20
-94.500000000000014
 30
0.0
  0
POINT
  5
682
  8
DEFPOINTS
  6
CONTINUOUS
 62
     7
 10
-809.00095799999997
 20
-114.5
 30
0.0
  0
LINE
  5
683
  8
NOTE
  6
CONTINUOUS
 62
     4
 10
-789.0
 20
-134.5
 30
0.0
 11
-789.0
 21
-94.500000000000014
 31
0.0
  0
LINE
  5
684
  8
DETAIL
  6
CONTINUOUS
 62
     5
 10
-789.0
 20
-98.500000000000014
 30
0.0
 11
-789.0
 21
-130.5
 31
0.0
  0
LINE
  5
685
  8
DETAIL
  6
CONTINUOUS
 62
     5
 10
-554.99996999999985
 20
-417.499887
 30
0.0
 11
-354.99997000000002
 21
-417.499887
 31
0.0
  0
LINE
  5
686
  8
DETAIL
  6
CONTINUOUS
 62
     5
 10
-552.49996999999985
 20
-457.49988699999989
 30
0.0
 11
-357.49997000000002
 21
-457.49988699999989
 31
0.0
  0
LINE
  5
687
  8
SIZE
  6
CONTINUOUS
 62
    30
 10
-755.0
 20
-405.49999999999989
 30
0.0
 11
-755.0
 21
-595.617435
 31
0.0
  0
POINT
  5
688
  8
DEFPOINTS
  6
CONTINUOUS
 62
     7
 10
-755.0
 20
-565.61743499999989
 30
0.0
  0
LINE
  5
689
  8
SIZE
  6
CONTINUOUS
 62
    30
 10
-745.0
 20
-565.61743499999989
 30
0.0
 11
-735.0
 21
-565.61743499999989
 31
0.0
  0
CIRCLE
  5
68A
  8
SIZE
  6
CONTINUOUS
 62
    30
 10
-755.0
 20
-565.61743499999989
 30
0.0
 40
10.0
  0
LINE
  5
68B
  8
SIZE
  6
CONTINUOUS
 62
    30
 10
-735.0
 20
-565.61743499999989
 30
0.0
 11
-715.0
 21
-565.61743499999989
 31
0.0
  0
LINE
  5
68C
  8
DETAIL
  6
CONTINUOUS
 62
     5
 10
-559.51285199999995
 20
-409.96467399999989
 30
0.0
 11
-718.66362300000003
 21
-395.50095800000003
 31
0.0
  0
POINT
  5
68D
  8
DEFPOINTS
  6
CONTINUOUS
 62
     7
 10
-755.0
 20
-387.5
 30
0.0
  0
POINT
  5
68E
  8
DEFPOINTS
  6
CONTINUOUS
 62
     7
 10
-755.0
 20
-387.5
 30
0.0
  0
POINT
  5
68F
  8
DEFPOINTS
  6
CONTINUOUS
 62
     7
 10
-755.0
 20
-336.269023
 30
0.0
  0
POINT
  5
690
  8
DEFPOINTS
  6
CONTINUOUS
 62
     7
 10
-755.0
 20
-336.49819300000001
 30
0.0
  0
POINT
  5
691
  8
DEFPOINTS
  6
CONTINUOUS
 62
     7
 10
-755.0
 20
-387.5
 30
0.0
  0
POINT
  5
692
  8
DEFPOINTS
  6
CONTINUOUS
 62
     7
 10
-755.0
 20
-387.5
 30
0.0
  0
POINT
  5
693
  8
DEFPOINTS
  6
CONTINUOUS
 62
     7
 10
-771.0
 20
-383.003533
 30
0.0
  0
POINT
  5
694
  8
DEFPOINTS
  6
CONTINUOUS
 62
     7
 10
-755.0
 20
-387.5
 30
0.0
  0
POINT
  5
695
  8
DEFPOINTS
  6
CONTINUOUS
 62
     7
 10
-771.0
 20
-383.003533
 30
0.0
  0
POINT
  5
696
  8
DEFPOINTS
  6
CONTINUOUS
 62
     7
 10
-771.0
 20
-383.003533
 30
0.0
  0
POINT
  5
697
  8
DEFPOINTS
  6
CONTINUOUS
 62
     7
 10
-748.0
 20
-373.5
 30
0.0
  0
POINT
  5
698
  8
DEFPOINTS
  6
CONTINUOUS
 62
     7
 10
-755.0
 20
-387.5
 30
0.0
  0
POINT
  5
699
  8
DEFPOINTS
  6
CONTINUOUS
 62
     7
 10
-755.0
 20
-387.5
 30
0.0
  0
POINT
  5
69A
  8
DEFPOINTS
  6
CONTINUOUS
 62
     7
 10
-755.0
 20
-387.5
 30
0.0
  0
POINT
  5
69B
  8
DEFPOINTS
  6
CONTINUOUS
 62
     7
 10
-748.0
 20
-373.5
 30
0.0
  0
ARC
  5
69C
  8
DETAIL
  6
CONTINUOUS
 62
     5
 10
-753.0
 20
-336.49819300000001
 30
0.0
 40
2.0
 50
180.0
 51
270.0
  0
ARC
  5
69D
  8
DETAIL
  6
CONTINUOUS
 62
     5
 10
-753.0
 20
-370.50178599999998
 30
0.0
 40
2.0
 50
90.0
 51
180.0
  0
CIRCLE
  5
69E
  8
FIX
  6
CONTINUOUS
 62
    11
 10
-748.0
 20
-353.5
 30
0.0
 40
18.598564
  0
LINE
  5
69F
  8
NOTE
  6
CONTINUOUS
 62
     4
 10
-768.00095799999997
 20
-353.5
 30
0.0
 11
-727.99904200000003
 21
-353.5
 31
0.0
  0
LINE
  5
6A0
  8
NOTE
  6
CONTINUOUS
 62
     4
 10
-748.0
 20
-373.5
 30
0.0
 11
-748.0
 21
-333.5
 31
0.0
  0
LINE
  5
6A1
  8
DETAIL
  6
CONTINUOUS
 62
     5
 10
-755.0
 20
-387.5
 30
0.0
 11
-755.0
 21
-370.50178599999998
 31
0.0
  0
LINE
  5
6A2
  8
DETAIL
  6
CONTINUOUS
 62
     5
 10
-740.99916199999996
 20
-368.50178599999998
 30
0.0
 11
-740.99916199999996
 21
-338.49819300000001
 31
0.0
  0
LINE
  5
6A3
  8
DETAIL
  6
CONTINUOUS
 62
     5
 10
-753.0
 20
-338.49819300000001
 30
0.0
 11
-740.99916199999996
 21
-338.49819300000001
 31
0.0
  0
LINE
  5
6A4
  8
DETAIL
  6
CONTINUOUS
 62
     5
 10
-753.0
 20
-368.50178599999998
 30
0.0
 11
-740.99916199999996
 21
-368.50178599999998
 31
0.0
  0
LINE
  5
6A5
  8
DETAIL
  6
CONTINUOUS
 62
     5
 10
-755.0
 20
-323.996467
 30
0.0
 11
-771.0
 21
-323.996467
 31
0.0
  0
LINE
  5
6A6
  8
DETAIL
  6
CONTINUOUS
 62
     5
 10
-755.0
 20
-383.003533
 30
0.0
 11
-771.0
 21
-383.003533
 31
0.0
  0
LINE
  5
6A7
  8
DETAIL
  6
CONTINUOUS
 62
     5
 10
-740.99916199999996
 20
-361.50095800000003
 30
0.0
 11
-740.99916199999996
 21
-345.49904199999997
 31
0.0
  0
LINE
  5
6A8
  8
DETAIL
  6
CONTINUOUS
 62
     5
 10
-755.00083800000004
 20
-359.500719
 30
0.0
 11
-771.0
 21
-359.500719
 31
0.0
  0
LINE
  5
6A9
  8
DETAIL
  6
CONTINUOUS
 62
     5
 10
-755.00083800000004
 20
-347.499281
 30
0.0
 11
-771.0
 21
-347.499281
 31
0.0
  0
LINE
  5
6AA
  8
DETAIL
  6
CONTINUOUS
 62
     5
 10
-771.0
 20
-383.003533
 30
0.0
 11
-771.0
 21
-359.500719
 31
0.0
  0
LINE
  5
6AB
  8
DETAIL
  6
CONTINUOUS
 62
     5
 10
-755.00083800000004
 20
-347.499281
 30
0.0
 11
-755.00083800000004
 21
-345.49904199999997
 31
0.0
  0
ARC
  5
6AC
  8
DETAIL
  6
CONTINUOUS
 62
     5
 10
-748.0
 20
-361.50095800000003
 30
0.0
 40
7.0008379999999999
 50
180.0
 51
0.0
  0
ARC
  5
6AD
  8
DETAIL
  6
CONTINUOUS
 62
     5
 10
-748.0
 20
-345.49904199999997
 30
0.0
 40
7.0008379999999999
 50
0.0
 51
180.0
  0
LINE
  5
6AE
  8
DETAIL
  6
CONTINUOUS
 62
     5
 10
-755.00083800000004
 20
-361.50095800000003
 30
0.0
 11
-755.00083800000004
 21
-359.500719
 31
0.0
  0
LINE
  5
6AF
  8
DETAIL
  6
CONTINUOUS
 62
     5
 10
-771.0
 20
-347.499281
 30
0.0
 11
-771.0
 21
-323.996467
 31
0.0
  0
ARC
  5
6B0
  8
DETAIL
  6
CONTINUOUS
 62
     5
 10
-724.66434200000003
 20
-389.50024000000002
 30
0.0
 40
2.0002399999999998
 50
0.0
 51
90.0
  0
ARC
  5
6B1
  8
DETAIL
  6
CONTINUOUS
 62
     5
 10
-717.92754608034465
 20
-390.76440208034461
 30
0.0
 40
4.7934091429453529
 50
188.83330276004969
 51
261.16669723995011
  0
LINE
  5
6B2
  8
DETAIL
  6
CONTINUOUS
 62
     5
 10
-722.66410199999984
 20
-389.50024000000002
 30
0.0
 11
-722.66410199999984
 21
-391.50047899999998
 31
0.0
  0
LINE
  5
6B3
  8
DETAIL
  6
CONTINUOUS
 62
     5
 10
-552.49996999999985
 20
-457.49988699999989
 30
0.0
 11
-555.17365999999993
 21
-414.61486599999989
 31
0.0
  0
POINT
  5
6B4
  8
DEFPOINTS
  6
CONTINUOUS
 62
     7
 10
-552.5
 20
-457.5
 30
0.0
  0
ARC
  5
6B5
  8
DETAIL
  6
CONTINUOUS
 62
     5
 10
-561.42052421843312
 20
-416.09435447159598
 30
0.0
 40
6.4000000000000004
 50
13.324253338849489
 51
72.712876214094749
  0
LINE
  5
6B7
  8
NOTE
  6
CONTINUOUS
 62
     4
 10
-455.0
 20
-385.55548499999998
 30
0.0
 11
-455.0
 21
-529.44451500000002
 31
0.0
  0
LINE
  5
6B8
  8
SIZE
  6
CONTINUOUS
 62
    30
 10
-445.0
 20
-584.44268399999987
 30
0.0
 11
-435.0
 21
-584.44268399999987
 31
0.0
  0
POINT
  5
6B9
  8
DEFPOINTS
  6
CONTINUOUS
 62
     7
 10
-455.0
 20
-529.44451500000002
 30
0.0
  0
CIRCLE
  5
6BA
  8
SIZE
  6
CONTINUOUS
 62
    30
 10
-455.0
 20
-584.44268399999987
 30
0.0
 40
10.0
  0
LINE
  5
6BB
  8
NOTE
  6
CONTINUOUS
 62
     4
 10
-526.94451500000002
 20
-457.5
 30
0.0
 11
-383.05548499999998
 21
-457.5
 31
0.0
  0
LINE
  5
6BE
  8
DETAIL
  6
CONTINUOUS
 62
     5
 10
-357.49997000000002
 20
-457.49988699999989
 30
0.0
 11
-354.99997000000002
 21
-417.499887
 31
0.0
  0
LINE
  5
6C2
  8
SIZE
  6
CONTINUOUS
 62
    30
 10
-773.0
 20
387.5
 30
0.0
 11
-1638.8533219999999
 21
387.5
 31
0.0
  0
TEXT
  5
6C3
  8
NOTE
  6
CONTINUOUS
 62
     4
 10
-1478.1697369999999
 20
450.388283
 30
0.0
 40
60.0
  1
D1 VP25
 50
0.000003
 41
0.7
  7
STANDARD1
  0
LINE
  5
6C4
  8
NOTE
  6
CONTINUOUS
 62
     4
 10
-1201.286967
 20
434.56175300000001
 30
0.0
 11
-1499.8450089999999
 21
434.56175300000001
 31
0.0
  0
LINE
  5
6C5
  8
NOTE
  6
CONTINUOUS
 62
     4
 10
-1201.286967
 20
434.56175300000001
 30
0.0
 11
-1499.8450089999999
 21
434.56175300000001
 31
0.0
  0
TEXT
  5
6C6
  8
ETC
  6
CONTINUOUS
 62
    61
 10
665.13364338857355
 20
1001.51668429386
 30
0.0
 40
65.0
  1
PD-RP112_160FA5_1
 50
0.000003
 41
0.85
  7
STANDARD1
  0
LINE
  5
6C7
  8
NOTE
  6
CONTINUOUS
 62
     4
 10
-1132.5668909999999
 20
118.663944
 30
0.0
 11
-1475.4307510000001
 21
118.663944
 31
0.0
  0
TEXT
  5
6C8
  8
NOTE
  6
CONTINUOUS
 62
     4
 10
-1453.7554789999999
 20
134.490475
 30
0.0
 40
60.0
  1
RL %%C9.52
 50
0.000003
 41
0.7
  7
STANDARD1
  0
LINE
  5
6C9
  8
NOTE
  6
CONTINUOUS
 62
     4
 10
-1141.7515980000001
 20
12.706153
 30
0.0
 11
-1513.5483979999999
 21
12.706153
 31
0.0
  0
TEXT
  5
6CA
  8
NOTE
  6
CONTINUOUS
 62
     4
 10
-1491.873126
 20
28.532682999999999
 30
0.0
 40
60.0
  1
RG %%C15.88
 50
0.000003
 41
0.7
  7
STANDARD1
  0
POINT
  5
6CB
  8
DEFPOINTS
  6
CONTINUOUS
 62
     7
 10
-1608.8533219999999
 20
387.5
 30
0.0
  0
LINE
  5
6CC
  8
SIZE
  6
CONTINUOUS
 62
    30
 10
-1608.8533219999999
 20
377.5
 30
0.0
 11
-1608.8533219999999
 21
367.5
 31
0.0
  0
CIRCLE
  5
6CD
  8
SIZE
  6
CONTINUOUS
 62
    30
 10
-1608.8533219999999
 20
387.5
 30
0.0
 40
10.0
  0
LINE
  5
6CE
  8
SIZE
  6
CONTINUOUS
 62
    30
 10
-794.99998899999991
 20
464.50001099999997
 30
0.0
 11
-794.99998899999991
 21
657.92083899999989
 31
0.0
  0
LINE
  5
6CF
  8
SIZE
  6
CONTINUOUS
 62
    30
 10
-774.9999889999998
 20
463.50001099999997
 30
0.0
 11
-774.9999889999998
 21
657.92083899999989
 31
0.0
  0
LINE
  5
6D0
  8
SIZE
  6
CONTINUOUS
 62
    30
 10
-774.9999889999998
 20
463.50001099999997
 30
0.0
 11
-774.9999889999998
 21
657.92083899999989
 31
0.0
  0
LINE
  5
6D1
  8
SIZE
  6
CONTINUOUS
 62
    30
 10
-795.0
 20
464.5
 30
0.0
 11
-795.0
 21
762.15000999999995
 31
0.0
  0
LINE
  5
6D2
  8
SIZE
  6
CONTINUOUS
 62
    30
 10
-755.0
 20
193.209056
 30
0.0
 11
-794.0
 21
193.209056
 31
0.0
  0
LINE
  5
6D3
  8
SIZE
  6
CONTINUOUS
 62
    30
 10
-755.0
 20
105.183025
 30
0.0
 11
-789.0
 21
105.183025
 31
0.0
  0
TEXT
  5
6D4
  8
SIZE
  6
CONTINUOUS
 62
    30
 10
-922.0
 20
123.183025
 30
0.0
 40
50.0
  1
34
 41
0.9
 72
     1
 11
-884.5
 21
123.183025
 31
0.0
  0
LINE
  5
6D5
  8
SIZE
  6
CONTINUOUS
 62
    30
 10
-809.0
 20
105.183025
 30
0.0
 11
-940.0
 21
105.183025
 31
0.0
  0
LINE
  5
6D6
  8
SIZE
  6
CONTINUOUS
 62
    30
 10
-799.0
 20
105.183025
 30
0.0
 11
-809.0
 21
105.183025
 31
0.0
  0
CIRCLE
  5
6D7
  8
SIZE
  6
CONTINUOUS
 62
    30
 10
-789.0
 20
105.183025
 30
0.0
 40
10.0
  0
TEXT
  5
6D8
  8
SIZE
  6
CONTINUOUS
 62
    30
 10
-922.71428585714273
 20
211.209056
 30
0.0
 40
50.0
  1
39
 41
0.9
 72
     1
 11
-887.35714299999995
 21
211.209056
 31
0.0
  0
LINE
  5
6D9
  8
SIZE
  6
CONTINUOUS
 62
    30
 10
-814.0
 20
193.209056
 30
0.0
 11
-940.71428599999979
 21
193.209056
 31
0.0
  0
LINE
  5
6DA
  8
SIZE
  6
CONTINUOUS
 62
    30
 10
-804.0
 20
193.209056
 30
0.0
 11
-814.0
 21
193.209056
 31
0.0
  0
CIRCLE
  5
6DB
  8
SIZE
  6
CONTINUOUS
 62
    30
 10
-794.0
 20
193.209056
 30
0.0
 40
10.0
  0
ARC
  5
6DC
  8
OUTLINE
  6
CONTINUOUS
 62
     3
 10
-779.0
 20
446.49999999999989
 30
0.0
 40
16.0
 50
90.0
 51
180.0
  0
ARC
  5
6DD
  8
DETAIL
  6
CONTINUOUS
 62
     5
 10
-779.0
 20
446.49999999999989
 30
0.0
 40
16.0
 50
90.0
 51
180.0
  0
POINT
  5
6DE
  8
DEFPOINTS
  6
CONTINUOUS
 62
     7
 10
-794.99998899999991
 20
446.50001099999997
 30
0.0
  0
POINT
  5
6DF
  8
DEFPOINTS
  6
CONTINUOUS
 62
     7
 10
-795.0
 20
446.49999999999989
 30
0.0
  0
POINT
  5
6E0
  8
DEFPOINTS
  6
CONTINUOUS
 62
     7
 10
-755.0
 20
105.183025
 30
0.0
  0
LINE
  5
6E1
  8
SIZE
  6
CONTINUOUS
 62
    30
 10
-745.0
 20
105.183025
 30
0.0
 11
-735.0
 21
105.183025
 31
0.0
  0
CIRCLE
  5
6E2
  8
SIZE
  6
CONTINUOUS
 62
    30
 10
-755.0
 20
105.183025
 30
0.0
 40
10.0
  0
LINE
  5
6E3
  8
SIZE
  6
CONTINUOUS
 62
    30
 10
-735.0
 20
105.183025
 30
0.0
 11
-715.0
 21
105.183025
 31
0.0
  0
POINT
  5
6E4
  8
DEFPOINTS
  6
CONTINUOUS
 62
     7
 10
-755.0
 20
193.209056
 30
0.0
  0
LINE
  5
6E5
  8
SIZE
  6
CONTINUOUS
 62
    30
 10
-745.0
 20
193.209056
 30
0.0
 11
-735.0
 21
193.209056
 31
0.0
  0
CIRCLE
  5
6E6
  8
SIZE
  6
CONTINUOUS
 62
    30
 10
-755.0
 20
193.209056
 30
0.0
 40
10.0
  0
LINE
  5
6E7
  8
SIZE
  6
CONTINUOUS
 62
    30
 10
-735.0
 20
193.209056
 30
0.0
 11
-715.0
 21
193.209056
 31
0.0
  0
POINT
  5
6E8
  8
DEFPOINTS
  6
CONTINUOUS
 62
     7
 10
-774.9999889999998
 20
445.50001099999997
 30
0.0
  0
POINT
  5
6E9
  8
DEFPOINTS
  6
CONTINUOUS
 62
     7
 10
-774.9999889999998
 20
445.50001099999997
 30
0.0
  0
ARC
  5
6EB
  8
DETAIL
  6
CONTINUOUS
 62
     5
 10
-753.0
 20
339.49820399999999
 30
0.0
 40
2.0
 50
90.0
 51
180.0
  0
ARC
  5
6EC
  8
DETAIL
  6
CONTINUOUS
 62
     5
 10
-753.0
 20
373.50179600000001
 30
0.0
 40
2.0
 50
180.0
 51
270.0
  0
CIRCLE
  5
6ED
  8
FIX
  6
CONTINUOUS
 62
    11
 10
-748.0
 20
356.5
 30
0.0
 40
18.598564
  0
LINE
  5
6EE
  8
NOTE
  6
CONTINUOUS
 62
     4
 10
-748.0
 20
336.5
 30
0.0
 11
-748.0
 21
376.5
 31
0.0
  0
LINE
  5
6EF
  8
NOTE
  6
CONTINUOUS
 62
     4
 10
-768.13241200000004
 20
356.5
 30
0.0
 11
-727.99904200000003
 21
356.5
 31
0.0
  0
LINE
  5
6F0
  8
DETAIL
  6
CONTINUOUS
 62
     5
 10
-755.0
 20
373.50179600000001
 30
0.0
 11
-755.00000000000011
 21
387.5
 31
0.0
  0
LINE
  5
6F1
  8
DETAIL
  6
CONTINUOUS
 62
     5
 10
-740.99916199999996
 20
341.49820399999999
 30
0.0
 11
-740.99916199999996
 21
371.50179600000001
 31
0.0
  0
LINE
  5
6F2
  8
DETAIL
  6
CONTINUOUS
 62
     5
 10
-753.0
 20
341.49820399999999
 30
0.0
 11
-740.99916199999996
 21
341.49820399999999
 31
0.0
  0
LINE
  5
6F3
  8
DETAIL
  6
CONTINUOUS
 62
     5
 10
-753.0
 20
371.50179600000001
 30
0.0
 11
-740.99916199999996
 21
371.50179600000001
 31
0.0
  0
LINE
  5
6F4
  8
DETAIL
  6
CONTINUOUS
 62
     5
 10
-755.0
 20
385.69999999999999
 30
0.0
 11
-771.0
 21
385.69999999999999
 31
0.0
  0
LINE
  5
6F5
  8
DETAIL
  6
CONTINUOUS
 62
     5
 10
-755.0
 20
327.30000000000001
 30
0.0
 11
-771.0
 21
327.30000000000001
 31
0.0
  0
LINE
  5
6F6
  8
DETAIL
  6
CONTINUOUS
 62
     5
 10
-740.99916199999996
 20
364.50088799999997
 30
0.0
 11
-740.99916199999996
 21
348.49911200000003
 31
0.0
  0
LINE
  5
6F7
  8
DETAIL
  6
CONTINUOUS
 62
     5
 10
-771.0
 20
350.5
 30
0.0
 11
-771.0
 21
327.30000000000001
 31
0.0
  0
LINE
  5
6F8
  8
DETAIL
  6
CONTINUOUS
 62
     5
 10
-755.00083800000004
 20
362.5
 30
0.0
 11
-771.0
 21
362.5
 31
0.0
  0
LINE
  5
6F9
  8
DETAIL
  6
CONTINUOUS
 62
     5
 10
-755.00083800000004
 20
350.5
 30
0.0
 11
-771.0
 21
350.5
 31
0.0
  0
LINE
  5
6FA
  8
DETAIL
  6
CONTINUOUS
 62
     5
 10
-771.0
 20
385.69999999999999
 30
0.0
 11
-771.0
 21
362.5
 31
0.0
  0
LINE
  5
6FB
  8
DETAIL
  6
CONTINUOUS
 62
     5
 10
-755.00083800000004
 20
350.5
 30
0.0
 11
-755.00083800000004
 21
348.49904199999997
 31
0.0
  0
ARC
  5
6FC
  8
DETAIL
  6
CONTINUOUS
 62
     5
 10
-748.0
 20
364.50095800000003
 30
0.0
 40
7.0008379999999999
 50
359.99943000000002
 51
180.0
  0
ARC
  5
6FD
  8
DETAIL
  6
CONTINUOUS
 62
     5
 10
-748.0
 20
348.49904199999997
 30
0.0
 40
7.0008379999999999
 50
180.0
 51
0.00057
  0
LINE
  5
6FE
  8
DETAIL
  6
CONTINUOUS
 62
     5
 10
-755.00083800000004
 20
364.50095800000003
 30
0.0
 11
-755.00083800000004
 21
362.5
 31
0.0
  0
LINE
  5
6FF
  8
DETAIL
  6
CONTINUOUS
 62
     5
 10
-724.66434200000003
 20
373.49832300000003
 30
0.0
 11
-721.66398300000003
 21
370.49796400000002
 31
0.0
  0
LINE
  5
700
  8
DETAIL
  6
CONTINUOUS
 62
     5
 10
-724.66434200000003
 20
373.49832300000003
 30
0.0
 11
-724.66434200000003
 21
387.5
 31
0.0
  0
LINE
  5
702
  8
DETAIL
  6
CONTINUOUS
 62
     5
 10
-724.66434200000003
 20
386.699904
 30
0.0
 11
-755.0
 21
386.699904
 31
0.0
  0
CIRCLE
  5
703
  8
SIZE
  6
CONTINUOUS
 62
    30
 10
-774.9999889999998
 20
627.92083899999989
 30
0.0
 40
10.0
  0
LINE
  5
704
  8
SIZE
  6
CONTINUOUS
 62
    30
 10
-774.9999889999998
 20
627.92083899999989
 30
0.0
 11
-794.99998899999991
 21
627.92083899999989
 31
0.0
  0
CIRCLE
  5
705
  8
SIZE
  6
CONTINUOUS
 62
    30
 10
-774.9999889999998
 20
627.92083899999989
 30
0.0
 40
10.0
  0
LINE
  5
706
  8
SIZE
  6
CONTINUOUS
 62
    30
 10
-785.0
 20
732.15000999999995
 30
0.0
 11
-775.0
 21
732.15000999999995
 31
0.0
  0
TEXT
  5
707
  8
SIZE
  6
CONTINUOUS
 62
    30
 10
-925.85713142857128
 20
645.920839
 30
0.0
 40
50.0
  1
20
 41
0.9
 72
     1
 11
-889.42855999999995
 21
645.920839
 31
0.0
  0
LINE
  5
708
  8
SIZE
  6
CONTINUOUS
 62
    30
 10
-814.99998900000003
 20
627.92083899999989
 30
0.0
 11
-943.85713199999987
 21
627.92083899999989
 31
0.0
  0
POINT
  5
709
  8
DEFPOINTS
  6
CONTINUOUS
 62
     7
 10
-794.99998899999991
 20
627.92083899999989
 30
0.0
  0
LINE
  5
70A
  8
SIZE
  6
CONTINUOUS
 62
    30
 10
-804.9999889999998
 20
627.92083899999989
 30
0.0
 11
-814.99998900000003
 21
627.92083899999989
 31
0.0
  0
CIRCLE
  5
70B
  8
SIZE
  6
CONTINUOUS
 62
    30
 10
-794.99998899999991
 20
627.92083899999989
 30
0.0
 40
10.0
  0
POINT
  5
70C
  8
DEFPOINTS
  6
CONTINUOUS
 62
     7
 10
-795.0
 20
732.15000999999995
 30
0.0
  0
CIRCLE
  5
70D
  8
SIZE
  6
CONTINUOUS
 62
    30
 10
-795.0
 20
732.15000999999995
 30
0.0
 40
10.0
  0
LINE
  5
70E
  8
SIZE
  6
CONTINUOUS
 62
    30
 10
-764.99998899999991
 20
627.92083899999989
 30
0.0
 11
-754.99998899999991
 21
627.92083899999989
 31
0.0
  0
LINE
  5
70F
  8
SIZE
  6
CONTINUOUS
 62
    30
 10
-754.99998899999991
 20
627.92083899999989
 30
0.0
 11
-734.99998899999991
 21
627.92083899999989
 31
0.0
  0
POINT
  5
710
  8
DEFPOINTS
  6
CONTINUOUS
 62
     7
 10
-774.9999889999998
 20
627.92083899999989
 30
0.0
  0
LINE
  5
711
  8
SIZE
  6
CONTINUOUS
 62
    30
 10
-764.99998899999991
 20
627.92083899999989
 30
0.0
 11
-754.99998899999991
 21
627.92083899999989
 31
0.0
  0
CIRCLE
  5
712
  8
ARRANGE
  6
CONTINUOUS
 62
     1
 10
0.0
 20
0.0
 30
0.0
 40
50.0
  0
LINE
  5
713
  8
BASIS
  6
DASHDOT
 62
     6
 10
0.0
 20
500.0
 30
0.0
 11
0.0
 21
-500.0
 31
0.0
  0
TEXT
  5
714
  8
SIZE
  6
CONTINUOUS
 62
    30
 10
1176.696833
 20
-128.918567
 30
0.0
 40
50.0
  1
(吊りボルトピッチ)
 50
90.0
 41
0.9
 72
     1
 11
1176.696833
 21
109.581433
 31
0.0
  0
TEXT
  5
715
  8
SIZE
  6
CONTINUOUS
 62
    30
 10
1248.3302349999999
 20
-88.971889428571416
 30
0.0
 40
55.0
  1
710
 50
90.0
 41
0.9
 72
     1
 11
1248.3302349999999
 21
-30.043317999999999
 31
0.0
  0
LINE
  5
716
  8
SIZE
  6
CONTINUOUS
 62
    30
 10
1269.8260909999999
 20
336.5
 30
0.0
 11
1269.8260909999999
 21
-333.5
 31
0.0
  0
TEXT
  5
717
  8
SIZE
  6
CONTINUOUS
 62
    30
 10
1408.635303
 20
-84.138227285714265
 30
0.0
 40
50.0
  1
566（天井開口寸法）
 50
90.0
 41
0.9
 72
     1
 11
1408.635303
 21
178.14748700000001
 31
0.0
  0
LINE
  5
718
  8
SIZE
  6
CONTINUOUS
 62
    30
 10
1426.635303
 20
425.50001099999997
 30
0.0
 11
1426.635303
 21
-100.499989
 31
0.0
  0
LINE
  5
719
  8
SERVICESPACE
  6
DASHDOT
 62
     2
 10
775.0
 20
445.5
 30
0.0
 11
775.0
 21
-120.5
 31
0.0
  0
LINE
  5
71A
  8
OUTLINE
  6
CONTINUOUS
 62
     3
 10
755.0
 20
-387.5
 30
0.0
 11
755.0
 21
387.5
 31
0.0
  0
LINE
  5
71B
  8
OUTLINE
  6
CONTINUOUS
 62
     3
 10
795.0
 20
446.49999999999989
 30
0.0
 11
795.0
 21
-121.5
 31
0.0
  0
LINE
  5
71C
  8
DETAIL
  6
CONTINUOUS
 62
     5
 10
795.0
 20
446.49999999999989
 30
0.0
 11
795.0
 21
-121.5
 31
0.0
  0
LINE
  5
71D
  8
ARRANGE
  6
CONTINUOUS
 62
     1
 10
49.963763
 20
49.596595000000001
 30
0.0
 11
-49.963763
 21
-49.596595000000001
 31
0.0
  0
LINE
  5
71E
  8
ARRANGE
  6
CONTINUOUS
 62
     1
 10
50.037350000000004
 20
-49.522353000000003
 30
0.0
 11
-50.037350000000004
 21
49.522353000000003
 31
0.0
  0
LINE
  5
71F
  8
DETAIL
  6
CONTINUOUS
 62
     5
 10
755.0
 20
-336.49795399999999
 30
0.0
 11
755.0
 21
339.48786799999999
 31
0.0
  0
TEXT
  5
720
  8
NOTE
  6
CONTINUOUS
 62
     4
 10
93.51673000000001
 20
-239.46656400000001
 30
0.0
 40
60.0
  1
%%C200 吹出円形フランジ
 50
0.000003
 41
0.7
  7
STANDARD1
  0
LINE
  5
721
  8
NOTE
  6
CONTINUOUS
 62
     4
 10
671.46042199999999
 20
-254.26223100000001
 30
0.0
 11
77.141987999999998
 21
-254.26223100000001
 31
0.0
  0
LINE
  5
722
  8
DETAIL
  6
CONTINUOUS
 62
     5
 10
602.50003000000004
 20
-457.49988699999989
 30
0.0
 11
407.50002999999998
 21
-457.49988699999989
 31
0.0
  0
LINE
  5
723
  8
DETAIL
  6
CONTINUOUS
 62
     5
 10
405.00002999999992
 20
-417.499887
 30
0.0
 11
605.00003000000004
 21
-417.499887
 31
0.0
  0
LINE
  5
724
  8
NOTE
  6
CONTINUOUS
 62
     4
 10
433.05548499999992
 20
-457.5
 30
0.0
 11
576.94451500000002
 21
-457.5
 31
0.0
  0
LINE
  5
725
  8
SIZE
  6
CONTINUOUS
 62
    30
 10
525.0
 20
-584.44268399999987
 30
0.0
 11
735.0
 21
-584.44268399999987
 31
0.0
  0
LINE
  5
726
  8
SIZE
  6
CONTINUOUS
 62
    30
 10
505.0
 20
-547.44451500000002
 30
0.0
 11
505.0
 21
-614.44268399999999
 31
0.0
  0
LINE
  5
727
  8
SIZE
  6
CONTINUOUS
 62
    30
 10
505.0
 20
-547.44451500000002
 30
0.0
 11
505.0
 21
-614.44268399999999
 31
0.0
  0
LINE
  5
728
  8
SIZE
  6
CONTINUOUS
 62
    30
 10
185.0
 20
-547.44451500000002
 30
0.0
 11
185.0
 21
-614.44268399999999
 31
0.0
  0
LINE
  5
729
  8
SIZE
  6
CONTINUOUS
 62
    30
 10
185.0
 20
-547.44451500000002
 30
0.0
 11
185.0
 21
-614.44268399999999
 31
0.0
  0
LINE
  5
72A
  8
SIZE
  6
CONTINUOUS
 62
    30
 10
-135.0
 20
-547.44451500000002
 30
0.0
 11
-135.0
 21
-614.44268399999999
 31
0.0
  0
LINE
  5
72B
  8
SIZE
  6
CONTINUOUS
 62
    30
 10
-135.0
 20
-547.44451500000002
 30
0.0
 11
-135.0
 21
-614.44268399999999
 31
0.0
  0
TEXT
  5
72C
  8
SIZE
  6
CONTINUOUS
 62
    30
 10
-319.9285714285715
 20
-683.58866
 30
0.0
 40
50.0
  1
1496(吊りボルトピッチ)
 41
0.9
 72
     1
 11
0.0
 21
-683.58866
 31
0.0
  0
TEXT
  5
72D
  8
SIZE
  6
CONTINUOUS
 62
    30
 10
-70.714285714285708
 20
-791.56342900000004
 30
0.0
 40
50.0
  1
1510
 41
0.9
 72
     1
 11
0.0
 21
-791.56342900000004
 31
0.0
  0
TEXT
  5
72E
  8
SIZE
  6
CONTINUOUS
 62
    30
 10
-75.0
 20
-891.05798400000003
 30
0.0
 40
50.0
  1
1542
 41
0.9
 72
     1
 11
0.0
 21
-891.05798400000003
 31
0.0
  0
LINE
  5
72F
  8
DETAIL
  6
CONTINUOUS
 62
     5
 10
85.00003000000001
 20
-417.499887
 30
0.0
 11
285.00002999999998
 21
-417.499887
 31
0.0
  0
LINE
  5
730
  8
DETAIL
  6
CONTINUOUS
 62
     5
 10
87.50003000000001
 20
-457.49988699999989
 30
0.0
 11
282.50002999999998
 21
-457.49988699999989
 31
0.0
  0
LINE
  5
731
  8
SIZE
  6
CONTINUOUS
 62
    30
 10
-115.0
 20
-584.44268399999987
 30
0.0
 11
165.0
 21
-584.44268399999987
 31
0.0
  0
LINE
  5
732
  8
NOTE
  6
CONTINUOUS
 62
     4
 10
113.055485
 20
-457.5
 30
0.0
 11
256.94451499999991
 21
-457.5
 31
0.0
  0
LINE
  5
737
  8
DETAIL
  6
CONTINUOUS
 62
     5
 10
-232.49996999999999
 20
-457.49988699999989
 30
0.0
 11
-37.499969999999998
 21
-457.49988699999989
 31
0.0
  0
LINE
  5
738
  8
DETAIL
  6
CONTINUOUS
 62
     5
 10
-234.99996999999999
 20
-417.499887
 30
0.0
 11
-34.999969999999998
 21
-417.499887
 31
0.0
  0
LINE
  5
739
  8
NOTE
  6
CONTINUOUS
 62
     4
 10
-206.944515
 20
-457.5
 30
0.0
 11
-63.055484999999997
 21
-457.5
 31
0.0
  0
LINE
  5
73A
  8
NOTE
  6
CONTINUOUS
 62
     4
 10
-135.0
 20
-385.55548499999998
 30
0.0
 11
-135.0
 21
-529.44451500000002
 31
0.0
  0
POINT
  5
73B
  8
DEFPOINTS
  6
CONTINUOUS
 62
     7
 10
-135.0
 20
-529.44451500000002
 30
0.0
  0
LINE
  5
73C
  8
SIZE
  6
CONTINUOUS
 62
    30
 10
-125.0
 20
-584.44268399999987
 30
0.0
 11
-115.0
 21
-584.44268399999987
 31
0.0
  0
CIRCLE
  5
73D
  8
SIZE
  6
CONTINUOUS
 62
    30
 10
-135.0
 20
-584.44268399999987
 30
0.0
 40
10.0
  0
POINT
  5
73E
  8
DEFPOINTS
  6
CONTINUOUS
 62
     7
 10
-135.0
 20
-584.44268399999987
 30
0.0
  0
POINT
  5
73F
  8
DEFPOINTS
  6
CONTINUOUS
 62
     7
 10
-135.0
 20
-529.44451500000002
 30
0.0
  0
LINE
  5
740
  8
SIZE
  6
CONTINUOUS
 62
    30
 10
-145.0
 20
-584.44268399999987
 30
0.0
 11
-155.0
 21
-584.44268399999987
 31
0.0
  0
CIRCLE
  5
741
  8
SIZE
  6
CONTINUOUS
 62
    30
 10
-135.0
 20
-584.44268399999987
 30
0.0
 40
10.0
  0
LINE
  5
743
  8
DETAIL
  6
CONTINUOUS
 62
     5
 10
-232.49996999999999
 20
-457.49988699999989
 30
0.0
 11
-234.99996999999999
 21
-417.499887
 31
0.0
  0
ARC
  5
745
  8
DETAIL
  6
CONTINUOUS
 62
     5
 10
-304.06852597697451
 20
-568.78291307091115
 30
0.0
 40
166.30399695111501
 50
65.460840553042274
 51
86.874110897533043
  0
LINE
  5
746
  8
NOTE
  6
CONTINUOUS
 62
     4
 10
-135.0
 20
-457.5
 30
0.0
 11
-118.89797799999999
 21
-430.94172500000002
 31
0.0
  0
LINE
  5
747
  8
NOTE
  6
CONTINUOUS
 62
     4
 10
-107.77610199999999
 20
-442.55086999999997
 30
0.0
 11
-135.0
 21
-457.5
 31
0.0
  0
TEXT
  5
748
  8
SIZE
  6
CONTINUOUS
 62
    30
 10
-32.857142857142861
 20
-566.44268399999987
 30
0.0
 40
50.0
  1
320
 41
0.9
 72
     1
 11
25.0
 21
-566.44268399999987
 31
0.0
  0
ARC
  5
749
  8
DETAIL
  6
CONTINUOUS
 62
     5
 10
28.704383933694061
 20
-546.99718797141622
 30
0.0
 40
144.318382990494
 50
91.470825653247786
 51
116.1942228961768
  0
LINE
  5
74B
  8
DETAIL
  6
CONTINUOUS
 62
     5
 10
-37.499969999999998
 20
-457.49988699999989
 30
0.0
 11
-34.999969999999998
 21
-417.499887
 31
0.0
  0
ARC
  5
74F
  8
DETAIL
  6
CONTINUOUS
 62
     5
 10
20.291801242586189
 20
-551.07424188687401
 30
0.0
 40
148.422583026864
 50
64.152780752170372
 51
88.182170698405045
  0
LINE
  5
750
  8
DETAIL
  6
CONTINUOUS
 62
     5
 10
87.50003000000001
 20
-457.49988699999989
 30
0.0
 11
85.00003000000001
 21
-417.499887
 31
0.0
  0
ARC
  5
751
  8
DETAIL
  6
CONTINUOUS
 62
     5
 10
344.66936940910409
 20
-530.60971477485646
 30
0.0
 40
127.883787888757
 50
89.851854118360393
 51
117.81319443106401
  0
TEXT
  5
752
  8
SIZE
  6
CONTINUOUS
 62
    30
 10
287.14285714285711
 20
-566.44268399999987
 30
0.0
 40
50.0
  1
320
 41
0.9
 72
     1
 11
345.0
 21
-566.44268399999987
 31
0.0
  0
LINE
  5
753
  8
SIZE
  6
CONTINUOUS
 62
    30
 10
205.0
 20
-584.44268399999987
 30
0.0
 11
485.0
 21
-584.44268399999987
 31
0.0
  0
LINE
  5
754
  8
NOTE
  6
CONTINUOUS
 62
     4
 10
185.0
 20
-385.55548499999998
 30
0.0
 11
185.0
 21
-529.44451500000002
 31
0.0
  0
POINT
  5
755
  8
DEFPOINTS
  6
CONTINUOUS
 62
     7
 10
185.0
 20
-529.44451500000002
 30
0.0
  0
LINE
  5
756
  8
SIZE
  6
CONTINUOUS
 62
    30
 10
195.0
 20
-584.44268399999987
 30
0.0
 11
205.0
 21
-584.44268399999987
 31
0.0
  0
CIRCLE
  5
757
  8
SIZE
  6
CONTINUOUS
 62
    30
 10
185.0
 20
-584.44268399999987
 30
0.0
 40
10.0
  0
POINT
  5
758
  8
DEFPOINTS
  6
CONTINUOUS
 62
     7
 10
185.0
 20
-584.44268399999987
 30
0.0
  0
POINT
  5
759
  8
DEFPOINTS
  6
CONTINUOUS
 62
     7
 10
185.0
 20
-529.44451500000002
 30
0.0
  0
LINE
  5
75A
  8
SIZE
  6
CONTINUOUS
 62
    30
 10
175.0
 20
-584.44268399999987
 30
0.0
 11
165.0
 21
-584.44268399999987
 31
0.0
  0
CIRCLE
  5
75B
  8
SIZE
  6
CONTINUOUS
 62
    30
 10
185.0
 20
-584.44268399999987
 30
0.0
 40
10.0
  0
LINE
  5
75D
  8
DETAIL
  6
CONTINUOUS
 62
     5
 10
282.50002999999998
 20
-457.49988699999989
 30
0.0
 11
285.00002999999998
 21
-417.499887
 31
0.0
  0
LINE
  5
75F
  8
NOTE
  6
CONTINUOUS
 62
     4
 10
505.0
 20
-385.55548499999998
 30
0.0
 11
505.0
 21
-529.44451500000002
 31
0.0
  0
POINT
  5
760
  8
DEFPOINTS
  6
CONTINUOUS
 62
     7
 10
505.0
 20
-529.44451500000002
 30
0.0
  0
LINE
  5
761
  8
SIZE
  6
CONTINUOUS
 62
    30
 10
515.0
 20
-584.44268399999987
 30
0.0
 11
525.0
 21
-584.44268399999987
 31
0.0
  0
CIRCLE
  5
762
  8
SIZE
  6
CONTINUOUS
 62
    30
 10
505.0
 20
-584.44268399999987
 30
0.0
 40
10.0
  0
POINT
  5
763
  8
DEFPOINTS
  6
CONTINUOUS
 62
     7
 10
505.0
 20
-584.44268399999987
 30
0.0
  0
POINT
  5
764
  8
DEFPOINTS
  6
CONTINUOUS
 62
     7
 10
505.0
 20
-529.44451500000002
 30
0.0
  0
LINE
  5
765
  8
SIZE
  6
CONTINUOUS
 62
    30
 10
495.0
 20
-584.44268399999987
 30
0.0
 11
485.0
 21
-584.44268399999987
 31
0.0
  0
CIRCLE
  5
766
  8
SIZE
  6
CONTINUOUS
 62
    30
 10
505.0
 20
-584.44268399999987
 30
0.0
 40
10.0
  0
ARC
  5
769
  8
DETAIL
  6
CONTINUOUS
 62
     5
 10
346.02911072674152
 20
-527.77320918451505
 30
0.0
 40
125.05108918175419
 50
61.863443146206052
 51
90.471508304369465
  0
LINE
  5
76A
  8
DETAIL
  6
CONTINUOUS
 62
     5
 10
407.50002999999998
 20
-457.49988699999989
 30
0.0
 11
405.00002999999992
 21
-417.499887
 31
0.0
  0
LINE
  5
76B
  8
SIZE
  6
CONTINUOUS
 62
    30
 10
755.0
 20
-405.49999999999989
 30
0.0
 11
755.0
 21
-839.56342900000004
 31
0.0
  0
LINE
  5
76C
  8
SIZE
  6
CONTINUOUS
 62
    30
 10
771.0
 20
-401.003533
 30
0.0
 11
771.0
 21
-939.05798400000003
 31
0.0
  0
LINE
  5
76D
  8
SIZE
  6
CONTINUOUS
 62
    30
 10
771.0
 20
-401.003533
 30
0.0
 11
771.0
 21
-839.56342900000004
 31
0.0
  0
LINE
  5
76E
  8
SIZE
  6
CONTINUOUS
 62
    30
 10
755.0
 20
-405.49999999999989
 30
0.0
 11
755.0
 21
-839.56342900000004
 31
0.0
  0
LINE
  5
76F
  8
SIZE
  6
CONTINUOUS
 62
    30
 10
771.0
 20
-401.003533
 30
0.0
 11
771.0
 21
-744.68389799999989
 31
0.0
  0
LINE
  5
770
  8
SIZE
  6
CONTINUOUS
 62
    30
 10
748.0
 20
-391.5
 30
0.0
 11
748.0
 21
-744.68389799999989
 31
0.0
  0
LINE
  5
771
  8
SIZE
  6
CONTINUOUS
 62
    30
 10
755.0
 20
-405.49999999999989
 30
0.0
 11
755.0
 21
-614.44268399999999
 31
0.0
  0
LINE
  5
772
  8
SIZE
  6
CONTINUOUS
 62
    30
 10
748.0
 20
-391.5
 30
0.0
 11
748.0
 21
-744.68389799999989
 31
0.0
  0
LINE
  5
773
  8
SIZE
  6
CONTINUOUS
 62
    30
 10
781.0
 20
-809.56342900000016
 30
0.0
 11
791.0
 21
-809.56342900000016
 31
0.0
  0
LINE
  5
774
  8
SIZE
  6
CONTINUOUS
 62
    30
 10
781.0
 20
-714.683898
 30
0.0
 11
791.0
 21
-714.683898
 31
0.0
  0
POINT
  5
775
  8
DEFPOINTS
  6
CONTINUOUS
 62
     7
 10
755.0
 20
-809.56342900000016
 30
0.0
  0
LINE
  5
776
  8
SIZE
  6
CONTINUOUS
 62
    30
 10
745.0
 20
-809.56342900000016
 30
0.0
 11
735.0
 21
-809.56342900000016
 31
0.0
  0
CIRCLE
  5
777
  8
SIZE
  6
CONTINUOUS
 62
    30
 10
755.0
 20
-809.56342900000016
 30
0.0
 40
10.0
  0
POINT
  5
778
  8
DEFPOINTS
  6
CONTINUOUS
 62
     7
 10
771.0
 20
-909.05798400000003
 30
0.0
  0
LINE
  5
779
  8
SIZE
  6
CONTINUOUS
 62
    30
 10
761.0
 20
-909.05798400000003
 30
0.0
 11
751.0
 21
-909.05798400000003
 31
0.0
  0
CIRCLE
  5
77A
  8
SIZE
  6
CONTINUOUS
 62
    30
 10
771.0
 20
-909.05798400000003
 30
0.0
 40
10.0
  0
POINT
  5
77B
  8
DEFPOINTS
  6
CONTINUOUS
 62
     7
 10
771.0
 20
-809.56342900000016
 30
0.0
  0
CIRCLE
  5
77C
  8
SIZE
  6
CONTINUOUS
 62
    30
 10
771.0
 20
-809.56342900000016
 30
0.0
 40
10.0
  0
LINE
  5
77D
  8
SIZE
  6
CONTINUOUS
 62
    30
 10
745.0
 20
-809.56342900000016
 30
0.0
 11
735.0
 21
-809.56342900000016
 31
0.0
  0
CIRCLE
  5
77E
  8
SIZE
  6
CONTINUOUS
 62
    30
 10
755.0
 20
-809.56342900000016
 30
0.0
 40
10.0
  0
LINE
  5
77F
  8
SIZE
  6
CONTINUOUS
 62
    30
 10
755.0
 20
-809.56342900000016
 30
0.0
 11
771.0
 21
-809.56342900000016
 31
0.0
  0
LINE
  5
780
  8
SIZE
  6
CONTINUOUS
 62
    30
 10
735.0
 20
-809.56342900000016
 30
0.0
 11
715.0
 21
-809.56342900000016
 31
0.0
  0
POINT
  5
781
  8
DEFPOINTS
  6
CONTINUOUS
 62
     7
 10
771.0
 20
-714.683898
 30
0.0
  0
CIRCLE
  5
782
  8
SIZE
  6
CONTINUOUS
 62
    30
 10
771.0
 20
-714.683898
 30
0.0
 40
10.0
  0
LINE
  5
783
  8
SIZE
  6
CONTINUOUS
 62
    30
 10
738.0
 20
-714.683898
 30
0.0
 11
728.0
 21
-714.683898
 31
0.0
  0
CIRCLE
  5
784
  8
SIZE
  6
CONTINUOUS
 62
    30
 10
748.0
 20
-714.683898
 30
0.0
 40
10.0
  0
LINE
  5
785
  8
SIZE
  6
CONTINUOUS
 62
    30
 10
748.0
 20
-714.683898
 30
0.0
 11
771.0
 21
-714.683898
 31
0.0
  0
LINE
  5
786
  8
SIZE
  6
CONTINUOUS
 62
    30
 10
728.0
 20
-714.683898
 30
0.0
 11
708.0
 21
-714.683898
 31
0.0
  0
POINT
  5
787
  8
DEFPOINTS
  6
CONTINUOUS
 62
     7
 10
748.0
 20
-714.683898
 30
0.0
  0
LINE
  5
788
  8
SIZE
  6
CONTINUOUS
 62
    30
 10
738.0
 20
-714.683898
 30
0.0
 11
728.0
 21
-714.683898
 31
0.0
  0
CIRCLE
  5
789
  8
SIZE
  6
CONTINUOUS
 62
    30
 10
748.0
 20
-714.683898
 30
0.0
 40
10.0
  0
TEXT
  5
78A
  8
SIZE
  6
CONTINUOUS
 62
    30
 10
829.00000042857141
 20
-791.56342900000004
 30
0.0
 40
50.0
  1
16
 41
0.9
 72
     1
 11
860.07142899999985
 21
-791.56342900000004
 31
0.0
  0
LINE
  5
78B
  8
SIZE
  6
CONTINUOUS
 62
    30
 10
791.0
 20
-809.56342900000016
 30
0.0
 11
909.14285700000005
 21
-809.56342900000016
 31
0.0
  0
LINE
  5
78C
  8
SIZE
  6
CONTINUOUS
 62
    30
 10
791.0
 20
-714.683898
 30
0.0
 11
919.85714299999995
 21
-714.683898
 31
0.0
  0
TEXT
  5
78D
  8
SIZE
  6
CONTINUOUS
 62
    30
 10
828.99999957142859
 20
-696.683898
 30
0.0
 40
50.0
  1
23
 41
0.9
 72
     1
 11
865.42857099999992
 21
-696.683898
 31
0.0
  0
LINE
  5
78E
  8
SIZE
  6
CONTINUOUS
 62
    30
 10
773.00001099999997
 20
-387.49998900000003
 30
0.0
 11
1287.8260909999999
 21
-387.5
 31
0.0
  0
LINE
  5
78F
  8
SIZE
  6
CONTINUOUS
 62
    30
 10
788.07640500000002
 20
-353.5
 30
0.0
 11
1287.8260909999999
 21
-353.5
 31
0.0
  0
LINE
  5
790
  8
SIZE
  6
CONTINUOUS
 62
    30
 10
788.07640500000002
 20
-353.5
 30
0.0
 11
1287.8260909999999
 21
-353.5
 31
0.0
  0
LINE
  5
791
  8
SIZE
  6
CONTINUOUS
 62
    30
 10
793.00001099999997
 20
-120.499989
 30
0.0
 11
1456.635303
 21
-120.499989
 31
0.0
  0
LINE
  5
792
  8
SIZE
  6
CONTINUOUS
 62
    30
 10
773.00001099999997
 20
-387.49998900000003
 30
0.0
 11
1457.3164119999999
 21
-387.49998900000003
 31
0.0
  0
LINE
  5
793
  8
SIZE
  6
CONTINUOUS
 62
    30
 10
793.00001099999997
 20
-120.499989
 30
0.0
 11
1457.3164119999999
 21
-120.499989
 31
0.0
  0
TEXT
  5
794
  8
SIZE
  6
CONTINUOUS
 62
    30
 10
572.14285714285711
 20
-566.44268399999987
 30
0.0
 40
50.0
  1
250
 41
0.9
 72
     1
 11
630.0
 21
-566.44268399999987
 31
0.0
  0
POINT
  5
795
  8
DEFPOINTS
  6
CONTINUOUS
 62
     7
 10
755.0
 20
-584.44268399999987
 30
0.0
  0
LINE
  5
796
  8
SIZE
  6
CONTINUOUS
 62
    30
 10
745.0
 20
-584.44268399999987
 30
0.0
 11
735.0
 21
-584.44268399999987
 31
0.0
  0
CIRCLE
  5
797
  8
SIZE
  6
CONTINUOUS
 62
    30
 10
755.0
 20
-584.44268399999987
 30
0.0
 40
10.0
  0
LINE
  5
798
  8
DETAIL
  6
CONTINUOUS
 62
     5
 10
719.36816409165704
 20
-395.48626640719488
 30
0.0
 11
613.83023200000002
 21
-405.570942
 31
0.0
  0
LINE
  5
799
  8
DETAIL
  6
CONTINUOUS
 62
     5
 10
602.50003000000004
 20
-457.49988699999989
 30
0.0
 11
605.42347000000007
 21
-414.61489999999992
 31
0.0
  0
ARC
  5
79A
  8
DETAIL
  6
CONTINUOUS
 62
     5
 10
617.47050287702825
 20
-417.3839452580649
 30
0.0
 40
12.36117360048851
 50
107.12709649163639
 51
167.05524133752391
  0
POINT
  5
79B
  8
DEFPOINTS
  6
CONTINUOUS
 62
     7
 10
755.0
 20
-387.5
 30
0.0
  0
POINT
  5
79C
  8
DEFPOINTS
  6
CONTINUOUS
 62
     7
 10
768.07640500000002
 20
-353.5
 30
0.0
  0
POINT
  5
79D
  8
DEFPOINTS
  6
CONTINUOUS
 62
     7
 10
768.07640500000002
 20
-353.5
 30
0.0
  0
POINT
  5
79E
  8
DEFPOINTS
  6
CONTINUOUS
 62
     7
 10
755.00001099999997
 20
-387.49998900000003
 30
0.0
  0
POINT
  5
79F
  8
DEFPOINTS
  6
CONTINUOUS
 62
     7
 10
755.0
 20
-387.5
 30
0.0
  0
POINT
  5
7A0
  8
DEFPOINTS
  6
CONTINUOUS
 62
     7
 10
755.0
 20
-387.5
 30
0.0
  0
POINT
  5
7A1
  8
DEFPOINTS
  6
CONTINUOUS
 62
     7
 10
771.0
 20
-383.003533
 30
0.0
  0
POINT
  5
7A2
  8
DEFPOINTS
  6
CONTINUOUS
 62
     7
 10
771.0
 20
-383.003533
 30
0.0
  0
POINT
  5
7A3
  8
DEFPOINTS
  6
CONTINUOUS
 62
     7
 10
755.0
 20
-387.5
 30
0.0
  0
POINT
  5
7A4
  8
DEFPOINTS
  6
CONTINUOUS
 62
     7
 10
771.0
 20
-383.003533
 30
0.0
  0
POINT
  5
7A5
  8
DEFPOINTS
  6
CONTINUOUS
 62
     7
 10
748.0
 20
-373.5
 30
0.0
  0
POINT
  5
7A6
  8
DEFPOINTS
  6
CONTINUOUS
 62
     7
 10
755.0
 20
-387.5
 30
0.0
  0
POINT
  5
7A7
  8
DEFPOINTS
  6
CONTINUOUS
 62
     7
 10
748.0
 20
-373.5
 30
0.0
  0
CIRCLE
  5
7A8
  8
FIX
  6
CONTINUOUS
 62
    11
 10
748.0
 20
-353.5
 30
0.0
 40
18.598564
  0
LINE
  5
7A9
  8
NOTE
  6
CONTINUOUS
 62
     4
 10
727.92359499999998
 20
-353.5
 30
0.0
 11
768.07640500000002
 21
-353.5
 31
0.0
  0
LINE
  5
7AA
  8
NOTE
  6
CONTINUOUS
 62
     4
 10
748.0
 20
-373.5
 30
0.0
 11
748.0
 21
-333.5
 31
0.0
  0
LINE
  5
7AB
  8
DETAIL
  6
CONTINUOUS
 62
     5
 10
755.0
 20
-387.5
 30
0.0
 11
755.0
 21
-370.50210900000002
 31
0.0
  0
LINE
  5
7AC
  8
DETAIL
  6
CONTINUOUS
 62
     5
 10
740.99916199999996
 20
-368.50178599999998
 30
0.0
 11
740.99916199999996
 21
-338.49819300000001
 31
0.0
  0
LINE
  5
7AD
  8
DETAIL
  6
CONTINUOUS
 62
     5
 10
752.99967600000002
 20
-338.49819300000001
 30
0.0
 11
740.99916199999996
 21
-338.49819300000001
 31
0.0
  0
LINE
  5
7AE
  8
DETAIL
  6
CONTINUOUS
 62
     5
 10
752.99967600000002
 20
-368.50178599999998
 30
0.0
 11
740.99916199999996
 21
-368.50178599999998
 31
0.0
  0
ARC
  5
7AF
  8
DETAIL
  6
CONTINUOUS
 62
     5
 10
752.99975999999992
 20
-336.49795399999999
 30
0.0
 40
2.0002399999999998
 50
269.997589
 51
0.0
  0
ARC
  5
7B0
  8
DETAIL
  6
CONTINUOUS
 62
     5
 10
752.99975999999992
 20
-370.502025
 30
0.0
 40
2.0002399999999998
 50
359.99759
 51
90.002410999999995
  0
LINE
  5
7B1
  8
DETAIL
  6
CONTINUOUS
 62
     5
 10
740.99916199999996
 20
-361.50095800000003
 30
0.0
 11
740.99916199999996
 21
-345.49904199999997
 31
0.0
  0
LINE
  5
7B2
  8
DETAIL
  6
CONTINUOUS
 62
     5
 10
771.0
 20
-347.499281
 30
0.0
 11
771.0
 21
-323.996467
 31
0.0
  0
LINE
  5
7B3
  8
DETAIL
  6
CONTINUOUS
 62
     5
 10
755.00083800000004
 20
-359.500719
 30
0.0
 11
771.0
 21
-359.500719
 31
0.0
  0
LINE
  5
7B4
  8
DETAIL
  6
CONTINUOUS
 62
     5
 10
755.00083800000004
 20
-347.499281
 30
0.0
 11
771.0
 21
-347.499281
 31
0.0
  0
LINE
  5
7B5
  8
DETAIL
  6
CONTINUOUS
 62
     5
 10
771.0
 20
-383.003533
 30
0.0
 11
771.0
 21
-359.500719
 31
0.0
  0
LINE
  5
7B6
  8
DETAIL
  6
CONTINUOUS
 62
     5
 10
755.0
 20
-323.996467
 30
0.0
 11
771.0
 21
-323.996467
 31
0.0
  0
LINE
  5
7B7
  8
DETAIL
  6
CONTINUOUS
 62
     5
 10
755.0
 20
-383.003533
 30
0.0
 11
771.0
 21
-383.003533
 31
0.0
  0
LINE
  5
7B8
  8
DETAIL
  6
CONTINUOUS
 62
     5
 10
755.00083800000004
 20
-347.499281
 30
0.0
 11
755.00083800000004
 21
-345.49904199999997
 31
0.0
  0
ARC
  5
7B9
  8
DETAIL
  6
CONTINUOUS
 62
     5
 10
748.0
 20
-361.50095800000003
 30
0.0
 40
7.0008379999999999
 50
180.0
 51
0.0
  0
ARC
  5
7BA
  8
DETAIL
  6
CONTINUOUS
 62
     5
 10
748.0
 20
-345.49904199999997
 30
0.0
 40
7.0008379999999999
 50
0.0
 51
180.0
  0
LINE
  5
7BB
  8
DETAIL
  6
CONTINUOUS
 62
     5
 10
755.00083800000004
 20
-361.50095800000003
 30
0.0
 11
755.00083800000004
 21
-359.500719
 31
0.0
  0
LINE
  5
7BC
  8
DETAIL
  6
CONTINUOUS
 62
     5
 10
723.02610700000002
 20
-389.50024000000002
 30
0.0
 11
723.02610700000002
 21
-391.50047899999998
 31
0.0
  0
ARC
  5
7BD
  8
DETAIL
  6
CONTINUOUS
 62
     5
 10
725.02634599999999
 20
-389.50024000000002
 30
0.0
 40
2.0002399999999998
 50
90.0
 51
180.0
  0
ARC
  5
7BE
  8
DETAIL
  6
CONTINUOUS
 62
     5
 10
719.02562799999987
 20
-391.50047899999998
 30
0.0
 40
4.0004790000000003
 50
274.91189500000002
 51
0.0
  0
ARC
  5
7BF
  8
OUTLINE
  6
CONTINUOUS
 62
     3
 10
779.0
 20
-121.5
 30
0.0
 40
16.0
 50
270.0
 51
0.0
  0
ARC
  5
7C0
  8
DETAIL
  6
CONTINUOUS
 62
     5
 10
779.0
 20
-121.5
 30
0.0
 40
16.0
 50
270.0
 51
0.0
  0
POINT
  5
7C1
  8
DEFPOINTS
  6
CONTINUOUS
 62
     7
 10
775.00001100000009
 20
-120.499989
 30
0.0
  0
POINT
  5
7C2
  8
DEFPOINTS
  6
CONTINUOUS
 62
     7
 10
775.00001100000009
 20
-120.499989
 30
0.0
  0
LINE
  5
7C3
  8
OUTLINE
  6
CONTINUOUS
 62
     3
 10
755.0
 20
-137.5
 30
0.0
 11
779.0
 21
-137.5
 31
0.0
  0
POINT
  5
7C4
  8
DEFPOINTS
  6
CONTINUOUS
 62
     7
 10
779.0
 20
-137.5
 30
0.0
  0
POINT
  5
7C5
  8
DEFPOINTS
  6
CONTINUOUS
 62
     7
 10
779.0
 20
-137.5
 30
0.0
  0
LINE
  5
7C6
  8
DETAIL
  6
CONTINUOUS
 62
     5
 10
755.0
 20
-137.5
 30
0.0
 11
779.0
 21
-137.5
 31
0.0
  0
TEXT
  5
7C7
  8
SIZE
  6
CONTINUOUS
 62
    30
 10
1409.3164119999999
 20
-311.8571318571428
 30
0.0
 40
50.0
  1
267
 50
90.0
 41
0.9
 72
     1
 11
1409.3164119999999
 21
-253.999989
 31
0.0
  0
LINE
  5
7C8
  8
SIZE
  6
CONTINUOUS
 62
    30
 10
1427.3164119999999
 20
-140.499989
 30
0.0
 11
1427.3164119999999
 21
-367.49998900000003
 31
0.0
  0
TEXT
  5
7C9
  8
SIZE
  6
CONTINUOUS
 62
    30
 10
1251.8260909999999
 20
-541.02015199999994
 30
0.0
 40
55.0
  1
34
 50
90.0
 41
0.9
 72
     1
 11
1251.8260909999999
 21
-499.77015199999988
 31
0.0
  0
LINE
  5
7CA
  8
SIZE
  6
CONTINUOUS
 62
    30
 10
1269.8260909999999
 20
-559.02015199999994
 30
0.0
 11
1269.8260909999999
 21
-387.5
 31
0.0
  0
POINT
  5
7CB
  8
DEFPOINTS
  6
CONTINUOUS
 62
     7
 10
1269.8260909999999
 20
-387.5
 30
0.0
  0
LINE
  5
7CC
  8
SIZE
  6
CONTINUOUS
 62
    30
 10
1269.8260909999999
 20
-397.5
 30
0.0
 11
1269.8260909999999
 21
-407.5
 31
0.0
  0
CIRCLE
  5
7CD
  8
SIZE
  6
CONTINUOUS
 62
    30
 10
1269.8260909999999
 20
-387.5
 30
0.0
 40
10.0
  0
LINE
  5
7CE
  8
SIZE
  6
CONTINUOUS
 62
    30
 10
1269.8260909999999
 20
-343.5
 30
0.0
 11
1269.8260909999999
 21
-333.5
 31
0.0
  0
CIRCLE
  5
7CF
  8
SIZE
  6
CONTINUOUS
 62
    30
 10
1269.8260909999999
 20
-353.5
 30
0.0
 40
10.0
  0
LINE
  5
7D0
  8
SIZE
  6
CONTINUOUS
 62
    30
 10
1269.8260909999999
 20
-353.5
 30
0.0
 11
1269.8260909999999
 21
-387.5
 31
0.0
  0
LINE
  5
7D1
  8
SIZE
  6
CONTINUOUS
 62
    30
 10
1269.8260909999999
 20
-407.5
 30
0.0
 11
1269.8260909999999
 21
-427.5
 31
0.0
  0
LINE
  5
7D2
  8
SIZE
  6
CONTINUOUS
 62
    30
 10
1269.8260909999999
 20
-333.5
 30
0.0
 11
1269.8260909999999
 21
-313.5
 31
0.0
  0
POINT
  5
7D3
  8
DEFPOINTS
  6
CONTINUOUS
 62
     7
 10
1269.8260909999999
 20
-353.5
 30
0.0
  0
LINE
  5
7D4
  8
SIZE
  6
CONTINUOUS
 62
    30
 10
1269.8260909999999
 20
-343.5
 30
0.0
 11
1269.8260909999999
 21
-333.5
 31
0.0
  0
CIRCLE
  5
7D5
  8
SIZE
  6
CONTINUOUS
 62
    30
 10
1269.8260909999999
 20
-353.5
 30
0.0
 40
10.0
  0
POINT
  5
7D6
  8
DEFPOINTS
  6
CONTINUOUS
 62
     7
 10
1427.3164119999999
 20
-387.49998900000003
 30
0.0
  0
LINE
  5
7D7
  8
SIZE
  6
CONTINUOUS
 62
    30
 10
1427.3164119999999
 20
-377.49998900000003
 30
0.0
 11
1427.3164119999999
 21
-367.49998900000003
 31
0.0
  0
CIRCLE
  5
7D8
  8
SIZE
  6
CONTINUOUS
 62
    30
 10
1427.3164119999999
 20
-387.49998900000003
 30
0.0
 40
10.0
  0
POINT
  5
7D9
  8
DEFPOINTS
  6
CONTINUOUS
 62
     7
 10
1426.635303
 20
-120.499989
 30
0.0
  0
LINE
  5
7DA
  8
SIZE
  6
CONTINUOUS
 62
    30
 10
1426.635303
 20
-110.499989
 30
0.0
 11
1426.635303
 21
-100.499989
 31
0.0
  0
CIRCLE
  5
7DB
  8
SIZE
  6
CONTINUOUS
 62
    30
 10
1426.635303
 20
-120.499989
 30
0.0
 40
10.0
  0
LINE
  5
7DC
  8
SIZE
  6
CONTINUOUS
 62
    30
 10
1427.3164119999999
 20
-130.499989
 30
0.0
 11
1427.3164119999999
 21
-140.499989
 31
0.0
  0
CIRCLE
  5
7DD
  8
SIZE
  6
CONTINUOUS
 62
    30
 10
1427.3164119999999
 20
-120.499989
 30
0.0
 40
10.0
  0
TEXT
  5
7DE
  8
SIZE
  6
CONTINUOUS
 62
    30
 10
-279.42856042857147
 20
645.920839
 30
0.0
 40
50.0
  1
1550（天井開口寸法）
 41
0.9
 72
     1
 11
0.000011
 21
645.920839
 31
0.0
  0
TEXT
  5
7DF
  8
SIZE
  6
CONTINUOUS
 62
    30
 10
-74.999999999999972
 20
750.15000999999995
 30
0.0
 40
50.0
  1
1590
 41
0.9
 72
     1
 11
0.0
 21
750.15000999999995
 31
0.0
  0
LINE
  5
7E0
  8
SIZE
  6
CONTINUOUS
 62
    30
 10
1269.8260909999999
 20
427.5
 30
0.0
 11
1269.8260909999999
 21
618.64285700000005
 31
0.0
  0
LINE
  5
7E1
  8
SIZE
  6
CONTINUOUS
 62
    30
 10
795.00001100000009
 20
464.50001099999997
 30
0.0
 11
795.00001100000009
 21
657.92083899999989
 31
0.0
  0
LINE
  5
7E2
  8
SIZE
  6
CONTINUOUS
 62
    30
 10
775.00001100000009
 20
463.50001099999997
 30
0.0
 11
775.00001100000009
 21
657.92083899999989
 31
0.0
  0
LINE
  5
7E3
  8
SIZE
  6
CONTINUOUS
 62
    30
 10
775.00001100000009
 20
463.50001099999997
 30
0.0
 11
775.00001100000009
 21
657.92083899999989
 31
0.0
  0
LINE
  5
7EC
  8
SIZE
  6
CONTINUOUS
 62
    30
 10
795.0
 20
464.5
 30
0.0
 11
795.0
 21
762.15000999999995
 31
0.0
  0
LINE
  5
7ED
  8
SIZE
  6
CONTINUOUS
 62
    30
 10
773.0
 20
387.5
 30
0.0
 11
1287.8260909999999
 21
387.5
 31
0.0
  0
LINE
  5
7EE
  8
SIZE
  6
CONTINUOUS
 62
    30
 10
799.0
 20
462.5
 30
0.0
 11
1287.8260909999999
 21
462.5
 31
0.0
  0
LINE
  5
7EF
  8
SIZE
  6
CONTINUOUS
 62
    30
 10
788.07640500000002
 20
356.5
 30
0.0
 11
1287.8260909999999
 21
356.5
 31
0.0
  0
LINE
  5
7F0
  8
SIZE
  6
CONTINUOUS
 62
    30
 10
788.07640500000002
 20
356.5
 30
0.0
 11
1287.8260909999999
 21
356.5
 31
0.0
  0
LINE
  5
7F1
  8
SIZE
  6
CONTINUOUS
 62
    30
 10
773.0
 20
387.5
 30
0.0
 11
1287.8260909999999
 21
387.5
 31
0.0
  0
LINE
  5
7F2
  8
SIZE
  6
CONTINUOUS
 62
    30
 10
799.00001100000009
 20
462.50001099999997
 30
0.0
 11
1444.635303
 21
462.50001099999997
 31
0.0
  0
LINE
  5
7F3
  8
SIZE
  6
CONTINUOUS
 62
    30
 10
795.00001100000009
 20
445.50001099999997
 30
0.0
 11
1444.635303
 21
445.50001099999997
 31
0.0
  0
LINE
  5
7F4
  8
SIZE
  6
CONTINUOUS
 62
    30
 10
793.00001099999997
 20
445.50001099999997
 30
0.0
 11
1456.635303
 21
445.50001099999997
 31
0.0
  0
ARC
  5
802
  8
OUTLINE
  6
CONTINUOUS
 62
     3
 10
779.0
 20
446.49999999999989
 30
0.0
 40
16.0
 50
0.0
 51
90.0
  0
ARC
  5
803
  8
DETAIL
  6
CONTINUOUS
 62
     5
 10
779.0
 20
446.49999999999989
 30
0.0
 40
16.0
 50
0.0
 51
90.0
  0
POINT
  5
804
  8
DEFPOINTS
  6
CONTINUOUS
 62
     7
 10
768.07640500000002
 20
356.5
 30
0.0
  0
POINT
  5
805
  8
DEFPOINTS
  6
CONTINUOUS
 62
     7
 10
768.07640500000002
 20
356.5
 30
0.0
  0
POINT
  5
807
  8
DEFPOINTS
  6
CONTINUOUS
 62
     7
 10
775.00001100000009
 20
445.50001099999997
 30
0.0
  0
POINT
  5
808
  8
DEFPOINTS
  6
CONTINUOUS
 62
     7
 10
775.00001100000009
 20
445.50001099999997
 30
0.0
  0
POINT
  5
809
  8
DEFPOINTS
  6
CONTINUOUS
 62
     7
 10
775.00001100000009
 20
445.50001099999997
 30
0.0
  0
POINT
  5
80A
  8
DEFPOINTS
  6
CONTINUOUS
 62
     7
 10
775.00001100000009
 20
445.50001099999997
 30
0.0
  0
LINE
  5
80B
  8
NOTE
  6
CONTINUOUS
 62
     4
 10
748.0
 20
356.5
 30
0.0
 11
763.35279800000001
 21
383.49830900000001
 31
0.0
  0
LINE
  5
80C
  8
NOTE
  6
CONTINUOUS
 62
     4
 10
774.79506800000001
 20
372.20482199999998
 30
0.0
 11
748.0
 21
356.5
 31
0.0
  0
ARC
  5
80E
  8
DETAIL
  6
CONTINUOUS
 62
     5
 10
753.0
 20
373.49146000000002
 30
0.0
 40
2.0
 50
270.0
 51
0.0
  0
ARC
  5
80F
  8
DETAIL
  6
CONTINUOUS
 62
     5
 10
753.0
 20
339.48786799999999
 30
0.0
 40
2.0
 50
0.0
 51
90.0
  0
CIRCLE
  5
810
  8
FIX
  6
CONTINUOUS
 62
    11
 10
748.0
 20
356.5
 30
0.0
 40
18.598564
  0
LINE
  5
811
  8
NOTE
  6
CONTINUOUS
 62
     4
 10
727.92359499999998
 20
356.5
 30
0.0
 11
768.07640500000002
 21
356.5
 31
0.0
  0
LINE
  5
812
  8
NOTE
  6
CONTINUOUS
 62
     4
 10
748.0
 20
336.5
 30
0.0
 11
748.0
 21
376.5
 31
0.0
  0
LINE
  5
813
  8
DETAIL
  6
CONTINUOUS
 62
     5
 10
755.0
 20
373.49146000000002
 30
0.0
 11
755.0
 21
387.5
 31
0.0
  0
LINE
  5
814
  8
DETAIL
  6
CONTINUOUS
 62
     5
 10
740.99916199999996
 20
341.49820399999999
 30
0.0
 11
740.99916199999996
 21
371.50181933449721
 31
0.0
  0
LINE
  5
815
  8
DETAIL
  6
CONTINUOUS
 62
     5
 10
753.0
 20
341.49820399999999
 30
0.0
 11
740.99916199999996
 21
341.49820399999999
 31
0.0
  0
LINE
  5
816
  8
DETAIL
  6
CONTINUOUS
 62
     5
 10
753.0
 20
371.5017793344972
 30
0.0
 11
740.99916199999996
 21
371.50181933449721
 31
0.0
  0
LINE
  5
817
  8
DETAIL
  6
CONTINUOUS
 62
     5
 10
755.0
 20
387.5
 30
0.0
 11
-755.00000000000011
 21
387.5
 31
0.0
  0
LINE
  5
818
  8
DETAIL
  6
CONTINUOUS
 62
     5
 10
755.0
 20
327.30000000000001
 30
0.0
 11
771.0
 21
327.30000000000001
 31
0.0
  0
LINE
  5
819
  8
DETAIL
  6
CONTINUOUS
 62
     5
 10
755.0
 20
385.69999999999999
 30
0.0
 11
771.0
 21
385.69999999999999
 31
0.0
  0
LINE
  5
81A
  8
DETAIL
  6
CONTINUOUS
 62
     5
 10
740.99916199999996
 20
364.50095800000003
 30
0.0
 11
740.99916199999996
 21
348.49904199999997
 31
0.0
  0
LINE
  5
81B
  8
DETAIL
  6
CONTINUOUS
 62
     5
 10
771.0
 20
350.5
 30
0.0
 11
771.0
 21
327.30000000000001
 31
0.0
  0
LINE
  5
81C
  8
DETAIL
  6
CONTINUOUS
 62
     5
 10
755.00083800000004
 20
362.5
 30
0.0
 11
771.0
 21
362.5
 31
0.0
  0
LINE
  5
81D
  8
DETAIL
  6
CONTINUOUS
 62
     5
 10
755.00083800000004
 20
350.5
 30
0.0
 11
771.0
 21
350.5
 31
0.0
  0
LINE
  5
81E
  8
DETAIL
  6
CONTINUOUS
 62
     5
 10
771.0
 20
385.69999999999999
 30
0.0
 11
771.0
 21
362.5
 31
0.0
  0
LINE
  5
81F
  8
DETAIL
  6
CONTINUOUS
 62
     5
 10
755.00083800000004
 20
350.5
 30
0.0
 11
755.00083800000004
 21
348.49904199999997
 31
0.0
  0
ARC
  5
820
  8
DETAIL
  6
CONTINUOUS
 62
     5
 10
748.0
 20
364.50095800000003
 30
0.0
 40
7.0008379999999999
 50
0.0
 51
180.0
  0
ARC
  5
821
  8
DETAIL
  6
CONTINUOUS
 62
     5
 10
748.0
 20
348.49904199999997
 30
0.0
 40
7.0008379999999999
 50
180.0
 51
0.0
  0
LINE
  5
822
  8
DETAIL
  6
CONTINUOUS
 62
     5
 10
755.00083800000004
 20
364.50095800000003
 30
0.0
 11
755.00083800000004
 21
362.5
 31
0.0
  0
LINE
  5
823
  8
DETAIL
  6
CONTINUOUS
 62
     5
 10
722.02598699999987
 20
370.49796400000002
 30
0.0
 11
725.02634599999999
 21
373.49832300000003
 31
0.0
  0
LINE
  5
824
  8
DETAIL
  6
CONTINUOUS
 62
     5
 10
725.02634599999999
 20
373.49832300000003
 30
0.0
 11
725.02634599999999
 21
387.5
 31
0.0
  0
POINT
  5
826
  8
DEFPOINTS
  6
CONTINUOUS
 62
     7
 10
779.00001100000009
 20
462.50001099999997
 30
0.0
  0
POINT
  5
827
  8
DEFPOINTS
  6
CONTINUOUS
 62
     7
 10
779.0
 20
462.5
 30
0.0
  0
POINT
  5
828
  8
DEFPOINTS
  6
CONTINUOUS
 62
     7
 10
795.00001100000009
 20
446.50001099999997
 30
0.0
  0
POINT
  5
829
  8
DEFPOINTS
  6
CONTINUOUS
 62
     7
 10
795.0
 20
446.49999999999989
 30
0.0
  0
TEXT
  5
82C
  8
SIZE
  6
CONTINUOUS
 62
    30
 10
1251.8260909999999
 20
520.50000042857141
 30
0.0
 40
55.0
  1
75
 50
90.0
 41
0.9
 72
     1
 11
1251.8260909999999
 21
560.57142899999985
 31
0.0
  0
LINE
  5
82D
  8
SIZE
  6
CONTINUOUS
 62
    30
 10
1269.8260909999999
 20
372.0
 30
0.0
 11
1181.5534150000001
 21
500.89387299999999
 31
0.0
  0
TEXT
  5
82E
  8
SIZE
  6
CONTINUOUS
 62
    30
 10
1163.5534150000001
 20
518.89387328571433
 30
0.0
 40
55.0
  1
31
 50
90.0
 41
0.9
 72
     1
 11
1163.5534150000001
 21
548.358159
 31
0.0
  0
LINE
  5
82F
  8
SIZE
  6
CONTINUOUS
 62
    30
 10
1181.5534150000001
 20
500.89387299999999
 30
0.0
 11
1181.5534150000001
 21
595.82244500000002
 31
0.0
  0
CIRCLE
  5
830
  8
SIZE
  6
CONTINUOUS
 62
    30
 10
1269.8260909999999
 20
462.5
 30
0.0
 40
10.0
  0
CIRCLE
  5
831
  8
SIZE
  6
CONTINUOUS
 62
    30
 10
1426.635303
 20
462.50001099999997
 30
0.0
 40
10.0
  0
LINE
  5
832
  8
SIZE
  6
CONTINUOUS
 62
    30
 10
1269.8260909999999
 20
377.5
 30
0.0
 11
1269.8260909999999
 21
367.5
 31
0.0
  0
CIRCLE
  5
833
  8
SIZE
  6
CONTINUOUS
 62
    30
 10
1269.8260909999999
 20
387.5
 30
0.0
 40
10.0
  0
LINE
  5
834
  8
SIZE
  6
CONTINUOUS
 62
    30
 10
1269.8260909999999
 20
367.5
 30
0.0
 11
1269.8260909999999
 21
347.5
 31
0.0
  0
LINE
  5
835
  8
SIZE
  6
CONTINUOUS
 62
    30
 10
1269.8260909999999
 20
346.5
 30
0.0
 11
1269.8260909999999
 21
336.5
 31
0.0
  0
CIRCLE
  5
836
  8
SIZE
  6
CONTINUOUS
 62
    30
 10
1269.8260909999999
 20
356.5
 30
0.0
 40
10.0
  0
POINT
  5
837
  8
DEFPOINTS
  6
CONTINUOUS
 62
     7
 10
1269.8260909999999
 20
356.5
 30
0.0
  0
LINE
  5
838
  8
SIZE
  6
CONTINUOUS
 62
    30
 10
1269.8260909999999
 20
346.5
 30
0.0
 11
1269.8260909999999
 21
336.5
 31
0.0
  0
CIRCLE
  5
839
  8
SIZE
  6
CONTINUOUS
 62
    30
 10
1269.8260909999999
 20
356.5
 30
0.0
 40
10.0
  0
LINE
  5
83A
  8
SIZE
  6
CONTINUOUS
 62
    30
 10
1269.8260909999999
 20
397.5
 30
0.0
 11
1269.8260909999999
 21
407.5
 31
0.0
  0
CIRCLE
  5
83B
  8
SIZE
  6
CONTINUOUS
 62
    30
 10
1269.8260909999999
 20
387.5
 30
0.0
 40
10.0
  0
LINE
  5
83C
  8
SIZE
  6
CONTINUOUS
 62
    30
 10
1269.8260909999999
 20
387.5
 30
0.0
 11
1269.8260909999999
 21
356.5
 31
0.0
  0
LINE
  5
83D
  8
SIZE
  6
CONTINUOUS
 62
    30
 10
1269.8260909999999
 20
336.5
 30
0.0
 11
1269.8260909999999
 21
316.5
 31
0.0
  0
LINE
  5
83E
  8
SIZE
  6
CONTINUOUS
 62
    30
 10
1269.8260909999999
 20
407.5
 30
0.0
 11
1269.8260909999999
 21
427.5
 31
0.0
  0
LINE
  5
83F
  8
SIZE
  6
CONTINUOUS
 62
    30
 10
1426.635303
 20
435.50001099999997
 30
0.0
 11
1426.635303
 21
425.50001099999997
 31
0.0
  0
CIRCLE
  5
840
  8
SIZE
  6
CONTINUOUS
 62
    30
 10
1426.635303
 20
445.50001099999997
 30
0.0
 40
10.0
  0
LINE
  5
841
  8
SIZE
  6
CONTINUOUS
 62
    30
 10
1426.635303
 20
425.50001099999997
 30
0.0
 11
1426.635303
 21
405.50001099999992
 31
0.0
  0
LINE
  5
842
  8
SIZE
  6
CONTINUOUS
 62
    30
 10
1426.635303
 20
435.50001099999997
 30
0.0
 11
1426.635303
 21
425.50001099999997
 31
0.0
  0
CIRCLE
  5
843
  8
SIZE
  6
CONTINUOUS
 62
    30
 10
1426.635303
 20
445.50001099999997
 30
0.0
 40
10.0
  0
LINE
  5
844
  8
SIZE
  6
CONTINUOUS
 62
    30
 10
1269.8260909999999
 20
472.5
 30
0.0
 11
1269.8260909999999
 21
482.5
 31
0.0
  0
POINT
  5
845
  8
DEFPOINTS
  6
CONTINUOUS
 62
     7
 10
1426.635303
 20
462.50001099999997
 30
0.0
  0
TEXT
  5
846
  8
SIZE
  6
CONTINUOUS
 62
    30
 10
1408.635303
 20
520.50001114285715
 30
0.0
 40
55.0
  1
17
 50
90.0
 41
0.9
 72
     1
 11
1408.635303
 21
555.85715400000004
 31
0.0
  0
LINE
  5
847
  8
SIZE
  6
CONTINUOUS
 62
    30
 10
1426.635303
 20
472.50001099999997
 30
0.0
 11
1426.635303
 21
482.50001099999997
 31
0.0
  0
LINE
  5
848
  8
SIZE
  6
CONTINUOUS
 62
    30
 10
1426.635303
 20
482.50001099999997
 30
0.0
 11
1426.635303
 21
609.21429699999999
 31
0.0
  0
CIRCLE
  5
849
  8
SIZE
  6
CONTINUOUS
 62
    30
 10
795.00001100000009
 20
627.92083899999989
 30
0.0
 40
10.0
  0
LINE
  5
84A
  8
SIZE
  6
CONTINUOUS
 62
    30
 10
775.00001100000009
 20
627.92083899999989
 30
0.0
 11
795.00001100000009
 21
627.92083899999989
 31
0.0
  0
CIRCLE
  5
84B
  8
SIZE
  6
CONTINUOUS
 62
    30
 10
795.0
 20
732.15000999999995
 30
0.0
 40
10.0
  0
LINE
  5
84C
  8
SIZE
  6
CONTINUOUS
 62
    30
 10
765.00001099999997
 20
627.92083899999989
 30
0.0
 11
755.00001099999997
 21
627.92083899999989
 31
0.0
  0
CIRCLE
  5
84D
  8
SIZE
  6
CONTINUOUS
 62
    30
 10
775.00001100000009
 20
627.92083899999989
 30
0.0
 40
10.0
  0
LINE
  5
84E
  8
SIZE
  6
CONTINUOUS
 62
    30
 10
755.00001099999997
 20
627.92083899999989
 30
0.0
 11
735.00001099999997
 21
627.92083899999989
 31
0.0
  0
LINE
  5
84F
  8
SIZE
  6
CONTINUOUS
 62
    30
 10
765.00001099999997
 20
627.92083899999989
 30
0.0
 11
755.00001099999997
 21
627.92083899999989
 31
0.0
  0
CIRCLE
  5
850
  8
SIZE
  6
CONTINUOUS
 62
    30
 10
775.00001100000009
 20
627.92083899999989
 30
0.0
 40
10.0
  0
LINE
  5
851
  8
SIZE
  6
CONTINUOUS
 62
    30
 10
785.0
 20
732.15000999999995
 30
0.0
 11
775.0
 21
732.15000999999995
 31
0.0
  0
TEXT
  5
852
  8
SIZE
  6
CONTINUOUS
 62
    30
 10
853.00001057142856
 20
645.920839
 30
0.0
 40
50.0
  1
20
 41
0.9
 72
     1
 11
889.42858200000001
 21
645.920839
 31
0.0
  0
LINE
  5
853
  8
SIZE
  6
CONTINUOUS
 62
    30
 10
815.00001099999997
 20
627.92083899999989
 30
0.0
 11
943.85715399999992
 21
627.92083899999989
 31
0.0
  0
POINT
  5
854
  8
DEFPOINTS
  6
CONTINUOUS
 62
     7
 10
795.00001100000009
 20
627.92083899999989
 30
0.0
  0
LINE
  5
855
  8
SIZE
  6
CONTINUOUS
 62
    30
 10
805.00001099999997
 20
627.92083899999989
 30
0.0
 11
815.00001099999997
 21
627.92083899999989
 31
0.0
  0
LINE
  5
856
  8
SIZE
  6
CONTINUOUS
 62
    30
 10
1622.537145
 20
442.49999999999989
 30
0.0
 11
1622.537145
 21
-117.5
 31
0.0
  0
TEXT
  5
857
  8
SIZE
  6
CONTINUOUS
 62
    30
 10
1604.537145
 20
-320.35714285714278
 30
0.0
 40
50.0
  1
250
 50
90.0
 41
0.9
 72
     1
 11
1604.537145
 21
-262.5
 31
0.0
  0
LINE
  5
858
  8
SIZE
  6
CONTINUOUS
 62
    30
 10
1622.537145
 20
-157.5
 30
0.0
 11
1622.537145
 21
-367.5
 31
0.0
  0
POINT
  5
859
  8
DEFPOINTS
  6
CONTINUOUS
 62
     7
 10
1622.537145
 20
-387.5
 30
0.0
  0
LINE
  5
85A
  8
SIZE
  6
CONTINUOUS
 62
    30
 10
1622.537145
 20
-377.5
 30
0.0
 11
1622.537145
 21
-367.5
 31
0.0
  0
CIRCLE
  5
85B
  8
SIZE
  6
CONTINUOUS
 62
    30
 10
1622.537145
 20
-387.5
 30
0.0
 40
10.0
  0
LINE
  5
85C
  8
SIZE
  6
CONTINUOUS
 62
    30
 10
1622.537145
 20
-147.5
 30
0.0
 11
1622.537145
 21
-157.5
 31
0.0
  0
CIRCLE
  5
85D
  8
SIZE
  6
CONTINUOUS
 62
    30
 10
1622.537145
 20
-137.5
 30
0.0
 40
10.0
  0
POINT
  5
85E
  8
DEFPOINTS
  6
CONTINUOUS
 62
     7
 10
1622.537145
 20
-137.5
 30
0.0
  0
LINE
  5
85F
  8
SIZE
  6
CONTINUOUS
 62
    30
 10
1622.537145
 20
-127.5
 30
0.0
 11
1622.537145
 21
-117.5
 31
0.0
  0
CIRCLE
  5
860
  8
SIZE
  6
CONTINUOUS
 62
    30
 10
1622.537145
 20
-137.5
 30
0.0
 40
10.0
  0
TEXT
  5
861
  8
SIZE
  6
CONTINUOUS
 62
    30
 10
1604.537145
 20
104.6428571428571
 30
0.0
 40
50.0
  1
600
 50
90.0
 41
0.9
 72
     1
 11
1604.537145
 21
162.5
 31
0.0
  0
CIRCLE
  5
862
  8
SIZE
  6
CONTINUOUS
 62
    30
 10
1622.537145
 20
462.5
 30
0.0
 40
10.0
  0
LINE
  5
863
  8
SIZE
  6
CONTINUOUS
 62
    30
 10
1622.537145
 20
452.5
 30
0.0
 11
1622.537145
 21
442.49999999999989
 31
0.0
  0
POINT
  5
95F
  8
DEFPOINTS
  6
CONTINUOUS
 62
     7
 10
-802.0
 20
-252.25
 30
0.0
  0
LINE
  5
960
  8
DETAIL
  6
CONTINUOUS
 62
     5
 10
-775.00914899999987
 20
-204.68404010240371
 30
0.0
 11
-755.00914899999975
 21
-204.68404010240371
 31
0.0
  0
LINE
  5
961
  8
DETAIL
  6
CONTINUOUS
 62
     5
 10
-774.00914899999998
 20
-208.6840401024038
 30
0.0
 11
-755.00914899999975
 21
-208.6840401024038
 31
0.0
  0
LINE
  5
962
  8
DETAIL
  6
CONTINUOUS
 62
     5
 10
-774.00914899999998
 20
-189.68404010240371
 30
0.0
 11
-755.00914899999975
 21
-189.68404010240371
 31
0.0
  0
LINE
  5
963
  8
DETAIL
  6
CONTINUOUS
 62
     5
 10
-775.00914899999987
 20
-193.68404010240371
 30
0.0
 11
-755.00914899999975
 21
-193.68404010240371
 31
0.0
  0
LINE
  5
964
  8
DETAIL
  6
CONTINUOUS
 62
     5
 10
-791.00914899999998
 20
-209.68404010240371
 30
0.0
 11
-778.00914899999998
 21
-209.68404010240371
 31
0.0
  0
LINE
  5
965
  8
DETAIL
  6
CONTINUOUS
 62
     5
 10
-790.00914899999998
 20
-204.68404010240371
 30
0.0
 11
-777.00914899999975
 21
-204.68404010240371
 31
0.0
  0
LINE
  5
966
  8
DETAIL
  6
CONTINUOUS
 62
     5
 10
-777.00914899999975
 20
-208.6840401024038
 30
0.0
 11
-778.00914899999998
 21
-209.68404010240371
 31
0.0
  0
LINE
  5
967
  8
DETAIL
  6
CONTINUOUS
 62
     5
 10
-775.00914899999987
 20
-207.68404010240371
 30
0.0
 11
-774.00914899999998
 21
-208.6840401024038
 31
0.0
  0
LINE
  5
968
  8
DETAIL
  6
CONTINUOUS
 62
     5
 10
-790.00914899999998
 20
-204.68404010240371
 30
0.0
 11
-791.00914899999998
 21
-203.68404010240371
 31
0.0
  0
LINE
  5
969
  8
DETAIL
  6
CONTINUOUS
 62
     5
 10
-790.00914899999998
 20
-204.68404010240371
 30
0.0
 11
-791.00914899999998
 21
-205.68404010240371
 31
0.0
  0
LINE
  5
96A
  8
DETAIL
  6
CONTINUOUS
 62
     5
 10
-777.00914899999975
 20
-203.9440401024037
 30
0.0
 11
-775.00914899999987
 21
-203.9440401024037
 31
0.0
  0
LINE
  5
96B
  8
DETAIL
  6
CONTINUOUS
 62
     5
 10
-775.00914899999987
 20
-207.68404010240371
 30
0.0
 11
-775.00914899999987
 21
-190.68404010240371
 31
0.0
  0
LINE
  5
96C
  8
DETAIL
  6
CONTINUOUS
 62
     5
 10
-777.00914899999975
 20
-208.6840401024038
 30
0.0
 11
-777.00914899999975
 21
-189.68404010240371
 31
0.0
  0
LINE
  5
96D
  8
DETAIL
  6
CONTINUOUS
 62
     5
 10
-791.00914899999998
 20
-188.68404010240371
 30
0.0
 11
-778.00914899999998
 21
-188.68404010240371
 31
0.0
  0
LINE
  5
96E
  8
DETAIL
  6
CONTINUOUS
 62
     5
 10
-791.00914899999998
 20
-209.68404010240371
 30
0.0
 11
-791.00914899999998
 21
-188.68404010240371
 31
0.0
  0
LINE
  5
96F
  8
DETAIL
  6
CONTINUOUS
 62
     5
 10
-790.00914899999998
 20
-193.68404010240371
 30
0.0
 11
-777.00914899999975
 21
-193.68404010240371
 31
0.0
  0
LINE
  5
970
  8
DETAIL
  6
CONTINUOUS
 62
     5
 10
-778.00914899999998
 20
-188.68404010240371
 30
0.0
 11
-777.00914899999975
 21
-189.68404010240371
 31
0.0
  0
LINE
  5
971
  8
DETAIL
  6
CONTINUOUS
 62
     5
 10
-775.00914899999987
 20
-190.68404010240371
 30
0.0
 11
-774.00914899999998
 21
-189.68404010240371
 31
0.0
  0
LINE
  5
972
  8
DETAIL
  6
CONTINUOUS
 62
     5
 10
-790.00914899999998
 20
-193.68404010240371
 30
0.0
 11
-791.00914899999998
 21
-192.68404010240371
 31
0.0
  0
LINE
  5
973
  8
DETAIL
  6
CONTINUOUS
 62
     5
 10
-790.00914899999998
 20
-193.68404010240371
 30
0.0
 11
-791.00914899999998
 21
-194.68404010240371
 31
0.0
  0
LINE
  5
974
  8
DETAIL
  6
CONTINUOUS
 62
     5
 10
-777.00914899999975
 20
-194.42404010240369
 30
0.0
 11
-775.00914899999987
 21
-194.42404010240369
 31
0.0
  0
LINE
  5
975
  8
DETAIL
  6
CONTINUOUS
 62
     5
 10
-794.0
 20
-204.68404010240371
 30
0.0
 11
-794.0
 21
-193.68404010240371
 31
0.0
  0
LINE
  5
976
  8
DETAIL
  6
CONTINUOUS
 62
     5
 10
-794.0
 20
-204.68404010240371
 30
0.0
 11
-791.00914899999998
 21
-209.68404010240371
 31
0.0
  0
LINE
  5
977
  8
DETAIL
  6
CONTINUOUS
 62
     5
 10
-777.00914899999975
 20
-208.6840401024038
 30
0.0
 11
-778.00914899999998
 21
-209.68404010240371
 31
0.0
  0
LINE
  5
978
  8
DETAIL
  6
CONTINUOUS
 62
     5
 10
-794.0
 20
-193.68404010240371
 30
0.0
 11
-791.00914899999998
 21
-188.68404010240371
 31
0.0
  0
LINE
  5
979
  8
DETAIL
  6
CONTINUOUS
 62
     5
 10
-802.0
 20
-252.25
 30
0.0
 11
-802.0
 21
-274.75
 31
0.0
  0
LINE
  5
97A
  8
DETAIL
  6
CONTINUOUS
 62
     5
 10
-755.0
 20
-275.0
 30
0.0
 11
-777.00914899999987
 21
-275.0
 31
0.0
  0
LINE
  5
97B
  8
DETAIL
  6
CONTINUOUS
 62
     5
 10
-755.0
 20
-252.0
 30
0.0
 11
-777.00914899999987
 21
-252.0
 31
0.0
  0
LINE
  5
97C
  8
DETAIL
  6
CONTINUOUS
 62
     5
 10
-797.00914899999987
 20
-270.5
 30
0.0
 11
-799.00914899999975
 21
-272.5
 31
0.0
  0
LINE
  5
97D
  8
DETAIL
  6
CONTINUOUS
 62
     5
 10
-797.00914899999987
 20
-270.5
 30
0.0
 11
-799.00914899999975
 21
-268.5
 31
0.0
  0
LINE
  5
97E
  8
DETAIL
  6
CONTINUOUS
 62
     5
 10
-797.00914899999987
 20
-256.5
 30
0.0
 11
-799.00914899999975
 21
-258.5
 31
0.0
  0
LINE
  5
97F
  8
DETAIL
  6
CONTINUOUS
 62
     5
 10
-797.00914899999987
 20
-256.5
 30
0.0
 11
-799.00914899999975
 21
-254.5
 31
0.0
  0
LINE
  5
980
  8
DETAIL
  6
CONTINUOUS
 62
     5
 10
-785.00914899999987
 20
-256.5
 30
0.0
 11
-783.00914899999987
 21
-254.5
 31
0.0
  0
LINE
  5
981
  8
DETAIL
  6
CONTINUOUS
 62
     5
 10
-785.00914899999987
 20
-256.5
 30
0.0
 11
-783.00914899999987
 21
-258.5
 31
0.0
  0
LINE
  5
982
  8
DETAIL
  6
CONTINUOUS
 62
     5
 10
-785.00914899999987
 20
-270.5
 30
0.0
 11
-783.00914899999987
 21
-268.5
 31
0.0
  0
LINE
  5
983
  8
DETAIL
  6
CONTINUOUS
 62
     5
 10
-785.00914899999987
 20
-270.5
 30
0.0
 11
-783.00914899999987
 21
-272.5
 31
0.0
  0
LINE
  5
984
  8
DETAIL
  6
CONTINUOUS
 62
     5
 10
-785.00914899999987
 20
-270.5
 30
0.0
 11
-797.00914899999987
 21
-270.5
 31
0.0
  0
LINE
  5
985
  8
DETAIL
  6
CONTINUOUS
 62
     5
 10
-785.00914899999987
 20
-256.5
 30
0.0
 11
-797.00914899999987
 21
-256.5
 31
0.0
  0
LINE
  5
986
  8
DETAIL
  6
CONTINUOUS
 62
     5
 10
-783.00914899999987
 20
-274.5
 30
0.0
 11
-785.00914899999987
 21
-276.5
 31
0.0
  0
LINE
  5
987
  8
DETAIL
  6
CONTINUOUS
 62
     5
 10
-783.00914899999987
 20
-252.5
 30
0.0
 11
-785.00914899999987
 21
-250.5
 31
0.0
  0
LINE
  5
988
  8
DETAIL
  6
CONTINUOUS
 62
     5
 10
-802.0
 20
-274.75
 30
0.0
 11
-799.00914899999975
 21
-276.5
 31
0.0
  0
LINE
  5
989
  8
DETAIL
  6
CONTINUOUS
 62
     5
 10
-799.00914899999975
 20
-250.5
 30
0.0
 11
-802.0
 21
-252.25000399999999
 31
0.0
  0
LINE
  5
98A
  8
DETAIL
  6
CONTINUOUS
 62
     5
 10
-799.00914899999975
 20
-250.5
 30
0.0
 11
-799.00914899999975
 21
-276.5
 31
0.0
  0
LINE
  5
98B
  8
DETAIL
  6
CONTINUOUS
 62
     5
 10
-783.00914899999987
 20
-252.5
 30
0.0
 11
-783.00914899999987
 21
-274.5
 31
0.0
  0
LINE
  5
98C
  8
DETAIL
  6
CONTINUOUS
 62
     5
 10
-783.00914899999987
 20
-252.5
 30
0.0
 11
-783.00914899999987
 21
-274.5
 31
0.0
  0
LINE
  5
98D
  8
DETAIL
  6
CONTINUOUS
 62
     5
 10
-785.00914899999987
 20
-276.5
 30
0.0
 11
-799.00914899999975
 21
-276.5
 31
0.0
  0
LINE
  5
98E
  8
DETAIL
  6
CONTINUOUS
 62
     5
 10
-785.00914899999987
 20
-250.5
 30
0.0
 11
-799.00914899999975
 21
-250.5
 31
0.0
  0
LINE
  5
98F
  8
DETAIL
  6
CONTINUOUS
 62
     5
 10
-783.00914899999987
 20
-255.5
 30
0.0
 11
-783.00914899999987
 21
-271.5
 31
0.0
  0
LINE
  5
990
  8
DETAIL
  6
CONTINUOUS
 62
     5
 10
-783.00914899999987
 20
-271.44
 30
0.0
 11
-779.00914899999987
 21
-271.44
 31
0.0
  0
LINE
  5
991
  8
DETAIL
  6
CONTINUOUS
 62
     5
 10
-783.00914899999987
 20
-255.56
 30
0.0
 11
-779.00914899999987
 21
-255.56
 31
0.0
  0
LINE
  5
992
  8
DETAIL
  6
CONTINUOUS
 62
     5
 10
-779.00914899999987
 20
-254.0
 30
0.0
 11
-777.00914899999987
 21
-252.0
 31
0.0
  0
LINE
  5
993
  8
DETAIL
  6
CONTINUOUS
 62
     5
 10
-779.00914899999987
 20
-273.0
 30
0.0
 11
-777.00914899999987
 21
-275.0
 31
0.0
  0
LINE
  5
994
  8
DETAIL
  6
CONTINUOUS
 62
     5
 10
-779.00914899999987
 20
-254.0
 30
0.0
 11
-779.00914899999987
 21
-273.0
 31
0.0
  0
POINT
  5
995
  8
DEFPOINTS
  6
CONTINUOUS
 62
     7
 10
-794.0
 20
-199.18404010240371
 30
0.0
  0
POINT
  5
996
  8
DEFPOINTS
  6
CONTINUOUS
 62
     7
 10
-802.0
 20
-263.5
 30
0.0
  0
LINE
  5
9A3
  8
NOTE
  6
CONTINUOUS
 62
     4
 10
748.0
 20
356.5
 30
0.0
 11
1180.488842
 21
797.68654700000002
 31
0.0
  0
LINE
  5
9A4
  8
NOTE
  6
CONTINUOUS
 62
     4
 10
-135.0
 20
-457.5
 30
0.0
 11
77.141987999999998
 21
-254.26223100000001
 31
0.0
  0
LINE
  5
9A5
  8
NOTE
  6
CONTINUOUS
 62
     4
 10
-789.0
 20
-114.5
 30
0.0
 11
-1201.286967
 21
434.56175300000001
 31
0.0
  0
LINE
  5
9A6
  8
NOTE
  6
CONTINUOUS
 62
     4
 10
-802.0
 20
-263.5
 30
0.0
 11
-1141.7515980000001
 21
12.706153
 31
0.0
  0
LINE
  5
9A7
  8
NOTE
  6
CONTINUOUS
 62
     4
 10
-794.0
 20
-199.5
 30
0.0
 11
-1132.5668909999999
 21
118.663944
 31
0.0
  0
ENDSEC
  0
EOF
