  0
SECTION
  2
HEADER
  9
$ACADVER
  1
AC1009
  9
$INSBASE
 10
0.0
 20
0.0
 30
0.0
  9
$EXTMIN
 10
-1638.0102890024459
 20
-399.06050643999328
 30
-0.0015258207003583
  9
$EXTMAX
 10
2000.268926925477
 20
1286.5150128348389
 30
0.0000000349246037
  9
$LIMMIN
 10
-4267.1522210000003
 20
-2696.0832100000011
  9
$LIMMAX
 10
7190.7174229999991
 20
5141.1553640000002
  9
$ORTHOMODE
 70
     0
  9
$REGENMODE
 70
     1
  9
$FILLMODE
 70
     1
  9
$QTEXTMODE
 70
     0
  9
$MIRRTEXT
 70
     0
  9
$DRAGMODE
 70
     2
  9
$LTSCALE
 40
20.0
  9
$OSMODE
 70
   959
  9
$ATTMODE
 70
     1
  9
$TEXTSIZE
 40
64.0
  9
$TRACEWID
 40
0.05
  9
$TEXTSTYLE
  7
STANDARD1
  9
$CLAYER
  8
SYMBOLLINE
  9
$CELTYPE
  6
CONTINUOUS
  9
$CECOLOR
 62
     7
  9
$DIMSCALE
 40
1.0
  9
$DIMASZ
 40
20.0
  9
$DIMEXO
 40
20.0
  9
$DIMDLI
 40
80.0
  9
$DIMRND
 40
0.0
  9
$DIMDLE
 40
0.0
  9
$DIMEXE
 40
18.0
  9
$DIMTP
 40
0.0
  9
$DIMTM
 40
0.0
  9
$DIMTXT
 40
55.0
  9
$DIMCEN
 40
0.09
  9
$DIMTSZ
 40
0.0
  9
$DIMTOL
 70
     0
  9
$DIMLIM
 70
     0
  9
$DIMTIH
 70
     0
  9
$DIMTOH
 70
     0
  9
$DIMSE1
 70
     0
  9
$DIMSE2
 70
     0
  9
$DIMTAD
 70
     1
  9
$DIMZIN
 70
     8
  9
$DIMBLK
  1
ORIGIN
  9
$DIMASO
 70
     1
  9
$DIMSHO
 70
     0
  9
$DIMPOST
  1

  9
$DIMAPOST
  1

  9
$DIMALT
 70
     0
  9
$DIMALTD
 70
     2
  9
$DIMALTF
 40
25.399999999999999
  9
$DIMLFAC
 40
1.0
  9
$DIMTOFL
 70
     0
  9
$DIMTVP
 40
0.0
  9
$DIMTIX
 70
     0
  9
$DIMSOXD
 70
     0
  9
$DIMSAH
 70
     0
  9
$DIMBLK1
  1

  9
$DIMBLK2
  1

  9
$DIMSTYLE
  2
STANDARD
  9
$DIMCLRD
 70
     0
  9
$DIMCLRE
 70
     0
  9
$DIMCLRT
 70
     0
  9
$DIMTFAC
 40
1.0
  9
$DIMGAP
 40
0.09
  9
$LUNITS
 70
     2
  9
$LUPREC
 70
     4
  9
$SKETCHINC
 40
0.1
  9
$FILLETRAD
 40
0.8
  9
$AUNITS
 70
     1
  9
$AUPREC
 70
     3
  9
$MENU
  1
ACAD
  9
$ELEVATION
 40
0.0
  9
$PELEVATION
 40
0.0
  9
$THICKNESS
 40
0.0
  9
$LIMCHECK
 70
     0
  9
$BLIPMODE
 70
     0
  9
$CHAMFERA
 40
0.0
  9
$CHAMFERB
 40
0.0
  9
$SKPOLY
 70
     0
  9
$TDCREATE
 40
2450330.4399309959
  9
$TDUPDATE
 40
2455580.5027888538
  9
$TDINDWG
 40
3.6907792823999999
  9
$TDUSRTIMER
 40
3.6907790972000001
  9
$USRTIMER
 70
     1
  9
$ANGBASE
 50
0.0
  9
$ANGDIR
 70
     0
  9
$PDMODE
 70
     3
  9
$PDSIZE
 40
-2.0
  9
$PLINEWID
 40
0.0
  9
$COORDS
 70
     0
  9
$SPLFRAME
 70
     0
  9
$SPLINETYPE
 70
     6
  9
$SPLINESEGS
 70
     8
  9
$ATTDIA
 70
     0
  9
$ATTREQ
 70
     1
  9
$HANDLING
 70
     1
  9
$HANDSEED
  5
7E5
  9
$SURFTAB1
 70
     6
  9
$SURFTAB2
 70
     6
  9
$SURFTYPE
 70
     6
  9
$SURFU
 70
     6
  9
$SURFV
 70
     6
  9
$UCSNAME
  2

  9
$UCSORG
 10
0.0
 20
0.0
 30
0.0
  9
$UCSXDIR
 10
1.0
 20
0.0
 30
0.0
  9
$UCSYDIR
 10
0.0
 20
1.0
 30
0.0
  9
$PUCSNAME
  2

  9
$PUCSORG
 10
0.0
 20
0.0
 30
0.0
  9
$PUCSXDIR
 10
1.0
 20
0.0
 30
0.0
  9
$PUCSYDIR
 10
0.0
 20
1.0
 30
0.0
  9
$USERI1
 70
     0
  9
$USERI2
 70
     0
  9
$USERI3
 70
     0
  9
$USERI4
 70
     0
  9
$USERI5
 70
     0
  9
$USERR1
 40
20.0
  9
$USERR2
 40
0.0
  9
$USERR3
 40
0.0
  9
$USERR4
 40
0.0
  9
$USERR5
 40
0.0
  9
$WORLDVIEW
 70
     1
  9
$SHADEDGE
 70
     3
  9
$SHADEDIF
 70
    70
  9
$TILEMODE
 70
     1
  9
$MAXACTVP
 70
    48
  9
$PLIMCHECK
 70
     0
  9
$PEXTMIN
 10
1.0000000000000000E+020
 20
1.0000000000000000E+020
 30
1.0000000000000000E+020
  9
$PEXTMAX
 10
-1.0000000000000000E+020
 20
-1.0000000000000000E+020
 30
-1.0000000000000000E+020
  9
$PLIMMIN
 10
0.0
 20
0.0
  9
$PLIMMAX
 10
12.0
 20
9.0
  9
$UNITMODE
 70
     0
  9
$VISRETAIN
 70
     1
  9
$PLINEGEN
 70
     0
  9
$PSLTSCALE
 70
     1
  0
ENDSEC
  0
SECTION
  2
TABLES
  0
TABLE
  2
VPORT
 70
     1
  0
VPORT
  2
*ACTIVE
 70
     0
 10
0.0
 20
0.0
 11
1.0
 21
1.0
 12
1461.7826010000001
 22
1222.536077
 13
0.0
 23
0.0
 14
50.0
 24
50.0
 15
100.0
 25
100.0
 16
0.0
 26
0.0
 36
1.0
 17
0.0
 27
0.0
 37
0.0
 40
7897.2940420000004
 41
1.5639386189258311
 42
50.0
 43
0.0
 44
0.0
 50
0.0
 51
0.0
 71
     0
 72
  1000
 73
     1
 74
     0
 75
     0
 76
     0
 77
     0
 78
     0
  0
ENDTAB
  0
TABLE
  2
LTYPE
 70
     3
  0
LTYPE
  2
CONTINUOUS
 70
     0
  3
実線
 72
    65
 73
     0
 40
0.0
  0
LTYPE
  2
DASHDOT
 70
     0
  3
____ _ ____ _ ____ _ ____ _ ____ _ ____ _ ____
 72
    65
 73
     4
 40
5.5
 49
4.0
 49
-0.6
 49
0.3
 49
-0.6
  0
ENDTAB
  0
TABLE
  2
LAYER
 70
    12
  0
LAYER
  2
0
 70
     0
 62
     7
  6
CONTINUOUS
  0
LAYER
  2
NOTE
 70
     0
 62
     4
  6
CONTINUOUS
  0
LAYER
  2
OUTLINE
 70
     0
 62
     3
  6
CONTINUOUS
  0
LAYER
  2
DETAIL
 70
     0
 62
     5
  6
CONTINUOUS
  0
LAYER
  2
BASIS
 70
     0
 62
     6
  6
DASHDOT
  0
LAYER
  2
SIZE
 70
     0
 62
    30
  6
CONTINUOUS
  0
LAYER
  2
ARRANGE
 70
     0
 62
     1
  6
CONTINUOUS
  0
LAYER
  2
FIX
 70
     0
 62
    11
  6
CONTINUOUS
  0
LAYER
  2
SERVICESPACE
 70
     0
 62
     2
  6
DASHDOT
  0
LAYER
  2
ETC
 70
     0
 62
    61
  6
CONTINUOUS
  0
LAYER
  2
SYMBOLLINE
 70
     0
 62
    15
  6
CONTINUOUS
  0
LAYER
  2
DEFPOINTS
 70
     0
 62
     7
  6
CONTINUOUS
  0
ENDTAB
  0
TABLE
  2
STYLE
 70
     4
  0
STYLE
  2
STANDARD
 70
     0
 40
0.0
 41
0.9
 50
0.0
 71
     0
 42
64.0
  3
SIMPLEX
  4
BIGFONT
  0
STYLE
  2
ANNOTATIVE
 70
     0
 40
0.0
 41
1.0
 50
0.0
 71
     0
 42
0.2
  3
txt
  4

  0
STYLE
  2
STANDARD1
 70
     0
 40
0.0
 41
1.0
 50
0.0
 71
     0
 42
64.0
  3
MONOTXT
  4
BIGFONT
  0
STYLE
  2

 70
     1
 40
0.0
 41
1.0
 50
0.0
 71
     0
 42
64.0
  3
ltypeshp.shx
  4

  0
ENDTAB
  0
TABLE
  2
VIEW
 70
     6
  0
VIEW
  2
ALL
 70
     0
 40
9000.0
 10
241.50664699999999
 20
0.0
 41
12483.01
 11
0.0
 21
0.0
 31
1.0
 12
0.0
 22
0.0
 32
0.0
 42
50.0
 43
0.0
 44
0.0
 50
0.0
 71
     0
  0
ENDTAB
  0
TABLE
  2
UCS
 70
     0
  0
ENDTAB
  0
TABLE
  2
APPID
 70
     4
  0
APPID
  2
ACAD
 70
     0
  0
APPID
  2
ACADANNOTATIVE
 70
     0
  0
APPID
  2
ACAD_MLEADERVER
 70
     0
  0
APPID
  2
ACAD_EXEMPT_FROM_CAD_STANDARDS
 70
     0
  0
ENDTAB
  0
TABLE
  2
DIMSTYLE
 70
     3
  0
DIMSTYLE
  2
STANDARD
 70
     0
  3

  4

  5

  6

  7

 40
1.0
 41
0.18
 42
0.0625
 43
0.38
 44
0.18
 45
0.0
 46
0.0
 47
0.0
 48
0.0
140
0.18
141
0.09
142
0.0
143
25.399999999999999
144
1.0
145
0.0
146
1.0
147
0.09
 71
     0
 72
     0
 73
     1
 74
     1
 75
     0
 76
     0
 77
     0
 78
     0
170
     0
171
     2
172
     0
173
     0
174
     0
175
     0
176
     0
177
     0
178
     0
  0
DIMSTYLE
  2
ANNOTATIVE
 70
     0
  3

  4

  5

  6

  7

 40
1.0
 41
0.18
 42
0.0625
 43
0.38
 44
0.18
 45
0.0
 46
0.0
 47
0.0
 48
0.0
140
0.18
141
0.09
142
0.0
143
25.399999999999999
144
1.0
145
0.0
146
1.0
147
0.09
 71
     0
 72
     0
 73
     1
 74
     1
 75
     0
 76
     0
 77
     0
 78
     0
170
     0
171
     2
172
     0
173
     0
174
     0
175
     0
176
     0
177
     0
178
     0
  0
ENDTAB
  0
ENDSEC
  0
SECTION
  2
BLOCKS
  0
BLOCK
  8
0
  2
$MODEL_SPACE
 70
     0
 10
0.0
 20
0.0
 30
0.0
  3
$MODEL_SPACE
  1

  0
ENDBLK
  5
69D
  8
0
  0
BLOCK
 67
     1
  8
0
  2
$PAPER_SPACE
 70
     0
 10
0.0
 20
0.0
 30
0.0
  3
$PAPER_SPACE
  1

  0
ENDBLK
  5
699
 67
     1
  8
0
  0
BLOCK
  8
0
  2
_ORIGIN
 70
     0
 10
0.0
 20
0.0
 30
0.0
  3
_ORIGIN
  1

  0
CIRCLE
  5
34
  8
0
  6
CONTINUOUS
 62
     7
 10
0.0
 20
0.0
 30
0.0
 40
0.5
  0
LINE
  5
35
  8
0
  6
CONTINUOUS
 62
     7
 10
-0.5
 20
0.0
 30
0.0
 11
-1.0
 21
0.0
 31
0.0
  0
ENDBLK
  5
36
  8
0
  0
BLOCK
  8
0
 62
     7
  2
A$C1C635C38
 70
     0
 10
0.0
 20
0.0
 30
0.0
  3
A$C1C635C38
  1

  0
LINE
  5
25A
  8
SIZE
  6
CONTINUOUS
 62
    30
 10
2623.8926240000001
 20
723.78759200000002
 30
0.0
 11
3275.1142340000001
 21
723.78759200000002
 31
0.0
  0
LINE
  5
25B
  8
SIZE
  6
CONTINUOUS
 62
    30
 10
2570.2242890000002
 20
871.78759200000002
 30
0.0
 11
3275.1142340000001
 21
871.78759200000002
 31
0.0
  0
LINE
  5
25C
  8
SIZE
  6
CONTINUOUS
 62
    30
 10
2630.2263780000012
 20
665.78759200000002
 30
0.0
 11
3389.744659
 21
665.78759200000002
 31
0.0
  0
LINE
  5
25D
  8
SIZE
  6
CONTINUOUS
 62
    30
 10
2570.2242890000002
 20
871.78759200000002
 30
0.0
 11
3389.744659
 21
871.78759200000002
 31
0.0
  0
LINE
  5
25E
  8
SIZE
  6
CONTINUOUS
 62
    30
 10
2643.885624
 20
637.78759200000002
 30
0.0
 11
3389.744659
 21
637.78759200000002
 31
0.0
  0
LINE
  5
25F
  8
SIZE
  6
CONTINUOUS
 62
    30
 10
2630.2263780000012
 20
665.78759200000002
 30
0.0
 11
3389.744659
 21
665.78759200000002
 31
0.0
  0
LINE
  5
260
  8
NOTE
  6
CONTINUOUS
 62
     4
 10
3420.7198539999999
 20
177.14845600000001
 30
0.0
 11
2980.2667759999999
 21
177.14845600000001
 31
0.0
  0
TEXT
  5
261
  8
NOTE
  6
CONTINUOUS
 62
     4
 10
3001.942047
 20
192.974987
 30
0.0
 40
60.0
  1
D2（自然排水口）
 50
0.000003
 41
0.7
  7
STANDARD1
  0
LINE
  5
262
  8
SIZE
  6
CONTINUOUS
 62
    30
 10
2570.2242890000002
 20
871.78759200000002
 30
0.0
 11
3497.2106680000011
 21
871.78759200000002
 31
0.0
  0
LINE
  5
263
  8
SIZE
  6
CONTINUOUS
 62
    30
 10
2575.7242890000002
 20
566.78759200000002
 30
0.0
 11
3497.2106680000011
 21
566.78759200000002
 31
0.0
  0
LINE
  5
264
  8
SIZE
  6
CONTINUOUS
 62
    30
 10
2555.2224930000002
 20
538.7875919999999
 30
0.0
 11
3609.4529649999999
 21
538.7875919999999
 31
0.0
  0
LINE
  5
265
  8
SIZE
  6
CONTINUOUS
 62
    30
 10
2570.2242890000002
 20
871.78759200000002
 30
0.0
 11
3609.4529649999999
 21
871.78759200000002
 31
0.0
  0
LINE
  5
266
  8
SIZE
  6
CONTINUOUS
 62
    30
 10
2860.2242890000011
 20
398.78759200000002
 30
0.0
 11
3609.4529649999999
 21
398.78759200000002
 31
0.0
  0
LINE
  5
267
  8
SIZE
  6
CONTINUOUS
 62
    30
 10
2555.2224930000002
 20
538.7875919999999
 30
0.0
 11
3609.4529649999999
 21
538.7875919999999
 31
0.0
  0
LINE
  5
268
  8
DETAIL
  6
CONTINUOUS
 62
     5
 10
1002.224289
 20
398.78759200000002
 30
0.0
 11
2592.2242890000011
 21
398.78759200000002
 31
0.0
  0
LINE
  5
269
  8
OUTLINE
  6
CONTINUOUS
 62
     3
 10
1058.1357889999999
 20
445.78759200000002
 30
0.0
 11
2536.3127890000001
 21
445.78759200000002
 31
0.0
  0
LINE
  5
26A
  8
OUTLINE
  6
CONTINUOUS
 62
     3
 10
1033.407506
 20
390.78759200000002
 30
0.0
 11
2561.041072
 21
390.78759200000002
 31
0.0
  0
LINE
  5
26B
  8
SIZE
  6
CONTINUOUS
 62
    30
 10
1042.224289
 20
159.18953500000001
 30
0.0
 11
2552.2242890000002
 21
159.18953500000001
 31
0.0
  0
LINE
  5
26C
  8
SIZE
  6
CONTINUOUS
 62
    30
 10
2572.2242890000011
 20
61.498142000000001
 30
0.0
 11
1022.224289
 21
61.498142000000001
 31
0.0
  0
LINE
  5
26D
  8
DETAIL
  6
CONTINUOUS
 62
     5
 10
1033.407506
 20
390.78759200000002
 30
0.0
 11
2561.041072
 21
390.78759200000002
 31
0.0
  0
LINE
  5
26E
  8
DETAIL
  6
CONTINUOUS
 62
     5
 10
1058.1357889999999
 20
445.78759200000002
 30
0.0
 11
2536.3127890000001
 21
445.78759200000002
 31
0.0
  0
LINE
  5
26F
  8
OUTLINE
  6
CONTINUOUS
 62
     3
 10
2552.2242890000002
 20
871.78759200000002
 30
0.0
 11
1042.224289
 21
871.78759200000002
 31
0.0
  0
LINE
  5
270
  8
OUTLINE
  6
CONTINUOUS
 62
     3
 10
2552.2242890000002
 20
538.7875919999999
 30
0.0
 11
1042.224289
 21
538.7875919999999
 31
0.0
  0
LINE
  5
271
  8
DETAIL
  6
CONTINUOUS
 62
     5
 10
1084.19938
 20
843.80052599999999
 30
0.0
 11
2510.219259
 21
843.80052599999999
 31
0.0
  0
LINE
  5
272
  8
DETAIL
  6
CONTINUOUS
 62
     5
 10
1047.224888
 20
566.19087300000001
 30
0.0
 11
2547.2236899999998
 21
566.19087300000001
 31
0.0
  0
LINE
  5
273
  8
DETAIL
  6
CONTINUOUS
 62
     5
 10
1084.19938
 20
627.77465800000004
 30
0.0
 11
2510.219259
 21
627.77465800000004
 31
0.0
  0
LINE
  5
274
  8
DETAIL
  6
CONTINUOUS
 62
     5
 10
2537.2224930000002
 20
538.7875919999999
 30
0.0
 11
1057.226085
 21
538.7875919999999
 31
0.0
  0
LINE
  5
275
  8
DETAIL
  6
CONTINUOUS
 62
     5
 10
2534.2221330000002
 20
553.78938800000003
 30
0.0
 11
1060.226445
 21
553.78938800000003
 31
0.0
  0
LINE
  5
276
  8
DETAIL
  6
CONTINUOUS
 62
     5
 10
2552.2242890000002
 20
871.78759200000002
 30
0.0
 11
1042.224289
 21
871.78759200000002
 31
0.0
  0
LINE
  5
277
  8
SIZE
  6
CONTINUOUS
 62
    30
 10
1069.224289
 20
1331.013271
 30
0.0
 11
2525.2242890000002
 21
1331.013271
 31
0.0
  0
LINE
  5
278
  8
SIZE
  6
CONTINUOUS
 62
    30
 10
2548.2242890000002
 20
1444.894855
 30
0.0
 11
1046.224289
 21
1444.894855
 31
0.0
  0
LINE
  5
279
  8
SIZE
  6
CONTINUOUS
 62
    30
 10
1062.224289
 20
1226.769571
 30
0.0
 11
2532.2242890000002
 21
1226.769571
 31
0.0
  0
LINE
  5
27A
  8
OUTLINE
  6
CONTINUOUS
 62
     3
 10
1002.224289
 20
394.78060399999998
 30
0.0
 11
1002.224289
 21
398.78759200000002
 31
0.0
  0
CIRCLE
  5
27B
  8
SIZE
  6
CONTINUOUS
 62
    30
 10
834.30270199999995
 20
398.78759200000002
 30
0.0
 40
10.0
  0
CIRCLE
  5
27C
  8
SIZE
  6
CONTINUOUS
 62
    30
 10
834.30270199999995
 20
390.78759200000002
 30
0.0
 40
10.0
  0
CIRCLE
  5
27D
  8
SIZE
  6
CONTINUOUS
 62
    30
 10
834.30270199999995
 20
398.78759200000002
 30
0.0
 40
10.0
  0
LINE
  5
27E
  8
SIZE
  6
CONTINUOUS
 62
    30
 10
834.30270199999995
 20
398.78759200000002
 30
0.0
 11
834.30270199999995
 21
390.78759200000002
 31
0.0
  0
LINE
  5
27F
  8
SIZE
  6
CONTINUOUS
 62
    30
 10
1042.224289
 20
520.78759200000002
 30
0.0
 11
1042.224289
 21
222.17819800000001
 31
0.0
  0
LINE
  5
280
  8
DETAIL
  6
CONTINUOUS
 62
     5
 10
1002.224289
 20
394.78060399999998
 30
0.0
 11
1002.224289
 21
398.78759200000002
 31
0.0
  0
ARC
  5
281
  8
OUTLINE
  6
CONTINUOUS
 62
     3
 10
1032.927966
 20
510.80100499999992
 30
0.0
 40
120.014371
 50
255.17703
 51
270.22893699999997
  0
CIRCLE
  5
282
  8
SIZE
  6
CONTINUOUS
 62
    30
 10
1022.224289
 20
252.17819800000001
 30
0.0
 40
10.0
  0
CIRCLE
  5
283
  8
SIZE
  6
CONTINUOUS
 62
    30
 10
1022.224289
 20
159.18953500000001
 30
0.0
 40
10.0
  0
CIRCLE
  5
284
  8
SIZE
  6
CONTINUOUS
 62
    30
 10
1022.224289
 20
159.18953500000001
 30
0.0
 40
10.0
  0
LINE
  5
285
  8
SIZE
  6
CONTINUOUS
 62
    30
 10
1022.224289
 20
159.18953500000001
 30
0.0
 11
1002.224289
 21
159.18953500000001
 31
0.0
  0
LINE
  5
286
  8
SIZE
  6
CONTINUOUS
 62
    30
 10
1012.224289
 20
61.498142000000001
 30
0.0
 11
1022.224289
 21
61.498142000000001
 31
0.0
  0
ARC
  5
287
  8
DETAIL
  6
CONTINUOUS
 62
     5
 10
1032.927966
 20
510.80100499999992
 30
0.0
 40
120.014371
 50
255.17703
 51
270.22893699999997
  0
LINE
  5
288
  8
SIZE
  6
CONTINUOUS
 62
    30
 10
1002.224289
 20
376.78060399999998
 30
0.0
 11
1002.224289
 21
31.498142000000001
 31
0.0
  0
POINT
  5
289
  8
DEFPOINTS
  6
CONTINUOUS
 62
     7
 10
1002.224289
 20
61.498142000000001
 30
0.0
  0
CIRCLE
  5
28A
  8
SIZE
  6
CONTINUOUS
 62
    30
 10
1002.224289
 20
61.498142000000001
 30
0.0
 40
10.0
  0
TEXT
  5
28B
  8
SIZE
  6
CONTINUOUS
 62
    30
 10
816.30270199999995
 20
302.78759200000002
 30
0.0
 40
50.0
  1
8
 50
90.0
 41
0.9
 72
     1
 11
816.30270199999995
 21
317.78759200000002
 31
0.0
  0
LINE
  5
28C
  8
SIZE
  6
CONTINUOUS
 62
    30
 10
1002.224289
 20
376.78060399999998
 30
0.0
 11
1002.224289
 21
129.18953500000001
 31
0.0
  0
TEXT
  5
28D
  8
SIZE
  6
CONTINUOUS
 62
    30
 10
871.36714657142841
 20
177.18953500000001
 30
0.0
 40
50.0
  1
20
 41
0.9
 72
     1
 11
907.79571799999997
 21
177.18953500000001
 31
0.0
  0
LINE
  5
28E
  8
SIZE
  6
CONTINUOUS
 62
    30
 10
982.22428900000011
 20
159.18953500000001
 30
0.0
 11
853.36714600000005
 21
159.18953500000001
 31
0.0
  0
POINT
  5
28F
  8
DEFPOINTS
  6
CONTINUOUS
 62
     7
 10
1002.224289
 20
159.18953500000001
 30
0.0
  0
LINE
  5
290
  8
SIZE
  6
CONTINUOUS
 62
    30
 10
992.22428900000011
 20
159.18953500000001
 30
0.0
 11
982.22428900000011
 21
159.18953500000001
 31
0.0
  0
CIRCLE
  5
291
  8
SIZE
  6
CONTINUOUS
 62
    30
 10
1002.224289
 20
159.18953500000001
 30
0.0
 40
10.0
  0
LINE
  5
292
  8
SIZE
  6
CONTINUOUS
 62
    30
 10
1015.407506
 20
390.78759200000002
 30
0.0
 11
804.30270199999995
 21
390.78759200000002
 31
0.0
  0
LINE
  5
293
  8
SIZE
  6
CONTINUOUS
 62
    30
 10
834.30270199999995
 20
388.78759200000002
 30
0.0
 11
834.30270199999995
 21
378.78759200000002
 31
0.0
  0
LINE
  5
294
  8
SIZE
  6
CONTINUOUS
 62
    30
 10
834.30270199999995
 20
378.78759200000002
 30
0.0
 11
834.30270199999995
 21
358.78759200000002
 31
0.0
  0
POINT
  5
295
  8
DEFPOINTS
  6
CONTINUOUS
 62
     7
 10
834.30270199999995
 20
390.78759200000002
 30
0.0
  0
LINE
  5
296
  8
SIZE
  6
CONTINUOUS
 62
    30
 10
834.30270199999995
 20
380.78759200000002
 30
0.0
 11
834.30270199999995
 21
370.78759200000002
 31
0.0
  0
LINE
  5
297
  8
SIZE
  6
CONTINUOUS
 62
    30
 10
834.30270199999995
 20
370.78759200000002
 30
0.0
 11
834.30270199999995
 21
284.78759200000002
 31
0.0
  0
LINE
  5
298
  8
SIZE
  6
CONTINUOUS
 62
    30
 10
1012.224289
 20
252.17819800000001
 30
0.0
 11
1002.224289
 21
252.17819800000001
 31
0.0
  0
LINE
  5
299
  8
SIZE
  6
CONTINUOUS
 62
    30
 10
1002.224289
 20
252.17819800000001
 30
0.0
 11
982.22428900000011
 21
252.17819800000001
 31
0.0
  0
POINT
  5
29A
  8
DEFPOINTS
  6
CONTINUOUS
 62
     7
 10
1002.224289
 20
394.78060399999998
 30
0.0
  0
POINT
  5
29B
  8
DEFPOINTS
  6
CONTINUOUS
 62
     7
 10
1002.224289
 20
394.78060399999998
 30
0.0
  0
LINE
  5
29C
  8
SIZE
  6
CONTINUOUS
 62
    30
 10
1062.224289
 20
252.17819800000001
 30
0.0
 11
1395.0814319999999
 21
252.17819800000001
 31
0.0
  0
CIRCLE
  5
29D
  8
SIZE
  6
CONTINUOUS
 62
    30
 10
1042.224289
 20
252.17819800000001
 30
0.0
 40
10.0
  0
LINE
  5
29E
  8
SIZE
  6
CONTINUOUS
 62
    30
 10
1022.224289
 20
381.78759200000002
 30
0.0
 11
1022.224289
 21
222.17819800000001
 31
0.0
  0
LINE
  5
29F
  8
SIZE
  6
CONTINUOUS
 62
    30
 10
1022.224289
 20
381.78759200000002
 30
0.0
 11
1022.224289
 21
129.18953500000001
 31
0.0
  0
LINE
  5
2A0
  8
SIZE
  6
CONTINUOUS
 62
    30
 10
1022.224289
 20
381.78759200000002
 30
0.0
 11
1022.224289
 21
129.18953500000001
 31
0.0
  0
LINE
  5
2A1
  8
SIZE
  6
CONTINUOUS
 62
    30
 10
1032.224289
 20
159.18953500000001
 30
0.0
 11
1042.224289
 21
159.18953500000001
 31
0.0
  0
LINE
  5
2A2
  8
SIZE
  6
CONTINUOUS
 62
    30
 10
1032.224289
 20
159.18953500000001
 30
0.0
 11
1042.224289
 21
159.18953500000001
 31
0.0
  0
LINE
  5
2A3
  8
SIZE
  6
CONTINUOUS
 62
    30
 10
1042.224289
 20
159.18953500000001
 30
0.0
 11
1062.224289
 21
159.18953500000001
 31
0.0
  0
POINT
  5
2A4
  8
DEFPOINTS
  6
CONTINUOUS
 62
     7
 10
1033.407506
 20
390.78759200000002
 30
0.0
  0
POINT
  5
2A5
  8
DEFPOINTS
  6
CONTINUOUS
 62
     7
 10
1022.224289
 20
252.17819800000001
 30
0.0
  0
LINE
  5
2A6
  8
SIZE
  6
CONTINUOUS
 62
    30
 10
1052.224289
 20
252.17819800000001
 30
0.0
 11
1062.224289
 21
252.17819800000001
 31
0.0
  0
LINE
  5
2A7
  8
SIZE
  6
CONTINUOUS
 62
    30
 10
1022.224289
 20
252.17819800000001
 30
0.0
 11
1042.224289
 21
252.17819800000001
 31
0.0
  0
TEXT
  5
2A8
  8
SIZE
  6
CONTINUOUS
 62
    30
 10
1304.2242885714279
 20
270.17819800000001
 30
0.0
 40
50.0
  1
20
 41
0.9
 72
     1
 11
1340.6528599999999
 21
270.17819800000001
 31
0.0
  0
TEXT
  5
2A9
  8
NOTE
  6
CONTINUOUS
 62
     4
 10
172.67543499999999
 20
1214.6789209999999
 30
0.0
 40
60.0
  1
AH 4-14×30長穴(M10)
 50
0.000003
 41
0.7
  7
STANDARD1
  0
LINE
  5
2AA
  8
NOTE
  6
CONTINUOUS
 62
     4
 10
159.65007900000001
 20
1198.8523600000001
 30
0.0
 11
888.75070699999992
 21
1198.8523600000001
 31
0.0
  0
TEXT
  5
2AB
  8
NOTE
  6
CONTINUOUS
 62
     4
 10
23.932355000000001
 20
1003.695542
 30
0.0
 40
60.0
  1
外気取入口 %%C150（ノックアウト穴）
 50
0.000003
 41
0.7
  7
STANDARD1
  0
LINE
  5
2AC
  8
NOTE
  6
CONTINUOUS
 62
     4
 10
-0.000011
 20
986.05612099999996
 30
0.0
 11
908.80886799999996
 21
986.05612099999996
 31
0.0
  0
TEXT
  5
2AD
  8
ETC
  6
CONTINUOUS
 62
    61
 10
150.148269
 20
1547.6312499999999
 30
0.0
 40
65.0
  1
MPD-RP112_160FA3_3
 50
0.000003
 41
0.85
  7
STANDARD1
  0
POLYLINE
  5
2AE
  8
NOTE
  6
CONTINUOUS
 62
     4
 66
     1
 10
0.0
 20
0.0
 30
0.0
  0
VERTEX
  5
7B0
  8
NOTE
  6
CONTINUOUS
 62
     4
 10
1049.224289
 20
871.78759200000002
 30
0.0
  0
VERTEX
  5
7B1
  8
NOTE
  6
CONTINUOUS
 62
     4
 10
888.75070699999992
 20
1198.8523600000001
 30
0.0
  0
SEQEND
  5
7B2
  8
NOTE
  6
CONTINUOUS
 62
     4
  0
LINE
  5
2B2
  8
SIZE
  6
CONTINUOUS
 62
    30
 10
1049.224289
 20
909.78998699999988
 30
0.0
 11
1049.224289
 21
1361.013271
 31
0.0
  0
LINE
  5
2B3
  8
SIZE
  6
CONTINUOUS
 62
    30
 10
1026.224289
 20
885.48707699999989
 30
0.0
 11
1026.224289
 21
1361.013271
 31
0.0
  0
LINE
  5
2B4
  8
SIZE
  6
CONTINUOUS
 62
    30
 10
1049.224289
 20
902.48998699999981
 30
0.0
 11
1049.224289
 21
1361.013271
 31
0.0
  0
LINE
  5
2B5
  8
SIZE
  6
CONTINUOUS
 62
    30
 10
1026.224289
 20
885.48707699999989
 30
0.0
 11
1026.224289
 21
1474.894855
 31
0.0
  0
LINE
  5
2B6
  8
SIZE
  6
CONTINUOUS
 62
    30
 10
1026.224289
 20
880.487077
 30
0.0
 11
1026.224289
 21
1256.769571
 31
0.0
  0
LINE
  5
2B7
  8
SIZE
  6
CONTINUOUS
 62
    30
 10
1042.224289
 20
889.78759200000002
 30
0.0
 11
1042.224289
 21
1256.769571
 31
0.0
  0
LINE
  5
2B8
  8
SIZE
  6
CONTINUOUS
 62
    30
 10
1042.224289
 20
889.78759200000002
 30
0.0
 11
1042.224289
 21
1256.769571
 31
0.0
  0
LINE
  5
2B9
  8
OUTLINE
  6
CONTINUOUS
 62
     3
 10
1002.224289
 20
398.78759200000002
 30
0.0
 11
1058.1357889999999
 21
398.78759200000002
 31
0.0
  0
LINE
  5
2BA
  8
SIZE
  6
CONTINUOUS
 62
    30
 10
1040.1357889999999
 20
445.78759200000002
 30
0.0
 11
804.30270199999995
 21
445.78759200000002
 31
0.0
  0
LINE
  5
2BB
  8
NOTE
  6
CONTINUOUS
 62
     4
 10
1022.224289
 20
399.78759200000002
 30
0.0
 11
920.91684000000009
 21
399.78759200000002
 31
0.0
  0
LINE
  5
2BC
  8
NOTE
  6
CONTINUOUS
 62
     4
 10
1022.224289
 20
419.78759200000002
 30
0.0
 11
920.91684000000009
 21
419.78759200000002
 31
0.0
  0
LINE
  5
2BD
  8
NOTE
  6
CONTINUOUS
 62
     4
 10
1042.224289
 20
735.78759200000002
 30
0.0
 11
1021.018184
 21
758.47940199999994
 31
0.0
  0
POLYLINE
  5
2BE
  8
NOTE
  6
CONTINUOUS
 62
     4
 66
     1
 10
0.0
 20
0.0
 30
0.0
  0
VERTEX
  5
7B3
  8
NOTE
  6
CONTINUOUS
 62
     4
 10
1042.224289
 20
735.78759200000002
 30
0.0
  0
VERTEX
  5
7B4
  8
NOTE
  6
CONTINUOUS
 62
     4
 10
908.80886799999996
 20
986.05612099999996
 30
0.0
  0
SEQEND
  5
7B5
  8
NOTE
  6
CONTINUOUS
 62
     4
  0
LINE
  5
2C2
  8
SIZE
  6
CONTINUOUS
 62
    30
 10
1024.224289
 20
871.78759200000002
 30
0.0
 11
808.846315
 21
871.78759200000002
 31
0.0
  0
TEXT
  5
2C3
  8
SIZE
  6
CONTINUOUS
 62
    30
 10
816.30270199999995
 20
564.78085057142846
 30
0.0
 40
50.0
  1
47
 50
90.0
 41
0.9
 72
     1
 11
816.30270199999995
 21
601.20942200000002
 31
0.0
  0
LINE
  5
2C4
  8
SIZE
  6
CONTINUOUS
 62
    30
 10
834.30270199999995
 20
465.78759200000002
 30
0.0
 11
834.30270199999995
 21
655.63799400000005
 31
0.0
  0
LINE
  5
2C5
  8
SIZE
  6
CONTINUOUS
 62
    30
 10
984.22428900000011
 20
398.78759200000002
 30
0.0
 11
804.30270199999995
 21
398.78759200000002
 31
0.0
  0
LINE
  5
2C6
  8
SIZE
  6
CONTINUOUS
 62
    30
 10
984.22428900000011
 20
398.78759200000002
 30
0.0
 11
804.30270199999995
 21
398.78759200000002
 31
0.0
  0
POINT
  5
2C7
  8
DEFPOINTS
  6
CONTINUOUS
 62
     7
 10
834.30270199999995
 20
445.78759200000002
 30
0.0
  0
LINE
  5
2C8
  8
SIZE
  6
CONTINUOUS
 62
    30
 10
834.30270199999995
 20
455.7875919999999
 30
0.0
 11
834.30270199999995
 21
465.78759200000002
 31
0.0
  0
CIRCLE
  5
2C9
  8
SIZE
  6
CONTINUOUS
 62
    30
 10
834.30270199999995
 20
445.78759200000002
 30
0.0
 40
10.0
  0
LINE
  5
2CA
  8
SIZE
  6
CONTINUOUS
 62
    30
 10
834.30270199999995
 20
398.78759200000002
 30
0.0
 11
834.30270199999995
 21
445.78759200000002
 31
0.0
  0
LINE
  5
2CB
  8
SIZE
  6
CONTINUOUS
 62
    30
 10
834.30270199999995
 20
408.78759200000002
 30
0.0
 11
834.30270199999995
 21
418.78759200000002
 31
0.0
  0
LINE
  5
2CC
  8
SIZE
  6
CONTINUOUS
 62
    30
 10
834.30270199999995
 20
418.78759200000002
 30
0.0
 11
834.30270199999995
 21
438.7875919999999
 31
0.0
  0
POINT
  5
2CD
  8
DEFPOINTS
  6
CONTINUOUS
 62
     7
 10
1002.224289
 20
398.78759200000002
 30
0.0
  0
POINT
  5
2CE
  8
DEFPOINTS
  6
CONTINUOUS
 62
     7
 10
1002.224289
 20
398.78759200000002
 30
0.0
  0
LINE
  5
2CF
  8
NOTE
  6
CONTINUOUS
 62
     4
 10
931.95928100000015
 20
399.78759200000002
 30
0.0
 11
951.95928100000003
 21
419.78759200000002
 31
0.0
  0
LINE
  5
2D0
  8
NOTE
  6
CONTINUOUS
 62
     4
 10
936.95928100000003
 20
399.78759200000002
 30
0.0
 11
956.95928100000015
 21
419.78759200000002
 31
0.0
  0
LINE
  5
2D1
  8
NOTE
  6
CONTINUOUS
 62
     4
 10
941.95928100000015
 20
399.78759200000002
 30
0.0
 11
961.95928100000003
 21
419.78759200000002
 31
0.0
  0
LINE
  5
2D2
  8
NOTE
  6
CONTINUOUS
 62
     4
 10
971.95928099999992
 20
399.78759200000002
 30
0.0
 11
991.95928100000015
 21
419.78759200000002
 31
0.0
  0
LINE
  5
2D3
  8
NOTE
  6
CONTINUOUS
 62
     4
 10
976.95928100000003
 20
399.78759200000002
 30
0.0
 11
996.95928099999992
 21
419.78759200000002
 31
0.0
  0
LINE
  5
2D4
  8
NOTE
  6
CONTINUOUS
 62
     4
 10
981.95928100000015
 20
399.78759200000002
 30
0.0
 11
1001.959281
 21
419.78759200000002
 31
0.0
  0
TEXT
  5
2D5
  8
SIZE
  6
CONTINUOUS
 62
    30
 10
820.846315
 20
751.2875919999999
 30
0.0
 40
50.0
  1
136
 50
90.0
 41
0.9
 72
     1
 11
820.846315
 21
803.78759200000013
 31
0.0
  0
LINE
  5
2D6
  8
SIZE
  6
CONTINUOUS
 62
    30
 10
838.84631499999989
 20
861.78759200000013
 30
0.0
 11
838.84631499999989
 21
851.7875919999999
 31
0.0
  0
LINE
  5
2D7
  8
SIZE
  6
CONTINUOUS
 62
    30
 10
1004.147884
 20
735.78759200000002
 30
0.0
 11
808.846315
 21
735.78759200000002
 31
0.0
  0
POINT
  5
2D8
  8
DEFPOINTS
  6
CONTINUOUS
 62
     7
 10
838.84631499999989
 20
735.78759200000002
 30
0.0
  0
LINE
  5
2D9
  8
SIZE
  6
CONTINUOUS
 62
    30
 10
838.84631499999989
 20
745.78759200000002
 30
0.0
 11
838.84631499999989
 21
755.78759200000002
 31
0.0
  0
CIRCLE
  5
2DA
  8
SIZE
  6
CONTINUOUS
 62
    30
 10
838.84631499999989
 20
735.78759200000002
 30
0.0
 40
10.0
  0
LINE
  5
2DB
  8
SIZE
  6
CONTINUOUS
 62
    30
 10
838.84631499999989
 20
851.7875919999999
 30
0.0
 11
838.84631499999989
 21
755.78759200000002
 31
0.0
  0
CIRCLE
  5
2DC
  8
SIZE
  6
CONTINUOUS
 62
    30
 10
838.84631499999989
 20
871.78759200000002
 30
0.0
 40
10.0
  0
LINE
  5
2DD
  8
OUTLINE
  6
CONTINUOUS
 62
     3
 10
1042.224289
 20
871.78759200000002
 30
0.0
 11
1042.224289
 21
538.7875919999999
 31
0.0
  0
LINE
  5
2DE
  8
DETAIL
  6
CONTINUOUS
 62
     5
 10
1074.1981820000001
 20
637.77585599999998
 30
0.0
 11
1074.1981820000001
 21
833.79932799999995
 31
0.0
  0
LINE
  5
2DF
  8
DETAIL
  6
CONTINUOUS
 62
     5
 10
1042.224289
 20
871.78759200000002
 30
0.0
 11
1042.224289
 21
620.57379600000002
 31
0.0
  0
LINE
  5
2E0
  8
DETAIL
  6
CONTINUOUS
 62
     5
 10
1057.226085
 20
550.78902900000003
 30
0.0
 11
1057.226085
 21
538.7875919999999
 31
0.0
  0
LINE
  5
2E1
  8
DETAIL
  6
CONTINUOUS
 62
     5
 10
1042.224289
 20
620.57379600000002
 30
0.0
 11
1042.224289
 21
539.58768799999984
 31
0.0
  0
LINE
  5
2E2
  8
OUTLINE
  6
CONTINUOUS
 62
     3
 10
1058.1357889999999
 20
398.78759200000002
 30
0.0
 11
1058.1357889999999
 21
445.78759200000002
 31
0.0
  0
POINT
  5
2E3
  8
DEFPOINTS
  6
CONTINUOUS
 62
     7
 10
1058.1357889999999
 20
445.78759200000002
 30
0.0
  0
POINT
  5
2E4
  8
DEFPOINTS
  6
CONTINUOUS
 62
     7
 10
1022.224289
 20
399.78759200000002
 30
0.0
  0
POINT
  5
2E5
  8
DEFPOINTS
  6
CONTINUOUS
 62
     7
 10
1042.224289
 20
538.7875919999999
 30
0.0
  0
POINT
  5
2E6
  8
DEFPOINTS
  6
CONTINUOUS
 62
     7
 10
1022.224289
 20
399.78759200000002
 30
0.0
  0
POINT
  5
2E7
  8
DEFPOINTS
  6
CONTINUOUS
 62
     7
 10
1022.224289
 20
399.78759200000002
 30
0.0
  0
LINE
  5
2E8
  8
NOTE
  6
CONTINUOUS
 62
     4
 10
1022.224289
 20
399.78759200000002
 30
0.0
 11
1022.224289
 21
419.78759200000002
 31
0.0
  0
LINE
  5
2E9
  8
DETAIL
  6
CONTINUOUS
 62
     5
 10
1058.1357889999999
 20
398.78759200000002
 30
0.0
 11
1058.1357889999999
 21
445.78759200000002
 31
0.0
  0
LINE
  5
2EA
  8
DETAIL
  6
CONTINUOUS
 62
     5
 10
1057.226085
 20
539.58768799999984
 30
0.0
 11
1042.224289
 21
539.58768799999984
 31
0.0
  0
ARC
  5
2EB
  8
DETAIL
  6
CONTINUOUS
 62
     5
 10
1084.19938
 20
637.77585599999998
 30
0.0
 40
10.001198
 50
180.0
 51
270.0
  0
ARC
  5
2EC
  8
DETAIL
  6
CONTINUOUS
 62
     5
 10
1047.224888
 20
571.19147199999998
 30
0.0
 40
5.0005990000000002
 50
180.0
 51
270.0
  0
LINE
  5
2ED
  8
DETAIL
  6
CONTINUOUS
 62
     5
 10
1057.226085
 20
550.78902900000003
 30
0.0
 11
1060.226445
 21
553.78938800000003
 31
0.0
  0
LINE
  5
2EE
  8
NOTE
  6
CONTINUOUS
 62
     4
 10
1049.224289
 20
851.78519700000004
 30
0.0
 11
1049.224289
 21
891.78998699999988
 31
0.0
  0
CIRCLE
  5
2EF
  8
FIX
  6
CONTINUOUS
 62
    11
 10
1049.224289
 20
871.78759200000002
 30
0.0
 40
18.598564
  0
LINE
  5
2F0
  8
NOTE
  6
CONTINUOUS
 62
     4
 10
1035.205168
 20
766.04232799999988
 30
0.0
 11
1042.224289
 21
735.78759200000002
 31
0.0
  0
ARC
  5
2F1
  8
DETAIL
  6
CONTINUOUS
 62
     5
 10
1084.19938
 20
833.79932799999995
 30
0.0
 40
10.001198
 50
90.0
 51
180.0
  0
POINT
  5
2F2
  8
DEFPOINTS
  6
CONTINUOUS
 62
     7
 10
1022.147884
 20
735.78759200000002
 30
0.0
  0
LINE
  5
2F3
  8
NOTE
  6
CONTINUOUS
 62
     4
 10
1062.300694
 20
735.78759200000002
 30
0.0
 11
1022.147884
 21
735.78759200000002
 31
0.0
  0
LINE
  5
2F4
  8
NOTE
  6
CONTINUOUS
 62
     4
 10
1042.224289
 20
715.78759200000002
 30
0.0
 11
1042.224289
 21
755.78759200000002
 31
0.0
  0
LINE
  5
2F5
  8
NOTE
  6
CONTINUOUS
 62
     4
 10
1049.224289
 20
871.78759200000002
 30
0.0
 11
1030.2858570000001
 21
891.68274299999985
 31
0.0
  0
LINE
  5
2F6
  8
NOTE
  6
CONTINUOUS
 62
     4
 10
1045.2173829999999
 20
897.64243099999999
 30
0.0
 11
1049.224289
 21
871.78759200000002
 31
0.0
  0
ARC
  5
2F7
  8
DETAIL
  6
CONTINUOUS
 62
     5
 10
1030.5248039999999
 20
867.487077
 30
0.0
 40
4.300514999999999
 50
90.0
 51
180.0
  0
LINE
  5
2F8
  8
DETAIL
  6
CONTINUOUS
 62
     5
 10
1026.224289
 20
867.487077
 30
0.0
 11
1026.224289
 21
859.78615500000012
 31
0.0
  0
LINE
  5
2F9
  8
DETAIL
  6
CONTINUOUS
 62
     5
 10
1028.5245640000001
 20
867.48731699999985
 30
0.0
 11
1028.5245640000001
 21
859.78615500000012
 31
0.0
  0
LINE
  5
2FA
  8
DETAIL
  6
CONTINUOUS
 62
     5
 10
1028.5245640000001
 20
859.78615500000012
 30
0.0
 11
1026.224289
 21
859.78615500000012
 31
0.0
  0
LINE
  5
2FB
  8
DETAIL
  6
CONTINUOUS
 62
     5
 10
1042.224289
 20
871.78759200000002
 30
0.0
 11
1030.5248039999999
 21
871.78759200000002
 31
0.0
  0
LINE
  5
2FC
  8
DETAIL
  6
CONTINUOUS
 62
     5
 10
1042.224289
 20
869.48731699999985
 30
0.0
 11
1030.5245640000001
 21
869.48731699999985
 31
0.0
  0
LINE
  5
2FD
  8
NOTE
  6
CONTINUOUS
 62
     4
 10
1069.2252470000001
 20
871.78759200000002
 30
0.0
 11
1029.2233309999999
 21
871.78759200000002
 31
0.0
  0
ARC
  5
2FE
  8
DETAIL
  6
CONTINUOUS
 62
     5
 10
1030.5245640000001
 20
867.48731699999985
 30
0.0
 40
2.0
 50
90.0
 51
180.0
  0
POINT
  5
2FF
  8
DEFPOINTS
  6
CONTINUOUS
 62
     7
 10
1049.224289
 20
891.78998699999988
 30
0.0
  0
POINT
  5
300
  8
DEFPOINTS
  6
CONTINUOUS
 62
     7
 10
1026.224289
 20
867.487077
 30
0.0
  0
POINT
  5
301
  8
DEFPOINTS
  6
CONTINUOUS
 62
     7
 10
1049.224289
 20
884.48998699999981
 30
0.0
  0
POINT
  5
302
  8
DEFPOINTS
  6
CONTINUOUS
 62
     7
 10
1026.224289
 20
867.487077
 30
0.0
  0
POINT
  5
303
  8
DEFPOINTS
  6
CONTINUOUS
 62
     7
 10
1026.224289
 20
862.48707699999989
 30
0.0
  0
POINT
  5
304
  8
DEFPOINTS
  6
CONTINUOUS
 62
     7
 10
1042.224289
 20
871.78759200000002
 30
0.0
  0
POINT
  5
305
  8
DEFPOINTS
  6
CONTINUOUS
 62
     7
 10
1042.224289
 20
871.78759200000002
 30
0.0
  0
POINT
  5
306
  8
DEFPOINTS
  6
CONTINUOUS
 62
     7
 10
1042.224289
 20
871.78759200000002
 30
0.0
  0
CIRCLE
  5
307
  8
SIZE
  6
CONTINUOUS
 62
    30
 10
1026.224289
 20
1331.013271
 30
0.0
 40
10.0
  0
CIRCLE
  5
308
  8
SIZE
  6
CONTINUOUS
 62
    30
 10
1026.224289
 20
1444.894855
 30
0.0
 40
10.0
  0
CIRCLE
  5
309
  8
SIZE
  6
CONTINUOUS
 62
    30
 10
1026.224289
 20
1226.769571
 30
0.0
 40
10.0
  0
TEXT
  5
30A
  8
SIZE
  6
CONTINUOUS
 62
    30
 10
906.08143142857136
 20
1244.769571
 30
0.0
 40
50.0
  1
16
 41
0.9
 72
     1
 11
937.15285999999992
 21
1244.769571
 31
0.0
  0
LINE
  5
30B
  8
SIZE
  6
CONTINUOUS
 62
    30
 10
1006.224289
 20
1226.769571
 30
0.0
 11
888.08143199999995
 21
1226.769571
 31
0.0
  0
LINE
  5
30C
  8
SIZE
  6
CONTINUOUS
 62
    30
 10
1016.224289
 20
1226.769571
 30
0.0
 11
1006.224289
 21
1226.769571
 31
0.0
  0
TEXT
  5
30D
  8
SIZE
  6
CONTINUOUS
 62
    30
 10
895.36714657142841
 20
1349.013271
 30
0.0
 40
50.0
  1
23
 41
0.9
 72
     1
 11
931.79571799999997
 21
1349.013271
 31
0.0
  0
LINE
  5
30E
  8
SIZE
  6
CONTINUOUS
 62
    30
 10
1006.224289
 20
1331.013271
 30
0.0
 11
877.36714600000005
 21
1331.013271
 31
0.0
  0
LINE
  5
30F
  8
SIZE
  6
CONTINUOUS
 62
    30
 10
1016.224289
 20
1331.013271
 30
0.0
 11
1006.224289
 21
1331.013271
 31
0.0
  0
POINT
  5
310
  8
DEFPOINTS
  6
CONTINUOUS
 62
     7
 10
1026.224289
 20
1226.769571
 30
0.0
  0
LINE
  5
311
  8
SIZE
  6
CONTINUOUS
 62
    30
 10
1052.224289
 20
1226.769571
 30
0.0
 11
1062.224289
 21
1226.769571
 31
0.0
  0
CIRCLE
  5
312
  8
SIZE
  6
CONTINUOUS
 62
    30
 10
1042.224289
 20
1226.769571
 30
0.0
 40
10.0
  0
LINE
  5
313
  8
SIZE
  6
CONTINUOUS
 62
    30
 10
1042.224289
 20
1226.769571
 30
0.0
 11
1026.224289
 21
1226.769571
 31
0.0
  0
LINE
  5
314
  8
SIZE
  6
CONTINUOUS
 62
    30
 10
1062.224289
 20
1226.769571
 30
0.0
 11
1082.224289
 21
1226.769571
 31
0.0
  0
LINE
  5
315
  8
SIZE
  6
CONTINUOUS
 62
    30
 10
1052.224289
 20
1226.769571
 30
0.0
 11
1062.224289
 21
1226.769571
 31
0.0
  0
CIRCLE
  5
316
  8
SIZE
  6
CONTINUOUS
 62
    30
 10
1042.224289
 20
1226.769571
 30
0.0
 40
10.0
  0
POINT
  5
317
  8
DEFPOINTS
  6
CONTINUOUS
 62
     7
 10
1049.224289
 20
1331.013271
 30
0.0
  0
LINE
  5
318
  8
SIZE
  6
CONTINUOUS
 62
    30
 10
1059.224289
 20
1331.013271
 30
0.0
 11
1069.224289
 21
1331.013271
 31
0.0
  0
CIRCLE
  5
319
  8
SIZE
  6
CONTINUOUS
 62
    30
 10
1049.224289
 20
1331.013271
 30
0.0
 40
10.0
  0
LINE
  5
31A
  8
SIZE
  6
CONTINUOUS
 62
    30
 10
1049.224289
 20
1331.013271
 30
0.0
 11
1026.224289
 21
1331.013271
 31
0.0
  0
LINE
  5
31B
  8
SIZE
  6
CONTINUOUS
 62
    30
 10
1069.224289
 20
1331.013271
 30
0.0
 11
1089.224289
 21
1331.013271
 31
0.0
  0
LINE
  5
31C
  8
SIZE
  6
CONTINUOUS
 62
    30
 10
1059.224289
 20
1331.013271
 30
0.0
 11
1069.224289
 21
1331.013271
 31
0.0
  0
CIRCLE
  5
31D
  8
SIZE
  6
CONTINUOUS
 62
    30
 10
1049.224289
 20
1331.013271
 30
0.0
 40
10.0
  0
POINT
  5
31E
  8
DEFPOINTS
  6
CONTINUOUS
 62
     7
 10
1026.224289
 20
1444.894855
 30
0.0
  0
LINE
  5
31F
  8
SIZE
  6
CONTINUOUS
 62
    30
 10
1036.224289
 20
1444.894855
 30
0.0
 11
1046.224289
 21
1444.894855
 31
0.0
  0
LINE
  5
320
  8
BASIS
  6
DASHDOT
 62
     6
 10
1797.224289
 20
340.78663399999999
 30
0.0
 11
1797.224289
 21
928.80351999999993
 31
0.0
  0
CIRCLE
  5
321
  8
ARRANGE
  6
CONTINUOUS
 62
     1
 10
1797.224289
 20
398.78759200000002
 30
0.0
 40
50.0
  0
LINE
  5
322
  8
OUTLINE
  6
CONTINUOUS
 62
     3
 10
2592.2242890000011
 20
394.78060399999998
 30
0.0
 11
2592.2242890000011
 21
398.78759200000002
 31
0.0
  0
LINE
  5
323
  8
SIZE
  6
CONTINUOUS
 62
    30
 10
2552.2242890000002
 20
520.78759200000002
 30
0.0
 11
2552.2242890000002
 21
210.126439
 31
0.0
  0
LINE
  5
324
  8
DETAIL
  6
CONTINUOUS
 62
     5
 10
2592.2242890000011
 20
394.78060399999998
 30
0.0
 11
2592.2242890000011
 21
398.78759200000002
 31
0.0
  0
POLYLINE
  5
325
  8
NOTE
  6
CONTINUOUS
 62
     4
 66
     1
 10
0.0
 20
0.0
 30
0.0
  0
VERTEX
  5
7B6
  8
NOTE
  6
CONTINUOUS
 62
     4
 10
2552.2242890000002
 20
566.78759200000002
 30
0.0
  0
VERTEX
  5
7B7
  8
NOTE
  6
CONTINUOUS
 62
     4
 10
2980.2667759999999
 20
177.14845600000001
 30
0.0
  0
SEQEND
  5
7B8
  8
NOTE
  6
CONTINUOUS
 62
     4
  0
LINE
  5
329
  8
ARRANGE
  6
CONTINUOUS
 62
     1
 10
1847.188052
 20
448.384187
 30
0.0
 11
1747.260526
 21
349.19099699999998
 31
0.0
  0
LINE
  5
32A
  8
ARRANGE
  6
CONTINUOUS
 62
     1
 10
1847.2616390000001
 20
349.26523900000001
 30
0.0
 11
1747.1869389999999
 21
448.30994500000003
 31
0.0
  0
TEXT
  5
32B
  8
SIZE
  6
CONTINUOUS
 62
    30
 10
1517.795717571428
 20
177.18953500000001
 30
0.0
 40
50.0
  1
1550（天井開口寸法）
 41
0.9
 72
     1
 11
1797.224289
 21
177.18953500000001
 31
0.0
  0
TEXT
  5
32C
  8
SIZE
  6
CONTINUOUS
 62
    30
 10
1722.224289
 20
79.498142000000001
 30
0.0
 40
50.0
  1
1590
 41
0.9
 72
     1
 11
1797.224289
 21
79.498142000000001
 31
0.0
  0
LINE
  5
32D
  8
SIZE
  6
CONTINUOUS
 62
    30
 10
2592.2242890000011
 20
376.78060399999998
 30
0.0
 11
2592.2242890000011
 21
31.498142000000001
 31
0.0
  0
CIRCLE
  5
32E
  8
SIZE
  6
CONTINUOUS
 62
    30
 10
2592.2242890000011
 20
61.498142000000001
 30
0.0
 40
10.0
  0
LINE
  5
32F
  8
SIZE
  6
CONTINUOUS
 62
    30
 10
2582.2242890000002
 20
61.498142000000001
 30
0.0
 11
2572.2242890000011
 21
61.498142000000001
 31
0.0
  0
ARC
  5
330
  8
OUTLINE
  6
CONTINUOUS
 62
     3
 10
2561.5206120000012
 20
510.80100499999992
 30
0.0
 40
120.014371
 50
269.77106299999991
 51
284.82297
  0
LINE
  5
331
  8
SIZE
  6
CONTINUOUS
 62
    30
 10
2582.2242890000002
 20
240.126439
 30
0.0
 11
2592.2242890000011
 21
240.126439
 31
0.0
  0
CIRCLE
  5
332
  8
SIZE
  6
CONTINUOUS
 62
    30
 10
2592.2242890000011
 20
159.18953500000001
 30
0.0
 40
10.0
  0
LINE
  5
333
  8
SIZE
  6
CONTINUOUS
 62
    30
 10
2572.2242890000011
 20
159.18953500000001
 30
0.0
 11
2592.2242890000011
 21
159.18953500000001
 31
0.0
  0
ARC
  5
334
  8
DETAIL
  6
CONTINUOUS
 62
     5
 10
2561.5206120000012
 20
510.80100499999992
 30
0.0
 40
120.014371
 50
269.77106299999991
 51
284.82297
  0
CIRCLE
  5
335
  8
SIZE
  6
CONTINUOUS
 62
    30
 10
2572.2242890000011
 20
240.126439
 30
0.0
 40
10.0
  0
CIRCLE
  5
336
  8
SIZE
  6
CONTINUOUS
 62
    30
 10
2552.2242890000002
 20
240.126439
 30
0.0
 40
10.0
  0
LINE
  5
337
  8
SIZE
  6
CONTINUOUS
 62
    30
 10
2572.2242890000011
 20
381.78759200000002
 30
0.0
 11
2572.2242890000011
 21
210.126439
 31
0.0
  0
LINE
  5
338
  8
SIZE
  6
CONTINUOUS
 62
    30
 10
2572.2242890000011
 20
381.78759200000002
 30
0.0
 11
2572.2242890000011
 21
129.18953500000001
 31
0.0
  0
LINE
  5
339
  8
SIZE
  6
CONTINUOUS
 62
    30
 10
2572.2242890000011
 20
381.78759200000002
 30
0.0
 11
2572.2242890000011
 21
129.18953500000001
 31
0.0
  0
POINT
  5
33A
  8
DEFPOINTS
  6
CONTINUOUS
 62
     7
 10
2572.2242890000011
 20
240.126439
 30
0.0
  0
LINE
  5
33B
  8
SIZE
  6
CONTINUOUS
 62
    30
 10
2542.2242890000002
 20
240.126439
 30
0.0
 11
2532.2242890000002
 21
240.126439
 31
0.0
  0
LINE
  5
33C
  8
SIZE
  6
CONTINUOUS
 62
    30
 10
2552.2242890000002
 20
240.126439
 30
0.0
 11
2572.2242890000011
 21
240.126439
 31
0.0
  0
LINE
  5
33D
  8
SIZE
  6
CONTINUOUS
 62
    30
 10
2532.2242890000002
 20
240.126439
 30
0.0
 11
2512.2242890000011
 21
240.126439
 31
0.0
  0
POINT
  5
33E
  8
DEFPOINTS
  6
CONTINUOUS
 62
     7
 10
2572.2242890000011
 20
159.18953500000001
 30
0.0
  0
LINE
  5
33F
  8
SIZE
  6
CONTINUOUS
 62
    30
 10
2562.2242890000002
 20
159.18953500000001
 30
0.0
 11
2552.2242890000002
 21
159.18953500000001
 31
0.0
  0
CIRCLE
  5
340
  8
SIZE
  6
CONTINUOUS
 62
    30
 10
2572.2242890000011
 20
159.18953500000001
 30
0.0
 40
10.0
  0
LINE
  5
341
  8
SIZE
  6
CONTINUOUS
 62
    30
 10
2562.2242890000002
 20
159.18953500000001
 30
0.0
 11
2552.2242890000002
 21
159.18953500000001
 31
0.0
  0
CIRCLE
  5
342
  8
SIZE
  6
CONTINUOUS
 62
    30
 10
2572.2242890000011
 20
159.18953500000001
 30
0.0
 40
10.0
  0
LINE
  5
343
  8
SIZE
  6
CONTINUOUS
 62
    30
 10
2552.2242890000002
 20
159.18953500000001
 30
0.0
 11
2532.2242890000002
 21
159.18953500000001
 31
0.0
  0
LINE
  5
344
  8
SIZE
  6
CONTINUOUS
 62
    30
 10
2592.2242890000011
 20
376.78060399999998
 30
0.0
 11
2592.2242890000011
 21
129.18953500000001
 31
0.0
  0
LINE
  5
345
  8
SIZE
  6
CONTINUOUS
 62
    30
 10
2592.2242890000011
 20
240.126439
 30
0.0
 11
2721.0814319999999
 21
240.126439
 31
0.0
  0
TEXT
  5
346
  8
SIZE
  6
CONTINUOUS
 62
    30
 10
2650.224288571429
 20
177.18953500000001
 30
0.0
 40
50.0
  1
20
 41
0.9
 72
     1
 11
2686.6528600000011
 21
177.18953500000001
 31
0.0
  0
LINE
  5
347
  8
SIZE
  6
CONTINUOUS
 62
    30
 10
2612.2242890000002
 20
159.18953500000001
 30
0.0
 11
2741.0814319999999
 21
159.18953500000001
 31
0.0
  0
POINT
  5
348
  8
DEFPOINTS
  6
CONTINUOUS
 62
     7
 10
2592.2242890000011
 20
159.18953500000001
 30
0.0
  0
LINE
  5
349
  8
SIZE
  6
CONTINUOUS
 62
    30
 10
2602.2242890000002
 20
159.18953500000001
 30
0.0
 11
2612.2242890000002
 21
159.18953500000001
 31
0.0
  0
TEXT
  5
34A
  8
SIZE
  6
CONTINUOUS
 62
    30
 10
2630.224288571429
 20
258.126439
 30
0.0
 40
50.0
  1
20
 41
0.9
 72
     1
 11
2666.6528600000011
 21
258.126439
 31
0.0
  0
POINT
  5
34B
  8
DEFPOINTS
  6
CONTINUOUS
 62
     7
 10
2592.2242890000011
 20
394.78060399999998
 30
0.0
  0
POINT
  5
34C
  8
DEFPOINTS
  6
CONTINUOUS
 62
     7
 10
2592.2242890000011
 20
394.78060399999998
 30
0.0
  0
TEXT
  5
34D
  8
SIZE
  6
CONTINUOUS
 62
    30
 10
1477.295717571428
 20
1362.1085089999999
 30
0.0
 40
50.0
  1
1496(吊りボルトピッチ)
 41
0.9
 72
     1
 11
1797.224289
 21
1362.1085089999999
 31
0.0
  0
TEXT
  5
34E
  8
SIZE
  6
CONTINUOUS
 62
    30
 10
1726.510003285714
 20
1244.769571
 30
0.0
 40
50.0
  1
1510
 41
0.9
 72
     1
 11
1797.224289
 21
1244.769571
 31
0.0
  0
TEXT
  5
34F
  8
SIZE
  6
CONTINUOUS
 62
    30
 10
1722.224289
 20
1462.894855
 30
0.0
 40
50.0
  1
1542
 41
0.9
 72
     1
 11
1797.224289
 21
1462.894855
 31
0.0
  0
POLYLINE
  5
350
  8
NOTE
  6
CONTINUOUS
 62
     4
 66
     1
 10
0.0
 20
0.0
 30
0.0
  0
VERTEX
  5
7B9
  8
NOTE
  6
CONTINUOUS
 62
     4
 10
2591.2242890000002
 20
665.78759200000002
 30
0.0
  0
VERTEX
  5
7BA
  8
NOTE
  6
CONTINUOUS
 62
     4
 10
2768.3888510000002
 20
1042.56251
 30
0.0
  0
SEQEND
  5
7BB
  8
NOTE
  6
CONTINUOUS
 62
     4
  0
POLYLINE
  5
354
  8
NOTE
  6
CONTINUOUS
 62
     4
 66
     1
 10
0.0
 20
0.0
 30
0.0
  0
VERTEX
  5
7BC
  8
NOTE
  6
CONTINUOUS
 62
     4
 10
2586.2242890000002
 20
723.78759200000002
 30
0.0
  0
VERTEX
  5
7BD
  8
NOTE
  6
CONTINUOUS
 62
     4
 10
2772.6866920000011
 20
1182.243442
 30
0.0
  0
SEQEND
  5
7BE
  8
NOTE
  6
CONTINUOUS
 62
     4
  0
LINE
  5
358
  8
SIZE
  6
CONTINUOUS
 62
    30
 10
2545.2242890000002
 20
909.78998699999988
 30
0.0
 11
2545.2242890000002
 21
1361.013271
 31
0.0
  0
LINE
  5
359
  8
SIZE
  6
CONTINUOUS
 62
    30
 10
2568.2242890000002
 20
880.487077
 30
0.0
 11
2568.2242890000002
 21
1361.013271
 31
0.0
  0
LINE
  5
35A
  8
SIZE
  6
CONTINUOUS
 62
    30
 10
2545.2242890000002
 20
909.78998699999988
 30
0.0
 11
2545.2242890000002
 21
1361.013271
 31
0.0
  0
LINE
  5
35B
  8
SIZE
  6
CONTINUOUS
 62
    30
 10
2568.2242890000002
 20
885.48707699999989
 30
0.0
 11
2568.2242890000002
 21
1474.894855
 31
0.0
  0
LINE
  5
35C
  8
SIZE
  6
CONTINUOUS
 62
    30
 10
2552.2242890000002
 20
889.78759200000002
 30
0.0
 11
2552.2242890000002
 21
1256.769571
 31
0.0
  0
LINE
  5
35D
  8
SIZE
  6
CONTINUOUS
 62
    30
 10
2568.2242890000002
 20
880.487077
 30
0.0
 11
2568.2242890000002
 21
1256.769571
 31
0.0
  0
LINE
  5
35E
  8
SIZE
  6
CONTINUOUS
 62
    30
 10
2552.2242890000002
 20
889.78759200000002
 30
0.0
 11
2552.2242890000002
 21
1256.769571
 31
0.0
  0
LINE
  5
35F
  8
SIZE
  6
CONTINUOUS
 62
    30
 10
2552.2242890000002
 20
889.78759200000002
 30
0.0
 11
2552.2242890000002
 21
1062.4623799999999
 31
0.0
  0
LINE
  5
360
  8
SIZE
  6
CONTINUOUS
 62
    30
 10
2591.2242890000002
 20
688.54759200000001
 30
0.0
 11
2591.2242890000002
 21
1062.4623799999999
 31
0.0
  0
LINE
  5
361
  8
SIZE
  6
CONTINUOUS
 62
    30
 10
2552.2242890000002
 20
889.78759200000002
 30
0.0
 11
2552.2242890000002
 21
1154.724228
 31
0.0
  0
LINE
  5
362
  8
SIZE
  6
CONTINUOUS
 62
    30
 10
2599.2242890000002
 20
663.72759199999985
 30
0.0
 11
2599.2242890000002
 21
1154.724228
 31
0.0
  0
TEXT
  5
363
  8
NOTE
  6
CONTINUOUS
 62
     4
 10
2779.0202730000001
 20
940.30852200000015
 30
0.0
 40
60.0
  1
RG %%C15.88
 50
0.000003
 41
0.7
  7
STANDARD1
  0
LINE
  5
364
  8
NOTE
  6
CONTINUOUS
 62
     4
 10
3139.2941150000001
 20
929.53949899999998
 30
0.0
 11
2765.2132529999999
 21
929.53949899999998
 31
0.0
  0
POLYLINE
  5
365
  8
NOTE
  6
CONTINUOUS
 62
     4
 66
     1
 10
0.0
 20
0.0
 30
0.0
  0
VERTEX
  5
7BF
  8
NOTE
  6
CONTINUOUS
 62
     4
 10
2599.2242890000002
 20
637.78759200000002
 30
0.0
  0
VERTEX
  5
7C0
  8
NOTE
  6
CONTINUOUS
 62
     4
 10
2765.2132529999999
 20
929.53949899999998
 30
0.0
  0
SEQEND
  5
7C1
  8
NOTE
  6
CONTINUOUS
 62
     4
  0
LINE
  5
369
  8
OUTLINE
  6
CONTINUOUS
 62
     3
 10
2552.2242890000002
 20
871.78759200000002
 30
0.0
 11
2552.2242890000002
 21
538.7875919999999
 31
0.0
  0
LINE
  5
36A
  8
DETAIL
  6
CONTINUOUS
 62
     5
 10
2520.2204569999999
 20
637.77585599999998
 30
0.0
 11
2520.2204569999999
 21
833.79932799999995
 31
0.0
  0
LINE
  5
36B
  8
DETAIL
  6
CONTINUOUS
 62
     5
 10
2552.2242890000002
 20
871.78759200000002
 30
0.0
 11
2552.2242890000002
 21
539.58768799999984
 31
0.0
  0
LINE
  5
36C
  8
OUTLINE
  6
CONTINUOUS
 62
     3
 10
2536.3127890000001
 20
398.78759200000002
 30
0.0
 11
2592.2242890000011
 21
398.78759200000002
 31
0.0
  0
LINE
  5
36D
  8
NOTE
  6
CONTINUOUS
 62
     4
 10
2572.2242890000011
 20
399.78759200000002
 30
0.0
 11
2673.5317380000001
 21
399.78759200000002
 31
0.0
  0
LINE
  5
36E
  8
NOTE
  6
CONTINUOUS
 62
     4
 10
2572.2242890000011
 20
419.78759200000002
 30
0.0
 11
2673.5317380000001
 21
419.78759200000002
 31
0.0
  0
LINE
  5
36F
  8
NOTE
  6
CONTINUOUS
 62
     4
 10
2612.2263780000012
 20
665.78759200000002
 30
0.0
 11
2570.2222000000002
 21
665.78759200000002
 31
0.0
  0
LINE
  5
370
  8
NOTE
  6
CONTINUOUS
 62
     4
 10
2625.885624
 20
637.78759200000002
 30
0.0
 11
2572.562954
 21
637.78759200000002
 31
0.0
  0
LINE
  5
371
  8
DETAIL
  6
CONTINUOUS
 62
     5
 10
2552.2242890000002
 20
670.54759200000001
 30
0.0
 11
2591.2242890000002
 21
670.54759200000001
 31
0.0
  0
LINE
  5
372
  8
DETAIL
  6
CONTINUOUS
 62
     5
 10
2591.2242890000002
 20
661.02759200000003
 30
0.0
 11
2552.2242890000002
 21
661.02759200000003
 31
0.0
  0
LINE
  5
373
  8
DETAIL
  6
CONTINUOUS
 62
     5
 10
2552.2242890000002
 20
645.72759199999985
 30
0.0
 11
2599.2242890000002
 21
645.72759199999985
 31
0.0
  0
LINE
  5
374
  8
DETAIL
  6
CONTINUOUS
 62
     5
 10
2599.2242890000002
 20
629.84759199999985
 30
0.0
 11
2552.2242890000002
 21
629.84759199999985
 31
0.0
  0
LINE
  5
375
  8
NOTE
  6
CONTINUOUS
 62
     4
 10
2568.9714990000002
 20
541.43146399999989
 30
0.0
 11
2552.2242890000002
 21
566.78759200000002
 31
0.0
  0
LINE
  5
376
  8
DETAIL
  6
CONTINUOUS
 62
     5
 10
2537.2224930000002
 20
550.78902900000003
 30
0.0
 11
2537.2224930000002
 21
538.7875919999999
 31
0.0
  0
LINE
  5
377
  8
OUTLINE
  6
CONTINUOUS
 62
     3
 10
2536.3127890000001
 20
398.78759200000002
 30
0.0
 11
2536.3127890000001
 21
445.78759200000002
 31
0.0
  0
POINT
  5
378
  8
DEFPOINTS
  6
CONTINUOUS
 62
     7
 10
2572.2242890000011
 20
399.78759200000002
 30
0.0
  0
POINT
  5
379
  8
DEFPOINTS
  6
CONTINUOUS
 62
     7
 10
2552.2242890000002
 20
538.7875919999999
 30
0.0
  0
POINT
  5
37A
  8
DEFPOINTS
  6
CONTINUOUS
 62
     7
 10
2572.2242890000011
 20
399.78759200000002
 30
0.0
  0
POINT
  5
37B
  8
DEFPOINTS
  6
CONTINUOUS
 62
     7
 10
2572.2242890000011
 20
399.78759200000002
 30
0.0
  0
LINE
  5
37C
  8
NOTE
  6
CONTINUOUS
 62
     4
 10
2572.2242890000011
 20
399.78759200000002
 30
0.0
 11
2572.2242890000011
 21
419.78759200000002
 31
0.0
  0
LINE
  5
37D
  8
DETAIL
  6
CONTINUOUS
 62
     5
 10
2536.3127890000001
 20
398.78759200000002
 30
0.0
 11
2536.3127890000001
 21
445.78759200000002
 31
0.0
  0
LINE
  5
37E
  8
DETAIL
  6
CONTINUOUS
 62
     5
 10
2552.2242890000002
 20
539.58768799999984
 30
0.0
 11
2537.2224930000002
 21
539.58768799999984
 31
0.0
  0
POINT
  5
37F
  8
DEFPOINTS
  6
CONTINUOUS
 62
     7
 10
2537.2224930000002
 20
538.7875919999999
 30
0.0
  0
POINT
  5
380
  8
DEFPOINTS
  6
CONTINUOUS
 62
     7
 10
2537.2224930000002
 20
538.7875919999999
 30
0.0
  0
LINE
  5
381
  8
NOTE
  6
CONTINUOUS
 62
     4
 10
2552.2242890000002
 20
566.78759200000002
 30
0.0
 11
2579.80591
 21
553.30933900000002
 31
0.0
  0
ARC
  5
382
  8
DETAIL
  6
CONTINUOUS
 62
     5
 10
2510.219259
 20
637.77585599999998
 30
0.0
 40
10.001198
 50
270.0
 51
0.0
  0
ARC
  5
383
  8
DETAIL
  6
CONTINUOUS
 62
     5
 10
2547.2236899999998
 20
571.19147199999998
 30
0.0
 40
5.0005990000000002
 50
270.0
 51
0.0
  0
LINE
  5
384
  8
DETAIL
  6
CONTINUOUS
 62
     5
 10
2534.2221330000002
 20
553.78938800000003
 30
0.0
 11
2537.2224930000002
 21
550.78902900000003
 31
0.0
  0
LINE
  5
385
  8
NOTE
  6
CONTINUOUS
 62
     4
 10
2546.7242890000002
 20
566.78759200000002
 30
0.0
 11
2557.7242890000011
 21
566.78759200000002
 31
0.0
  0
LINE
  5
386
  8
NOTE
  6
CONTINUOUS
 62
     4
 10
2552.2242890000002
 20
572.28758400000004
 30
0.0
 11
2552.2242890000002
 21
561.28759999999988
 31
0.0
  0
POINT
  5
387
  8
DEFPOINTS
  6
CONTINUOUS
 62
     7
 10
2557.7242890000011
 20
566.78759200000002
 30
0.0
  0
LINE
  5
388
  8
NOTE
  6
CONTINUOUS
 62
     4
 10
2612.4892970000001
 20
399.78759200000002
 30
0.0
 11
2592.4892970000001
 21
419.78759200000002
 31
0.0
  0
LINE
  5
389
  8
NOTE
  6
CONTINUOUS
 62
     4
 10
2617.4892970000001
 20
399.78759200000002
 30
0.0
 11
2597.4892970000001
 21
419.78759200000002
 31
0.0
  0
LINE
  5
38A
  8
NOTE
  6
CONTINUOUS
 62
     4
 10
2622.4892970000001
 20
399.78759200000002
 30
0.0
 11
2602.4892970000001
 21
419.78759200000002
 31
0.0
  0
LINE
  5
38B
  8
NOTE
  6
CONTINUOUS
 62
     4
 10
2652.4892970000001
 20
399.78759200000002
 30
0.0
 11
2632.4892970000001
 21
419.78759200000002
 31
0.0
  0
LINE
  5
38C
  8
NOTE
  6
CONTINUOUS
 62
     4
 10
2657.4892970000001
 20
399.78759200000002
 30
0.0
 11
2637.4892970000001
 21
419.78759200000002
 31
0.0
  0
LINE
  5
38D
  8
NOTE
  6
CONTINUOUS
 62
     4
 10
2662.4892970000001
 20
399.78759200000002
 30
0.0
 11
2642.4892970000001
 21
419.78759200000002
 31
0.0
  0
LINE
  5
38E
  8
NOTE
  6
CONTINUOUS
 62
     4
 10
2599.2242890000002
 20
617.7875919999999
 30
0.0
 11
2599.2242890000002
 21
657.78759200000002
 31
0.0
  0
LINE
  5
38F
  8
NOTE
  6
CONTINUOUS
 62
     4
 10
2591.2242890000002
 20
645.78759200000002
 30
0.0
 11
2591.2242890000002
 21
685.78759200000002
 31
0.0
  0
LINE
  5
390
  8
NOTE
  6
CONTINUOUS
 62
     4
 10
2591.2242890000002
 20
665.78759200000002
 30
0.0
 11
2596.715451
 21
696.35659999999996
 31
0.0
  0
LINE
  5
391
  8
NOTE
  6
CONTINUOUS
 62
     4
 10
2611.264279
 20
689.51554799999997
 30
0.0
 11
2591.2242890000002
 21
665.78759200000002
 31
0.0
  0
LINE
  5
392
  8
NOTE
  6
CONTINUOUS
 62
     4
 10
2599.2242890000002
 20
637.78759200000002
 30
0.0
 11
2607.0726559999998
 21
667.83788700000002
 31
0.0
  0
LINE
  5
393
  8
NOTE
  6
CONTINUOUS
 62
     4
 10
2621.0463220000001
 20
659.88772699999993
 30
0.0
 11
2599.2242890000002
 21
637.78759200000002
 31
0.0
  0
LINE
  5
394
  8
DETAIL
  6
CONTINUOUS
 62
     5
 10
2591.2242890000002
 20
670.54759200000001
 30
0.0
 11
2591.2242890000002
 21
661.02759200000003
 31
0.0
  0
LINE
  5
395
  8
DETAIL
  6
CONTINUOUS
 62
     5
 10
2599.2242890000002
 20
645.72759199999985
 30
0.0
 11
2599.2242890000002
 21
629.84759199999985
 31
0.0
  0
POINT
  5
396
  8
DEFPOINTS
  6
CONTINUOUS
 62
     7
 10
2612.2263780000012
 20
665.78759200000002
 30
0.0
  0
POINT
  5
397
  8
DEFPOINTS
  6
CONTINUOUS
 62
     7
 10
2625.885624
 20
637.78759200000002
 30
0.0
  0
POINT
  5
398
  8
DEFPOINTS
  6
CONTINUOUS
 62
     7
 10
2612.2263780000012
 20
665.78759200000002
 30
0.0
  0
POINT
  5
399
  8
DEFPOINTS
  6
CONTINUOUS
 62
     7
 10
2591.2242890000002
 20
670.54759200000001
 30
0.0
  0
POINT
  5
39A
  8
DEFPOINTS
  6
CONTINUOUS
 62
     7
 10
2599.2242890000002
 20
645.72759199999985
 30
0.0
  0
LINE
  5
39B
  8
NOTE
  6
CONTINUOUS
 62
     4
 10
2586.2242890000002
 20
723.78759200000002
 30
0.0
 11
2590.0806080000002
 21
754.60554000000002
 31
0.0
  0
LINE
  5
39C
  8
NOTE
  6
CONTINUOUS
 62
     4
 10
2604.972933
 20
748.54855799999984
 30
0.0
 11
2586.2242890000002
 21
723.78759200000002
 31
0.0
  0
LINE
  5
39D
  8
NOTE
  6
CONTINUOUS
 62
     4
 10
2605.8926240000001
 20
723.78759200000002
 30
0.0
 11
2566.5559539999999
 21
723.78759200000002
 31
0.0
  0
CIRCLE
  5
39E
  8
SIZE
  6
CONTINUOUS
 62
    30
 10
2586.2242890000002
 20
940.86053000000015
 30
0.0
 40
10.0
  0
LINE
  5
39F
  8
NOTE
  6
CONTINUOUS
 62
     4
 10
2545.2242890000002
 20
851.78519700000004
 30
0.0
 11
2545.2242890000002
 21
891.78998699999988
 31
0.0
  0
CIRCLE
  5
3A0
  8
FIX
  6
CONTINUOUS
 62
    11
 10
2545.2242890000002
 20
871.78759200000002
 30
0.0
 40
18.598564
  0
LINE
  5
3A1
  8
SIZE
  6
CONTINUOUS
 62
    30
 10
2586.2242890000002
 20
757.78759200000002
 30
0.0
 11
2586.2242890000002
 21
970.86053000000004
 31
0.0
  0
LINE
  5
3A2
  8
NOTE
  6
CONTINUOUS
 62
     4
 10
2586.2242890000002
 20
703.78759200000002
 30
0.0
 11
2586.2242890000002
 21
743.78759200000002
 31
0.0
  0
ARC
  5
3A3
  8
DETAIL
  6
CONTINUOUS
 62
     5
 10
2510.219259
 20
833.79932799999995
 30
0.0
 40
10.001198
 50
0.0
 51
90.0
  0
LINE
  5
3A4
  8
DETAIL
  6
CONTINUOUS
 62
     5
 10
2586.2242890000002
 20
707.78759200000002
 30
0.0
 11
2552.2242890000002
 21
707.78759200000002
 31
0.0
  0
LINE
  5
3A5
  8
DETAIL
  6
CONTINUOUS
 62
     5
 10
2586.2242890000002
 20
739.78759200000002
 30
0.0
 11
2552.2242890000002
 21
739.78759200000002
 31
0.0
  0
LINE
  5
3A6
  8
DETAIL
  6
CONTINUOUS
 62
     5
 10
2586.2242890000002
 20
739.78759200000002
 30
0.0
 11
2586.2242890000002
 21
707.78759200000002
 31
0.0
  0
POINT
  5
3A7
  8
DEFPOINTS
  6
CONTINUOUS
 62
     7
 10
2586.2242890000002
 20
739.78759200000002
 30
0.0
  0
TEXT
  5
3A8
  8
SIZE
  6
CONTINUOUS
 62
    30
 10
2419.2242890000011
 20
958.86053000000015
 30
0.0
 40
50.0
  1
34
 41
0.9
 72
     1
 11
2456.7242890000002
 21
958.86053000000015
 31
0.0
  0
LINE
  5
3A9
  8
SIZE
  6
CONTINUOUS
 62
    30
 10
2532.2242890000002
 20
940.86053000000015
 30
0.0
 11
2401.2242890000002
 21
940.86053000000015
 31
0.0
  0
ARC
  5
3AA
  8
DETAIL
  6
CONTINUOUS
 62
     5
 10
2563.9237739999999
 20
867.487077
 30
0.0
 40
4.300514999999999
 50
0.0
 51
90.0
  0
LINE
  5
3AB
  8
DETAIL
  6
CONTINUOUS
 62
     5
 10
2568.2242890000002
 20
867.487077
 30
0.0
 11
2568.2242890000002
 21
859.78615500000012
 31
0.0
  0
LINE
  5
3AC
  8
DETAIL
  6
CONTINUOUS
 62
     5
 10
2565.9240140000002
 20
867.48731699999985
 30
0.0
 11
2565.9240140000002
 21
859.78615500000012
 31
0.0
  0
LINE
  5
3AD
  8
DETAIL
  6
CONTINUOUS
 62
     5
 10
2565.9240140000002
 20
859.78615500000012
 30
0.0
 11
2568.2242890000002
 21
859.78615500000012
 31
0.0
  0
LINE
  5
3AE
  8
DETAIL
  6
CONTINUOUS
 62
     5
 10
2552.2242890000002
 20
871.78759200000002
 30
0.0
 11
2563.9237739999999
 21
871.78759200000002
 31
0.0
  0
LINE
  5
3AF
  8
DETAIL
  6
CONTINUOUS
 62
     5
 10
2552.2242890000002
 20
869.48731699999985
 30
0.0
 11
2563.9240140000002
 21
869.48731699999985
 31
0.0
  0
LINE
  5
3B0
  8
NOTE
  6
CONTINUOUS
 62
     4
 10
2565.2252469999999
 20
871.78759200000002
 30
0.0
 11
2525.2233310000001
 21
871.78759200000002
 31
0.0
  0
ARC
  5
3B1
  8
DETAIL
  6
CONTINUOUS
 62
     5
 10
2563.9240140000002
 20
867.48731699999985
 30
0.0
 40
2.0
 50
0.0
 51
90.0
  0
POINT
  5
3B2
  8
DEFPOINTS
  6
CONTINUOUS
 62
     7
 10
2545.2242890000002
 20
891.78998699999988
 30
0.0
  0
POINT
  5
3B3
  8
DEFPOINTS
  6
CONTINUOUS
 62
     7
 10
2568.2242890000002
 20
862.48707699999989
 30
0.0
  0
POINT
  5
3B4
  8
DEFPOINTS
  6
CONTINUOUS
 62
     7
 10
2545.2242890000002
 20
891.78998699999988
 30
0.0
  0
POINT
  5
3B5
  8
DEFPOINTS
  6
CONTINUOUS
 62
     7
 10
2568.2242890000002
 20
867.487077
 30
0.0
  0
POINT
  5
3B6
  8
DEFPOINTS
  6
CONTINUOUS
 62
     7
 10
2552.2242890000002
 20
871.78759200000002
 30
0.0
  0
POINT
  5
3B7
  8
DEFPOINTS
  6
CONTINUOUS
 62
     7
 10
2568.2242890000002
 20
862.48707699999989
 30
0.0
  0
POINT
  5
3B8
  8
DEFPOINTS
  6
CONTINUOUS
 62
     7
 10
2552.2242890000002
 20
871.78759200000002
 30
0.0
  0
POINT
  5
3B9
  8
DEFPOINTS
  6
CONTINUOUS
 62
     7
 10
2552.2242890000002
 20
871.78759200000002
 30
0.0
  0
POINT
  5
3BA
  8
DEFPOINTS
  6
CONTINUOUS
 62
     7
 10
2552.2242890000002
 20
871.78759200000002
 30
0.0
  0
POINT
  5
3BB
  8
DEFPOINTS
  6
CONTINUOUS
 62
     7
 10
2586.2242890000002
 20
940.86053000000015
 30
0.0
  0
POINT
  5
3BC
  8
DEFPOINTS
  6
CONTINUOUS
 62
     7
 10
2552.2242890000002
 20
871.78759200000002
 30
0.0
  0
LINE
  5
3BD
  8
SIZE
  6
CONTINUOUS
 62
    30
 10
2542.2242890000002
 20
940.86053000000015
 30
0.0
 11
2532.2242890000002
 21
940.86053000000015
 31
0.0
  0
CIRCLE
  5
3BE
  8
SIZE
  6
CONTINUOUS
 62
    30
 10
2552.2242890000002
 20
940.86053000000015
 30
0.0
 40
10.0
  0
LINE
  5
3BF
  8
SIZE
  6
CONTINUOUS
 62
    30
 10
2586.2242890000002
 20
940.86053000000015
 30
0.0
 11
2552.2242890000002
 21
940.86053000000015
 31
0.0
  0
LINE
  5
3C0
  8
SIZE
  6
CONTINUOUS
 62
    30
 10
2552.2242890000002
 20
889.78759200000002
 30
0.0
 11
2552.2242890000002
 21
970.86053000000004
 31
0.0
  0
POINT
  5
3C1
  8
DEFPOINTS
  6
CONTINUOUS
 62
     7
 10
2552.2242890000002
 20
871.78759200000002
 30
0.0
  0
POINT
  5
3C2
  8
DEFPOINTS
  6
CONTINUOUS
 62
     7
 10
2552.2242890000002
 20
871.78759200000002
 30
0.0
  0
POINT
  5
3C3
  8
DEFPOINTS
  6
CONTINUOUS
 62
     7
 10
2552.2242890000002
 20
871.78759200000002
 30
0.0
  0
POINT
  5
3C4
  8
DEFPOINTS
  6
CONTINUOUS
 62
     7
 10
2552.2242890000002
 20
871.78759200000002
 30
0.0
  0
POINT
  5
3C5
  8
DEFPOINTS
  6
CONTINUOUS
 62
     7
 10
2605.8926240000001
 20
723.78759200000002
 30
0.0
  0
LINE
  5
3C6
  8
SIZE
  6
CONTINUOUS
 62
    30
 10
2596.2242890000002
 20
940.86053000000015
 30
0.0
 11
2606.2242890000002
 21
940.86053000000015
 31
0.0
  0
LINE
  5
3C7
  8
SIZE
  6
CONTINUOUS
 62
    30
 10
2606.2242890000002
 20
940.86053000000015
 30
0.0
 11
2626.2242890000002
 21
940.86053000000015
 31
0.0
  0
POINT
  5
3C8
  8
DEFPOINTS
  6
CONTINUOUS
 62
     7
 10
2842.2242890000011
 20
398.78759200000002
 30
0.0
  0
LINE
  5
3C9
  8
SIZE
  6
CONTINUOUS
 62
    30
 10
3245.114234000001
 20
861.78759200000013
 30
0.0
 11
3245.114234000001
 21
851.7875919999999
 31
0.0
  0
POINT
  5
3CA
  8
DEFPOINTS
  6
CONTINUOUS
 62
     7
 10
3245.114234000001
 20
723.78759200000002
 30
0.0
  0
TEXT
  5
3CB
  8
SIZE
  6
CONTINUOUS
 62
    30
 10
3227.1142340000001
 20
744.21616342857146
 30
0.0
 40
50.0
  1
148
 50
90.0
 41
0.9
 72
     1
 11
3227.1142340000001
 21
797.78759200000002
 31
0.0
  0
LINE
  5
3CC
  8
SIZE
  6
CONTINUOUS
 62
    30
 10
3245.114234000001
 20
733.78759200000002
 30
0.0
 11
3245.114234000001
 21
743.78759200000002
 31
0.0
  0
CIRCLE
  5
3CD
  8
SIZE
  6
CONTINUOUS
 62
    30
 10
3245.114234000001
 20
723.78759200000002
 30
0.0
 40
10.0
  0
LINE
  5
3CE
  8
SIZE
  6
CONTINUOUS
 62
    30
 10
3245.114234000001
 20
851.7875919999999
 30
0.0
 11
3245.114234000001
 21
743.78759200000002
 31
0.0
  0
CIRCLE
  5
3CF
  8
SIZE
  6
CONTINUOUS
 62
    30
 10
3245.114234000001
 20
871.78759200000002
 30
0.0
 40
10.0
  0
LINE
  5
3D0
  8
NOTE
  6
CONTINUOUS
 62
     4
 10
2768.3888510000002
 20
1042.56251
 30
0.0
 11
3112.102433
 21
1042.56251
 31
0.0
  0
TEXT
  5
3D1
  8
NOTE
  6
CONTINUOUS
 62
     4
 10
2785.2271609999998
 20
1058.389054
 30
0.0
 40
60.0
  1
RL %%C9.52
 50
0.000003
 41
0.7
  7
STANDARD1
  0
LINE
  5
3D2
  8
NOTE
  6
CONTINUOUS
 62
     4
 10
2772.6866920000011
 20
1182.243442
 30
0.0
 11
3119.5005529999999
 21
1182.243442
 31
0.0
  0
TEXT
  5
3D3
  8
NOTE
  6
CONTINUOUS
 62
     4
 10
2792.6252810000001
 20
1198.069986
 30
0.0
 40
60.0
  1
D1 VP-25
 50
0.000003
 41
0.7
  7
STANDARD1
  0
LINE
  5
3D4
  8
SIZE
  6
CONTINUOUS
 62
    30
 10
2578.2242890000002
 20
1226.769571
 30
0.0
 11
2588.2242890000011
 21
1226.769571
 31
0.0
  0
CIRCLE
  5
3D5
  8
SIZE
  6
CONTINUOUS
 62
    30
 10
2591.2242890000002
 20
1032.4623799999999
 30
0.0
 40
10.0
  0
LINE
  5
3D6
  8
SIZE
  6
CONTINUOUS
 62
    30
 10
2591.2242890000002
 20
1032.4623799999999
 30
0.0
 11
2552.2242890000002
 21
1032.4623799999999
 31
0.0
  0
LINE
  5
3D7
  8
SIZE
  6
CONTINUOUS
 62
    30
 10
2599.2242890000002
 20
1124.724228
 30
0.0
 11
2552.2242890000002
 21
1124.724228
 31
0.0
  0
TEXT
  5
3D8
  8
SIZE
  6
CONTINUOUS
 62
    30
 10
2421.3671465714292
 20
1142.724228
 30
0.0
 40
50.0
  1
47
 41
0.9
 72
     1
 11
2457.7957179999999
 21
1142.724228
 31
0.0
  0
TEXT
  5
3D9
  8
SIZE
  6
CONTINUOUS
 62
    30
 10
2423.5100031428569
 20
1050.4623799999999
 30
0.0
 40
50.0
  1
39
 41
0.9
 72
     1
 11
2458.867146
 21
1050.4623799999999
 31
0.0
  0
LINE
  5
3DA
  8
SIZE
  6
CONTINUOUS
 62
    30
 10
2532.2242890000002
 20
1032.4623799999999
 30
0.0
 11
2405.5100030000008
 21
1032.4623799999999
 31
0.0
  0
LINE
  5
3DB
  8
SIZE
  6
CONTINUOUS
 62
    30
 10
2532.2242890000002
 20
1124.724228
 30
0.0
 11
2403.367146
 21
1124.724228
 31
0.0
  0
POINT
  5
3DC
  8
DEFPOINTS
  6
CONTINUOUS
 62
     7
 10
2552.2242890000002
 20
1032.4623799999999
 30
0.0
  0
LINE
  5
3DD
  8
SIZE
  6
CONTINUOUS
 62
    30
 10
2542.2242890000002
 20
1032.4623799999999
 30
0.0
 11
2532.2242890000002
 21
1032.4623799999999
 31
0.0
  0
CIRCLE
  5
3DE
  8
SIZE
  6
CONTINUOUS
 62
    30
 10
2552.2242890000002
 20
1032.4623799999999
 30
0.0
 40
10.0
  0
POINT
  5
3DF
  8
DEFPOINTS
  6
CONTINUOUS
 62
     7
 10
2552.2242890000002
 20
1124.724228
 30
0.0
  0
LINE
  5
3E0
  8
SIZE
  6
CONTINUOUS
 62
    30
 10
2542.2242890000002
 20
1124.724228
 30
0.0
 11
2532.2242890000002
 21
1124.724228
 31
0.0
  0
CIRCLE
  5
3E1
  8
SIZE
  6
CONTINUOUS
 62
    30
 10
2552.2242890000002
 20
1124.724228
 30
0.0
 40
10.0
  0
POINT
  5
3E2
  8
DEFPOINTS
  6
CONTINUOUS
 62
     7
 10
2552.2242890000002
 20
1226.769571
 30
0.0
  0
LINE
  5
3E3
  8
SIZE
  6
CONTINUOUS
 62
    30
 10
2542.2242890000002
 20
1226.769571
 30
0.0
 11
2532.2242890000002
 21
1226.769571
 31
0.0
  0
CIRCLE
  5
3E4
  8
SIZE
  6
CONTINUOUS
 62
    30
 10
2552.2242890000002
 20
1226.769571
 30
0.0
 40
10.0
  0
POINT
  5
3E5
  8
DEFPOINTS
  6
CONTINUOUS
 62
     7
 10
2568.2242890000002
 20
1226.769571
 30
0.0
  0
CIRCLE
  5
3E6
  8
SIZE
  6
CONTINUOUS
 62
    30
 10
2568.2242890000002
 20
1226.769571
 30
0.0
 40
10.0
  0
LINE
  5
3E7
  8
SIZE
  6
CONTINUOUS
 62
    30
 10
2542.2242890000002
 20
1226.769571
 30
0.0
 11
2532.2242890000002
 21
1226.769571
 31
0.0
  0
CIRCLE
  5
3E8
  8
SIZE
  6
CONTINUOUS
 62
    30
 10
2552.2242890000002
 20
1226.769571
 30
0.0
 40
10.0
  0
LINE
  5
3E9
  8
SIZE
  6
CONTINUOUS
 62
    30
 10
2552.2242890000002
 20
1226.769571
 30
0.0
 11
2568.2242890000002
 21
1226.769571
 31
0.0
  0
LINE
  5
3EA
  8
SIZE
  6
CONTINUOUS
 62
    30
 10
2532.2242890000002
 20
1226.769571
 30
0.0
 11
2512.2242890000011
 21
1226.769571
 31
0.0
  0
LINE
  5
3EB
  8
SIZE
  6
CONTINUOUS
 62
    30
 10
2601.2242890000011
 20
1032.4623799999999
 30
0.0
 11
2611.2242890000011
 21
1032.4623799999999
 31
0.0
  0
LINE
  5
3EC
  8
SIZE
  6
CONTINUOUS
 62
    30
 10
2611.2242890000011
 20
1032.4623799999999
 30
0.0
 11
2631.2242890000002
 21
1032.4623799999999
 31
0.0
  0
LINE
  5
3ED
  8
SIZE
  6
CONTINUOUS
 62
    30
 10
2609.2242890000002
 20
1124.724228
 30
0.0
 11
2619.2242890000002
 21
1124.724228
 31
0.0
  0
CIRCLE
  5
3EE
  8
SIZE
  6
CONTINUOUS
 62
    30
 10
2599.2242890000002
 20
1124.724228
 30
0.0
 40
10.0
  0
LINE
  5
3EF
  8
SIZE
  6
CONTINUOUS
 62
    30
 10
2619.2242890000002
 20
1124.724228
 30
0.0
 11
2639.2242890000002
 21
1124.724228
 31
0.0
  0
LINE
  5
3F0
  8
SIZE
  6
CONTINUOUS
 62
    30
 10
2588.2242890000011
 20
1226.769571
 30
0.0
 11
2708.5477209999999
 21
1226.769571
 31
0.0
  0
TEXT
  5
3F1
  8
SIZE
  6
CONTINUOUS
 62
    30
 10
2628.4048634285718
 20
1244.769571
 30
0.0
 40
50.0
  1
16
 41
0.9
 72
     1
 11
2659.4762920000012
 21
1244.769571
 31
0.0
  0
LINE
  5
3F2
  8
SIZE
  6
CONTINUOUS
 62
    30
 10
2578.2242890000002
 20
1331.013271
 30
0.0
 11
2588.2242890000011
 21
1331.013271
 31
0.0
  0
POINT
  5
3F3
  8
DEFPOINTS
  6
CONTINUOUS
 62
     7
 10
2545.2242890000002
 20
1331.013271
 30
0.0
  0
LINE
  5
3F4
  8
SIZE
  6
CONTINUOUS
 62
    30
 10
2535.2242890000002
 20
1331.013271
 30
0.0
 11
2525.2242890000002
 21
1331.013271
 31
0.0
  0
CIRCLE
  5
3F5
  8
SIZE
  6
CONTINUOUS
 62
    30
 10
2545.2242890000002
 20
1331.013271
 30
0.0
 40
10.0
  0
POINT
  5
3F6
  8
DEFPOINTS
  6
CONTINUOUS
 62
     7
 10
2568.2242890000002
 20
1331.013271
 30
0.0
  0
CIRCLE
  5
3F7
  8
SIZE
  6
CONTINUOUS
 62
    30
 10
2568.2242890000002
 20
1331.013271
 30
0.0
 40
10.0
  0
LINE
  5
3F8
  8
SIZE
  6
CONTINUOUS
 62
    30
 10
2535.2242890000002
 20
1331.013271
 30
0.0
 11
2525.2242890000002
 21
1331.013271
 31
0.0
  0
CIRCLE
  5
3F9
  8
SIZE
  6
CONTINUOUS
 62
    30
 10
2545.2242890000002
 20
1331.013271
 30
0.0
 40
10.0
  0
LINE
  5
3FA
  8
SIZE
  6
CONTINUOUS
 62
    30
 10
2545.2242890000002
 20
1331.013271
 30
0.0
 11
2568.2242890000002
 21
1331.013271
 31
0.0
  0
LINE
  5
3FB
  8
SIZE
  6
CONTINUOUS
 62
    30
 10
2525.2242890000002
 20
1331.013271
 30
0.0
 11
2505.2242890000002
 21
1331.013271
 31
0.0
  0
LINE
  5
3FC
  8
SIZE
  6
CONTINUOUS
 62
    30
 10
2558.2242890000002
 20
1444.894855
 30
0.0
 11
2548.2242890000002
 21
1444.894855
 31
0.0
  0
CIRCLE
  5
3FD
  8
SIZE
  6
CONTINUOUS
 62
    30
 10
2568.2242890000002
 20
1444.894855
 30
0.0
 40
10.0
  0
LINE
  5
3FE
  8
SIZE
  6
CONTINUOUS
 62
    30
 10
2588.2242890000011
 20
1331.013271
 30
0.0
 11
2717.0814319999999
 21
1331.013271
 31
0.0
  0
TEXT
  5
3FF
  8
SIZE
  6
CONTINUOUS
 62
    30
 10
2626.224288571429
 20
1349.013271
 30
0.0
 40
50.0
  1
23
 41
0.9
 72
     1
 11
2662.6528600000001
 21
1349.013271
 31
0.0
  0
POLYLINE
  5
400
  8
SIZE
  6
CONTINUOUS
 62
    30
 66
     1
 10
0.0
 20
0.0
 30
0.0
  0
VERTEX
  5
7C2
  8
SIZE
  6
CONTINUOUS
 62
    30
 10
3796.9955359999999
 20
394.590102
 30
0.0
 42
0.186174
  0
VERTEX
  5
7C3
  8
SIZE
  6
CONTINUOUS
 62
    30
 10
3788.1456870000002
 20
415.53958999999998
 30
0.0
 42
0.082105
  0
VERTEX
  5
7C4
  8
SIZE
  6
CONTINUOUS
 62
    30
 10
3772.4431850000001
 20
427.7141509999999
 30
0.0
 42
0.058826
  0
VERTEX
  5
7C5
  8
SIZE
  6
CONTINUOUS
 62
    30
 10
3750.6571269999999
 20
436.48907800000001
 30
0.0
 42
0.067494
  0
VERTEX
  5
7C6
  8
SIZE
  6
CONTINUOUS
 62
    30
 10
3713.1685670000002
 20
441.43458099999992
 30
0.0
 42
0.067494
  0
VERTEX
  5
7C7
  8
SIZE
  6
CONTINUOUS
 62
    30
 10
3675.6800079999998
 20
436.48907800000001
 30
0.0
 42
0.058826
  0
VERTEX
  5
7C8
  8
SIZE
  6
CONTINUOUS
 62
    30
 10
3653.8939500000001
 20
427.7141509999999
 30
0.0
 42
0.082105
  0
VERTEX
  5
7C9
  8
SIZE
  6
CONTINUOUS
 62
    30
 10
3638.191448
 20
415.53958999999998
 30
0.0
 42
0.186174
  0
VERTEX
  5
7CA
  8
SIZE
  6
CONTINUOUS
 62
    30
 10
3629.3415990000012
 20
394.590102
 30
0.0
 42
0.186174
  0
SEQEND
  5
7CB
  8
SIZE
  6
CONTINUOUS
 62
    30
  0
CIRCLE
  5
40B
  8
SIZE
  6
CONTINUOUS
 62
    30
 10
3579.4529649999999
 20
398.78759200000002
 30
0.0
 40
10.0
  0
LINE
  5
40C
  8
SIZE
  6
CONTINUOUS
 62
    30
 10
3579.4529649999999
 20
398.78759200000002
 30
0.0
 11
3579.4529649999999
 21
51.359020999999998
 31
0.0
  0
POLYLINE
  5
40D
  8
SIZE
  6
CONTINUOUS
 62
    30
 66
     1
 10
0.0
 20
0.0
 30
0.0
  0
VERTEX
  5
7CC
  8
SIZE
  6
CONTINUOUS
 62
    30
 10
3629.3415990000012
 20
46.844476
 30
0.0
 42
0.186174
  0
VERTEX
  5
7CD
  8
SIZE
  6
CONTINUOUS
 62
    30
 10
3638.191448
 20
25.894988000000001
 30
0.0
 42
0.082105
  0
VERTEX
  5
7CE
  8
SIZE
  6
CONTINUOUS
 62
    30
 10
3653.8939500000001
 20
13.720427000000001
 30
0.0
 42
0.058826
  0
VERTEX
  5
7CF
  8
SIZE
  6
CONTINUOUS
 62
    30
 10
3675.6800079999998
 20
4.9455
 30
0.0
 42
0.067494
  0
VERTEX
  5
7D0
  8
SIZE
  6
CONTINUOUS
 62
    30
 10
3713.1685670000002
 20
-0.000004
 30
0.0
 42
0.067494
  0
VERTEX
  5
7D1
  8
SIZE
  6
CONTINUOUS
 62
    30
 10
3750.6571269999999
 20
4.9455
 30
0.0
 42
0.058826
  0
VERTEX
  5
7D2
  8
SIZE
  6
CONTINUOUS
 62
    30
 10
3772.4431850000001
 20
13.720427000000001
 30
0.0
 42
0.082105
  0
VERTEX
  5
7D3
  8
SIZE
  6
CONTINUOUS
 62
    30
 10
3788.1456870000002
 20
25.894988000000001
 30
0.0
 42
0.186174
  0
VERTEX
  5
7D4
  8
SIZE
  6
CONTINUOUS
 62
    30
 10
3796.9955359999999
 20
46.844476
 30
0.0
 42
0.186174
  0
VERTEX
  5
7D5
  8
SIZE
  6
CONTINUOUS
 62
    30
 10
3796.9955359999999
 20
46.844476
 30
0.0
 42
0.186174
  0
SEQEND
  5
7D6
  8
SIZE
  6
CONTINUOUS
 62
    30
  0
TEXT
  5
419
  8
SIZE
  6
CONTINUOUS
 62
    30
 10
3705.5340639999999
 20
50.283169999999949
 30
0.0
 40
55.0
  1
パネル直付時
 50
90.0
 41
0.9
 72
     1
 11
3705.5340639999999
 21
221.88317000000001
 31
0.0
  0
TEXT
  5
41A
  8
SIZE
  6
CONTINUOUS
 62
    30
 10
3561.4529649999999
 20
69.35902028571428
 30
0.0
 40
50.0
  1
140-300
 50
90.0
 41
0.9
 72
     1
 11
3561.4529649999999
 21
215.073306
 31
0.0
  0
TEXT
  5
41B
  8
SIZE
  6
CONTINUOUS
 62
    30
 10
3789.2838420000012
 20
106.19896414285709
 30
0.0
 40
55.0
  1
50-60
 50
90.0
 41
0.9
 72
     1
 11
3789.2838420000012
 21
224.056107
 31
0.0
  0
LINE
  5
41C
  8
SIZE
  6
CONTINUOUS
 62
    30
 10
3359.744659
 20
851.7875919999999
 30
0.0
 11
3359.744659
 21
685.78759200000002
 31
0.0
  0
LINE
  5
41D
  8
SIZE
  6
CONTINUOUS
 62
    30
 10
3359.744659
 20
685.78759200000002
 30
0.0
 11
3359.744659
 21
705.78759200000002
 31
0.0
  0
TEXT
  5
41E
  8
SIZE
  6
CONTINUOUS
 62
    30
 10
3449.2106680000002
 20
661.43044914285713
 30
0.0
 40
50.0
  1
305
 50
90.0
 41
0.9
 72
     1
 11
3449.2106680000002
 21
719.28759200000002
 31
0.0
  0
LINE
  5
41F
  8
SIZE
  6
CONTINUOUS
 62
    30
 10
3467.2106680000011
 20
586.78759200000002
 30
0.0
 11
3467.2106680000011
 21
851.7875919999999
 31
0.0
  0
TEXT
  5
420
  8
SIZE
  6
CONTINUOUS
 62
    30
 10
3561.4529649999999
 20
647.43044914285713
 30
0.0
 40
50.0
  1
333
 50
90.0
 41
0.9
 72
     1
 11
3561.4529649999999
 21
705.2875919999999
 31
0.0
  0
LINE
  5
421
  8
SIZE
  6
CONTINUOUS
 62
    30
 10
3579.4529649999999
 20
851.7875919999999
 30
0.0
 11
3579.4529649999999
 21
558.78759200000002
 31
0.0
  0
LINE
  5
422
  8
SIZE
  6
CONTINUOUS
 62
    30
 10
3359.744659
 20
617.7875919999999
 30
0.0
 11
3359.744659
 21
417.74449499999992
 31
0.0
  0
TEXT
  5
423
  8
SIZE
  6
CONTINUOUS
 62
    30
 10
3341.744659
 20
435.7444945714285
 30
0.0
 40
50.0
  1
28
 50
90.0
 41
0.9
 72
     1
 11
3341.744659
 21
472.17306600000001
 31
0.0
  0
POINT
  5
424
  8
DEFPOINTS
  6
CONTINUOUS
 62
     7
 10
3359.744659
 20
665.78759200000002
 30
0.0
  0
LINE
  5
425
  8
SIZE
  6
CONTINUOUS
 62
    30
 10
3359.744659
 20
675.78759200000002
 30
0.0
 11
3359.744659
 21
685.78759200000002
 31
0.0
  0
CIRCLE
  5
426
  8
SIZE
  6
CONTINUOUS
 62
    30
 10
3359.744659
 20
665.78759200000002
 30
0.0
 40
10.0
  0
POINT
  5
427
  8
DEFPOINTS
  6
CONTINUOUS
 62
     7
 10
3359.744659
 20
637.78759200000002
 30
0.0
  0
LINE
  5
428
  8
SIZE
  6
CONTINUOUS
 62
    30
 10
3359.744659
 20
627.78759200000002
 30
0.0
 11
3359.744659
 21
617.7875919999999
 31
0.0
  0
CIRCLE
  5
429
  8
SIZE
  6
CONTINUOUS
 62
    30
 10
3359.744659
 20
637.78759200000002
 30
0.0
 40
10.0
  0
LINE
  5
42A
  8
SIZE
  6
CONTINUOUS
 62
    30
 10
3359.744659
 20
675.78759200000002
 30
0.0
 11
3359.744659
 21
685.78759200000002
 31
0.0
  0
CIRCLE
  5
42B
  8
SIZE
  6
CONTINUOUS
 62
    30
 10
3359.744659
 20
665.78759200000002
 30
0.0
 40
10.0
  0
LINE
  5
42C
  8
SIZE
  6
CONTINUOUS
 62
    30
 10
3359.744659
 20
665.78759200000002
 30
0.0
 11
3359.744659
 21
637.78759200000002
 31
0.0
  0
LINE
  5
42D
  8
SIZE
  6
CONTINUOUS
 62
    30
 10
3467.2106680000011
 20
576.78759200000002
 30
0.0
 11
3467.2106680000011
 21
586.78759200000002
 31
0.0
  0
CIRCLE
  5
42E
  8
SIZE
  6
CONTINUOUS
 62
    30
 10
3467.2106680000011
 20
566.78759200000002
 30
0.0
 40
10.0
  0
LINE
  5
42F
  8
SIZE
  6
CONTINUOUS
 62
    30
 10
3579.4529649999999
 20
548.78759200000002
 30
0.0
 11
3579.4529649999999
 21
558.78759200000002
 31
0.0
  0
POINT
  5
430
  8
DEFPOINTS
  6
CONTINUOUS
 62
     7
 10
3579.4529649999999
 20
538.7875919999999
 30
0.0
  0
CIRCLE
  5
431
  8
SIZE
  6
CONTINUOUS
 62
    30
 10
3579.4529649999999
 20
538.7875919999999
 30
0.0
 40
10.0
  0
POINT
  5
432
  8
DEFPOINTS
  6
CONTINUOUS
 62
     7
 10
3579.4529649999999
 20
398.78759200000002
 30
0.0
  0
LINE
  5
433
  8
SIZE
  6
CONTINUOUS
 62
    30
 10
3579.4529649999999
 20
408.78759200000002
 30
0.0
 11
3579.4529649999999
 21
418.78759200000002
 31
0.0
  0
LINE
  5
434
  8
SIZE
  6
CONTINUOUS
 62
    30
 10
3579.4529649999999
 20
528.78759200000002
 30
0.0
 11
3579.4529649999999
 21
518.78759200000002
 31
0.0
  0
CIRCLE
  5
435
  8
SIZE
  6
CONTINUOUS
 62
    30
 10
3579.4529649999999
 20
538.7875919999999
 30
0.0
 40
10.0
  0
LINE
  5
436
  8
SIZE
  6
CONTINUOUS
 62
    30
 10
3579.4529649999999
 20
518.78759200000002
 30
0.0
 11
3579.4529649999999
 21
418.78759200000002
 31
0.0
  0
LINE
  5
437
  8
SIZE
  6
CONTINUOUS
 62
    30
 10
3359.744659
 20
861.78759200000013
 30
0.0
 11
3359.744659
 21
851.7875919999999
 31
0.0
  0
LINE
  5
438
  8
SIZE
  6
CONTINUOUS
 62
    30
 10
3467.2106680000011
 20
861.78759200000013
 30
0.0
 11
3467.2106680000011
 21
851.7875919999999
 31
0.0
  0
TEXT
  5
439
  8
SIZE
  6
CONTINUOUS
 62
    30
 10
3341.744659
 20
712.0018777142858
 30
0.0
 40
50.0
  1
206
 50
90.0
 41
0.9
 72
     1
 11
3341.744659
 21
768.78759200000002
 31
0.0
  0
CIRCLE
  5
43A
  8
SIZE
  6
CONTINUOUS
 62
    30
 10
3359.744659
 20
871.78759200000002
 30
0.0
 40
10.0
  0
POINT
  5
43B
  8
DEFPOINTS
  6
CONTINUOUS
 62
     7
 10
3467.2106680000011
 20
871.78759200000002
 30
0.0
  0
CIRCLE
  5
43C
  8
SIZE
  6
CONTINUOUS
 62
    30
 10
3467.2106680000011
 20
871.78759200000002
 30
0.0
 40
10.0
  0
LINE
  5
43D
  8
SIZE
  6
CONTINUOUS
 62
    30
 10
3579.4529649999999
 20
861.78759200000013
 30
0.0
 11
3579.4529649999999
 21
851.7875919999999
 31
0.0
  0
CIRCLE
  5
43E
  8
SIZE
  6
CONTINUOUS
 62
    30
 10
3579.4529649999999
 20
871.78759200000002
 30
0.0
 40
10.0
  0
ENDBLK
  5
440
  8
0
 62
     7
  0
ENDSEC
  0
SECTION
  2
ENTITIES
  0
LINE
  5
442
  8
SIZE
  6
CONTINUOUS
 62
    30
 10
826.66833499999996
 20
325.0
 30
0.0
 11
1477.8899449999999
 21
325.0
 31
0.0
  0
LINE
  5
443
  8
SIZE
  6
CONTINUOUS
 62
    30
 10
773.0
 20
473.0
 30
0.0
 11
1477.8899449999999
 21
473.0
 31
0.0
  0
LINE
  5
444
  8
SIZE
  6
CONTINUOUS
 62
    30
 10
833.00208899999996
 20
267.0
 30
0.0
 11
1592.52037
 21
267.0
 31
0.0
  0
LINE
  5
445
  8
SIZE
  6
CONTINUOUS
 62
    30
 10
773.0
 20
473.0
 30
0.0
 11
1592.52037
 21
473.0
 31
0.0
  0
LINE
  5
446
  8
SIZE
  6
CONTINUOUS
 62
    30
 10
846.66133499999989
 20
239.0
 30
0.0
 11
1592.52037
 21
239.0
 31
0.0
  0
LINE
  5
447
  8
SIZE
  6
CONTINUOUS
 62
    30
 10
833.00208899999996
 20
267.0
 30
0.0
 11
1592.52037
 21
267.0
 31
0.0
  0
LINE
  5
448
  8
NOTE
  6
CONTINUOUS
 62
     4
 10
1623.4955649999999
 20
-221.63913600000001
 30
0.0
 11
1183.0424869999999
 21
-221.63913600000001
 31
0.0
  0
TEXT
  5
449
  8
NOTE
  6
CONTINUOUS
 62
     4
 10
1204.717758
 20
-205.81260499999999
 30
0.0
 40
60.0
  1
D2（自然排水口）
 50
0.000003
 41
0.7
  7
STANDARD1
  0
LINE
  5
44A
  8
SIZE
  6
CONTINUOUS
 62
    30
 10
773.0
 20
473.0
 30
0.0
 11
1699.9863789999999
 21
473.0
 31
0.0
  0
LINE
  5
44B
  8
SIZE
  6
CONTINUOUS
 62
    30
 10
778.5
 20
168.0
 30
0.0
 11
1699.9863789999999
 21
168.0
 31
0.0
  0
LINE
  5
44C
  8
SIZE
  6
CONTINUOUS
 62
    30
 10
757.99820399999987
 20
140.0
 30
0.0
 11
1812.228676
 21
140.0
 31
0.0
  0
LINE
  5
44D
  8
SIZE
  6
CONTINUOUS
 62
    30
 10
773.0
 20
473.0
 30
0.0
 11
1812.228676
 21
473.0
 31
0.0
  0
LINE
  5
44E
  8
SIZE
  6
CONTINUOUS
 62
    30
 10
1063.0
 20
0.0
 30
0.0
 11
1812.228676
 21
0.0
 31
0.0
  0
LINE
  5
44F
  8
SIZE
  6
CONTINUOUS
 62
    30
 10
757.99820399999987
 20
140.0
 30
0.0
 11
1812.228676
 21
140.0
 31
0.0
  0
LINE
  5
450
  8
DETAIL
  6
CONTINUOUS
 62
     5
 10
-795.0
 20
0.0
 30
0.0
 11
795.0
 21
0.0
 31
0.0
  0
LINE
  5
451
  8
OUTLINE
  6
CONTINUOUS
 62
     3
 10
-739.08849999999995
 20
47.0
 30
0.0
 11
739.08849999999995
 21
47.0
 31
0.0
  0
LINE
  5
452
  8
OUTLINE
  6
CONTINUOUS
 62
     3
 10
-763.81678299999999
 20
-8.0
 30
0.0
 11
763.81678299999999
 21
-8.0
 31
0.0
  0
LINE
  5
453
  8
SIZE
  6
CONTINUOUS
 62
    30
 10
-755.0
 20
-239.59805700000001
 30
0.0
 11
755.0
 21
-239.59805700000001
 31
0.0
  0
LINE
  5
454
  8
SIZE
  6
CONTINUOUS
 62
    30
 10
775.0
 20
-337.28944999999999
 30
0.0
 11
-775.0
 21
-337.28944999999999
 31
0.0
  0
LINE
  5
455
  8
DETAIL
  6
CONTINUOUS
 62
     5
 10
-763.81678299999999
 20
-8.0
 30
0.0
 11
763.81678299999999
 21
-8.0
 31
0.0
  0
LINE
  5
456
  8
DETAIL
  6
CONTINUOUS
 62
     5
 10
-739.08849999999995
 20
47.0
 30
0.0
 11
739.08849999999995
 21
47.0
 31
0.0
  0
LINE
  5
457
  8
OUTLINE
  6
CONTINUOUS
 62
     3
 10
755.0
 20
473.0
 30
0.0
 11
-755.0
 21
473.0
 31
0.0
  0
LINE
  5
458
  8
OUTLINE
  6
CONTINUOUS
 62
     3
 10
755.0
 20
140.0
 30
0.0
 11
-755.0
 21
140.0
 31
0.0
  0
LINE
  5
459
  8
DETAIL
  6
CONTINUOUS
 62
     5
 10
-713.02490899999987
 20
445.01293399999997
 30
0.0
 11
712.99496999999997
 21
445.01293399999997
 31
0.0
  0
LINE
  5
45A
  8
DETAIL
  6
CONTINUOUS
 62
     5
 10
-749.99940100000003
 20
167.40328099999999
 30
0.0
 11
749.99940100000003
 21
167.40328099999999
 31
0.0
  0
LINE
  5
45B
  8
DETAIL
  6
CONTINUOUS
 62
     5
 10
-713.02490899999987
 20
228.987066
 30
0.0
 11
712.99496999999997
 21
228.987066
 31
0.0
  0
LINE
  5
45C
  8
DETAIL
  6
CONTINUOUS
 62
     5
 10
755.0
 20
140.0
 30
0.0
 11
-755.0
 21
140.0
 31
0.0
  0
LINE
  5
45D
  8
DETAIL
  6
CONTINUOUS
 62
     5
 10
736.99784399999987
 20
155.00179600000001
 30
0.0
 11
-736.99784399999987
 21
155.00179600000001
 31
0.0
  0
LINE
  5
45E
  8
DETAIL
  6
CONTINUOUS
 62
     5
 10
766.69948499999998
 20
473.0
 30
0.0
 11
-766.69948499999998
 21
473.0
 31
0.0
  0
LINE
  5
45F
  8
SIZE
  6
CONTINUOUS
 62
    30
 10
-728.0
 20
932.2256789999999
 30
0.0
 11
728.0
 21
932.2256789999999
 31
0.0
  0
LINE
  5
460
  8
SIZE
  6
CONTINUOUS
 62
    30
 10
751.0
 20
1046.1072630000001
 30
0.0
 11
-751.0
 21
1046.1072630000001
 31
0.0
  0
LINE
  5
461
  8
SIZE
  6
CONTINUOUS
 62
    30
 10
-735.0
 20
827.98197900000014
 30
0.0
 11
735.0
 21
827.98197900000014
 31
0.0
  0
LINE
  5
462
  8
OUTLINE
  6
CONTINUOUS
 62
     3
 10
-795.0
 20
-4.0069879999999989
 30
0.0
 11
-795.0
 21
0.0
 31
0.0
  0
CIRCLE
  5
463
  8
SIZE
  6
CONTINUOUS
 62
    30
 10
-962.92158699999993
 20
0.0
 30
0.0
 40
10.0
  0
CIRCLE
  5
464
  8
SIZE
  6
CONTINUOUS
 62
    30
 10
-962.92158699999993
 20
-8.0
 30
0.0
 40
10.0
  0
CIRCLE
  5
465
  8
SIZE
  6
CONTINUOUS
 62
    30
 10
-962.92158699999993
 20
0.0
 30
0.0
 40
10.0
  0
LINE
  5
466
  8
SIZE
  6
CONTINUOUS
 62
    30
 10
-962.92158699999993
 20
0.0
 30
0.0
 11
-962.92158699999993
 21
-8.0
 31
0.0
  0
LINE
  5
467
  8
SIZE
  6
CONTINUOUS
 62
    30
 10
-755.0
 20
122.0
 30
0.0
 11
-755.0
 21
-176.60939400000001
 31
0.0
  0
LINE
  5
468
  8
DETAIL
  6
CONTINUOUS
 62
     5
 10
-795.0
 20
-4.0069879999999989
 30
0.0
 11
-795.0
 21
0.0
 31
0.0
  0
ARC
  5
469
  8
OUTLINE
  6
CONTINUOUS
 62
     3
 10
-764.29632300000003
 20
112.013413
 30
0.0
 40
120.014371
 50
255.17703
 51
270.22893699999997
  0
CIRCLE
  5
46A
  8
SIZE
  6
CONTINUOUS
 62
    30
 10
-775.0
 20
-146.60939400000001
 30
0.0
 40
10.0
  0
CIRCLE
  5
46B
  8
SIZE
  6
CONTINUOUS
 62
    30
 10
-775.0
 20
-239.59805700000001
 30
0.0
 40
10.0
  0
CIRCLE
  5
46C
  8
SIZE
  6
CONTINUOUS
 62
    30
 10
-775.0
 20
-239.59805700000001
 30
0.0
 40
10.0
  0
LINE
  5
46D
  8
SIZE
  6
CONTINUOUS
 62
    30
 10
-775.0
 20
-239.59805700000001
 30
0.0
 11
-795.0
 21
-239.59805700000001
 31
0.0
  0
LINE
  5
46E
  8
SIZE
  6
CONTINUOUS
 62
    30
 10
-785.0
 20
-337.28944999999999
 30
0.0
 11
-775.0
 21
-337.28944999999999
 31
0.0
  0
ARC
  5
46F
  8
DETAIL
  6
CONTINUOUS
 62
     5
 10
-764.29632300000003
 20
112.013413
 30
0.0
 40
120.014371
 50
255.17703
 51
270.22893699999997
  0
LINE
  5
470
  8
SIZE
  6
CONTINUOUS
 62
    30
 10
-795.0
 20
-22.006988
 30
0.0
 11
-795.0
 21
-367.28944999999999
 31
0.0
  0
POINT
  5
471
  8
DEFPOINTS
  6
CONTINUOUS
 62
     7
 10
-795.0
 20
-337.28944999999999
 30
0.0
  0
CIRCLE
  5
472
  8
SIZE
  6
CONTINUOUS
 62
    30
 10
-795.0
 20
-337.28944999999999
 30
0.0
 40
10.0
  0
TEXT
  5
473
  8
SIZE
  6
CONTINUOUS
 62
    30
 10
-980.92158699999993
 20
-96.0
 30
0.0
 40
50.0
  1
8
 50
90.0
 41
0.9
 72
     1
 11
-980.92158699999993
 21
-81.0
 31
0.0
  0
LINE
  5
474
  8
SIZE
  6
CONTINUOUS
 62
    30
 10
-795.0
 20
-22.006988
 30
0.0
 11
-795.0
 21
-269.59805699999998
 31
0.0
  0
TEXT
  5
475
  8
SIZE
  6
CONTINUOUS
 62
    30
 10
-925.85714242857148
 20
-221.59805700000001
 30
0.0
 40
50.0
  1
20
 41
0.9
 72
     1
 11
-889.42857100000003
 21
-221.59805700000001
 31
0.0
  0
LINE
  5
476
  8
SIZE
  6
CONTINUOUS
 62
    30
 10
-815.0
 20
-239.59805700000001
 30
0.0
 11
-943.85714299999995
 21
-239.59805700000001
 31
0.0
  0
POINT
  5
477
  8
DEFPOINTS
  6
CONTINUOUS
 62
     7
 10
-795.0
 20
-239.59805700000001
 30
0.0
  0
LINE
  5
478
  8
SIZE
  6
CONTINUOUS
 62
    30
 10
-805.0
 20
-239.59805700000001
 30
0.0
 11
-815.0
 21
-239.59805700000001
 31
0.0
  0
CIRCLE
  5
479
  8
SIZE
  6
CONTINUOUS
 62
    30
 10
-795.0
 20
-239.59805700000001
 30
0.0
 40
10.0
  0
LINE
  5
47A
  8
SIZE
  6
CONTINUOUS
 62
    30
 10
-781.81678299999999
 20
-8.0
 30
0.0
 11
-992.92158700000005
 21
-8.0
 31
0.0
  0
LINE
  5
47B
  8
SIZE
  6
CONTINUOUS
 62
    30
 10
-962.92158699999993
 20
-10.0
 30
0.0
 11
-962.92158699999993
 21
-20.0
 31
0.0
  0
LINE
  5
47C
  8
SIZE
  6
CONTINUOUS
 62
    30
 10
-962.92158699999993
 20
-20.0
 30
0.0
 11
-962.92158699999993
 21
-40.0
 31
0.0
  0
POINT
  5
47D
  8
DEFPOINTS
  6
CONTINUOUS
 62
     7
 10
-962.92158699999993
 20
-8.0
 30
0.0
  0
LINE
  5
47E
  8
SIZE
  6
CONTINUOUS
 62
    30
 10
-962.92158699999993
 20
-18.0
 30
0.0
 11
-962.92158699999993
 21
-28.0
 31
0.0
  0
LINE
  5
47F
  8
SIZE
  6
CONTINUOUS
 62
    30
 10
-962.92158699999993
 20
-28.0
 30
0.0
 11
-962.92158699999993
 21
-114.0
 31
0.0
  0
LINE
  5
480
  8
SIZE
  6
CONTINUOUS
 62
    30
 10
-785.0
 20
-146.60939400000001
 30
0.0
 11
-795.0
 21
-146.60939400000001
 31
0.0
  0
LINE
  5
481
  8
SIZE
  6
CONTINUOUS
 62
    30
 10
-795.0
 20
-146.60939400000001
 30
0.0
 11
-815.0
 21
-146.60939400000001
 31
0.0
  0
POINT
  5
482
  8
DEFPOINTS
  6
CONTINUOUS
 62
     7
 10
-795.0
 20
-4.0069879999999989
 30
0.0
  0
POINT
  5
483
  8
DEFPOINTS
  6
CONTINUOUS
 62
     7
 10
-795.0
 20
-4.0069879999999989
 30
0.0
  0
LINE
  5
484
  8
SIZE
  6
CONTINUOUS
 62
    30
 10
-735.0
 20
-146.60939400000001
 30
0.0
 11
-402.14285699999999
 21
-146.60939400000001
 31
0.0
  0
CIRCLE
  5
485
  8
SIZE
  6
CONTINUOUS
 62
    30
 10
-755.0
 20
-146.60939400000001
 30
0.0
 40
10.0
  0
LINE
  5
486
  8
SIZE
  6
CONTINUOUS
 62
    30
 10
-775.0
 20
-17.0
 30
0.0
 11
-775.0
 21
-176.60939400000001
 31
0.0
  0
LINE
  5
487
  8
SIZE
  6
CONTINUOUS
 62
    30
 10
-775.0
 20
-17.0
 30
0.0
 11
-775.0
 21
-269.59805699999998
 31
0.0
  0
LINE
  5
488
  8
SIZE
  6
CONTINUOUS
 62
    30
 10
-775.0
 20
-17.0
 30
0.0
 11
-775.0
 21
-269.59805699999998
 31
0.0
  0
LINE
  5
489
  8
SIZE
  6
CONTINUOUS
 62
    30
 10
-765.0
 20
-239.59805700000001
 30
0.0
 11
-755.0
 21
-239.59805700000001
 31
0.0
  0
LINE
  5
48A
  8
SIZE
  6
CONTINUOUS
 62
    30
 10
-765.0
 20
-239.59805700000001
 30
0.0
 11
-755.0
 21
-239.59805700000001
 31
0.0
  0
LINE
  5
48B
  8
SIZE
  6
CONTINUOUS
 62
    30
 10
-755.0
 20
-239.59805700000001
 30
0.0
 11
-735.0
 21
-239.59805700000001
 31
0.0
  0
POINT
  5
48C
  8
DEFPOINTS
  6
CONTINUOUS
 62
     7
 10
-763.81678299999999
 20
-8.0
 30
0.0
  0
POINT
  5
48D
  8
DEFPOINTS
  6
CONTINUOUS
 62
     7
 10
-775.0
 20
-146.60939400000001
 30
0.0
  0
LINE
  5
48E
  8
SIZE
  6
CONTINUOUS
 62
    30
 10
-745.0
 20
-146.60939400000001
 30
0.0
 11
-735.0
 21
-146.60939400000001
 31
0.0
  0
LINE
  5
48F
  8
SIZE
  6
CONTINUOUS
 62
    30
 10
-775.0
 20
-146.60939400000001
 30
0.0
 11
-755.0
 21
-146.60939400000001
 31
0.0
  0
TEXT
  5
490
  8
SIZE
  6
CONTINUOUS
 62
    30
 10
-493.00000042857141
 20
-128.6093939999999
 30
0.0
 40
50.0
  1
20
 41
0.9
 72
     1
 11
-456.57142900000002
 21
-128.6093939999999
 31
0.0
  0
TEXT
  5
491
  8
NOTE
  6
CONTINUOUS
 62
     4
 10
-1624.5488539999999
 20
815.89132900000004
 30
0.0
 40
60.0
  1
AH 4-14×30長穴(M10)
 50
0.000003
 41
0.7
  7
STANDARD1
  0
LINE
  5
492
  8
NOTE
  6
CONTINUOUS
 62
     4
 10
-1637.57421
 20
800.06476799999996
 30
0.0
 11
-908.47358199999996
 21
800.06476799999996
 31
0.0
  0
TEXT
  5
495
  8
ETC
  6
CONTINUOUS
 62
    61
 10
732.11856871455166
 20
1221.3957272941111
 30
0.0
 40
65.0
  1
PD-RP112_160FA5_3
 50
0.000003
 41
0.85
  7
STANDARD1
  0
LINE
  5
49A
  8
SIZE
  6
CONTINUOUS
 62
    30
 10
-748.0
 20
511.00239499999998
 30
0.0
 11
-748.0
 21
962.2256789999999
 31
0.0
  0
LINE
  5
49B
  8
SIZE
  6
CONTINUOUS
 62
    30
 10
-771.0
 20
486.69948499999998
 30
0.0
 11
-771.0
 21
962.2256789999999
 31
0.0
  0
LINE
  5
49C
  8
SIZE
  6
CONTINUOUS
 62
    30
 10
-748.0
 20
503.70239500000002
 30
0.0
 11
-748.0
 21
962.2256789999999
 31
0.0
  0
LINE
  5
49D
  8
SIZE
  6
CONTINUOUS
 62
    30
 10
-771.0
 20
486.69948499999998
 30
0.0
 11
-771.0
 21
1076.1072630000001
 31
0.0
  0
LINE
  5
49E
  8
SIZE
  6
CONTINUOUS
 62
    30
 10
-771.0
 20
481.69948499999992
 30
0.0
 11
-771.0
 21
857.98197900000002
 31
0.0
  0
LINE
  5
49F
  8
SIZE
  6
CONTINUOUS
 62
    30
 10
-755.0
 20
491.0
 30
0.0
 11
-755.0
 21
857.98197900000002
 31
0.0
  0
LINE
  5
4A0
  8
SIZE
  6
CONTINUOUS
 62
    30
 10
-755.0
 20
491.0
 30
0.0
 11
-755.0
 21
857.98197900000002
 31
0.0
  0
LINE
  5
4A2
  8
SIZE
  6
CONTINUOUS
 62
    30
 10
-757.08849999999995
 20
47.0
 30
0.0
 11
-992.92158700000005
 21
47.0
 31
0.0
  0
LINE
  5
4A3
  8
NOTE
  6
CONTINUOUS
 62
     4
 10
-775.0
 20
1.0
 30
0.0
 11
-876.30744900000013
 21
1.0
 31
0.0
  0
LINE
  5
4A4
  8
NOTE
  6
CONTINUOUS
 62
     4
 10
-775.0
 20
21.0
 30
0.0
 11
-876.30744900000013
 21
21.0
 31
0.0
  0
TEXT
  5
4AB
  8
SIZE
  6
CONTINUOUS
 62
    30
 10
-980.92158699999993
 20
165.99325857142861
 30
0.0
 40
50.0
  1
47
 50
90.0
 41
0.9
 72
     1
 11
-980.92158699999993
 21
202.42183
 31
0.0
  0
LINE
  5
4AC
  8
SIZE
  6
CONTINUOUS
 62
    30
 10
-962.92158699999993
 20
67.0
 30
0.0
 11
-962.92158699999993
 21
256.85040199999997
 31
0.0
  0
LINE
  5
4AD
  8
SIZE
  6
CONTINUOUS
 62
    30
 10
-813.0
 20
0.0
 30
0.0
 11
-992.92158700000005
 21
0.0
 31
0.0
  0
LINE
  5
4AE
  8
SIZE
  6
CONTINUOUS
 62
    30
 10
-813.0
 20
0.0
 30
0.0
 11
-992.92158700000005
 21
0.0
 31
0.0
  0
POINT
  5
4AF
  8
DEFPOINTS
  6
CONTINUOUS
 62
     7
 10
-962.92158699999993
 20
47.0
 30
0.0
  0
LINE
  5
4B0
  8
SIZE
  6
CONTINUOUS
 62
    30
 10
-962.92158699999993
 20
57.0
 30
0.0
 11
-962.92158699999993
 21
67.0
 31
0.0
  0
CIRCLE
  5
4B1
  8
SIZE
  6
CONTINUOUS
 62
    30
 10
-962.92158699999993
 20
47.0
 30
0.0
 40
10.0
  0
LINE
  5
4B2
  8
SIZE
  6
CONTINUOUS
 62
    30
 10
-962.92158699999993
 20
0.0
 30
0.0
 11
-962.92158699999993
 21
47.0
 31
0.0
  0
LINE
  5
4B3
  8
SIZE
  6
CONTINUOUS
 62
    30
 10
-962.92158699999993
 20
10.0
 30
0.0
 11
-962.92158699999993
 21
20.0
 31
0.0
  0
LINE
  5
4B4
  8
SIZE
  6
CONTINUOUS
 62
    30
 10
-962.92158699999993
 20
20.0
 30
0.0
 11
-962.92158699999993
 21
40.0
 31
0.0
  0
POINT
  5
4B5
  8
DEFPOINTS
  6
CONTINUOUS
 62
     7
 10
-795.0
 20
0.0
 30
0.0
  0
POINT
  5
4B6
  8
DEFPOINTS
  6
CONTINUOUS
 62
     7
 10
-795.0
 20
0.0
 30
0.0
  0
LINE
  5
4B7
  8
NOTE
  6
CONTINUOUS
 62
     4
 10
-865.26500799999985
 20
1.0
 30
0.0
 11
-845.26500799999985
 21
21.0
 31
0.0
  0
LINE
  5
4B8
  8
NOTE
  6
CONTINUOUS
 62
     4
 10
-860.26500799999997
 20
1.0
 30
0.0
 11
-840.26500799999985
 21
21.0
 31
0.0
  0
LINE
  5
4B9
  8
NOTE
  6
CONTINUOUS
 62
     4
 10
-855.26500799999985
 20
1.0
 30
0.0
 11
-835.26500799999997
 21
21.0
 31
0.0
  0
LINE
  5
4BA
  8
NOTE
  6
CONTINUOUS
 62
     4
 10
-825.26500799999997
 20
1.0
 30
0.0
 11
-805.26500799999985
 21
21.0
 31
0.0
  0
LINE
  5
4BB
  8
NOTE
  6
CONTINUOUS
 62
     4
 10
-820.26500799999985
 20
1.0
 30
0.0
 11
-800.26500799999997
 21
21.0
 31
0.0
  0
LINE
  5
4BC
  8
NOTE
  6
CONTINUOUS
 62
     4
 10
-815.26500799999985
 20
1.0
 30
0.0
 11
-795.26500799999985
 21
21.0
 31
0.0
  0
LINE
  5
4C5
  8
OUTLINE
  6
CONTINUOUS
 62
     3
 10
-755.0
 20
473.0
 30
0.0
 11
-755.0
 21
140.0
 31
0.0
  0
LINE
  5
4C6
  8
DETAIL
  6
CONTINUOUS
 62
     5
 10
-723.02610700000002
 20
238.98826399999999
 30
0.0
 11
-723.02610700000002
 21
435.01173599999998
 31
0.0
  0
LINE
  5
4C8
  8
DETAIL
  6
CONTINUOUS
 62
     5
 10
-739.99820399999999
 20
152.00143700000001
 30
0.0
 11
-739.99820399999999
 21
140.0
 31
0.0
  0
LINE
  5
4C9
  8
DETAIL
  6
CONTINUOUS
 62
     5
 10
-755.0
 20
473.0
 30
0.0
 11
-755.0
 21
140.0
 31
0.0
  0
LINE
  5
4CA
  8
OUTLINE
  6
CONTINUOUS
 62
     3
 10
-739.08849999999995
 20
0.0
 30
0.0
 11
-739.08849999999995
 21
47.0
 31
0.0
  0
POINT
  5
4CB
  8
DEFPOINTS
  6
CONTINUOUS
 62
     7
 10
-739.08849999999995
 20
47.0
 30
0.0
  0
POINT
  5
4CC
  8
DEFPOINTS
  6
CONTINUOUS
 62
     7
 10
-775.0
 20
1.0
 30
0.0
  0
POINT
  5
4CD
  8
DEFPOINTS
  6
CONTINUOUS
 62
     7
 10
-755.0
 20
140.0
 30
0.0
  0
POINT
  5
4CE
  8
DEFPOINTS
  6
CONTINUOUS
 62
     7
 10
-775.0
 20
1.0
 30
0.0
  0
POINT
  5
4CF
  8
DEFPOINTS
  6
CONTINUOUS
 62
     7
 10
-775.0
 20
1.0
 30
0.0
  0
LINE
  5
4D0
  8
NOTE
  6
CONTINUOUS
 62
     4
 10
-775.0
 20
1.0
 30
0.0
 11
-775.0
 21
21.0
 31
0.0
  0
LINE
  5
4D1
  8
DETAIL
  6
CONTINUOUS
 62
     5
 10
-739.08849999999995
 20
0.0
 30
0.0
 11
-739.08849999999995
 21
47.0
 31
0.0
  0
LINE
  5
4D2
  8
DETAIL
  6
CONTINUOUS
 62
     5
 10
-739.99820399999999
 20
140.800096
 30
0.0
 11
-755.0
 21
140.800096
 31
0.0
  0
ARC
  5
4D3
  8
DETAIL
  6
CONTINUOUS
 62
     5
 10
-713.02490899999987
 20
238.98826399999999
 30
0.0
 40
10.001198
 50
180.0
 51
270.0
  0
ARC
  5
4D4
  8
DETAIL
  6
CONTINUOUS
 62
     5
 10
-749.99940100000003
 20
172.40387999999999
 30
0.0
 40
5.0005990000000002
 50
180.0
 51
270.0
  0
LINE
  5
4D5
  8
DETAIL
  6
CONTINUOUS
 62
     5
 10
-739.99820399999999
 20
152.00143700000001
 30
0.0
 11
-736.99784399999987
 21
155.00179600000001
 31
0.0
  0
LINE
  5
4D6
  8
NOTE
  6
CONTINUOUS
 62
     4
 10
-748.0
 20
452.99760500000002
 30
0.0
 11
-748.0
 21
493.00239499999998
 31
0.0
  0
CIRCLE
  5
4D7
  8
FIX
  6
CONTINUOUS
 62
    11
 10
-748.0
 20
473.0
 30
0.0
 40
18.598564
  0
ARC
  5
4D9
  8
DETAIL
  6
CONTINUOUS
 62
     5
 10
-713.02490899999987
 20
435.01173599999998
 30
0.0
 40
10.001198
 50
90.0
 51
180.0
  0
LINE
  5
4DD
  8
NOTE
  6
CONTINUOUS
 62
     4
 10
-748.0
 20
473.0
 30
0.0
 11
-766.93843200000003
 21
492.895151
 31
0.0
  0
LINE
  5
4DE
  8
NOTE
  6
CONTINUOUS
 62
     4
 10
-752.00690599999984
 20
498.85483900000003
 30
0.0
 11
-748.0
 21
473.0
 31
0.0
  0
ARC
  5
4DF
  8
DETAIL
  6
CONTINUOUS
 62
     5
 10
-766.69948499999998
 20
468.69948499999992
 30
0.0
 40
4.300514999999999
 50
90.0
 51
180.0
  0
LINE
  5
4E0
  8
DETAIL
  6
CONTINUOUS
 62
     5
 10
-771.0
 20
468.69948499999992
 30
0.0
 11
-771.0
 21
460.99856299999988
 31
0.0
  0
LINE
  5
4E1
  8
DETAIL
  6
CONTINUOUS
 62
     5
 10
-768.69972499999994
 20
468.699725
 30
0.0
 11
-768.69972499999994
 21
460.99856299999988
 31
0.0
  0
LINE
  5
4E2
  8
DETAIL
  6
CONTINUOUS
 62
     5
 10
-768.69972499999994
 20
460.99856299999988
 30
0.0
 11
-771.0
 21
460.99856299999988
 31
0.0
  0
LINE
  5
4E4
  8
DETAIL
  6
CONTINUOUS
 62
     5
 10
-755.0
 20
470.69972499999989
 30
0.0
 11
-766.69972499999994
 21
470.69972499999989
 31
0.0
  0
LINE
  5
4E5
  8
NOTE
  6
CONTINUOUS
 62
     4
 10
-727.99904200000003
 20
473.0
 30
0.0
 11
-768.00095799999997
 21
473.0
 31
0.0
  0
ARC
  5
4E6
  8
DETAIL
  6
CONTINUOUS
 62
     5
 10
-766.69972499999994
 20
468.699725
 30
0.0
 40
2.0
 50
90.0
 51
180.0
  0
POINT
  5
4E7
  8
DEFPOINTS
  6
CONTINUOUS
 62
     7
 10
-748.0
 20
493.00239499999998
 30
0.0
  0
POINT
  5
4E8
  8
DEFPOINTS
  6
CONTINUOUS
 62
     7
 10
-771.0
 20
468.69948499999992
 30
0.0
  0
POINT
  5
4EA
  8
DEFPOINTS
  6
CONTINUOUS
 62
     7
 10
-771.0
 20
468.69948499999992
 30
0.0
  0
CIRCLE
  5
4EF
  8
SIZE
  6
CONTINUOUS
 62
    30
 10
-771.0
 20
932.2256789999999
 30
0.0
 40
10.0
  0
CIRCLE
  5
4F0
  8
SIZE
  6
CONTINUOUS
 62
    30
 10
-771.0
 20
1046.1072630000001
 30
0.0
 40
10.0
  0
CIRCLE
  5
4F1
  8
SIZE
  6
CONTINUOUS
 62
    30
 10
-771.0
 20
827.98197900000014
 30
0.0
 40
10.0
  0
TEXT
  5
4F2
  8
SIZE
  6
CONTINUOUS
 62
    30
 10
-891.14285757142852
 20
845.98197899999991
 30
0.0
 40
50.0
  1
16
 41
0.9
 72
     1
 11
-860.07142899999985
 21
845.98197899999991
 31
0.0
  0
LINE
  5
4F3
  8
SIZE
  6
CONTINUOUS
 62
    30
 10
-791.0
 20
827.98197900000014
 30
0.0
 11
-909.14285700000005
 21
827.98197900000014
 31
0.0
  0
LINE
  5
4F4
  8
SIZE
  6
CONTINUOUS
 62
    30
 10
-781.0
 20
827.98197900000014
 30
0.0
 11
-791.0
 21
827.98197900000014
 31
0.0
  0
TEXT
  5
4F5
  8
SIZE
  6
CONTINUOUS
 62
    30
 10
-901.85714242857148
 20
950.22567899999979
 30
0.0
 40
50.0
  1
23
 41
0.9
 72
     1
 11
-865.42857099999992
 21
950.22567899999979
 31
0.0
  0
LINE
  5
4F6
  8
SIZE
  6
CONTINUOUS
 62
    30
 10
-791.0
 20
932.2256789999999
 30
0.0
 11
-919.85714299999995
 21
932.2256789999999
 31
0.0
  0
LINE
  5
4F7
  8
SIZE
  6
CONTINUOUS
 62
    30
 10
-781.0
 20
932.2256789999999
 30
0.0
 11
-791.0
 21
932.2256789999999
 31
0.0
  0
POINT
  5
4F8
  8
DEFPOINTS
  6
CONTINUOUS
 62
     7
 10
-771.0
 20
827.98197900000014
 30
0.0
  0
LINE
  5
4F9
  8
SIZE
  6
CONTINUOUS
 62
    30
 10
-745.0
 20
827.98197900000014
 30
0.0
 11
-735.0
 21
827.98197900000014
 31
0.0
  0
CIRCLE
  5
4FA
  8
SIZE
  6
CONTINUOUS
 62
    30
 10
-755.0
 20
827.98197900000014
 30
0.0
 40
10.0
  0
LINE
  5
4FB
  8
SIZE
  6
CONTINUOUS
 62
    30
 10
-755.0
 20
827.98197900000014
 30
0.0
 11
-771.0
 21
827.98197900000014
 31
0.0
  0
LINE
  5
4FC
  8
SIZE
  6
CONTINUOUS
 62
    30
 10
-735.0
 20
827.98197900000014
 30
0.0
 11
-715.0
 21
827.98197900000014
 31
0.0
  0
LINE
  5
4FD
  8
SIZE
  6
CONTINUOUS
 62
    30
 10
-745.0
 20
827.98197900000014
 30
0.0
 11
-735.0
 21
827.98197900000014
 31
0.0
  0
CIRCLE
  5
4FE
  8
SIZE
  6
CONTINUOUS
 62
    30
 10
-755.0
 20
827.98197900000014
 30
0.0
 40
10.0
  0
POINT
  5
4FF
  8
DEFPOINTS
  6
CONTINUOUS
 62
     7
 10
-748.0
 20
932.2256789999999
 30
0.0
  0
LINE
  5
500
  8
SIZE
  6
CONTINUOUS
 62
    30
 10
-738.0
 20
932.2256789999999
 30
0.0
 11
-728.0
 21
932.2256789999999
 31
0.0
  0
CIRCLE
  5
501
  8
SIZE
  6
CONTINUOUS
 62
    30
 10
-748.0
 20
932.2256789999999
 30
0.0
 40
10.0
  0
LINE
  5
502
  8
SIZE
  6
CONTINUOUS
 62
    30
 10
-748.0
 20
932.2256789999999
 30
0.0
 11
-771.0
 21
932.2256789999999
 31
0.0
  0
LINE
  5
503
  8
SIZE
  6
CONTINUOUS
 62
    30
 10
-728.0
 20
932.2256789999999
 30
0.0
 11
-708.0
 21
932.2256789999999
 31
0.0
  0
LINE
  5
504
  8
SIZE
  6
CONTINUOUS
 62
    30
 10
-738.0
 20
932.2256789999999
 30
0.0
 11
-728.0
 21
932.2256789999999
 31
0.0
  0
CIRCLE
  5
505
  8
SIZE
  6
CONTINUOUS
 62
    30
 10
-748.0
 20
932.2256789999999
 30
0.0
 40
10.0
  0
POINT
  5
506
  8
DEFPOINTS
  6
CONTINUOUS
 62
     7
 10
-771.0
 20
1046.1072630000001
 30
0.0
  0
LINE
  5
507
  8
SIZE
  6
CONTINUOUS
 62
    30
 10
-761.0
 20
1046.1072630000001
 30
0.0
 11
-751.0
 21
1046.1072630000001
 31
0.0
  0
LINE
  5
508
  8
BASIS
  6
DASHDOT
 62
     6
 10
0.0
 20
-58.000957999999997
 30
0.0
 11
0.0
 21
530.01592800000003
 31
0.0
  0
CIRCLE
  5
509
  8
ARRANGE
  6
CONTINUOUS
 62
     1
 10
0.0
 20
0.0
 30
0.0
 40
50.0
  0
LINE
  5
50A
  8
OUTLINE
  6
CONTINUOUS
 62
     3
 10
795.0
 20
-4.0069879999999989
 30
0.0
 11
795.0
 21
0.0
 31
0.0
  0
LINE
  5
50B
  8
SIZE
  6
CONTINUOUS
 62
    30
 10
755.0
 20
122.0
 30
0.0
 11
755.0
 21
-188.66115300000001
 31
0.0
  0
LINE
  5
50C
  8
DETAIL
  6
CONTINUOUS
 62
     5
 10
795.0
 20
-4.0069879999999989
 30
0.0
 11
795.0
 21
0.0
 31
0.0
  0
LINE
  5
511
  8
ARRANGE
  6
CONTINUOUS
 62
     1
 10
49.963763
 20
49.596595000000001
 30
0.0
 11
-49.963763
 21
-49.596595000000001
 31
0.0
  0
LINE
  5
512
  8
ARRANGE
  6
CONTINUOUS
 62
     1
 10
50.037350000000004
 20
-49.522353000000003
 30
0.0
 11
-50.037350000000004
 21
49.522353000000003
 31
0.0
  0
TEXT
  5
513
  8
SIZE
  6
CONTINUOUS
 62
    30
 10
-279.42857142857139
 20
-221.59805700000001
 30
0.0
 40
50.0
  1
1550（天井開口寸法）
 41
0.9
 72
     1
 11
0.0
 21
-221.59805700000001
 31
0.0
  0
TEXT
  5
514
  8
SIZE
  6
CONTINUOUS
 62
    30
 10
-74.999999999999972
 20
-319.28944999999999
 30
0.0
 40
50.0
  1
1590
 41
0.9
 72
     1
 11
0.0
 21
-319.28944999999999
 31
0.0
  0
LINE
  5
515
  8
SIZE
  6
CONTINUOUS
 62
    30
 10
795.0
 20
-22.006988
 30
0.0
 11
795.0
 21
-367.28944999999999
 31
0.0
  0
CIRCLE
  5
516
  8
SIZE
  6
CONTINUOUS
 62
    30
 10
795.0
 20
-337.28944999999999
 30
0.0
 40
10.0
  0
LINE
  5
517
  8
SIZE
  6
CONTINUOUS
 62
    30
 10
785.0
 20
-337.28944999999999
 30
0.0
 11
775.0
 21
-337.28944999999999
 31
0.0
  0
ARC
  5
518
  8
OUTLINE
  6
CONTINUOUS
 62
     3
 10
764.29632300000003
 20
112.013413
 30
0.0
 40
120.014371
 50
269.77106299999991
 51
284.82297
  0
LINE
  5
519
  8
SIZE
  6
CONTINUOUS
 62
    30
 10
785.0
 20
-158.66115300000001
 30
0.0
 11
795.0
 21
-158.66115300000001
 31
0.0
  0
CIRCLE
  5
51A
  8
SIZE
  6
CONTINUOUS
 62
    30
 10
795.0
 20
-239.59805700000001
 30
0.0
 40
10.0
  0
LINE
  5
51B
  8
SIZE
  6
CONTINUOUS
 62
    30
 10
775.0
 20
-239.59805700000001
 30
0.0
 11
795.0
 21
-239.59805700000001
 31
0.0
  0
ARC
  5
51C
  8
DETAIL
  6
CONTINUOUS
 62
     5
 10
764.29632300000003
 20
112.013413
 30
0.0
 40
120.014371
 50
269.77106299999991
 51
284.82297
  0
CIRCLE
  5
51D
  8
SIZE
  6
CONTINUOUS
 62
    30
 10
775.0
 20
-158.66115300000001
 30
0.0
 40
10.0
  0
CIRCLE
  5
51E
  8
SIZE
  6
CONTINUOUS
 62
    30
 10
755.0
 20
-158.66115300000001
 30
0.0
 40
10.0
  0
LINE
  5
51F
  8
SIZE
  6
CONTINUOUS
 62
    30
 10
775.0
 20
-17.0
 30
0.0
 11
775.0
 21
-188.66115300000001
 31
0.0
  0
LINE
  5
520
  8
SIZE
  6
CONTINUOUS
 62
    30
 10
775.0
 20
-17.0
 30
0.0
 11
775.0
 21
-269.59805699999998
 31
0.0
  0
LINE
  5
521
  8
SIZE
  6
CONTINUOUS
 62
    30
 10
775.0
 20
-17.0
 30
0.0
 11
775.0
 21
-269.59805699999998
 31
0.0
  0
POINT
  5
522
  8
DEFPOINTS
  6
CONTINUOUS
 62
     7
 10
775.0
 20
-158.66115300000001
 30
0.0
  0
LINE
  5
523
  8
SIZE
  6
CONTINUOUS
 62
    30
 10
745.0
 20
-158.66115300000001
 30
0.0
 11
735.0
 21
-158.66115300000001
 31
0.0
  0
LINE
  5
524
  8
SIZE
  6
CONTINUOUS
 62
    30
 10
755.0
 20
-158.66115300000001
 30
0.0
 11
775.0
 21
-158.66115300000001
 31
0.0
  0
LINE
  5
525
  8
SIZE
  6
CONTINUOUS
 62
    30
 10
735.0
 20
-158.66115300000001
 30
0.0
 11
715.0
 21
-158.66115300000001
 31
0.0
  0
POINT
  5
526
  8
DEFPOINTS
  6
CONTINUOUS
 62
     7
 10
775.0
 20
-239.59805700000001
 30
0.0
  0
LINE
  5
527
  8
SIZE
  6
CONTINUOUS
 62
    30
 10
765.0
 20
-239.59805700000001
 30
0.0
 11
755.0
 21
-239.59805700000001
 31
0.0
  0
CIRCLE
  5
528
  8
SIZE
  6
CONTINUOUS
 62
    30
 10
775.0
 20
-239.59805700000001
 30
0.0
 40
10.0
  0
LINE
  5
529
  8
SIZE
  6
CONTINUOUS
 62
    30
 10
765.0
 20
-239.59805700000001
 30
0.0
 11
755.0
 21
-239.59805700000001
 31
0.0
  0
CIRCLE
  5
52A
  8
SIZE
  6
CONTINUOUS
 62
    30
 10
775.0
 20
-239.59805700000001
 30
0.0
 40
10.0
  0
LINE
  5
52B
  8
SIZE
  6
CONTINUOUS
 62
    30
 10
755.0
 20
-239.59805700000001
 30
0.0
 11
735.0
 21
-239.59805700000001
 31
0.0
  0
LINE
  5
52C
  8
SIZE
  6
CONTINUOUS
 62
    30
 10
795.0
 20
-22.006988
 30
0.0
 11
795.0
 21
-269.59805699999998
 31
0.0
  0
LINE
  5
52D
  8
SIZE
  6
CONTINUOUS
 62
    30
 10
795.0
 20
-158.66115300000001
 30
0.0
 11
923.85714299999995
 21
-158.66115300000001
 31
0.0
  0
TEXT
  5
52E
  8
SIZE
  6
CONTINUOUS
 62
    30
 10
852.99999957142859
 20
-221.59805700000001
 30
0.0
 40
50.0
  1
20
 41
0.9
 72
     1
 11
889.42857100000003
 21
-221.59805700000001
 31
0.0
  0
LINE
  5
52F
  8
SIZE
  6
CONTINUOUS
 62
    30
 10
815.0
 20
-239.59805700000001
 30
0.0
 11
943.85714299999995
 21
-239.59805700000001
 31
0.0
  0
POINT
  5
530
  8
DEFPOINTS
  6
CONTINUOUS
 62
     7
 10
795.0
 20
-239.59805700000001
 30
0.0
  0
LINE
  5
531
  8
SIZE
  6
CONTINUOUS
 62
    30
 10
805.0
 20
-239.59805700000001
 30
0.0
 11
815.0
 21
-239.59805700000001
 31
0.0
  0
TEXT
  5
532
  8
SIZE
  6
CONTINUOUS
 62
    30
 10
832.99999957142848
 20
-140.66115300000001
 30
0.0
 40
50.0
  1
20
 41
0.9
 72
     1
 11
869.42857100000003
 21
-140.66115300000001
 31
0.0
  0
POINT
  5
533
  8
DEFPOINTS
  6
CONTINUOUS
 62
     7
 10
795.0
 20
-4.0069879999999989
 30
0.0
  0
POINT
  5
534
  8
DEFPOINTS
  6
CONTINUOUS
 62
     7
 10
795.0
 20
-4.0069879999999989
 30
0.0
  0
TEXT
  5
535
  8
SIZE
  6
CONTINUOUS
 62
    30
 10
-319.9285714285715
 20
963.32091700000001
 30
0.0
 40
50.0
  1
1496(吊りボルトピッチ)
 41
0.9
 72
     1
 11
0.0
 21
963.32091700000001
 31
0.0
  0
TEXT
  5
536
  8
SIZE
  6
CONTINUOUS
 62
    30
 10
-70.714285714285708
 20
845.98197899999991
 30
0.0
 40
50.0
  1
1510
 41
0.9
 72
     1
 11
0.0
 21
845.98197899999991
 31
0.0
  0
TEXT
  5
537
  8
SIZE
  6
CONTINUOUS
 62
    30
 10
-75.0
 20
1064.1072630000001
 30
0.0
 40
50.0
  1
1542
 41
0.9
 72
     1
 11
0.0
 21
1064.1072630000001
 31
0.0
  0
LINE
  5
540
  8
SIZE
  6
CONTINUOUS
 62
    30
 10
748.0
 20
511.00239499999998
 30
0.0
 11
748.0
 21
962.2256789999999
 31
0.0
  0
LINE
  5
541
  8
SIZE
  6
CONTINUOUS
 62
    30
 10
771.0
 20
481.69948499999992
 30
0.0
 11
771.0
 21
962.2256789999999
 31
0.0
  0
LINE
  5
542
  8
SIZE
  6
CONTINUOUS
 62
    30
 10
748.0
 20
511.00239499999998
 30
0.0
 11
748.0
 21
962.2256789999999
 31
0.0
  0
LINE
  5
543
  8
SIZE
  6
CONTINUOUS
 62
    30
 10
771.0
 20
486.69948499999998
 30
0.0
 11
771.0
 21
1076.1072630000001
 31
0.0
  0
LINE
  5
544
  8
SIZE
  6
CONTINUOUS
 62
    30
 10
755.0
 20
491.0
 30
0.0
 11
755.0
 21
857.98197900000002
 31
0.0
  0
LINE
  5
545
  8
SIZE
  6
CONTINUOUS
 62
    30
 10
771.0
 20
481.69948499999992
 30
0.0
 11
771.0
 21
857.98197900000002
 31
0.0
  0
LINE
  5
546
  8
SIZE
  6
CONTINUOUS
 62
    30
 10
755.0
 20
491.0
 30
0.0
 11
755.0
 21
857.98197900000002
 31
0.0
  0
LINE
  5
547
  8
SIZE
  6
CONTINUOUS
 62
    30
 10
755.0
 20
491.0
 30
0.0
 11
755.0
 21
663.67478800000004
 31
0.0
  0
LINE
  5
548
  8
SIZE
  6
CONTINUOUS
 62
    30
 10
794.0
 20
289.75999999999999
 30
0.0
 11
794.0
 21
663.67478800000004
 31
0.0
  0
LINE
  5
549
  8
SIZE
  6
CONTINUOUS
 62
    30
 10
755.0
 20
491.0
 30
0.0
 11
755.0
 21
755.93663600000002
 31
0.0
  0
LINE
  5
54A
  8
SIZE
  6
CONTINUOUS
 62
    30
 10
802.0
 20
264.94
 30
0.0
 11
802.0
 21
755.93663600000002
 31
0.0
  0
TEXT
  5
54B
  8
NOTE
  6
CONTINUOUS
 62
     4
 10
981.79598399999998
 20
541.52092999999991
 30
0.0
 40
60.0
  1
RG %%C15.88
 50
0.000003
 41
0.7
  7
STANDARD1
  0
LINE
  5
54C
  8
NOTE
  6
CONTINUOUS
 62
     4
 10
1342.0698259999999
 20
530.75190699999996
 30
0.0
 11
967.98896400000001
 21
530.75190699999996
 31
0.0
  0
LINE
  5
551
  8
OUTLINE
  6
CONTINUOUS
 62
     3
 10
755.0
 20
473.0
 30
0.0
 11
755.0
 21
140.0
 31
0.0
  0
LINE
  5
552
  8
DETAIL
  6
CONTINUOUS
 62
     5
 10
722.99616800000001
 20
238.98826399999999
 30
0.0
 11
722.99616800000001
 21
435.01173599999998
 31
0.0
  0
LINE
  5
553
  8
DETAIL
  6
CONTINUOUS
 62
     5
 10
755.0
 20
473.0
 30
0.0
 11
755.0
 21
140.0
 31
0.0
  0
LINE
  5
554
  8
OUTLINE
  6
CONTINUOUS
 62
     3
 10
-795.0
 20
0.0
 30
0.0
 11
795.0
 21
0.0
 31
0.0
  0
LINE
  5
555
  8
NOTE
  6
CONTINUOUS
 62
     4
 10
775.0
 20
1.0
 30
0.0
 11
876.30744900000013
 21
1.0
 31
0.0
  0
LINE
  5
556
  8
NOTE
  6
CONTINUOUS
 62
     4
 10
775.0
 20
21.0
 30
0.0
 11
876.30744900000013
 21
21.0
 31
0.0
  0
LINE
  5
557
  8
NOTE
  6
CONTINUOUS
 62
     4
 10
815.00208899999996
 20
267.0
 30
0.0
 11
772.99791100000004
 21
267.0
 31
0.0
  0
LINE
  5
558
  8
NOTE
  6
CONTINUOUS
 62
     4
 10
828.66133499999989
 20
239.0
 30
0.0
 11
775.33866499999999
 21
239.0
 31
0.0
  0
LINE
  5
55D
  8
NOTE
  6
CONTINUOUS
 62
     4
 10
771.74721
 20
142.64387199999999
 30
0.0
 11
755.0
 21
168.0
 31
0.0
  0
LINE
  5
55E
  8
DETAIL
  6
CONTINUOUS
 62
     5
 10
739.99820399999999
 20
152.00143700000001
 30
0.0
 11
739.99820399999999
 21
140.0
 31
0.0
  0
LINE
  5
55F
  8
OUTLINE
  6
CONTINUOUS
 62
     3
 10
739.08849999999995
 20
0.0
 30
0.0
 11
739.08849999999995
 21
47.0
 31
0.0
  0
POINT
  5
560
  8
DEFPOINTS
  6
CONTINUOUS
 62
     7
 10
775.0
 20
1.0
 30
0.0
  0
POINT
  5
561
  8
DEFPOINTS
  6
CONTINUOUS
 62
     7
 10
755.0
 20
140.0
 30
0.0
  0
POINT
  5
562
  8
DEFPOINTS
  6
CONTINUOUS
 62
     7
 10
775.0
 20
1.0
 30
0.0
  0
POINT
  5
563
  8
DEFPOINTS
  6
CONTINUOUS
 62
     7
 10
775.0
 20
1.0
 30
0.0
  0
LINE
  5
564
  8
NOTE
  6
CONTINUOUS
 62
     4
 10
775.0
 20
1.0
 30
0.0
 11
775.0
 21
21.0
 31
0.0
  0
LINE
  5
565
  8
DETAIL
  6
CONTINUOUS
 62
     5
 10
739.08849999999995
 20
0.0
 30
0.0
 11
739.08849999999995
 21
47.0
 31
0.0
  0
LINE
  5
566
  8
DETAIL
  6
CONTINUOUS
 62
     5
 10
755.0
 20
140.800096
 30
0.0
 11
739.99820399999999
 21
140.800096
 31
0.0
  0
POINT
  5
567
  8
DEFPOINTS
  6
CONTINUOUS
 62
     7
 10
739.99820399999999
 20
140.0
 30
0.0
  0
POINT
  5
568
  8
DEFPOINTS
  6
CONTINUOUS
 62
     7
 10
739.99820399999999
 20
140.0
 30
0.0
  0
LINE
  5
569
  8
NOTE
  6
CONTINUOUS
 62
     4
 10
755.0
 20
168.0
 30
0.0
 11
782.58162100000004
 21
154.521747
 31
0.0
  0
ARC
  5
56A
  8
DETAIL
  6
CONTINUOUS
 62
     5
 10
712.99496999999997
 20
238.98826399999999
 30
0.0
 40
10.001198
 50
270.0
 51
0.0
  0
ARC
  5
56B
  8
DETAIL
  6
CONTINUOUS
 62
     5
 10
749.99940100000003
 20
172.40387999999999
 30
0.0
 40
5.0005990000000002
 50
270.0
 51
0.0
  0
LINE
  5
56C
  8
DETAIL
  6
CONTINUOUS
 62
     5
 10
736.99784399999987
 20
155.00179600000001
 30
0.0
 11
739.99820399999999
 21
152.00143700000001
 31
0.0
  0
LINE
  5
56D
  8
NOTE
  6
CONTINUOUS
 62
     4
 10
749.5
 20
168.0
 30
0.0
 11
760.5
 21
168.0
 31
0.0
  0
LINE
  5
56E
  8
NOTE
  6
CONTINUOUS
 62
     4
 10
755.0
 20
173.49999199999999
 30
0.0
 11
755.0
 21
162.50000800000001
 31
0.0
  0
POINT
  5
56F
  8
DEFPOINTS
  6
CONTINUOUS
 62
     7
 10
760.5
 20
168.0
 30
0.0
  0
LINE
  5
570
  8
NOTE
  6
CONTINUOUS
 62
     4
 10
815.26500799999985
 20
1.0
 30
0.0
 11
795.26500799999985
 21
21.0
 31
0.0
  0
LINE
  5
571
  8
NOTE
  6
CONTINUOUS
 62
     4
 10
820.26500799999985
 20
1.0
 30
0.0
 11
800.26500799999997
 21
21.0
 31
0.0
  0
LINE
  5
572
  8
NOTE
  6
CONTINUOUS
 62
     4
 10
825.26500799999997
 20
1.0
 30
0.0
 11
805.26500799999985
 21
21.0
 31
0.0
  0
LINE
  5
573
  8
NOTE
  6
CONTINUOUS
 62
     4
 10
855.26500799999985
 20
1.0
 30
0.0
 11
835.26500799999997
 21
21.0
 31
0.0
  0
LINE
  5
574
  8
NOTE
  6
CONTINUOUS
 62
     4
 10
860.26500799999997
 20
1.0
 30
0.0
 11
840.26500799999985
 21
21.0
 31
0.0
  0
LINE
  5
575
  8
NOTE
  6
CONTINUOUS
 62
     4
 10
865.26500799999985
 20
1.0
 30
0.0
 11
845.26500799999985
 21
21.0
 31
0.0
  0
LINE
  5
576
  8
NOTE
  6
CONTINUOUS
 62
     4
 10
802.0
 20
219.0
 30
0.0
 11
802.0
 21
259.0
 31
0.0
  0
LINE
  5
577
  8
NOTE
  6
CONTINUOUS
 62
     4
 10
794.0
 20
247.0
 30
0.0
 11
794.0
 21
287.0
 31
0.0
  0
LINE
  5
578
  8
NOTE
  6
CONTINUOUS
 62
     4
 10
794.0
 20
267.0
 30
0.0
 11
799.49116200000003
 21
297.569008
 31
0.0
  0
LINE
  5
579
  8
NOTE
  6
CONTINUOUS
 62
     4
 10
814.03998999999999
 20
290.72795600000001
 30
0.0
 11
794.0
 21
267.0
 31
0.0
  0
LINE
  5
57A
  8
NOTE
  6
CONTINUOUS
 62
     4
 10
802.0
 20
239.0
 30
0.0
 11
809.84836700000005
 21
269.05029500000001
 31
0.0
  0
LINE
  5
57B
  8
NOTE
  6
CONTINUOUS
 62
     4
 10
823.82203300000003
 20
261.10013500000002
 30
0.0
 11
802.0
 21
239.0
 31
0.0
  0
POINT
  5
57E
  8
DEFPOINTS
  6
CONTINUOUS
 62
     7
 10
815.00208899999996
 20
267.0
 30
0.0
  0
POINT
  5
57F
  8
DEFPOINTS
  6
CONTINUOUS
 62
     7
 10
828.66133499999989
 20
239.0
 30
0.0
  0
POINT
  5
580
  8
DEFPOINTS
  6
CONTINUOUS
 62
     7
 10
815.00208899999996
 20
267.0
 30
0.0
  0
LINE
  5
583
  8
NOTE
  6
CONTINUOUS
 62
     4
 10
789.0
 20
325.0
 30
0.0
 11
792.85631899999998
 21
355.817948
 31
0.0
  0
LINE
  5
584
  8
NOTE
  6
CONTINUOUS
 62
     4
 10
807.7486439999999
 20
349.760966
 30
0.0
 11
789.0
 21
325.0
 31
0.0
  0
LINE
  5
585
  8
NOTE
  6
CONTINUOUS
 62
     4
 10
808.66833499999996
 20
325.0
 30
0.0
 11
769.33166500000004
 21
325.0
 31
0.0
  0
CIRCLE
  5
586
  8
SIZE
  6
CONTINUOUS
 62
    30
 10
789.0
 20
542.07293800000002
 30
0.0
 40
10.0
  0
LINE
  5
587
  8
NOTE
  6
CONTINUOUS
 62
     4
 10
748.0
 20
452.99760500000002
 30
0.0
 11
748.0
 21
493.00239499999998
 31
0.0
  0
CIRCLE
  5
588
  8
FIX
  6
CONTINUOUS
 62
    11
 10
748.0
 20
473.0
 30
0.0
 40
18.598564
  0
LINE
  5
589
  8
SIZE
  6
CONTINUOUS
 62
    30
 10
789.0
 20
359.0
 30
0.0
 11
789.0
 21
572.07293800000002
 31
0.0
  0
LINE
  5
58A
  8
NOTE
  6
CONTINUOUS
 62
     4
 10
789.0
 20
305.0
 30
0.0
 11
789.0
 21
345.0
 31
0.0
  0
ARC
  5
58B
  8
DETAIL
  6
CONTINUOUS
 62
     5
 10
712.99496999999997
 20
435.01173599999998
 30
0.0
 40
10.001198
 50
0.0
 51
90.0
  0
LINE
  5
58C
  8
DETAIL
  6
CONTINUOUS
 62
     5
 10
789.0
 20
309.0
 30
0.0
 11
755.0
 21
309.0
 31
0.0
  0
LINE
  5
58D
  8
DETAIL
  6
CONTINUOUS
 62
     5
 10
789.0
 20
341.0
 30
0.0
 11
755.0
 21
341.0
 31
0.0
  0
LINE
  5
58E
  8
DETAIL
  6
CONTINUOUS
 62
     5
 10
789.0
 20
341.0
 30
0.0
 11
789.0
 21
309.0
 31
0.0
  0
TEXT
  5
590
  8
SIZE
  6
CONTINUOUS
 62
    30
 10
622.0
 20
560.07293800000002
 30
0.0
 40
50.0
  1
34
 41
0.9
 72
     1
 11
659.49999999999989
 21
560.07293800000002
 31
0.0
  0
LINE
  5
591
  8
SIZE
  6
CONTINUOUS
 62
    30
 10
735.0
 20
542.07293800000002
 30
0.0
 11
604.0
 21
542.07293800000002
 31
0.0
  0
ARC
  5
592
  8
DETAIL
  6
CONTINUOUS
 62
     5
 10
766.69948499999998
 20
468.69948499999992
 30
0.0
 40
4.300514999999999
 50
0.0
 51
90.0
  0
LINE
  5
593
  8
DETAIL
  6
CONTINUOUS
 62
     5
 10
771.0
 20
468.69948499999992
 30
0.0
 11
771.0
 21
460.99856299999988
 31
0.0
  0
LINE
  5
594
  8
DETAIL
  6
CONTINUOUS
 62
     5
 10
768.69972499999994
 20
468.699725
 30
0.0
 11
768.69972499999994
 21
460.99856299999988
 31
0.0
  0
LINE
  5
595
  8
DETAIL
  6
CONTINUOUS
 62
     5
 10
768.69972499999994
 20
460.99856299999988
 30
0.0
 11
771.0
 21
460.99856299999988
 31
0.0
  0
LINE
  5
597
  8
DETAIL
  6
CONTINUOUS
 62
     5
 10
755.0
 20
470.69972499999989
 30
0.0
 11
766.69972499999994
 21
470.69972499999989
 31
0.0
  0
LINE
  5
598
  8
NOTE
  6
CONTINUOUS
 62
     4
 10
768.00095799999997
 20
473.0
 30
0.0
 11
727.99904200000003
 21
473.0
 31
0.0
  0
ARC
  5
599
  8
DETAIL
  6
CONTINUOUS
 62
     5
 10
766.69972499999994
 20
468.699725
 30
0.0
 40
2.0
 50
0.0
 51
90.0
  0
POINT
  5
59D
  8
DEFPOINTS
  6
CONTINUOUS
 62
     7
 10
771.0
 20
468.69948499999992
 30
0.0
  0
POINT
  5
5A3
  8
DEFPOINTS
  6
CONTINUOUS
 62
     7
 10
789.0
 20
542.07293800000002
 30
0.0
  0
LINE
  5
5A5
  8
SIZE
  6
CONTINUOUS
 62
    30
 10
745.0
 20
542.07293800000002
 30
0.0
 11
735.0
 21
542.07293800000002
 31
0.0
  0
CIRCLE
  5
5A6
  8
SIZE
  6
CONTINUOUS
 62
    30
 10
755.0
 20
542.07293800000002
 30
0.0
 40
10.0
  0
LINE
  5
5A7
  8
SIZE
  6
CONTINUOUS
 62
    30
 10
789.0
 20
542.07293800000002
 30
0.0
 11
755.0
 21
542.07293800000002
 31
0.0
  0
LINE
  5
5A8
  8
SIZE
  6
CONTINUOUS
 62
    30
 10
755.0
 20
491.0
 30
0.0
 11
755.0
 21
572.07293800000002
 31
0.0
  0
POINT
  5
5AD
  8
DEFPOINTS
  6
CONTINUOUS
 62
     7
 10
808.66833499999996
 20
325.0
 30
0.0
  0
LINE
  5
5AE
  8
SIZE
  6
CONTINUOUS
 62
    30
 10
799.0
 20
542.07293800000002
 30
0.0
 11
809.0
 21
542.07293800000002
 31
0.0
  0
LINE
  5
5AF
  8
SIZE
  6
CONTINUOUS
 62
    30
 10
809.0
 20
542.07293800000002
 30
0.0
 11
829.0
 21
542.07293800000002
 31
0.0
  0
POINT
  5
5B0
  8
DEFPOINTS
  6
CONTINUOUS
 62
     7
 10
1045.0
 20
0.0
 30
0.0
  0
LINE
  5
5B1
  8
SIZE
  6
CONTINUOUS
 62
    30
 10
1447.8899449999999
 20
463.0
 30
0.0
 11
1447.8899449999999
 21
453.0
 31
0.0
  0
POINT
  5
5B2
  8
DEFPOINTS
  6
CONTINUOUS
 62
     7
 10
1447.8899449999999
 20
325.0
 30
0.0
  0
TEXT
  5
5B3
  8
SIZE
  6
CONTINUOUS
 62
    30
 10
1429.8899449999999
 20
345.4285714285715
 30
0.0
 40
50.0
  1
148
 50
90.0
 41
0.9
 72
     1
 11
1429.8899449999999
 21
399.0
 31
0.0
  0
LINE
  5
5B4
  8
SIZE
  6
CONTINUOUS
 62
    30
 10
1447.8899449999999
 20
335.0
 30
0.0
 11
1447.8899449999999
 21
345.0
 31
0.0
  0
CIRCLE
  5
5B5
  8
SIZE
  6
CONTINUOUS
 62
    30
 10
1447.8899449999999
 20
325.0
 30
0.0
 40
10.0
  0
LINE
  5
5B6
  8
SIZE
  6
CONTINUOUS
 62
    30
 10
1447.8899449999999
 20
453.0
 30
0.0
 11
1447.8899449999999
 21
345.0
 31
0.0
  0
CIRCLE
  5
5B7
  8
SIZE
  6
CONTINUOUS
 62
    30
 10
1447.8899449999999
 20
473.0
 30
0.0
 40
10.0
  0
LINE
  5
5B8
  8
NOTE
  6
CONTINUOUS
 62
     4
 10
971.16456199999982
 20
643.77491799999984
 30
0.0
 11
1314.878144
 21
643.77491799999984
 31
0.0
  0
TEXT
  5
5B9
  8
NOTE
  6
CONTINUOUS
 62
     4
 10
988.00287200000002
 20
659.60146199999997
 30
0.0
 40
60.0
  1
RL %%C9.52
 50
0.000003
 41
0.7
  7
STANDARD1
  0
LINE
  5
5BA
  8
NOTE
  6
CONTINUOUS
 62
     4
 10
975.46240299999977
 20
783.45585000000005
 30
0.0
 11
1322.2762640000001
 21
783.45585000000005
 31
0.0
  0
TEXT
  5
5BB
  8
NOTE
  6
CONTINUOUS
 62
     4
 10
995.40099199999997
 20
799.28239399999995
 30
0.0
 40
60.0
  1
D1 VP-25
 50
0.000003
 41
0.7
  7
STANDARD1
  0
LINE
  5
5BC
  8
SIZE
  6
CONTINUOUS
 62
    30
 10
781.0
 20
827.98197900000014
 30
0.0
 11
791.0
 21
827.98197900000014
 31
0.0
  0
CIRCLE
  5
5BD
  8
SIZE
  6
CONTINUOUS
 62
    30
 10
794.0
 20
633.67478800000004
 30
0.0
 40
10.0
  0
LINE
  5
5BE
  8
SIZE
  6
CONTINUOUS
 62
    30
 10
794.0
 20
633.67478800000004
 30
0.0
 11
755.0
 21
633.67478800000004
 31
0.0
  0
LINE
  5
5BF
  8
SIZE
  6
CONTINUOUS
 62
    30
 10
802.0
 20
725.93663600000002
 30
0.0
 11
755.0
 21
725.93663600000002
 31
0.0
  0
TEXT
  5
5C0
  8
SIZE
  6
CONTINUOUS
 62
    30
 10
624.14285757142852
 20
743.93663600000002
 30
0.0
 40
50.0
  1
47
 41
0.9
 72
     1
 11
660.57142899999985
 21
743.93663600000002
 31
0.0
  0
TEXT
  5
5C1
  8
SIZE
  6
CONTINUOUS
 62
    30
 10
626.28571414285705
 20
651.67478800000004
 30
0.0
 40
50.0
  1
39
 41
0.9
 72
     1
 11
661.64285700000005
 21
651.67478800000004
 31
0.0
  0
LINE
  5
5C2
  8
SIZE
  6
CONTINUOUS
 62
    30
 10
735.0
 20
633.67478800000004
 30
0.0
 11
608.28571399999987
 21
633.67478800000004
 31
0.0
  0
LINE
  5
5C3
  8
SIZE
  6
CONTINUOUS
 62
    30
 10
735.0
 20
725.93663600000002
 30
0.0
 11
606.14285700000005
 21
725.93663600000002
 31
0.0
  0
POINT
  5
5C4
  8
DEFPOINTS
  6
CONTINUOUS
 62
     7
 10
755.0
 20
633.67478800000004
 30
0.0
  0
LINE
  5
5C5
  8
SIZE
  6
CONTINUOUS
 62
    30
 10
745.0
 20
633.67478800000004
 30
0.0
 11
735.0
 21
633.67478800000004
 31
0.0
  0
CIRCLE
  5
5C6
  8
SIZE
  6
CONTINUOUS
 62
    30
 10
755.0
 20
633.67478800000004
 30
0.0
 40
10.0
  0
POINT
  5
5C7
  8
DEFPOINTS
  6
CONTINUOUS
 62
     7
 10
755.0
 20
725.93663600000002
 30
0.0
  0
LINE
  5
5C8
  8
SIZE
  6
CONTINUOUS
 62
    30
 10
745.0
 20
725.93663600000002
 30
0.0
 11
735.0
 21
725.93663600000002
 31
0.0
  0
CIRCLE
  5
5C9
  8
SIZE
  6
CONTINUOUS
 62
    30
 10
755.0
 20
725.93663600000002
 30
0.0
 40
10.0
  0
POINT
  5
5CA
  8
DEFPOINTS
  6
CONTINUOUS
 62
     7
 10
755.0
 20
827.98197900000014
 30
0.0
  0
LINE
  5
5CB
  8
SIZE
  6
CONTINUOUS
 62
    30
 10
745.0
 20
827.98197900000014
 30
0.0
 11
735.0
 21
827.98197900000014
 31
0.0
  0
CIRCLE
  5
5CC
  8
SIZE
  6
CONTINUOUS
 62
    30
 10
755.0
 20
827.98197900000014
 30
0.0
 40
10.0
  0
POINT
  5
5CD
  8
DEFPOINTS
  6
CONTINUOUS
 62
     7
 10
771.0
 20
827.98197900000014
 30
0.0
  0
CIRCLE
  5
5CE
  8
SIZE
  6
CONTINUOUS
 62
    30
 10
771.0
 20
827.98197900000014
 30
0.0
 40
10.0
  0
LINE
  5
5CF
  8
SIZE
  6
CONTINUOUS
 62
    30
 10
745.0
 20
827.98197900000014
 30
0.0
 11
735.0
 21
827.98197900000014
 31
0.0
  0
CIRCLE
  5
5D0
  8
SIZE
  6
CONTINUOUS
 62
    30
 10
755.0
 20
827.98197900000014
 30
0.0
 40
10.0
  0
LINE
  5
5D1
  8
SIZE
  6
CONTINUOUS
 62
    30
 10
755.0
 20
827.98197900000014
 30
0.0
 11
771.0
 21
827.98197900000014
 31
0.0
  0
LINE
  5
5D2
  8
SIZE
  6
CONTINUOUS
 62
    30
 10
735.0
 20
827.98197900000014
 30
0.0
 11
715.0
 21
827.98197900000014
 31
0.0
  0
LINE
  5
5D3
  8
SIZE
  6
CONTINUOUS
 62
    30
 10
804.0
 20
633.67478800000004
 30
0.0
 11
814.0
 21
633.67478800000004
 31
0.0
  0
LINE
  5
5D4
  8
SIZE
  6
CONTINUOUS
 62
    30
 10
814.0
 20
633.67478800000004
 30
0.0
 11
834.0
 21
633.67478800000004
 31
0.0
  0
LINE
  5
5D5
  8
SIZE
  6
CONTINUOUS
 62
    30
 10
812.0
 20
725.93663600000002
 30
0.0
 11
822.0
 21
725.93663600000002
 31
0.0
  0
CIRCLE
  5
5D6
  8
SIZE
  6
CONTINUOUS
 62
    30
 10
802.0
 20
725.93663600000002
 30
0.0
 40
10.0
  0
LINE
  5
5D7
  8
SIZE
  6
CONTINUOUS
 62
    30
 10
822.0
 20
725.93663600000002
 30
0.0
 11
842.0
 21
725.93663600000002
 31
0.0
  0
LINE
  5
5D8
  8
SIZE
  6
CONTINUOUS
 62
    30
 10
791.0
 20
827.98197900000014
 30
0.0
 11
911.32343200000003
 21
827.98197900000014
 31
0.0
  0
TEXT
  5
5D9
  8
SIZE
  6
CONTINUOUS
 62
    30
 10
831.18057442857128
 20
845.98197899999991
 30
0.0
 40
50.0
  1
16
 41
0.9
 72
     1
 11
862.25200299999995
 21
845.98197899999991
 31
0.0
  0
LINE
  5
5DA
  8
SIZE
  6
CONTINUOUS
 62
    30
 10
781.0
 20
932.2256789999999
 30
0.0
 11
791.0
 21
932.2256789999999
 31
0.0
  0
POINT
  5
5DB
  8
DEFPOINTS
  6
CONTINUOUS
 62
     7
 10
748.0
 20
932.2256789999999
 30
0.0
  0
LINE
  5
5DC
  8
SIZE
  6
CONTINUOUS
 62
    30
 10
738.0
 20
932.2256789999999
 30
0.0
 11
728.0
 21
932.2256789999999
 31
0.0
  0
CIRCLE
  5
5DD
  8
SIZE
  6
CONTINUOUS
 62
    30
 10
748.0
 20
932.2256789999999
 30
0.0
 40
10.0
  0
POINT
  5
5DE
  8
DEFPOINTS
  6
CONTINUOUS
 62
     7
 10
771.0
 20
932.2256789999999
 30
0.0
  0
CIRCLE
  5
5DF
  8
SIZE
  6
CONTINUOUS
 62
    30
 10
771.0
 20
932.2256789999999
 30
0.0
 40
10.0
  0
LINE
  5
5E0
  8
SIZE
  6
CONTINUOUS
 62
    30
 10
738.0
 20
932.2256789999999
 30
0.0
 11
728.0
 21
932.2256789999999
 31
0.0
  0
CIRCLE
  5
5E1
  8
SIZE
  6
CONTINUOUS
 62
    30
 10
748.0
 20
932.2256789999999
 30
0.0
 40
10.0
  0
LINE
  5
5E2
  8
SIZE
  6
CONTINUOUS
 62
    30
 10
748.0
 20
932.2256789999999
 30
0.0
 11
771.0
 21
932.2256789999999
 31
0.0
  0
LINE
  5
5E3
  8
SIZE
  6
CONTINUOUS
 62
    30
 10
728.0
 20
932.2256789999999
 30
0.0
 11
708.0
 21
932.2256789999999
 31
0.0
  0
LINE
  5
5E4
  8
SIZE
  6
CONTINUOUS
 62
    30
 10
761.0
 20
1046.1072630000001
 30
0.0
 11
751.0
 21
1046.1072630000001
 31
0.0
  0
CIRCLE
  5
5E5
  8
SIZE
  6
CONTINUOUS
 62
    30
 10
771.0
 20
1046.1072630000001
 30
0.0
 40
10.0
  0
LINE
  5
5E6
  8
SIZE
  6
CONTINUOUS
 62
    30
 10
791.0
 20
932.2256789999999
 30
0.0
 11
919.85714299999995
 21
932.2256789999999
 31
0.0
  0
TEXT
  5
5E7
  8
SIZE
  6
CONTINUOUS
 62
    30
 10
828.99999957142859
 20
950.22567899999979
 30
0.0
 40
50.0
  1
23
 41
0.9
 72
     1
 11
865.42857099999992
 21
950.22567899999979
 31
0.0
  0
CIRCLE
  5
5F3
  8
SIZE
  6
CONTINUOUS
 62
    30
 10
1782.228676
 20
0.0
 30
0.0
 40
10.0
  0
LINE
  5
5F4
  8
SIZE
  6
CONTINUOUS
 62
    30
 10
1782.228676
 20
0.0
 30
0.0
 11
1782.228676
 21
-347.42857099999998
 31
0.0
  0
TEXT
  5
601
  8
SIZE
  6
CONTINUOUS
 62
    30
 10
1908.3097749999999
 20
-348.50442200000009
 30
0.0
 40
55.0
  1
パネル直付時
 50
90.0
 41
0.9
 72
     1
 11
1908.3097749999999
 21
-176.90442200000001
 31
0.0
  0
TEXT
  5
602
  8
SIZE
  6
CONTINUOUS
 62
    30
 10
1764.228676
 20
-329.42857171428568
 30
0.0
 40
50.0
  1
140-300
 50
90.0
 41
0.9
 72
     1
 11
1764.228676
 21
-183.71428599999999
 31
0.0
  0
TEXT
  5
603
  8
SIZE
  6
CONTINUOUS
 62
    30
 10
1992.0595530000001
 20
-292.58862785714291
 30
0.0
 40
55.0
  1
50-60
 50
90.0
 41
0.9
 72
     1
 11
1992.0595530000001
 21
-174.73148499999999
 31
0.0
  0
LINE
  5
604
  8
SIZE
  6
CONTINUOUS
 62
    30
 10
1562.52037
 20
453.0
 30
0.0
 11
1562.52037
 21
287.0
 31
0.0
  0
LINE
  5
605
  8
SIZE
  6
CONTINUOUS
 62
    30
 10
1562.52037
 20
287.0
 30
0.0
 11
1562.52037
 21
307.0
 31
0.0
  0
TEXT
  5
606
  8
SIZE
  6
CONTINUOUS
 62
    30
 10
1651.9863789999999
 20
262.64285714285722
 30
0.0
 40
50.0
  1
305
 50
90.0
 41
0.9
 72
     1
 11
1651.9863789999999
 21
320.5
 31
0.0
  0
LINE
  5
607
  8
SIZE
  6
CONTINUOUS
 62
    30
 10
1669.9863789999999
 20
188.0
 30
0.0
 11
1669.9863789999999
 21
453.0
 31
0.0
  0
TEXT
  5
608
  8
SIZE
  6
CONTINUOUS
 62
    30
 10
1764.228676
 20
248.6428571428572
 30
0.0
 40
50.0
  1
333
 50
90.0
 41
0.9
 72
     1
 11
1764.228676
 21
306.5
 31
0.0
  0
LINE
  5
609
  8
SIZE
  6
CONTINUOUS
 62
    30
 10
1782.228676
 20
453.0
 30
0.0
 11
1782.228676
 21
160.0
 31
0.0
  0
LINE
  5
60A
  8
SIZE
  6
CONTINUOUS
 62
    30
 10
1562.52037
 20
219.0
 30
0.0
 11
1562.52037
 21
18.956903000000001
 31
0.0
  0
TEXT
  5
60B
  8
SIZE
  6
CONTINUOUS
 62
    30
 10
1544.52037
 20
36.956902571428579
 30
0.0
 40
50.0
  1
28
 50
90.0
 41
0.9
 72
     1
 11
1544.52037
 21
73.385474000000002
 31
0.0
  0
POINT
  5
60C
  8
DEFPOINTS
  6
CONTINUOUS
 62
     7
 10
1562.52037
 20
267.0
 30
0.0
  0
LINE
  5
60D
  8
SIZE
  6
CONTINUOUS
 62
    30
 10
1562.52037
 20
277.0
 30
0.0
 11
1562.52037
 21
287.0
 31
0.0
  0
CIRCLE
  5
60E
  8
SIZE
  6
CONTINUOUS
 62
    30
 10
1562.52037
 20
267.0
 30
0.0
 40
10.0
  0
POINT
  5
60F
  8
DEFPOINTS
  6
CONTINUOUS
 62
     7
 10
1562.52037
 20
239.0
 30
0.0
  0
LINE
  5
610
  8
SIZE
  6
CONTINUOUS
 62
    30
 10
1562.52037
 20
229.0
 30
0.0
 11
1562.52037
 21
219.0
 31
0.0
  0
CIRCLE
  5
611
  8
SIZE
  6
CONTINUOUS
 62
    30
 10
1562.52037
 20
239.0
 30
0.0
 40
10.0
  0
LINE
  5
612
  8
SIZE
  6
CONTINUOUS
 62
    30
 10
1562.52037
 20
277.0
 30
0.0
 11
1562.52037
 21
287.0
 31
0.0
  0
CIRCLE
  5
613
  8
SIZE
  6
CONTINUOUS
 62
    30
 10
1562.52037
 20
267.0
 30
0.0
 40
10.0
  0
LINE
  5
614
  8
SIZE
  6
CONTINUOUS
 62
    30
 10
1562.52037
 20
267.0
 30
0.0
 11
1562.52037
 21
239.0
 31
0.0
  0
LINE
  5
615
  8
SIZE
  6
CONTINUOUS
 62
    30
 10
1669.9863789999999
 20
178.0
 30
0.0
 11
1669.9863789999999
 21
188.0
 31
0.0
  0
CIRCLE
  5
616
  8
SIZE
  6
CONTINUOUS
 62
    30
 10
1669.9863789999999
 20
168.0
 30
0.0
 40
10.0
  0
LINE
  5
617
  8
SIZE
  6
CONTINUOUS
 62
    30
 10
1782.228676
 20
150.0
 30
0.0
 11
1782.228676
 21
160.0
 31
0.0
  0
POINT
  5
618
  8
DEFPOINTS
  6
CONTINUOUS
 62
     7
 10
1782.228676
 20
140.0
 30
0.0
  0
CIRCLE
  5
619
  8
SIZE
  6
CONTINUOUS
 62
    30
 10
1782.228676
 20
140.0
 30
0.0
 40
10.0
  0
POINT
  5
61A
  8
DEFPOINTS
  6
CONTINUOUS
 62
     7
 10
1782.228676
 20
0.0
 30
0.0
  0
LINE
  5
61B
  8
SIZE
  6
CONTINUOUS
 62
    30
 10
1782.228676
 20
10.0
 30
0.0
 11
1782.228676
 21
20.0
 31
0.0
  0
LINE
  5
61C
  8
SIZE
  6
CONTINUOUS
 62
    30
 10
1782.228676
 20
130.0
 30
0.0
 11
1782.228676
 21
120.0
 31
0.0
  0
CIRCLE
  5
61D
  8
SIZE
  6
CONTINUOUS
 62
    30
 10
1782.228676
 20
140.0
 30
0.0
 40
10.0
  0
LINE
  5
61E
  8
SIZE
  6
CONTINUOUS
 62
    30
 10
1782.228676
 20
120.0
 30
0.0
 11
1782.228676
 21
20.0
 31
0.0
  0
LINE
  5
61F
  8
SIZE
  6
CONTINUOUS
 62
    30
 10
1562.52037
 20
463.0
 30
0.0
 11
1562.52037
 21
453.0
 31
0.0
  0
LINE
  5
620
  8
SIZE
  6
CONTINUOUS
 62
    30
 10
1669.9863789999999
 20
463.0
 30
0.0
 11
1669.9863789999999
 21
453.0
 31
0.0
  0
TEXT
  5
621
  8
SIZE
  6
CONTINUOUS
 62
    30
 10
1544.52037
 20
313.21428571428572
 30
0.0
 40
50.0
  1
206
 50
90.0
 41
0.9
 72
     1
 11
1544.52037
 21
370.0
 31
0.0
  0
CIRCLE
  5
622
  8
SIZE
  6
CONTINUOUS
 62
    30
 10
1562.52037
 20
473.0
 30
0.0
 40
10.0
  0
POINT
  5
623
  8
DEFPOINTS
  6
CONTINUOUS
 62
     7
 10
1669.9863789999999
 20
473.0
 30
0.0
  0
CIRCLE
  5
624
  8
SIZE
  6
CONTINUOUS
 62
    30
 10
1669.9863789999999
 20
473.0
 30
0.0
 40
10.0
  0
LINE
  5
625
  8
SIZE
  6
CONTINUOUS
 62
    30
 10
1782.228676
 20
463.0
 30
0.0
 11
1782.228676
 21
453.0
 31
0.0
  0
CIRCLE
  5
626
  8
SIZE
  6
CONTINUOUS
 62
    30
 10
1782.228676
 20
473.0
 30
0.0
 40
10.0
  0
LINE
  5
6FA
  8
DETAIL
  6
CONTINUOUS
 62
     5
 10
775.00914899999987
 20
272.5
 30
0.0
 11
755.00914899999952
 21
272.5
 31
0.0
  0
LINE
  5
6FB
  8
DETAIL
  6
CONTINUOUS
 62
     5
 10
774.00914899999998
 20
276.50000000000011
 30
0.0
 11
755.00914899999952
 21
276.50000000000011
 31
0.0
  0
LINE
  5
6FC
  8
DETAIL
  6
CONTINUOUS
 62
     5
 10
774.00914899999998
 20
257.5
 30
0.0
 11
755.00914899999952
 21
257.5
 31
0.0
  0
LINE
  5
6FD
  8
DETAIL
  6
CONTINUOUS
 62
     5
 10
775.00914899999987
 20
261.5
 30
0.0
 11
755.00914899999952
 21
261.5
 31
0.0
  0
LINE
  5
6FE
  8
DETAIL
  6
CONTINUOUS
 62
     5
 10
791.00914899999998
 20
277.5
 30
0.0
 11
778.00914899999998
 21
277.5
 31
0.0
  0
LINE
  5
6FF
  8
DETAIL
  6
CONTINUOUS
 62
     5
 10
790.00914899999998
 20
272.5
 30
0.0
 11
777.00914899999952
 21
272.5
 31
0.0
  0
LINE
  5
700
  8
DETAIL
  6
CONTINUOUS
 62
     5
 10
777.00914899999952
 20
276.50000000000011
 30
0.0
 11
778.00914899999998
 21
277.5
 31
0.0
  0
LINE
  5
701
  8
DETAIL
  6
CONTINUOUS
 62
     5
 10
775.00914899999987
 20
275.5
 30
0.0
 11
774.00914899999998
 21
276.50000000000011
 31
0.0
  0
LINE
  5
702
  8
DETAIL
  6
CONTINUOUS
 62
     5
 10
790.00914899999998
 20
272.5
 30
0.0
 11
791.00914899999998
 21
271.5
 31
0.0
  0
LINE
  5
703
  8
DETAIL
  6
CONTINUOUS
 62
     5
 10
790.00914899999998
 20
272.5
 30
0.0
 11
791.00914899999998
 21
273.5
 31
0.0
  0
LINE
  5
704
  8
DETAIL
  6
CONTINUOUS
 62
     5
 10
777.00914899999952
 20
271.75999999999999
 30
0.0
 11
775.00914899999987
 21
271.75999999999999
 31
0.0
  0
LINE
  5
705
  8
DETAIL
  6
CONTINUOUS
 62
     5
 10
775.00914899999987
 20
275.5
 30
0.0
 11
775.00914899999987
 21
258.5
 31
0.0
  0
LINE
  5
706
  8
DETAIL
  6
CONTINUOUS
 62
     5
 10
777.00914899999952
 20
276.50000000000011
 30
0.0
 11
777.00914899999952
 21
257.5
 31
0.0
  0
LINE
  5
707
  8
DETAIL
  6
CONTINUOUS
 62
     5
 10
791.00914899999998
 20
256.5
 30
0.0
 11
778.00914899999998
 21
256.5
 31
0.0
  0
LINE
  5
708
  8
DETAIL
  6
CONTINUOUS
 62
     5
 10
791.00914899999998
 20
277.5
 30
0.0
 11
791.00914899999998
 21
256.5
 31
0.0
  0
LINE
  5
709
  8
DETAIL
  6
CONTINUOUS
 62
     5
 10
790.00914899999998
 20
261.5
 30
0.0
 11
777.00914899999952
 21
261.5
 31
0.0
  0
LINE
  5
70A
  8
DETAIL
  6
CONTINUOUS
 62
     5
 10
778.00914899999998
 20
256.5
 30
0.0
 11
777.00914899999952
 21
257.5
 31
0.0
  0
LINE
  5
70B
  8
DETAIL
  6
CONTINUOUS
 62
     5
 10
775.00914899999987
 20
258.5
 30
0.0
 11
774.00914899999998
 21
257.5
 31
0.0
  0
LINE
  5
70C
  8
DETAIL
  6
CONTINUOUS
 62
     5
 10
790.00914899999998
 20
261.5
 30
0.0
 11
791.00914899999998
 21
260.5
 31
0.0
  0
LINE
  5
70D
  8
DETAIL
  6
CONTINUOUS
 62
     5
 10
790.00914899999998
 20
261.5
 30
0.0
 11
791.00914899999998
 21
262.5
 31
0.0
  0
LINE
  5
70E
  8
DETAIL
  6
CONTINUOUS
 62
     5
 10
777.00914899999952
 20
262.24000000000001
 30
0.0
 11
775.00914899999987
 21
262.24000000000001
 31
0.0
  0
LINE
  5
70F
  8
DETAIL
  6
CONTINUOUS
 62
     5
 10
794.0
 20
272.5
 30
0.0
 11
794.0
 21
261.5
 31
0.0
  0
LINE
  5
710
  8
DETAIL
  6
CONTINUOUS
 62
     5
 10
794.0
 20
272.5
 30
0.0
 11
791.00914899999998
 21
277.5
 31
0.0
  0
LINE
  5
711
  8
DETAIL
  6
CONTINUOUS
 62
     5
 10
777.00914899999952
 20
276.50000000000011
 30
0.0
 11
778.00914899999998
 21
277.5
 31
0.0
  0
LINE
  5
712
  8
DETAIL
  6
CONTINUOUS
 62
     5
 10
794.0
 20
261.5
 30
0.0
 11
791.00914899999998
 21
256.5
 31
0.0
  0
LINE
  5
713
  8
DETAIL
  6
CONTINUOUS
 62
     5
 10
802.0
 20
227.75
 30
0.0
 11
802.0
 21
250.25
 31
0.0
  0
LINE
  5
714
  8
DETAIL
  6
CONTINUOUS
 62
     5
 10
755.0
 20
250.5
 30
0.0
 11
777.00914899999987
 21
250.5
 31
0.0
  0
LINE
  5
715
  8
DETAIL
  6
CONTINUOUS
 62
     5
 10
755.0
 20
227.5
 30
0.0
 11
777.00914899999987
 21
227.5
 31
0.0
  0
LINE
  5
716
  8
DETAIL
  6
CONTINUOUS
 62
     5
 10
797.00914899999987
 20
246.0
 30
0.0
 11
799.00914899999952
 21
248.0
 31
0.0
  0
LINE
  5
717
  8
DETAIL
  6
CONTINUOUS
 62
     5
 10
797.00914899999987
 20
246.0
 30
0.0
 11
799.00914899999952
 21
244.0
 31
0.0
  0
LINE
  5
718
  8
DETAIL
  6
CONTINUOUS
 62
     5
 10
797.00914899999987
 20
232.0
 30
0.0
 11
799.00914899999952
 21
234.0
 31
0.0
  0
LINE
  5
719
  8
DETAIL
  6
CONTINUOUS
 62
     5
 10
797.00914899999987
 20
232.0
 30
0.0
 11
799.00914899999952
 21
230.0
 31
0.0
  0
LINE
  5
71A
  8
DETAIL
  6
CONTINUOUS
 62
     5
 10
785.00914899999987
 20
232.0
 30
0.0
 11
783.00914899999998
 21
230.0
 31
0.0
  0
LINE
  5
71B
  8
DETAIL
  6
CONTINUOUS
 62
     5
 10
785.00914899999987
 20
232.0
 30
0.0
 11
783.00914899999998
 21
234.0
 31
0.0
  0
LINE
  5
71C
  8
DETAIL
  6
CONTINUOUS
 62
     5
 10
785.00914899999987
 20
246.0
 30
0.0
 11
783.00914899999998
 21
244.0
 31
0.0
  0
LINE
  5
71D
  8
DETAIL
  6
CONTINUOUS
 62
     5
 10
785.00914899999987
 20
246.0
 30
0.0
 11
783.00914899999998
 21
248.0
 31
0.0
  0
LINE
  5
71E
  8
DETAIL
  6
CONTINUOUS
 62
     5
 10
785.00914899999987
 20
246.0
 30
0.0
 11
797.00914899999987
 21
246.0
 31
0.0
  0
LINE
  5
71F
  8
DETAIL
  6
CONTINUOUS
 62
     5
 10
785.00914899999987
 20
232.0
 30
0.0
 11
797.00914899999987
 21
232.0
 31
0.0
  0
LINE
  5
720
  8
DETAIL
  6
CONTINUOUS
 62
     5
 10
783.00914899999998
 20
250.0
 30
0.0
 11
785.00914899999987
 21
252.0
 31
0.0
  0
LINE
  5
721
  8
DETAIL
  6
CONTINUOUS
 62
     5
 10
783.00914899999998
 20
228.0
 30
0.0
 11
785.00914899999987
 21
226.0
 31
0.0
  0
LINE
  5
722
  8
DETAIL
  6
CONTINUOUS
 62
     5
 10
802.0
 20
250.25
 30
0.0
 11
799.00914899999952
 21
252.0
 31
0.0
  0
LINE
  5
723
  8
DETAIL
  6
CONTINUOUS
 62
     5
 10
799.00914899999952
 20
226.0
 30
0.0
 11
802.0
 21
227.75000399999999
 31
0.0
  0
LINE
  5
724
  8
DETAIL
  6
CONTINUOUS
 62
     5
 10
799.00914899999952
 20
226.0
 30
0.0
 11
799.00914899999952
 21
252.0
 31
0.0
  0
LINE
  5
725
  8
DETAIL
  6
CONTINUOUS
 62
     5
 10
783.00914899999998
 20
228.0
 30
0.0
 11
783.00914899999998
 21
250.0
 31
0.0
  0
LINE
  5
726
  8
DETAIL
  6
CONTINUOUS
 62
     5
 10
783.00914899999998
 20
228.0
 30
0.0
 11
783.00914899999998
 21
250.0
 31
0.0
  0
LINE
  5
727
  8
DETAIL
  6
CONTINUOUS
 62
     5
 10
785.00914899999987
 20
252.0
 30
0.0
 11
799.00914899999952
 21
252.0
 31
0.0
  0
LINE
  5
728
  8
DETAIL
  6
CONTINUOUS
 62
     5
 10
785.00914899999987
 20
226.0
 30
0.0
 11
799.00914899999952
 21
226.0
 31
0.0
  0
LINE
  5
729
  8
DETAIL
  6
CONTINUOUS
 62
     5
 10
783.00914899999998
 20
231.0
 30
0.0
 11
783.00914899999998
 21
247.0
 31
0.0
  0
LINE
  5
72A
  8
DETAIL
  6
CONTINUOUS
 62
     5
 10
783.00914899999998
 20
246.94
 30
0.0
 11
779.00914899999998
 21
246.94
 31
0.0
  0
LINE
  5
72B
  8
DETAIL
  6
CONTINUOUS
 62
     5
 10
783.00914899999998
 20
231.06
 30
0.0
 11
779.00914899999998
 21
231.06
 31
0.0
  0
LINE
  5
72C
  8
DETAIL
  6
CONTINUOUS
 62
     5
 10
779.00914899999998
 20
229.5
 30
0.0
 11
777.00914899999987
 21
227.5
 31
0.0
  0
LINE
  5
72D
  8
DETAIL
  6
CONTINUOUS
 62
     5
 10
779.00914899999998
 20
248.5
 30
0.0
 11
777.00914899999987
 21
250.5
 31
0.0
  0
LINE
  5
72E
  8
DETAIL
  6
CONTINUOUS
 62
     5
 10
779.00914899999998
 20
229.5
 30
0.0
 11
779.00914899999998
 21
248.5
 31
0.0
  0
ARC
  5
734
  8
SIZE
  6
CONTINUOUS
 62
    30
 10
1863.698769328206
 20
-350.94592175535809
 30
0.0
 40
31.597198762876371
 50
181.80853089967499
 51
223.9935058460317
  0
ARC
  5
735
  8
SIZE
  6
CONTINUOUS
 62
    30
 10
1885.6386081355311
 20
-331.48993928854111
 30
0.0
 40
60.907462704317098
 50
222.82515804894291
 51
241.60012473519589
  0
ARC
  5
736
  8
SIZE
  6
CONTINUOUS
 62
    30
 10
1904.7255150273879
 20
-297.18816731000618
 30
0.0
 40
100.1602882448904
 50
241.3283455528057
 51
254.7947524710855
  0
ARC
  5
737
  8
SIZE
  6
CONTINUOUS
 62
    30
 10
1915.4348603139399
 20
-258.08854937588683
 30
0.0
 40
140.69996882484821
 50
254.7623845233027
 51
270.20744529961951
  0
ARC
  5
738
  8
SIZE
  6
CONTINUOUS
 62
    30
 10
1916.4536961860599
 20
-258.08854568872869
 30
0.0
 40
140.6999725137924
 50
269.79255450220842
 51
285.2376152785252
  0
ARC
  5
739
  8
SIZE
  6
CONTINUOUS
 62
    30
 10
1927.1630419726121
 20
-297.18816731000618
 30
0.0
 40
100.1602882448904
 50
285.20524752891453
 51
298.67165444719433
  0
ARC
  5
73A
  8
SIZE
  6
CONTINUOUS
 62
    30
 10
1946.2499488644689
 20
-331.48993928854111
 30
0.0
 40
60.90746270431724
 50
298.39987526480422
 51
317.17484195105732
  0
ARC
  5
73B
  8
SIZE
  6
CONTINUOUS
 62
    30
 10
1968.189787671794
 20
-350.94592175535809
 30
0.0
 40
31.597198762876161
 50
316.00649415396799
 51
358.19146910032498
  0
LINE
  5
73C
  8
SIZE
  6
CONTINUOUS
 62
    30
 10
1999.7712469999999
 20
-351.94311599999997
 30
0.0
 11
1999.7712469999999
 21
-351.94311599999997
 31
0.0
  0
ARC
  5
73F
  8
SIZE
  6
CONTINUOUS
 62
    30
 10
1968.189787671794
 20
-5.1946842446419064
 30
0.0
 40
31.59719876287614
 50
1.808530899674933
 51
43.993505846031987
  0
ARC
  5
740
  8
SIZE
  6
CONTINUOUS
 62
    30
 10
1946.2499488644689
 20
-24.650666711458939
 30
0.0
 40
60.90746270431746
 50
42.82515804894259
 51
61.600124735195578
  0
ARC
  5
741
  8
SIZE
  6
CONTINUOUS
 62
    30
 10
1927.1630419726121
 20
-58.952438689993819
 30
0.0
 40
100.16028824489059
 50
61.328345552805551
 51
74.794752471085403
  0
ARC
  5
742
  8
SIZE
  6
CONTINUOUS
 62
    30
 10
1916.453699873219
 20
-98.052060811271303
 30
0.0
 40
140.69997202714549
 50
74.762386223685581
 51
90.207447000002404
  0
ARC
  5
743
  8
SIZE
  6
CONTINUOUS
 62
    30
 10
1915.4348566267811
 20
-98.052057124113134
 30
0.0
 40
140.6999683382011
 50
89.792553198169685
 51
105.23761397448649
  0
ARC
  5
744
  8
SIZE
  6
CONTINUOUS
 62
    30
 10
1904.7255150273879
 20
-58.952438689993819
 30
0.0
 40
100.16028824489049
 50
105.2052475289146
 51
118.6716544471944
  0
ARC
  5
745
  8
SIZE
  6
CONTINUOUS
 62
    30
 10
1885.6386081355311
 20
-24.650666711458939
 30
0.0
 40
60.90746270431729
 50
118.39987526480419
 51
137.1748419510572
  0
ARC
  5
746
  8
SIZE
  6
CONTINUOUS
 62
    30
 10
1863.698769328206
 20
-5.1946842446419064
 30
0.0
 40
31.597198762876321
 50
136.0064941539683
 51
178.19146910032501
  0
LINE
  5
747
  8
NOTE
  6
CONTINUOUS
 62
     4
 10
802.0
 20
239.0
 30
0.0
 11
967.98896400000001
 21
530.75190699999996
 31
0.0
  0
LINE
  5
748
  8
NOTE
  6
CONTINUOUS
 62
     4
 10
789.0
 20
325.0
 30
0.0
 11
975.46240299999977
 21
783.45585000000005
 31
0.0
  0
LINE
  5
749
  8
NOTE
  6
CONTINUOUS
 62
     4
 10
794.0
 20
267.0
 30
0.0
 11
971.16456199999982
 21
643.77491799999984
 31
0.0
  0
LINE
  5
74A
  8
NOTE
  6
CONTINUOUS
 62
     4
 10
755.0
 20
168.0
 30
0.0
 11
1183.0424869999999
 21
-221.63913600000001
 31
0.0
  0
LINE
  5
74C
  8
NOTE
  6
CONTINUOUS
 62
     4
 10
-748.0
 20
473.0
 30
0.0
 11
-908.47358199999996
 21
800.06476799999996
 31
0.0
  0
ENDSEC
  0
EOF
