  0
SECTION
  2
HEADER
  9
$ACADVER
  1
AC1009
  9
$INSBASE
 10
0.0
 20
0.0
 30
0.0
  9
$EXTMIN
 10
-1319.8138355057961
 20
-688.46049074113034
 30
-0.0015258207003583
  9
$EXTMAX
 10
1376.9885111476981
 20
1220.144355278175
 30
0.0000000349246037
  9
$LIMMIN
 10
-4267.1522210000003
 20
-2696.0832100000011
  9
$LIMMAX
 10
7190.7174229999991
 20
5141.1553640000002
  9
$ORTHOMODE
 70
     1
  9
$REGENMODE
 70
     1
  9
$FILLMODE
 70
     1
  9
$QTEXTMODE
 70
     0
  9
$MIRRTEXT
 70
     0
  9
$DRAGMODE
 70
     2
  9
$LTSCALE
 40
20.0
  9
$OSMODE
 70
   959
  9
$ATTMODE
 70
     1
  9
$TEXTSIZE
 40
64.0
  9
$TRACEWID
 40
0.05
  9
$TEXTSTYLE
  7
STANDARD1
  9
$CLAYER
  8
SYMBOLLINE
  9
$CELTYPE
  6
CONTINUOUS
  9
$CECOLOR
 62
     7
  9
$DIMSCALE
 40
1.0
  9
$DIMASZ
 40
20.0
  9
$DIMEXO
 40
20.0
  9
$DIMDLI
 40
80.0
  9
$DIMRND
 40
0.0
  9
$DIMDLE
 40
0.0
  9
$DIMEXE
 40
18.0
  9
$DIMTP
 40
0.0
  9
$DIMTM
 40
0.0
  9
$DIMTXT
 40
55.0
  9
$DIMCEN
 40
0.09
  9
$DIMTSZ
 40
0.0
  9
$DIMTOL
 70
     0
  9
$DIMLIM
 70
     0
  9
$DIMTIH
 70
     0
  9
$DIMTOH
 70
     0
  9
$DIMSE1
 70
     0
  9
$DIMSE2
 70
     0
  9
$DIMTAD
 70
     1
  9
$DIMZIN
 70
     8
  9
$DIMBLK
  1
ORIGIN
  9
$DIMASO
 70
     1
  9
$DIMSHO
 70
     0
  9
$DIMPOST
  1

  9
$DIMAPOST
  1

  9
$DIMALT
 70
     0
  9
$DIMALTD
 70
     2
  9
$DIMALTF
 40
25.399999999999999
  9
$DIMLFAC
 40
1.0
  9
$DIMTOFL
 70
     0
  9
$DIMTVP
 40
0.0
  9
$DIMTIX
 70
     0
  9
$DIMSOXD
 70
     0
  9
$DIMSAH
 70
     0
  9
$DIMBLK1
  1

  9
$DIMBLK2
  1

  9
$DIMSTYLE
  2
STANDARD
  9
$DIMCLRD
 70
     0
  9
$DIMCLRE
 70
     0
  9
$DIMCLRT
 70
     0
  9
$DIMTFAC
 40
1.0
  9
$DIMGAP
 40
0.09
  9
$LUNITS
 70
     2
  9
$LUPREC
 70
     4
  9
$SKETCHINC
 40
0.1
  9
$FILLETRAD
 40
0.8
  9
$AUNITS
 70
     1
  9
$AUPREC
 70
     3
  9
$MENU
  1
ACAD
  9
$ELEVATION
 40
0.0
  9
$PELEVATION
 40
0.0
  9
$THICKNESS
 40
0.0
  9
$LIMCHECK
 70
     0
  9
$BLIPMODE
 70
     0
  9
$CHAMFERA
 40
0.0
  9
$CHAMFERB
 40
0.0
  9
$SKPOLY
 70
     0
  9
$TDCREATE
 40
2450330.4399309959
  9
$TDUPDATE
 40
2455580.5423859381
  9
$TDINDWG
 40
3.7141940162
  9
$TDUSRTIMER
 40
3.7141938309999998
  9
$USRTIMER
 70
     1
  9
$ANGBASE
 50
0.0
  9
$ANGDIR
 70
     0
  9
$PDMODE
 70
     3
  9
$PDSIZE
 40
-2.0
  9
$PLINEWID
 40
0.0
  9
$COORDS
 70
     0
  9
$SPLFRAME
 70
     0
  9
$SPLINETYPE
 70
     6
  9
$SPLINESEGS
 70
     8
  9
$ATTDIA
 70
     0
  9
$ATTREQ
 70
     1
  9
$HANDLING
 70
     1
  9
$HANDSEED
  5
7F2
  9
$SURFTAB1
 70
     6
  9
$SURFTAB2
 70
     6
  9
$SURFTYPE
 70
     6
  9
$SURFU
 70
     6
  9
$SURFV
 70
     6
  9
$UCSNAME
  2

  9
$UCSORG
 10
0.0
 20
0.0
 30
0.0
  9
$UCSXDIR
 10
1.0
 20
0.0
 30
0.0
  9
$UCSYDIR
 10
0.0
 20
1.0
 30
0.0
  9
$PUCSNAME
  2

  9
$PUCSORG
 10
0.0
 20
0.0
 30
0.0
  9
$PUCSXDIR
 10
1.0
 20
0.0
 30
0.0
  9
$PUCSYDIR
 10
0.0
 20
1.0
 30
0.0
  9
$USERI1
 70
     0
  9
$USERI2
 70
     0
  9
$USERI3
 70
     0
  9
$USERI4
 70
     0
  9
$USERI5
 70
     0
  9
$USERR1
 40
20.0
  9
$USERR2
 40
0.0
  9
$USERR3
 40
0.0
  9
$USERR4
 40
0.0
  9
$USERR5
 40
0.0
  9
$WORLDVIEW
 70
     1
  9
$SHADEDGE
 70
     3
  9
$SHADEDIF
 70
    70
  9
$TILEMODE
 70
     1
  9
$MAXACTVP
 70
    48
  9
$PLIMCHECK
 70
     0
  9
$PEXTMIN
 10
1.0000000000000000E+020
 20
1.0000000000000000E+020
 30
1.0000000000000000E+020
  9
$PEXTMAX
 10
-1.0000000000000000E+020
 20
-1.0000000000000000E+020
 30
-1.0000000000000000E+020
  9
$PLIMMIN
 10
0.0
 20
0.0
  9
$PLIMMAX
 10
12.0
 20
9.0
  9
$UNITMODE
 70
     0
  9
$VISRETAIN
 70
     1
  9
$PLINEGEN
 70
     0
  9
$PSLTSCALE
 70
     1
  0
ENDSEC
  0
SECTION
  2
TABLES
  0
TABLE
  2
VPORT
 70
     1
  0
VPORT
  2
*ACTIVE
 70
     0
 10
0.0
 20
0.0
 11
1.0
 21
1.0
 12
1461.7826010000001
 22
1222.536077
 13
0.0
 23
0.0
 14
50.0
 24
50.0
 15
100.0
 25
100.0
 16
0.0
 26
0.0
 36
1.0
 17
0.0
 27
0.0
 37
0.0
 40
7897.2940420000004
 41
1.5639386189258311
 42
50.0
 43
0.0
 44
0.0
 50
0.0
 51
0.0
 71
     0
 72
  1000
 73
     1
 74
     0
 75
     0
 76
     0
 77
     0
 78
     0
  0
ENDTAB
  0
TABLE
  2
LTYPE
 70
     3
  0
LTYPE
  2
CONTINUOUS
 70
     0
  3
実線
 72
    65
 73
     0
 40
0.0
  0
LTYPE
  2
DASHDOT
 70
     0
  3
____ _ ____ _ ____ _ ____ _ ____ _ ____ _ ____
 72
    65
 73
     4
 40
5.5
 49
4.0
 49
-0.6
 49
0.3
 49
-0.6
  0
ENDTAB
  0
TABLE
  2
LAYER
 70
    12
  0
LAYER
  2
0
 70
     0
 62
     7
  6
CONTINUOUS
  0
LAYER
  2
NOTE
 70
     0
 62
     4
  6
CONTINUOUS
  0
LAYER
  2
OUTLINE
 70
     0
 62
     3
  6
CONTINUOUS
  0
LAYER
  2
DETAIL
 70
     0
 62
     5
  6
CONTINUOUS
  0
LAYER
  2
BASIS
 70
     0
 62
     6
  6
DASHDOT
  0
LAYER
  2
SIZE
 70
     0
 62
    30
  6
CONTINUOUS
  0
LAYER
  2
ARRANGE
 70
     0
 62
     1
  6
CONTINUOUS
  0
LAYER
  2
FIX
 70
     0
 62
    11
  6
CONTINUOUS
  0
LAYER
  2
SERVICESPACE
 70
     0
 62
     2
  6
DASHDOT
  0
LAYER
  2
ETC
 70
     0
 62
    61
  6
CONTINUOUS
  0
LAYER
  2
SYMBOLLINE
 70
     0
 62
    15
  6
CONTINUOUS
  0
LAYER
  2
DEFPOINTS
 70
     0
 62
     7
  6
CONTINUOUS
  0
ENDTAB
  0
TABLE
  2
STYLE
 70
     4
  0
STYLE
  2
STANDARD
 70
     0
 40
0.0
 41
0.9
 50
0.0
 71
     0
 42
64.0
  3
SIMPLEX
  4
BIGFONT
  0
STYLE
  2
ANNOTATIVE
 70
     0
 40
0.0
 41
1.0
 50
0.0
 71
     0
 42
0.2
  3
txt
  4

  0
STYLE
  2
STANDARD1
 70
     0
 40
0.0
 41
1.0
 50
0.0
 71
     0
 42
64.0
  3
MONOTXT
  4
BIGFONT
  0
STYLE
  2

 70
     1
 40
0.0
 41
1.0
 50
0.0
 71
     0
 42
64.0
  3
ltypeshp.shx
  4

  0
ENDTAB
  0
TABLE
  2
VIEW
 70
     7
  0
VIEW
  2
ALL
 70
     0
 40
9000.0
 10
241.50664699999999
 20
0.0
 41
12483.01
 11
0.0
 21
0.0
 31
1.0
 12
0.0
 22
0.0
 32
0.0
 42
50.0
 43
0.0
 44
0.0
 50
0.0
 71
     0
  0
ENDTAB
  0
TABLE
  2
UCS
 70
     0
  0
ENDTAB
  0
TABLE
  2
APPID
 70
     4
  0
APPID
  2
ACAD
 70
     0
  0
APPID
  2
ACADANNOTATIVE
 70
     0
  0
APPID
  2
ACAD_MLEADERVER
 70
     0
  0
APPID
  2
ACAD_EXEMPT_FROM_CAD_STANDARDS
 70
     0
  0
ENDTAB
  0
TABLE
  2
DIMSTYLE
 70
     3
  0
DIMSTYLE
  2
STANDARD
 70
     0
  3

  4

  5

  6

  7

 40
1.0
 41
0.18
 42
0.0625
 43
0.38
 44
0.18
 45
0.0
 46
0.0
 47
0.0
 48
0.0
140
0.18
141
0.09
142
0.0
143
25.399999999999999
144
1.0
145
0.0
146
1.0
147
0.09
 71
     0
 72
     0
 73
     1
 74
     1
 75
     0
 76
     0
 77
     0
 78
     0
170
     0
171
     2
172
     0
173
     0
174
     0
175
     0
176
     0
177
     0
178
     0
  0
DIMSTYLE
  2
ANNOTATIVE
 70
     0
  3

  4

  5

  6

  7

 40
1.0
 41
0.18
 42
0.0625
 43
0.38
 44
0.18
 45
0.0
 46
0.0
 47
0.0
 48
0.0
140
0.18
141
0.09
142
0.0
143
25.399999999999999
144
1.0
145
0.0
146
1.0
147
0.09
 71
     0
 72
     0
 73
     1
 74
     1
 75
     0
 76
     0
 77
     0
 78
     0
170
     0
171
     2
172
     0
173
     0
174
     0
175
     0
176
     0
177
     0
178
     0
  0
ENDTAB
  0
ENDSEC
  0
SECTION
  2
BLOCKS
  0
BLOCK
  8
0
  2
$MODEL_SPACE
 70
     0
 10
0.0
 20
0.0
 30
0.0
  3
$MODEL_SPACE
  1

  0
ENDBLK
  5
70F
  8
0
  0
BLOCK
 67
     1
  8
0
  2
$PAPER_SPACE
 70
     0
 10
0.0
 20
0.0
 30
0.0
  3
$PAPER_SPACE
  1

  0
ENDBLK
  5
70B
 67
     1
  8
0
  0
BLOCK
  8
0
  2
_ORIGIN
 70
     0
 10
0.0
 20
0.0
 30
0.0
  3
_ORIGIN
  1

  0
CIRCLE
  5
34
  8
0
  6
CONTINUOUS
 62
     7
 10
0.0
 20
0.0
 30
0.0
 40
0.5
  0
LINE
  5
35
  8
0
  6
CONTINUOUS
 62
     7
 10
-0.5
 20
0.0
 30
0.0
 11
-1.0
 21
0.0
 31
0.0
  0
ENDBLK
  5
36
  8
0
  0
BLOCK
  8
0
 62
     7
  2
A$C05A93AF7
 70
     0
 10
0.0
 20
0.0
 30
0.0
  3
A$C05A93AF7
  1

  0
LINE
  5
286
  8
SIZE
  6
CONTINUOUS
 62
    30
 10
1265.2430199999999
 20
855.86979600000006
 30
0.0
 11
514.41161399999999
 21
855.86979600000006
 31
0.0
  0
LINE
  5
287
  8
SIZE
  6
CONTINUOUS
 62
    30
 10
1355.352443
 20
1012.869796
 30
0.0
 11
755.01306599999987
 21
1012.869796
 31
0.0
  0
POLYLINE
  5
288
  8
NOTE
  6
CONTINUOUS
 62
     4
 66
     1
 10
0.0
 20
0.0
 30
0.0
  0
VERTEX
  5
7B7
  8
NOTE
  6
CONTINUOUS
 62
     4
 10
1396.246613
 20
1012.869796
 30
0.0
  0
VERTEX
  5
7B8
  8
NOTE
  6
CONTINUOUS
 62
     4
 10
906.00693699999988
 20
1467.2139850000001
 30
0.0
  0
SEQEND
  5
7B9
  8
NOTE
  6
CONTINUOUS
 62
     4
  0
POLYLINE
  5
28C
  8
NOTE
  6
CONTINUOUS
 62
     4
 66
     1
 10
0.0
 20
0.0
 30
0.0
  0
VERTEX
  5
7BA
  8
NOTE
  6
CONTINUOUS
 62
     4
 10
1315.246613
 20
855.86979600000006
 30
0.0
  0
VERTEX
  5
7BB
  8
NOTE
  6
CONTINUOUS
 62
     4
 10
1025.166303
 20
235.41978199999991
 30
0.0
  0
SEQEND
  5
7BC
  8
NOTE
  6
CONTINUOUS
 62
     4
  0
LINE
  5
290
  8
SIZE
  6
CONTINUOUS
 62
    30
 10
1143.246613
 20
31.592859000000001
 30
0.0
 11
1353.246613
 21
31.592859000000001
 31
0.0
  0
LINE
  5
291
  8
SIZE
  6
CONTINUOUS
 62
    30
 10
1878.246613
 20
1723.1453220000001
 30
0.0
 11
1143.246613
 21
1723.1453220000001
 31
0.0
  0
POLYLINE
  5
292
  8
NOTE
  6
CONTINUOUS
 62
     4
 66
     1
 10
0.0
 20
0.0
 30
0.0
  0
VERTEX
  5
7BD
  8
NOTE
  6
CONTINUOUS
 62
     4
 10
1311.246613
 20
954.86979599999995
 30
0.0
  0
VERTEX
  5
7BE
  8
NOTE
  6
CONTINUOUS
 62
     4
 10
1017.665248
 20
363.56115299999999
 30
0.0
  0
SEQEND
  5
7BF
  8
NOTE
  6
CONTINUOUS
 62
     4
  0
POLYLINE
  5
296
  8
NOTE
  6
CONTINUOUS
 62
     4
 66
     1
 10
0.0
 20
0.0
 30
0.0
  0
VERTEX
  5
7C0
  8
NOTE
  6
CONTINUOUS
 62
     4
 10
1247.246613
 20
926.86979599999995
 30
0.0
  0
VERTEX
  5
7C1
  8
NOTE
  6
CONTINUOUS
 62
     4
 10
1009.502896
 20
528.08076399999993
 30
0.0
  0
SEQEND
  5
7C2
  8
NOTE
  6
CONTINUOUS
 62
     4
  0
LINE
  5
29A
  8
OUTLINE
  6
CONTINUOUS
 62
     3
 10
1124.046709
 20
827.86979599999984
 30
0.0
 11
1897.4465889999999
 21
827.86979599999984
 31
0.0
  0
LINE
  5
29B
  8
OUTLINE
  6
CONTINUOUS
 62
     3
 10
1897.4465170000001
 20
1160.869796
 30
0.0
 11
1123.8466129999999
 21
1160.869796
 31
0.0
  0
LINE
  5
29C
  8
SIZE
  6
CONTINUOUS
 62
    30
 10
1199.2430199999999
 20
926.86979599999995
 30
0.0
 11
613.31127100000003
 21
926.86979599999995
 31
0.0
  0
LINE
  5
29D
  8
SIZE
  6
CONTINUOUS
 62
    30
 10
1265.161832
 20
954.86979599999995
 30
0.0
 11
613.31127100000003
 21
954.86979599999995
 31
0.0
  0
LINE
  5
29E
  8
SIZE
  6
CONTINUOUS
 62
    30
 10
1265.161832
 20
954.86979599999995
 30
0.0
 11
613.31127100000003
 21
954.86979599999995
 31
0.0
  0
LINE
  5
29F
  8
SIZE
  6
CONTINUOUS
 62
    30
 10
1866.2445769999999
 20
1160.869796
 30
0.0
 11
613.31127100000003
 21
1160.869796
 31
0.0
  0
LINE
  5
2A0
  8
SIZE
  6
CONTINUOUS
 62
    30
 10
1227.246613
 20
1477.298632
 30
0.0
 11
1143.246613
 21
1477.298632
 31
0.0
  0
LINE
  5
2A1
  8
SIZE
  6
CONTINUOUS
 62
    30
 10
1177.246613
 20
1587.217394
 30
0.0
 11
1197.246613
 21
1587.217394
 31
0.0
  0
LINE
  5
2A2
  8
SIZE
  6
CONTINUOUS
 62
    30
 10
1866.2445769999999
 20
1160.869796
 30
0.0
 11
863.78508299999987
 21
1160.869796
 31
0.0
  0
LINE
  5
2A3
  8
SIZE
  6
CONTINUOUS
 62
    30
 10
1847.246613
 20
1587.217394
 30
0.0
 11
1177.246613
 21
1587.217394
 31
0.0
  0
LINE
  5
2A4
  8
DETAIL
  6
CONTINUOUS
 62
     5
 10
1897.4465170000001
 20
1160.869796
 30
0.0
 11
1123.8466129999999
 21
1160.869796
 31
0.0
  0
LINE
  5
2A5
  8
DETAIL
  6
CONTINUOUS
 62
     5
 10
1183.863425
 20
1140.8679999999999
 30
0.0
 11
1172.862108
 21
1140.8679999999999
 31
0.0
  0
LINE
  5
2A6
  8
DETAIL
  6
CONTINUOUS
 62
     5
 10
1166.3613290000001
 20
1148.8683590000001
 30
0.0
 11
1184.3634850000001
 21
1148.8683590000001
 31
0.0
  0
LINE
  5
2A7
  8
DETAIL
  6
CONTINUOUS
 62
     5
 10
1124.046613
 20
827.86979599999984
 30
0.0
 11
1897.4466130000001
 21
827.86979599999984
 31
0.0
  0
LINE
  5
2A8
  8
DETAIL
  6
CONTINUOUS
 62
     5
 10
1186.8640370000001
 20
1160.869796
 30
0.0
 11
1127.856972
 21
1160.869796
 31
0.0
  0
LINE
  5
2A9
  8
SIZE
  6
CONTINUOUS
 62
    30
 10
1123.246613
 20
808.66990299999998
 30
0.0
 11
1123.246613
 21
13.592859000000001
 31
0.0
  0
LINE
  5
2AA
  8
SIZE
  6
CONTINUOUS
 62
    30
 10
1133.246613
 20
31.592859000000001
 30
0.0
 11
1143.246613
 21
31.592859000000001
 31
0.0
  0
CIRCLE
  5
2AB
  8
SIZE
  6
CONTINUOUS
 62
    30
 10
1123.246613
 20
31.592859000000001
 30
0.0
 40
10.0
  0
LINE
  5
2AC
  8
NOTE
  6
CONTINUOUS
 62
     4
 10
1025.166303
 20
235.41978199999991
 30
0.0
 11
590.23550399999988
 21
235.41978199999991
 31
0.0
  0
TEXT
  5
2AD
  8
NOTE
  6
CONTINUOUS
 62
     4
 10
611.91077599999994
 20
251.24631299999999
 30
0.0
 40
60.0
  1
D2（自然排水口）
 50
0.000003
 41
0.7
  7
STANDARD1
  0
TEXT
  5
2AE
  8
NOTE
  6
CONTINUOUS
 62
     4
 10
642.23026700000003
 20
538.84978699999999
 30
0.0
 40
60.0
  1
RG %%C15.88
 50
0.000003
 41
0.7
  7
STANDARD1
  0
LINE
  5
2AF
  8
NOTE
  6
CONTINUOUS
 62
     4
 10
628.42324699999995
 20
528.08076399999993
 30
0.0
 11
1009.502896
 21
528.08076399999993
 31
0.0
  0
TEXT
  5
2B0
  8
NOTE
  6
CONTINUOUS
 62
     4
 10
688.53288199999997
 20
381.20056099999999
 30
0.0
 40
60.0
  1
RL %%C9.52
 50
0.000003
 41
0.7
  7
STANDARD1
  0
LINE
  5
2B1
  8
NOTE
  6
CONTINUOUS
 62
     4
 10
679.55419800000004
 20
363.56115299999999
 30
0.0
 11
1017.665248
 21
363.56115299999999
 31
0.0
  0
TEXT
  5
2B2
  8
ETC
  6
CONTINUOUS
 62
    61
 10
0.000014
 20
1818.2508230000001
 30
0.0
 40
65.0
  1
MPD-RP112_160FA3_4
 50
0.000003
 41
0.85
  7
STANDARD1
  0
LINE
  5
2B3
  8
NOTE
  6
CONTINUOUS
 62
     4
 10
191.50751199999999
 20
1357.1400900000001
 30
0.0
 11
920.60814000000005
 21
1357.1400900000001
 31
0.0
  0
TEXT
  5
2B4
  8
NOTE
  6
CONTINUOUS
 62
     4
 10
204.53286800000001
 20
1372.9666520000001
 30
0.0
 40
60.0
  1
AH 4-14×30長穴(M10)
 50
0.000003
 41
0.7
  7
STANDARD1
  0
LINE
  5
2B5
  8
SIZE
  6
CONTINUOUS
 62
    30
 10
1123.246613
 20
1180.269796
 30
0.0
 11
1123.246613
 21
1741.1453220000001
 31
0.0
  0
POLYLINE
  5
2B6
  8
NOTE
  6
CONTINUOUS
 62
     4
 66
     1
 10
0.0
 20
0.0
 30
0.0
  0
VERTEX
  5
7C3
  8
NOTE
  6
CONTINUOUS
 62
     4
 10
1160.246613
 20
1160.869796
 30
0.0
  0
VERTEX
  5
7C4
  8
NOTE
  6
CONTINUOUS
 62
     4
 10
920.60814000000005
 20
1357.1400900000001
 30
0.0
  0
SEQEND
  5
7C5
  8
NOTE
  6
CONTINUOUS
 62
     4
  0
LINE
  5
2BA
  8
SIZE
  6
CONTINUOUS
 62
    30
 10
1123.246613
 20
1178.269796
 30
0.0
 11
1123.246613
 21
1507.298632
 31
0.0
  0
LINE
  5
2BB
  8
SIZE
  6
CONTINUOUS
 62
    30
 10
1123.246613
 20
1178.269796
 30
0.0
 11
1123.246613
 21
1617.217394
 31
0.0
  0
LINE
  5
2BC
  8
SIZE
  6
CONTINUOUS
 62
    30
 10
1157.246613
 20
1198.8721909999999
 30
0.0
 11
1157.246613
 21
1617.217394
 31
0.0
  0
LINE
  5
2BD
  8
SIZE
  6
CONTINUOUS
 62
    30
 10
1157.246613
 20
1198.8721909999999
 30
0.0
 11
1157.246613
 21
1617.217394
 31
0.0
  0
TEXT
  5
2BE
  8
NOTE
  6
CONTINUOUS
 62
     4
 10
323.144565
 20
1257.683321
 30
0.0
 40
60.0
  1
%%C200 吹出円形フランジ
 50
0.000003
 41
0.7
  7
STANDARD1
  0
LINE
  5
2BF
  8
SIZE
  6
CONTINUOUS
 62
    30
 10
1103.8466129999999
 20
1160.869796
 30
0.0
 11
514.41161399999999
 21
1160.869796
 31
0.0
  0
TEXT
  5
2C0
  8
SIZE
  6
CONTINUOUS
 62
    30
 10
755.01306599999987
 20
1021.718169571428
 30
0.0
 40
55.0
  1
148
 50
90.0
 41
0.9
 72
     1
 11
755.01306599999987
 21
1080.646741
 31
0.0
  0
LINE
  5
2C1
  8
NOTE
  6
CONTINUOUS
 62
     4
 10
918.71556799999996
 20
1242.8876540000001
 30
0.0
 11
306.76982199999998
 21
1242.8876540000001
 31
0.0
  0
TEXT
  5
2C2
  8
SIZE
  6
CONTINUOUS
 62
    30
 10
514.41161399999999
 20
944.72693885714295
 30
0.0
 40
55.0
  1
305
 50
90.0
 41
0.9
 72
     1
 11
514.41161399999999
 21
1008.369796
 31
0.0
  0
LINE
  5
2C3
  8
SIZE
  6
CONTINUOUS
 62
    30
 10
532.41161399999999
 20
875.86979600000006
 30
0.0
 11
532.41161399999999
 21
1140.869796
 31
0.0
  0
LINE
  5
2C4
  8
SIZE
  6
CONTINUOUS
 62
    30
 10
643.31127100000003
 20
974.86979600000006
 30
0.0
 11
643.31127100000003
 21
994.86979599999995
 31
0.0
  0
LINE
  5
2C5
  8
SIZE
  6
CONTINUOUS
 62
    30
 10
643.31127100000003
 20
1140.869796
 30
0.0
 11
643.31127100000003
 21
974.86979600000006
 31
0.0
  0
LINE
  5
2C6
  8
SIZE
  6
CONTINUOUS
 62
    30
 10
643.31127100000003
 20
906.86979600000006
 30
0.0
 11
643.31127100000003
 21
735.01265299999989
 31
0.0
  0
TEXT
  5
2C7
  8
SIZE
  6
CONTINUOUS
 62
    30
 10
625.31127100000003
 20
753.01265357142859
 30
0.0
 40
50.0
  1
28
 50
90.0
 41
0.9
 72
     1
 11
625.31127100000003
 21
789.44122500000003
 31
0.0
  0
LINE
  5
2C8
  8
SIZE
  6
CONTINUOUS
 62
    30
 10
532.41161399999999
 20
865.86979600000006
 30
0.0
 11
532.41161399999999
 21
875.86979600000006
 31
0.0
  0
CIRCLE
  5
2C9
  8
SIZE
  6
CONTINUOUS
 62
    30
 10
532.41161399999999
 20
855.86979600000006
 30
0.0
 40
10.0
  0
POINT
  5
2CA
  8
DEFPOINTS
  6
CONTINUOUS
 62
     7
 10
643.31127100000003
 20
926.86979599999995
 30
0.0
  0
LINE
  5
2CB
  8
SIZE
  6
CONTINUOUS
 62
    30
 10
643.31127100000003
 20
916.86979600000006
 30
0.0
 11
643.31127100000003
 21
906.86979600000006
 31
0.0
  0
CIRCLE
  5
2CC
  8
SIZE
  6
CONTINUOUS
 62
    30
 10
643.31127100000003
 20
926.86979599999995
 30
0.0
 40
10.0
  0
LINE
  5
2CD
  8
SIZE
  6
CONTINUOUS
 62
    30
 10
643.31127100000003
 20
964.86979600000006
 30
0.0
 11
643.31127100000003
 21
974.86979600000006
 31
0.0
  0
CIRCLE
  5
2CE
  8
SIZE
  6
CONTINUOUS
 62
    30
 10
643.31127100000003
 20
954.86979599999995
 30
0.0
 40
10.0
  0
LINE
  5
2CF
  8
SIZE
  6
CONTINUOUS
 62
    30
 10
643.31127100000003
 20
954.86979599999995
 30
0.0
 11
643.31127100000003
 21
926.86979599999995
 31
0.0
  0
POINT
  5
2D0
  8
DEFPOINTS
  6
CONTINUOUS
 62
     7
 10
643.31127100000003
 20
954.86979599999995
 30
0.0
  0
LINE
  5
2D1
  8
SIZE
  6
CONTINUOUS
 62
    30
 10
643.31127100000003
 20
964.86979600000006
 30
0.0
 11
643.31127100000003
 21
974.86979600000006
 31
0.0
  0
CIRCLE
  5
2D2
  8
SIZE
  6
CONTINUOUS
 62
    30
 10
643.31127100000003
 20
954.86979599999995
 30
0.0
 40
10.0
  0
LINE
  5
2D3
  8
SIZE
  6
CONTINUOUS
 62
    30
 10
532.41161399999999
 20
1150.869796
 30
0.0
 11
532.41161399999999
 21
1140.869796
 31
0.0
  0
LINE
  5
2D4
  8
SIZE
  6
CONTINUOUS
 62
    30
 10
643.31127100000003
 20
1150.869796
 30
0.0
 11
643.31127100000003
 21
1140.869796
 31
0.0
  0
TEXT
  5
2D5
  8
SIZE
  6
CONTINUOUS
 62
    30
 10
625.31127100000003
 20
1001.084081714286
 30
0.0
 40
50.0
  1
206
 50
90.0
 41
0.9
 72
     1
 11
625.31127100000003
 21
1057.869796
 31
0.0
  0
POINT
  5
2D6
  8
DEFPOINTS
  6
CONTINUOUS
 62
     7
 10
532.41161399999999
 20
1160.869796
 30
0.0
  0
CIRCLE
  5
2D7
  8
SIZE
  6
CONTINUOUS
 62
    30
 10
532.41161399999999
 20
1160.869796
 30
0.0
 40
10.0
  0
CIRCLE
  5
2D8
  8
SIZE
  6
CONTINUOUS
 62
    30
 10
643.31127100000003
 20
1160.869796
 30
0.0
 40
10.0
  0
LINE
  5
2D9
  8
OUTLINE
  6
CONTINUOUS
 62
     3
 10
1123.246613
 20
1160.269796
 30
0.0
 11
1123.246613
 21
828.66990299999986
 31
0.0
  0
LINE
  5
2DA
  8
NOTE
  6
CONTINUOUS
 62
     4
 10
1053.246613
 20
1096.8143110000001
 30
0.0
 11
1053.246613
 21
952.92528100000004
 31
0.0
  0
LINE
  5
2DB
  8
DETAIL
  6
CONTINUOUS
 62
     5
 10
1123.246613
 20
1160.269796
 30
0.0
 11
1123.246613
 21
828.66979599999991
 31
0.0
  0
LINE
  5
2DC
  8
DETAIL
  6
CONTINUOUS
 62
     5
 10
1108.244817
 20
1128.870275
 30
0.0
 11
1108.244817
 21
920.86931700000002
 31
0.0
  0
LINE
  5
2DD
  8
DETAIL
  6
CONTINUOUS
 62
     5
 10
1053.246613
 20
927.36979600000006
 30
0.0
 11
1053.246613
 21
1122.369796
 31
0.0
  0
LINE
  5
2DE
  8
DETAIL
  6
CONTINUOUS
 62
     5
 10
1088.242422
 20
924.86979600000006
 30
0.0
 11
1088.242422
 21
1124.869796
 31
0.0
  0
POINT
  5
2DF
  8
DEFPOINTS
  6
CONTINUOUS
 62
     7
 10
1123.246613
 20
828.66990299999986
 30
0.0
  0
ARC
  5
2E0
  8
DETAIL
  6
CONTINUOUS
 62
     5
 10
1124.046613
 20
828.66979599999991
 30
0.0
 40
0.8
 50
180.0
 51
270.0
  0
ARC
  5
2E1
  8
OUTLINE
  6
CONTINUOUS
 62
     3
 10
1124.046709
 20
828.669892
 30
0.0
 40
0.800096
 50
179.999189
 51
270.0
  0
LINE
  5
2E2
  8
DETAIL
  6
CONTINUOUS
 62
     5
 10
1088.242422
 20
924.86979600000006
 30
0.0
 11
1053.246613
 21
927.36979600000006
 31
0.0
  0
LINE
  5
2E3
  8
DETAIL
  6
CONTINUOUS
 62
     5
 10
1121.2463729999999
 20
914.86859799999991
 30
0.0
 11
1121.2463729999999
 21
894.85422799999992
 31
0.0
  0
ARC
  5
2E4
  8
DETAIL
  6
CONTINUOUS
 62
     5
 10
1112.2452960000001
 20
920.86931700000002
 30
0.0
 40
4.0004790000000003
 50
180.0
 51
270.0
  0
LINE
  5
2E5
  8
DETAIL
  6
CONTINUOUS
 62
     5
 10
1088.242422
 20
924.86979600000006
 30
0.0
 11
1106.2445769999999
 21
924.86979600000006
 31
0.0
  0
ARC
  5
2E6
  8
DETAIL
  6
CONTINUOUS
 62
     5
 10
1106.2445769999999
 20
922.86955600000022
 30
0.0
 40
2.0002399999999998
 50
0.0
 51
90.0
  0
LINE
  5
2E7
  8
DETAIL
  6
CONTINUOUS
 62
     5
 10
1112.2452960000001
 20
916.86883799999998
 30
0.0
 11
1119.246134
 21
916.86883799999998
 31
0.0
  0
ARC
  5
2E8
  8
DETAIL
  6
CONTINUOUS
 62
     5
 10
1119.246134
 20
914.86859799999991
 30
0.0
 40
2.0002399999999998
 50
0.0
 51
90.0
  0
LINE
  5
2E9
  8
DETAIL
  6
CONTINUOUS
 62
     5
 10
1121.2463729999999
 20
894.85422799999992
 30
0.0
 11
1123.246613
 21
894.85422799999992
 31
0.0
  0
LINE
  5
2EA
  8
SIZE
  6
CONTINUOUS
 62
    30
 10
1103.8466129999999
 20
1160.869796
 30
0.0
 11
755.01306599999987
 21
1160.869796
 31
0.0
  0
POLYLINE
  5
2EB
  8
NOTE
  6
CONTINUOUS
 62
     4
 66
     1
 10
0.0
 20
0.0
 30
0.0
  0
VERTEX
  5
7C6
  8
NOTE
  6
CONTINUOUS
 62
     4
 10
1053.246613
 20
1024.869796
 30
0.0
  0
VERTEX
  5
7C7
  8
NOTE
  6
CONTINUOUS
 62
     4
 10
918.71556799999996
 20
1242.8876540000001
 30
0.0
  0
SEQEND
  5
7C8
  8
NOTE
  6
CONTINUOUS
 62
     4
  0
LINE
  5
2EF
  8
SIZE
  6
CONTINUOUS
 62
    30
 10
963.30209799999989
 20
1024.869796
 30
0.0
 11
863.78508299999987
 21
1024.869796
 31
0.0
  0
LINE
  5
2F0
  8
SIZE
  6
CONTINUOUS
 62
    30
 10
773.01306599999998
 20
1150.869796
 30
0.0
 11
773.01306599999998
 21
1140.869796
 31
0.0
  0
LINE
  5
2F1
  8
SIZE
  6
CONTINUOUS
 62
    30
 10
893.78508299999999
 20
1150.869796
 30
0.0
 11
893.78508299999999
 21
1140.869796
 31
0.0
  0
TEXT
  5
2F2
  8
SIZE
  6
CONTINUOUS
 62
    30
 10
875.78508299999999
 20
1037.4323240000001
 30
0.0
 40
50.0
  1
136
 50
90.0
 41
0.9
 72
     1
 11
875.78508299999999
 21
1089.9323240000001
 31
0.0
  0
POINT
  5
2F3
  8
DEFPOINTS
  6
CONTINUOUS
 62
     7
 10
773.01306599999998
 20
1012.869796
 30
0.0
  0
LINE
  5
2F4
  8
SIZE
  6
CONTINUOUS
 62
    30
 10
773.01306599999998
 20
1022.869796
 30
0.0
 11
773.01306599999998
 21
1032.869796
 31
0.0
  0
CIRCLE
  5
2F5
  8
SIZE
  6
CONTINUOUS
 62
    30
 10
773.01306599999998
 20
1012.869796
 30
0.0
 40
10.0
  0
LINE
  5
2F6
  8
SIZE
  6
CONTINUOUS
 62
    30
 10
773.01306599999998
 20
1140.869796
 30
0.0
 11
773.01306599999998
 21
1032.869796
 31
0.0
  0
POINT
  5
2F7
  8
DEFPOINTS
  6
CONTINUOUS
 62
     7
 10
893.78508299999999
 20
1024.869796
 30
0.0
  0
LINE
  5
2F8
  8
SIZE
  6
CONTINUOUS
 62
    30
 10
893.78508299999999
 20
1034.869796
 30
0.0
 11
893.78508299999999
 21
1044.869796
 31
0.0
  0
CIRCLE
  5
2F9
  8
SIZE
  6
CONTINUOUS
 62
    30
 10
893.78508299999999
 20
1024.869796
 30
0.0
 40
10.0
  0
LINE
  5
2FA
  8
SIZE
  6
CONTINUOUS
 62
    30
 10
893.78508299999999
 20
1140.869796
 30
0.0
 11
893.78508299999999
 21
1044.869796
 31
0.0
  0
CIRCLE
  5
2FB
  8
SIZE
  6
CONTINUOUS
 62
    30
 10
773.01306599999998
 20
1160.869796
 30
0.0
 40
10.0
  0
CIRCLE
  5
2FC
  8
SIZE
  6
CONTINUOUS
 62
    30
 10
893.78508299999999
 20
1160.869796
 30
0.0
 40
10.0
  0
CIRCLE
  5
2FD
  8
FIX
  6
CONTINUOUS
 62
    11
 10
1157.246613
 20
1160.869796
 30
0.0
 40
18.598564
  0
LINE
  5
2FE
  8
NOTE
  6
CONTINUOUS
 62
     4
 10
1157.246613
 20
1180.8721909999999
 30
0.0
 11
1157.246613
 21
1140.867401
 31
0.0
  0
LINE
  5
2FF
  8
DETAIL
  6
CONTINUOUS
 62
     5
 10
1127.856972
 20
1160.869796
 30
0.0
 11
1127.856972
 21
1120.865605
 31
0.0
  0
LINE
  5
300
  8
DETAIL
  6
CONTINUOUS
 62
     5
 10
1121.2463729999999
 20
1154.885364
 30
0.0
 11
1121.2463729999999
 21
1134.8709940000001
 31
0.0
  0
LINE
  5
301
  8
NOTE
  6
CONTINUOUS
 62
     4
 10
981.30209800000011
 20
1024.869796
 30
0.0
 11
1125.1911279999999
 21
1024.869796
 31
0.0
  0
LINE
  5
302
  8
DETAIL
  6
CONTINUOUS
 62
     5
 10
1088.242422
 20
1124.869796
 30
0.0
 11
1053.246613
 21
1122.369796
 31
0.0
  0
LINE
  5
303
  8
NOTE
  6
CONTINUOUS
 62
     4
 10
1053.246613
 20
1024.869796
 30
0.0
 11
1030.5095020000001
 21
1046.0273219999999
 31
0.0
  0
LINE
  5
304
  8
NOTE
  6
CONTINUOUS
 62
     4
 10
1044.13446
 20
1054.5613060000001
 30
0.0
 11
1053.246613
 21
1024.869796
 31
0.0
  0
POINT
  5
305
  8
DEFPOINTS
  6
CONTINUOUS
 62
     7
 10
981.30209800000011
 20
1024.869796
 30
0.0
  0
LINE
  5
306
  8
DETAIL
  6
CONTINUOUS
 62
     5
 10
1172.862108
 20
1140.8679999999999
 30
0.0
 11
1172.862108
 21
1120.865605
 31
0.0
  0
ARC
  5
307
  8
DETAIL
  6
CONTINUOUS
 62
     5
 10
1169.8617489999999
 20
1120.865605
 30
0.0
 40
3.0003589999999991
 50
270.0
 51
0.0
  0
LINE
  5
308
  8
DETAIL
  6
CONTINUOUS
 62
     5
 10
1130.857078
 20
1117.865245
 30
0.0
 11
1169.8617489999999
 21
1117.865245
 31
0.0
  0
ARC
  5
309
  8
DETAIL
  6
CONTINUOUS
 62
     5
 10
1130.857078
 20
1120.865605
 30
0.0
 40
3.0003589999999991
 50
180.0
 51
270.0
  0
ARC
  5
30A
  8
DETAIL
  6
CONTINUOUS
 62
     5
 10
1112.2452960000001
 20
1128.870275
 30
0.0
 40
4.0004790000000003
 50
90.0
 51
180.0
  0
LINE
  5
30B
  8
DETAIL
  6
CONTINUOUS
 62
     5
 10
1112.2452960000001
 20
1132.870754
 30
0.0
 11
1119.246134
 21
1132.870754
 31
0.0
  0
ARC
  5
30C
  8
DETAIL
  6
CONTINUOUS
 62
     5
 10
1106.2445769999999
 20
1126.870036
 30
0.0
 40
2.0002399999999998
 50
270.0
 51
0.0
  0
LINE
  5
30D
  8
DETAIL
  6
CONTINUOUS
 62
     5
 10
1088.242422
 20
1124.869796
 30
0.0
 11
1106.2445769999999
 21
1124.869796
 31
0.0
  0
ARC
  5
30E
  8
DETAIL
  6
CONTINUOUS
 62
     5
 10
1119.246134
 20
1134.8709940000001
 30
0.0
 40
2.0002399999999998
 50
270.0
 51
0.0
  0
POINT
  5
30F
  8
DEFPOINTS
  6
CONTINUOUS
 62
     7
 10
1123.8466129999999
 20
1160.869796
 30
0.0
  0
POINT
  5
310
  8
DEFPOINTS
  6
CONTINUOUS
 62
     7
 10
1123.8466129999999
 20
1160.869796
 30
0.0
  0
POINT
  5
311
  8
DEFPOINTS
  6
CONTINUOUS
 62
     7
 10
1123.246613
 20
1160.269796
 30
0.0
  0
LINE
  5
312
  8
NOTE
  6
CONTINUOUS
 62
     4
 10
1157.246613
 20
1160.869796
 30
0.0
 11
1130.533547
 21
1172.8167559999999
 31
0.0
  0
LINE
  5
313
  8
NOTE
  6
CONTINUOUS
 62
     4
 10
1142.4765809999999
 20
1183.5792980000001
 30
0.0
 11
1157.246613
 21
1160.869796
 31
0.0
  0
ARC
  5
314
  8
OUTLINE
  6
CONTINUOUS
 62
     3
 10
1123.8466129999999
 20
1160.269796
 30
0.0
 40
0.6
 50
90.0
 51
180.0
  0
POINT
  5
315
  8
DEFPOINTS
  6
CONTINUOUS
 62
     7
 10
1123.246613
 20
1160.269796
 30
0.0
  0
POINT
  5
316
  8
DEFPOINTS
  6
CONTINUOUS
 62
     7
 10
1123.246613
 20
1160.269796
 30
0.0
  0
POINT
  5
317
  8
DEFPOINTS
  6
CONTINUOUS
 62
     7
 10
1157.246613
 20
1180.8721909999999
 30
0.0
  0
ARC
  5
318
  8
DETAIL
  6
CONTINUOUS
 62
     5
 10
1123.8466129999999
 20
1160.269796
 30
0.0
 40
0.6
 50
90.0
 51
180.0
  0
POINT
  5
319
  8
DEFPOINTS
  6
CONTINUOUS
 62
     7
 10
1157.246613
 20
1180.8721909999999
 30
0.0
  0
LINE
  5
31A
  8
NOTE
  6
CONTINUOUS
 62
     4
 10
1137.2456549999999
 20
1160.869796
 30
0.0
 11
1177.2475710000001
 21
1160.869796
 31
0.0
  0
ARC
  5
31B
  8
DETAIL
  6
CONTINUOUS
 62
     5
 10
1166.3613290000001
 20
1151.8687179999999
 30
0.0
 40
3.0003589999999991
 50
180.0
 51
270.0
  0
LINE
  5
31C
  8
DETAIL
  6
CONTINUOUS
 62
     5
 10
1163.36097
 20
1160.869796
 30
0.0
 11
1163.36097
 21
1151.8687179999999
 31
0.0
  0
ARC
  5
31D
  8
DETAIL
  6
CONTINUOUS
 62
     5
 10
1130.857078
 20
1151.8687179999999
 30
0.0
 40
3.0003589999999991
 50
180.0
 51
270.0
  0
LINE
  5
31E
  8
DETAIL
  6
CONTINUOUS
 62
     5
 10
1148.3591739999999
 20
1148.8683590000001
 30
0.0
 11
1130.857078
 21
1148.8683590000001
 31
0.0
  0
LINE
  5
31F
  8
DETAIL
  6
CONTINUOUS
 62
     5
 10
1151.3595330000001
 20
1158.5695209999999
 30
0.0
 11
1163.36097
 21
1158.5695209999999
 31
0.0
  0
ARC
  5
320
  8
DETAIL
  6
CONTINUOUS
 62
     5
 10
1148.3591739999999
 20
1151.8687179999999
 30
0.0
 40
3.0003589999999991
 50
270.0
 51
0.0
  0
LINE
  5
321
  8
DETAIL
  6
CONTINUOUS
 62
     5
 10
1151.3595330000001
 20
1160.869796
 30
0.0
 11
1151.3595330000001
 21
1151.8687179999999
 31
0.0
  0
LINE
  5
322
  8
DETAIL
  6
CONTINUOUS
 62
     5
 10
1121.2463729999999
 20
1154.885364
 30
0.0
 11
1123.246613
 21
1154.885364
 31
0.0
  0
LINE
  5
323
  8
NOTE
  6
CONTINUOUS
 62
     4
 10
906.00693699999988
 20
1467.2139850000001
 30
0.0
 11
563.35310000000004
 21
1467.2139850000001
 31
0.0
  0
TEXT
  5
324
  8
NOTE
  6
CONTINUOUS
 62
     4
 10
585.02837199999999
 20
1483.040516
 30
0.0
 40
60.0
  1
D1 VP-25
 50
0.000003
 41
0.7
  7
STANDARD1
  0
LINE
  5
325
  8
SIZE
  6
CONTINUOUS
 62
    30
 10
1123.246613
 20
1477.298632
 30
0.0
 11
957.96089900000004
 21
1477.298632
 31
0.0
  0
TEXT
  5
326
  8
SIZE
  6
CONTINUOUS
 62
    30
 10
975.96089885714287
 20
1495.298632
 30
0.0
 40
50.0
  1
124
 41
0.9
 72
     1
 11
1030.603756
 21
1495.298632
 31
0.0
  0
LINE
  5
327
  8
SIZE
  6
CONTINUOUS
 62
    30
 10
1103.246613
 20
1587.217394
 30
0.0
 11
972.24661300000002
 21
1587.217394
 31
0.0
  0
LINE
  5
328
  8
SIZE
  6
CONTINUOUS
 62
    30
 10
1133.246613
 20
1477.298632
 30
0.0
 11
1143.246613
 21
1477.298632
 31
0.0
  0
CIRCLE
  5
329
  8
SIZE
  6
CONTINUOUS
 62
    30
 10
1123.246613
 20
1477.298632
 30
0.0
 40
10.0
  0
POINT
  5
32A
  8
DEFPOINTS
  6
CONTINUOUS
 62
     7
 10
1123.246613
 20
1587.217394
 30
0.0
  0
LINE
  5
32B
  8
SIZE
  6
CONTINUOUS
 62
    30
 10
1113.246613
 20
1587.217394
 30
0.0
 11
1103.246613
 21
1587.217394
 31
0.0
  0
CIRCLE
  5
32C
  8
SIZE
  6
CONTINUOUS
 62
    30
 10
1123.246613
 20
1587.217394
 30
0.0
 40
10.0
  0
LINE
  5
32D
  8
SIZE
  6
CONTINUOUS
 62
    30
 10
1167.246613
 20
1587.217394
 30
0.0
 11
1177.246613
 21
1587.217394
 31
0.0
  0
CIRCLE
  5
32E
  8
SIZE
  6
CONTINUOUS
 62
    30
 10
1157.246613
 20
1587.217394
 30
0.0
 40
10.0
  0
LINE
  5
32F
  8
SIZE
  6
CONTINUOUS
 62
    30
 10
1157.246613
 20
1587.217394
 30
0.0
 11
1123.246613
 21
1587.217394
 31
0.0
  0
POINT
  5
330
  8
DEFPOINTS
  6
CONTINUOUS
 62
     7
 10
1157.246613
 20
1587.217394
 30
0.0
  0
LINE
  5
331
  8
SIZE
  6
CONTINUOUS
 62
    30
 10
1167.246613
 20
1587.217394
 30
0.0
 11
1177.246613
 21
1587.217394
 31
0.0
  0
CIRCLE
  5
332
  8
SIZE
  6
CONTINUOUS
 62
    30
 10
1157.246613
 20
1587.217394
 30
0.0
 40
10.0
  0
TEXT
  5
333
  8
SIZE
  6
CONTINUOUS
 62
    30
 10
990.24661300000002
 20
1605.217394
 30
0.0
 40
50.0
  1
34
 41
0.9
 72
     1
 11
1027.746613
 21
1605.217394
 31
0.0
  0
POINT
  5
334
  8
DEFPOINTS
  6
CONTINUOUS
 62
     7
 10
1123.246613
 20
1723.1453220000001
 30
0.0
  0
LINE
  5
335
  8
SIZE
  6
CONTINUOUS
 62
    30
 10
1133.246613
 20
1723.1453220000001
 30
0.0
 11
1143.246613
 21
1723.1453220000001
 31
0.0
  0
CIRCLE
  5
336
  8
SIZE
  6
CONTINUOUS
 62
    30
 10
1123.246613
 20
1723.1453220000001
 30
0.0
 40
10.0
  0
LINE
  5
337
  8
BASIS
  6
DASHDOT
 62
     6
 10
1510.746613
 20
629.86883799999987
 30
0.0
 11
1510.746613
 21
1210.869796
 31
0.0
  0
CIRCLE
  5
338
  8
ARRANGE
  6
CONTINUOUS
 62
     1
 10
1510.746613
 20
687.86979599999995
 30
0.0
 40
50.0
  0
LINE
  5
339
  8
OUTLINE
  6
CONTINUOUS
 62
     3
 10
1973.246613
 20
683.86280799999986
 30
0.0
 11
1973.246613
 21
687.86979599999995
 31
0.0
  0
LINE
  5
33A
  8
OUTLINE
  6
CONTINUOUS
 62
     3
 10
1373.246613
 20
683.86280799999986
 30
0.0
 11
1373.246613
 21
687.86979599999995
 31
0.0
  0
CIRCLE
  5
33B
  8
SIZE
  6
CONTINUOUS
 62
    30
 10
2428.2667649999999
 20
687.86979599999995
 30
0.0
 40
10.0
  0
CIRCLE
  5
33C
  8
SIZE
  6
CONTINUOUS
 62
    30
 10
2640.26478
 20
687.86979599999995
 30
0.0
 40
10.0
  0
LINE
  5
33D
  8
SIZE
  6
CONTINUOUS
 62
    30
 10
2640.26478
 20
687.86979599999995
 30
0.0
 11
2640.26478
 21
340.44122499999997
 31
0.0
  0
CIRCLE
  5
33E
  8
SIZE
  6
CONTINUOUS
 62
    30
 10
2428.2667649999999
 20
679.86979599999995
 30
0.0
 40
10.0
  0
CIRCLE
  5
33F
  8
SIZE
  6
CONTINUOUS
 62
    30
 10
2428.2667649999999
 20
687.86979599999995
 30
0.0
 40
10.0
  0
LINE
  5
340
  8
SIZE
  6
CONTINUOUS
 62
    30
 10
2428.2667649999999
 20
687.86979599999995
 30
0.0
 11
2428.2667649999999
 21
679.86979599999995
 31
0.0
  0
LINE
  5
341
  8
SIZE
  6
CONTINUOUS
 62
    30
 10
1898.246613
 20
810.66979599999991
 30
0.0
 11
1898.246613
 21
321.62092999999999
 31
0.0
  0
LINE
  5
342
  8
ARRANGE
  6
CONTINUOUS
 62
     1
 10
1460.709263
 20
638.34744299999988
 30
0.0
 11
1560.7839630000001
 21
737.39214900000002
 31
0.0
  0
LINE
  5
343
  8
ARRANGE
  6
CONTINUOUS
 62
     1
 10
1460.7828500000001
 20
737.46639100000004
 30
0.0
 11
1560.710376
 21
638.27320099999986
 31
0.0
  0
POLYLINE
  5
344
  8
SIZE
  6
CONTINUOUS
 62
    30
 66
     1
 10
0.0
 20
0.0
 30
0.0
  0
VERTEX
  5
7C9
  8
SIZE
  6
CONTINUOUS
 62
    30
 10
2840.4992090000001
 20
661.54752599999995
 30
0.0
 42
0.186174
  0
VERTEX
  5
7CA
  8
SIZE
  6
CONTINUOUS
 62
    30
 10
2831.6493610000002
 20
682.49701399999992
 30
0.0
 42
0.082105
  0
VERTEX
  5
7CB
  8
SIZE
  6
CONTINUOUS
 62
    30
 10
2815.9468590000001
 20
694.67157499999996
 30
0.0
 42
0.058826
  0
VERTEX
  5
7CC
  8
SIZE
  6
CONTINUOUS
 62
    30
 10
2794.160801
 20
703.4465019999999
 30
0.0
 42
0.067494
  0
VERTEX
  5
7CD
  8
SIZE
  6
CONTINUOUS
 62
    30
 10
2756.6722410000002
 20
708.39200499999993
 30
0.0
 42
0.067494
  0
VERTEX
  5
7CE
  8
SIZE
  6
CONTINUOUS
 62
    30
 10
2719.183681
 20
703.4465019999999
 30
0.0
 42
0.058826
  0
VERTEX
  5
7CF
  8
SIZE
  6
CONTINUOUS
 62
    30
 10
2697.3976229999998
 20
694.67157499999996
 30
0.0
 42
0.082105
  0
VERTEX
  5
7D0
  8
SIZE
  6
CONTINUOUS
 62
    30
 10
2681.6951210000011
 20
682.49701399999992
 30
0.0
 42
0.186174
  0
VERTEX
  5
7D1
  8
SIZE
  6
CONTINUOUS
 62
    30
 10
2672.8452729999999
 20
661.54752599999995
 30
0.0
 42
0.186174
  0
SEQEND
  5
7D2
  8
SIZE
  6
CONTINUOUS
 62
    30
  0
LINE
  5
34F
  8
DETAIL
  6
CONTINUOUS
 62
     5
 10
1373.246613
 20
683.86280799999986
 30
0.0
 11
1373.246613
 21
687.86979599999995
 31
0.0
  0
LINE
  5
350
  8
DETAIL
  6
CONTINUOUS
 62
     5
 10
1973.246613
 20
683.86280799999986
 30
0.0
 11
1973.246613
 21
687.86979599999995
 31
0.0
  0
LINE
  5
351
  8
SIZE
  6
CONTINUOUS
 62
    30
 10
1960.063396
 20
679.86979599999995
 30
0.0
 11
2458.2667649999999
 21
679.86979599999995
 31
0.0
  0
TEXT
  5
352
  8
SIZE
  6
CONTINUOUS
 62
    30
 10
2031.246612857143
 20
167.480377
 30
0.0
 40
50.0
  1
17
 41
0.9
 72
     1
 11
2063.3894700000001
 21
167.480377
 31
0.0
  0
LINE
  5
353
  8
SIZE
  6
CONTINUOUS
 62
    30
 10
1993.246613
 20
149.480377
 30
0.0
 11
2113.5323269999999
 21
149.480377
 31
0.0
  0
TEXT
  5
354
  8
SIZE
  6
CONTINUOUS
 62
    30
 10
2014.2466125714291
 20
369.62092999999999
 30
0.0
 40
50.0
  1
58
 41
0.9
 72
     1
 11
2050.6751840000011
 21
369.62092999999999
 31
0.0
  0
LINE
  5
355
  8
SIZE
  6
CONTINUOUS
 62
    30
 10
1976.246613
 20
351.62092999999999
 30
0.0
 11
2105.103756
 21
351.62092999999999
 31
0.0
  0
TEXT
  5
356
  8
SIZE
  6
CONTINUOUS
 62
    30
 10
1184.6037558571429
 20
49.592859000000011
 30
0.0
 40
55.0
  1
250
 41
0.9
 72
     1
 11
1248.246613
 21
49.592859000000011
 31
0.0
  0
LINE
  5
357
  8
SIZE
  6
CONTINUOUS
 62
    30
 10
1373.246613
 20
663.86280799999997
 30
0.0
 11
1373.246613
 21
13.592859000000001
 31
0.0
  0
TEXT
  5
358
  8
SIZE
  6
CONTINUOUS
 62
    30
 10
1615.3894701428569
 20
48.0
 30
0.0
 40
50.0
  1
600
 41
0.9
 72
     1
 11
1673.246613
 21
48.0
 31
0.0
  0
LINE
  5
359
  8
SIZE
  6
CONTINUOUS
 62
    30
 10
1973.246613
 20
665.86280799999986
 30
0.0
 11
1973.246613
 21
0.0
 31
0.0
  0
LINE
  5
35A
  8
SIZE
  6
CONTINUOUS
 62
    30
 10
1373.246613
 20
665.86280799999986
 30
0.0
 11
1373.246613
 21
0.0
 31
0.0
  0
LINE
  5
35B
  8
SIZE
  6
CONTINUOUS
 62
    30
 10
1393.246613
 20
30.0
 30
0.0
 11
1953.246613
 21
30.0
 31
0.0
  0
POINT
  5
35C
  8
DEFPOINTS
  6
CONTINUOUS
 62
     7
 10
1373.246613
 20
31.592859000000001
 30
0.0
  0
LINE
  5
35D
  8
SIZE
  6
CONTINUOUS
 62
    30
 10
1363.246613
 20
31.592859000000001
 30
0.0
 11
1353.246613
 21
31.592859000000001
 31
0.0
  0
CIRCLE
  5
35E
  8
SIZE
  6
CONTINUOUS
 62
    30
 10
1373.246613
 20
31.592859000000001
 30
0.0
 40
10.0
  0
LINE
  5
35F
  8
SIZE
  6
CONTINUOUS
 62
    30
 10
1383.246613
 20
30.0
 30
0.0
 11
1393.246613
 21
30.0
 31
0.0
  0
CIRCLE
  5
360
  8
SIZE
  6
CONTINUOUS
 62
    30
 10
1373.246613
 20
30.0
 30
0.0
 40
10.0
  0
CIRCLE
  5
361
  8
SIZE
  6
CONTINUOUS
 62
    30
 10
1973.246613
 20
30.0
 30
0.0
 40
10.0
  0
LINE
  5
362
  8
SIZE
  6
CONTINUOUS
 62
    30
 10
1963.246613
 20
30.0
 30
0.0
 11
1953.246613
 21
30.0
 31
0.0
  0
POINT
  5
363
  8
DEFPOINTS
  6
CONTINUOUS
 62
     7
 10
1973.246613
 20
30.0
 30
0.0
  0
LINE
  5
364
  8
OUTLINE
  6
CONTINUOUS
 62
     3
 10
1942.063396
 20
679.86979599999995
 30
0.0
 11
1404.42983
 21
679.86979599999995
 31
0.0
  0
TEXT
  5
365
  8
SIZE
  6
CONTINUOUS
 62
    30
 10
1427.8476187142851
 20
167.480377
 30
0.0
 40
50.0
  1
566（天井開口寸法）
 41
0.9
 72
     1
 11
1690.1333329999991
 21
167.480377
 31
0.0
  0
LINE
  5
366
  8
SIZE
  6
CONTINUOUS
 62
    30
 10
1410.246613
 20
149.480377
 30
0.0
 11
1936.2466129999989
 21
149.480377
 31
0.0
  0
LINE
  5
367
  8
DETAIL
  6
CONTINUOUS
 62
     5
 10
1942.063396
 20
679.86979599999995
 30
0.0
 11
1404.42983
 21
679.86979599999995
 31
0.0
  0
LINE
  5
368
  8
SIZE
  6
CONTINUOUS
 62
    30
 10
1390.246613
 20
670.86979599999995
 30
0.0
 11
1390.246613
 21
119.480377
 31
0.0
  0
LINE
  5
369
  8
SIZE
  6
CONTINUOUS
 62
    30
 10
1373.246613
 20
665.86280799999986
 30
0.0
 11
1373.246613
 21
119.480377
 31
0.0
  0
LINE
  5
36A
  8
SIZE
  6
CONTINUOUS
 62
    30
 10
1390.246613
 20
670.86979599999995
 30
0.0
 11
1390.246613
 21
119.480377
 31
0.0
  0
LINE
  5
36B
  8
SIZE
  6
CONTINUOUS
 62
    30
 10
1400.246613
 20
149.480377
 30
0.0
 11
1410.246613
 21
149.480377
 31
0.0
  0
LINE
  5
36C
  8
SIZE
  6
CONTINUOUS
 62
    30
 10
1400.246613
 20
149.480377
 30
0.0
 11
1410.246613
 21
149.480377
 31
0.0
  0
TEXT
  5
36D
  8
SIZE
  6
CONTINUOUS
 62
    30
 10
1250.9608988571431
 20
167.480377
 30
0.0
 40
50.0
  1
17
 41
0.9
 72
     1
 11
1283.103756
 21
167.480377
 31
0.0
  0
LINE
  5
36E
  8
SIZE
  6
CONTINUOUS
 62
    30
 10
1353.246613
 20
149.480377
 30
0.0
 11
1232.9608989999999
 21
149.480377
 31
0.0
  0
CIRCLE
  5
36F
  8
SIZE
  6
CONTINUOUS
 62
    30
 10
1390.246613
 20
149.480377
 30
0.0
 40
10.0
  0
POINT
  5
370
  8
DEFPOINTS
  6
CONTINUOUS
 62
     7
 10
1373.246613
 20
149.480377
 30
0.0
  0
LINE
  5
371
  8
SIZE
  6
CONTINUOUS
 62
    30
 10
1363.246613
 20
149.480377
 30
0.0
 11
1353.246613
 21
149.480377
 31
0.0
  0
CIRCLE
  5
372
  8
SIZE
  6
CONTINUOUS
 62
    30
 10
1373.246613
 20
149.480377
 30
0.0
 40
10.0
  0
CIRCLE
  5
373
  8
SIZE
  6
CONTINUOUS
 62
    30
 10
1390.246613
 20
149.480377
 30
0.0
 40
10.0
  0
LINE
  5
374
  8
SIZE
  6
CONTINUOUS
 62
    30
 10
1390.246613
 20
149.480377
 30
0.0
 11
1373.246613
 21
149.480377
 31
0.0
  0
LINE
  5
375
  8
SIZE
  6
CONTINUOUS
 62
    30
 10
1410.246613
 20
149.480377
 30
0.0
 11
1430.246613
 21
149.480377
 31
0.0
  0
POINT
  5
376
  8
DEFPOINTS
  6
CONTINUOUS
 62
     7
 10
1373.246613
 20
683.86280799999986
 30
0.0
  0
ARC
  5
377
  8
OUTLINE
  6
CONTINUOUS
 62
     3
 10
1403.95029
 20
799.88320899999985
 30
0.0
 40
120.014371
 50
255.17703
 51
270.22893699999997
  0
POINT
  5
378
  8
DEFPOINTS
  6
CONTINUOUS
 62
     7
 10
1373.246613
 20
683.86280799999986
 30
0.0
  0
POINT
  5
379
  8
DEFPOINTS
  6
CONTINUOUS
 62
     7
 10
1373.246613
 20
683.86280799999986
 30
0.0
  0
ARC
  5
37A
  8
DETAIL
  6
CONTINUOUS
 62
     5
 10
1403.95029
 20
799.88320899999985
 30
0.0
 40
120.014371
 50
255.17703
 51
270.22893699999997
  0
LINE
  5
37B
  8
SIZE
  6
CONTINUOUS
 62
    30
 10
1956.246613
 20
670.86979599999995
 30
0.0
 11
1956.246613
 21
119.480377
 31
0.0
  0
LINE
  5
37C
  8
SIZE
  6
CONTINUOUS
 62
    30
 10
1973.246613
 20
669.86979599999995
 30
0.0
 11
1973.246613
 21
119.480377
 31
0.0
  0
LINE
  5
37D
  8
SIZE
  6
CONTINUOUS
 62
    30
 10
1956.246613
 20
670.86979599999995
 30
0.0
 11
1956.246613
 21
119.480377
 31
0.0
  0
LINE
  5
37E
  8
SIZE
  6
CONTINUOUS
 62
    30
 10
1956.246613
 20
670.86979599999995
 30
0.0
 11
1956.246613
 21
321.62092999999999
 31
0.0
  0
CIRCLE
  5
37F
  8
SIZE
  6
CONTINUOUS
 62
    30
 10
1956.246613
 20
149.480377
 30
0.0
 40
10.0
  0
CIRCLE
  5
380
  8
SIZE
  6
CONTINUOUS
 62
    30
 10
1973.246613
 20
149.480377
 30
0.0
 40
10.0
  0
CIRCLE
  5
381
  8
SIZE
  6
CONTINUOUS
 62
    30
 10
1956.246613
 20
149.480377
 30
0.0
 40
10.0
  0
LINE
  5
382
  8
SIZE
  6
CONTINUOUS
 62
    30
 10
1956.246613
 20
149.480377
 30
0.0
 11
1973.246613
 21
149.480377
 31
0.0
  0
POINT
  5
383
  8
DEFPOINTS
  6
CONTINUOUS
 62
     7
 10
1956.246613
 20
149.480377
 30
0.0
  0
LINE
  5
384
  8
SIZE
  6
CONTINUOUS
 62
    30
 10
1946.246613
 20
149.480377
 30
0.0
 11
1936.2466129999989
 21
149.480377
 31
0.0
  0
LINE
  5
385
  8
SIZE
  6
CONTINUOUS
 62
    30
 10
1946.246613
 20
149.480377
 30
0.0
 11
1936.2466129999989
 21
149.480377
 31
0.0
  0
LINE
  5
386
  8
SIZE
  6
CONTINUOUS
 62
    30
 10
1936.2466129999989
 20
149.480377
 30
0.0
 11
1916.246613
 21
149.480377
 31
0.0
  0
POINT
  5
387
  8
DEFPOINTS
  6
CONTINUOUS
 62
     7
 10
1973.246613
 20
149.480377
 30
0.0
  0
LINE
  5
388
  8
SIZE
  6
CONTINUOUS
 62
    30
 10
1983.246613
 20
149.480377
 30
0.0
 11
1993.246613
 21
149.480377
 31
0.0
  0
CIRCLE
  5
389
  8
SIZE
  6
CONTINUOUS
 62
    30
 10
1956.246613
 20
351.62092999999999
 30
0.0
 40
10.0
  0
POINT
  5
38A
  8
DEFPOINTS
  6
CONTINUOUS
 62
     7
 10
1956.246613
 20
351.62092999999999
 30
0.0
  0
LINE
  5
38B
  8
SIZE
  6
CONTINUOUS
 62
    30
 10
1888.2466129999989
 20
351.62092999999999
 30
0.0
 11
1878.246613
 21
351.62092999999999
 31
0.0
  0
CIRCLE
  5
38C
  8
SIZE
  6
CONTINUOUS
 62
    30
 10
1898.246613
 20
351.62092999999999
 30
0.0
 40
10.0
  0
LINE
  5
38D
  8
SIZE
  6
CONTINUOUS
 62
    30
 10
1898.246613
 20
351.62092999999999
 30
0.0
 11
1956.246613
 21
351.62092999999999
 31
0.0
  0
LINE
  5
38E
  8
SIZE
  6
CONTINUOUS
 62
    30
 10
1878.246613
 20
351.62092999999999
 30
0.0
 11
1858.246613
 21
351.62092999999999
 31
0.0
  0
LINE
  5
38F
  8
SIZE
  6
CONTINUOUS
 62
    30
 10
1966.246613
 20
351.62092999999999
 30
0.0
 11
1976.246613
 21
351.62092999999999
 31
0.0
  0
ARC
  5
390
  8
OUTLINE
  6
CONTINUOUS
 62
     3
 10
1942.5429360000001
 20
799.88320899999985
 30
0.0
 40
120.014371
 50
269.77106299999991
 51
284.82297
  0
ARC
  5
391
  8
DETAIL
  6
CONTINUOUS
 62
     5
 10
1942.5429360000001
 20
799.88320899999985
 30
0.0
 40
120.014371
 50
269.77106299999991
 51
284.82297
  0
POINT
  5
392
  8
DEFPOINTS
  6
CONTINUOUS
 62
     7
 10
1942.063396
 20
679.86979599999995
 30
0.0
  0
POINT
  5
393
  8
DEFPOINTS
  6
CONTINUOUS
 62
     7
 10
1973.246613
 20
683.86280799999986
 30
0.0
  0
TEXT
  5
394
  8
SIZE
  6
CONTINUOUS
 62
    30
 10
2410.2667649999999
 20
591.86979599999995
 30
0.0
 40
50.0
  1
8
 50
90.0
 41
0.9
 72
     1
 11
2410.2667649999999
 21
606.86979599999995
 31
0.0
  0
LINE
  5
395
  8
SIZE
  6
CONTINUOUS
 62
    30
 10
2428.2667649999999
 20
677.86979599999995
 30
0.0
 11
2428.2667649999999
 21
667.86979599999995
 31
0.0
  0
LINE
  5
396
  8
SIZE
  6
CONTINUOUS
 62
    30
 10
2428.2667649999999
 20
667.86979599999995
 30
0.0
 11
2428.2667649999999
 21
647.86979599999995
 31
0.0
  0
POINT
  5
397
  8
DEFPOINTS
  6
CONTINUOUS
 62
     7
 10
2428.2667649999999
 20
679.86979599999995
 30
0.0
  0
LINE
  5
398
  8
SIZE
  6
CONTINUOUS
 62
    30
 10
2428.2667649999999
 20
669.86979599999995
 30
0.0
 11
2428.2667649999999
 21
659.86979599999995
 31
0.0
  0
LINE
  5
399
  8
SIZE
  6
CONTINUOUS
 62
    30
 10
2428.2667649999999
 20
659.86979599999995
 30
0.0
 11
2428.2667649999999
 21
573.86979599999995
 31
0.0
  0
TEXT
  5
39A
  8
SIZE
  6
CONTINUOUS
 62
    30
 10
2622.26478
 20
358.44122428571421
 30
0.0
 40
50.0
  1
140-300
 50
90.0
 41
0.9
 72
     1
 11
2622.26478
 21
504.15550999999988
 31
0.0
  0
TEXT
  5
39B
  8
SIZE
  6
CONTINUOUS
 62
    30
 10
2749.0377370000001
 20
327.24059399999999
 30
0.0
 40
55.0
  1
パネル直付時
 50
90.0
 41
0.9
 72
     1
 11
2749.0377370000001
 21
498.84059400000001
 31
0.0
  0
POLYLINE
  5
39C
  8
SIZE
  6
CONTINUOUS
 62
    30
 66
     1
 10
0.0
 20
0.0
 30
0.0
  0
VERTEX
  5
7D3
  8
SIZE
  6
CONTINUOUS
 62
    30
 10
2672.8452729999999
 20
333.80189999999999
 30
0.0
 42
0.186174
  0
VERTEX
  5
7D4
  8
SIZE
  6
CONTINUOUS
 62
    30
 10
2681.6951210000011
 20
312.85241200000002
 30
0.0
 42
0.082105
  0
VERTEX
  5
7D5
  8
SIZE
  6
CONTINUOUS
 62
    30
 10
2697.3976229999998
 20
300.67785099999998
 30
0.0
 42
0.058826
  0
VERTEX
  5
7D6
  8
SIZE
  6
CONTINUOUS
 62
    30
 10
2719.183681
 20
291.90292399999998
 30
0.0
 42
0.067494
  0
VERTEX
  5
7D7
  8
SIZE
  6
CONTINUOUS
 62
    30
 10
2756.6722410000002
 20
286.95742000000001
 30
0.0
 42
0.067494
  0
VERTEX
  5
7D8
  8
SIZE
  6
CONTINUOUS
 62
    30
 10
2794.160801
 20
291.90292399999998
 30
0.0
 42
0.058826
  0
VERTEX
  5
7D9
  8
SIZE
  6
CONTINUOUS
 62
    30
 10
2815.9468590000001
 20
300.67785099999998
 30
0.0
 42
0.082105
  0
VERTEX
  5
7DA
  8
SIZE
  6
CONTINUOUS
 62
    30
 10
2831.6493610000002
 20
312.85241200000002
 30
0.0
 42
0.186174
  0
VERTEX
  5
7DB
  8
SIZE
  6
CONTINUOUS
 62
    30
 10
2840.4992090000001
 20
333.80189999999999
 30
0.0
 42
0.186174
  0
VERTEX
  5
7DC
  8
SIZE
  6
CONTINUOUS
 62
    30
 10
2840.4992090000001
 20
333.80189999999999
 30
0.0
 42
0.186174
  0
SEQEND
  5
7DD
  8
SIZE
  6
CONTINUOUS
 62
    30
  0
TEXT
  5
3A8
  8
SIZE
  6
CONTINUOUS
 62
    30
 10
2832.7875159999999
 20
384.09924528571418
 30
0.0
 40
55.0
  1
50～60
 50
90.0
 41
0.9
 72
     1
 11
2832.7875159999999
 21
501.01353099999989
 31
0.0
  0
LINE
  5
3A9
  8
SIZE
  6
CONTINUOUS
 62
    30
 10
1959.712837
 20
734.86979599999995
 30
0.0
 11
2458.2667649999999
 21
734.86979599999995
 31
0.0
  0
LINE
  5
3AA
  8
SIZE
  6
CONTINUOUS
 62
    30
 10
1991.246613
 20
687.86979599999995
 30
0.0
 11
2458.2667649999999
 21
687.86979599999995
 31
0.0
  0
LINE
  5
3AB
  8
SIZE
  6
CONTINUOUS
 62
    30
 10
1880.260984
 20
1024.869796
 30
0.0
 11
2457.8246939999999
 21
1024.869796
 31
0.0
  0
LINE
  5
3AC
  8
SIZE
  6
CONTINUOUS
 62
    30
 10
1912.4466130000001
 20
1160.869796
 30
0.0
 11
2457.8246939999999
 21
1160.869796
 31
0.0
  0
LINE
  5
3AD
  8
SIZE
  6
CONTINUOUS
 62
    30
 10
1915.4466130000001
 20
1160.869796
 30
0.0
 11
2670.26478
 21
1160.869796
 31
0.0
  0
LINE
  5
3AE
  8
SIZE
  6
CONTINUOUS
 62
    30
 10
1915.4466130000001
 20
827.86979599999984
 30
0.0
 11
2670.26478
 21
827.86979599999984
 31
0.0
  0
LINE
  5
3AF
  8
SIZE
  6
CONTINUOUS
 62
    30
 10
1991.246613
 20
687.86979599999995
 30
0.0
 11
2670.26478
 21
687.86979599999995
 31
0.0
  0
LINE
  5
3B0
  8
SIZE
  6
CONTINUOUS
 62
    30
 10
1915.4466130000001
 20
827.86979599999984
 30
0.0
 11
2670.26478
 21
827.86979599999984
 31
0.0
  0
LINE
  5
3B1
  8
SIZE
  6
CONTINUOUS
 62
    30
 10
1991.246613
 20
687.86979599999995
 30
0.0
 11
2458.2667649999999
 21
687.86979599999995
 31
0.0
  0
TEXT
  5
3B2
  8
NOTE
  6
CONTINUOUS
 62
     4
 10
2021.9141529999999
 20
1338.75227
 30
0.0
 40
60.0
  1
外気取入口%%C150（ノックアウト穴）
 50
0.000003
 41
0.7
  7
STANDARD1
  0
LINE
  5
3B3
  8
NOTE
  6
CONTINUOUS
 62
     4
 10
1997.9817869999999
 20
1321.1128490000001
 30
0.0
 11
2887.0889630000001
 21
1321.1128490000001
 31
0.0
  0
TEXT
  5
3B4
  8
NOTE
  6
CONTINUOUS
 62
     4
 10
1998.7056909999999
 20
894.72157100000004
 30
0.0
 40
60.0
  1
4-%%C2.9取付穴
 50
0.000003
 41
0.7
  7
STANDARD1
  0
LINE
  5
3B5
  8
NOTE
  6
CONTINUOUS
 62
     4
 10
1983.948112
 20
878.89500899999996
 30
0.0
 11
2402.7845349999998
 21
878.89500899999996
 31
0.0
  0
TEXT
  5
3B6
  8
SIZE
  6
CONTINUOUS
 62
    30
 10
1942.463459495008
 20
1068.6975699763141
 30
0.0
 40
50.0
  1
%%c172
 50
7.3089949999999977
 41
0.9
 72
     1
 11
2015.7913229999999
 21
1078.102787
 31
0.0
  0
LINE
  5
3B7
  8
SIZE
  6
CONTINUOUS
 62
    30
 10
2109.2628930000001
 20
1071.9442280000001
 30
0.0
 11
1847.385307999999
 21
1038.3551500000001
 31
0.0
  0
TEXT
  5
3B8
  8
SIZE
  6
CONTINUOUS
 62
    30
 10
1588.746613
 20
1298.0211260000001
 30
0.0
 40
55.0
  1
156
 41
0.9
 72
     1
 11
1646.496613
 21
1298.0211260000001
 31
0.0
  0
LINE
  5
3B9
  8
SIZE
  6
CONTINUOUS
 62
    30
 10
1898.246613
 20
1180.069796
 30
0.0
 11
1898.246613
 21
1741.1453220000001
 31
0.0
  0
LINE
  5
3BA
  8
SIZE
  6
CONTINUOUS
 62
    30
 10
1898.246613
 20
1180.069796
 30
0.0
 11
1898.246613
 21
1605.217394
 31
0.0
  0
LINE
  5
3BB
  8
SIZE
  6
CONTINUOUS
 62
    30
 10
1867.246613
 20
1200.8720530000001
 30
0.0
 11
1867.246613
 21
1605.217394
 31
0.0
  0
POLYLINE
  5
3BC
  8
NOTE
  6
CONTINUOUS
 62
     4
 66
     1
 10
0.0
 20
0.0
 30
0.0
  0
VERTEX
  5
7DE
  8
NOTE
  6
CONTINUOUS
 62
     4
 10
1742.246613
 20
1024.869796
 30
0.0
  0
VERTEX
  5
7DF
  8
NOTE
  6
CONTINUOUS
 62
     4
 10
1994.9817869999999
 20
1321.1128490000001
 30
0.0
  0
SEQEND
  5
7E0
  8
NOTE
  6
CONTINUOUS
 62
     4
  0
LINE
  5
3C0
  8
SIZE
  6
CONTINUOUS
 62
    30
 10
1311.246613
 20
1002.873389
 30
0.0
 11
1311.246613
 21
1507.298632
 31
0.0
  0
LINE
  5
3C1
  8
SIZE
  6
CONTINUOUS
 62
    30
 10
1247.246613
 20
974.87338899999997
 30
0.0
 11
1247.246613
 21
1507.298632
 31
0.0
  0
LINE
  5
3C2
  8
SIZE
  6
CONTINUOUS
 62
    30
 10
1247.246613
 20
974.87338899999997
 30
0.0
 11
1247.246613
 21
1507.298632
 31
0.0
  0
LINE
  5
3C3
  8
SIZE
  6
CONTINUOUS
 62
    30
 10
1867.246613
 20
1198.8720530000001
 30
0.0
 11
1867.246613
 21
1510.009323
 31
0.0
  0
LINE
  5
3C4
  8
SIZE
  6
CONTINUOUS
 62
    30
 10
1867.246613
 20
1198.8720530000001
 30
0.0
 11
1867.246613
 21
1617.217394
 31
0.0
  0
LINE
  5
3C5
  8
OUTLINE
  6
CONTINUOUS
 62
     3
 10
1373.246613
 20
687.86979599999995
 30
0.0
 11
1973.246613
 21
687.86979599999995
 31
0.0
  0
LINE
  5
3C6
  8
SIZE
  6
CONTINUOUS
 62
    30
 10
1742.246613
 20
1280.0211260000001
 30
0.0
 11
1570.746613
 21
1280.0211260000001
 31
0.0
  0
LINE
  5
3C7
  8
OUTLINE
  6
CONTINUOUS
 62
     3
 10
1941.712837
 20
734.86979599999995
 30
0.0
 11
1404.780389
 21
734.86979599999995
 31
0.0
  0
LINE
  5
3C8
  8
SIZE
  6
CONTINUOUS
 62
    30
 10
1637.1079179999999
 20
1011.384442
 30
0.0
 11
1617.270428
 21
1008.8400360000001
 31
0.0
  0
LINE
  5
3C9
  8
NOTE
  6
CONTINUOUS
 62
     4
 10
1862.260984
 20
1024.869796
 30
0.0
 11
1622.232242
 21
1024.869796
 31
0.0
  0
LINE
  5
3CA
  8
DETAIL
  6
CONTINUOUS
 62
     5
 10
1941.712837
 20
734.86979599999995
 30
0.0
 11
1404.780389
 21
734.86979599999995
 31
0.0
  0
LINE
  5
3CB
  8
DETAIL
  6
CONTINUOUS
 62
     5
 10
1373.246613
 20
687.86979599999995
 30
0.0
 11
1973.246613
 21
687.86979599999995
 31
0.0
  0
LINE
  5
3CC
  8
NOTE
  6
CONTINUOUS
 62
     4
 10
1396.246613
 20
1035.3724910000001
 30
0.0
 11
1396.246613
 21
990.36710100000005
 31
0.0
  0
LINE
  5
3CD
  8
NOTE
  6
CONTINUOUS
 62
     4
 10
1315.246613
 20
855.86979600000006
 30
0.0
 11
1295.1028759999999
 21
832.22985200000005
 31
0.0
  0
LINE
  5
3CE
  8
NOTE
  6
CONTINUOUS
 62
     4
 10
1309.621596
 20
825.32513600000004
 30
0.0
 11
1315.246613
 21
855.86979600000006
 31
0.0
  0
LINE
  5
3CF
  8
NOTE
  6
CONTINUOUS
 62
     4
 10
1315.246613
 20
885.45340099999999
 30
0.0
 11
1315.246613
 21
826.28619099999992
 31
0.0
  0
LINE
  5
3D0
  8
NOTE
  6
CONTINUOUS
 62
     4
 10
1390.246613
 20
688.86979599999995
 30
0.0
 11
1288.9391639999999
 21
688.86979599999995
 31
0.0
  0
LINE
  5
3D1
  8
NOTE
  6
CONTINUOUS
 62
     4
 10
1390.246613
 20
708.86979599999995
 30
0.0
 11
1288.9391639999999
 21
708.86979599999995
 31
0.0
  0
LINE
  5
3D2
  8
OUTLINE
  6
CONTINUOUS
 62
     3
 10
1404.780389
 20
687.86979599999995
 30
0.0
 11
1404.780389
 21
734.86979599999995
 31
0.0
  0
POINT
  5
3D3
  8
DEFPOINTS
  6
CONTINUOUS
 62
     7
 10
1390.246613
 20
688.86979599999995
 30
0.0
  0
POINT
  5
3D4
  8
DEFPOINTS
  6
CONTINUOUS
 62
     7
 10
1390.246613
 20
688.86979599999995
 30
0.0
  0
LINE
  5
3D5
  8
NOTE
  6
CONTINUOUS
 62
     4
 10
1299.9816049999999
 20
688.86979599999995
 30
0.0
 11
1319.9816049999999
 21
708.86979599999995
 31
0.0
  0
LINE
  5
3D6
  8
NOTE
  6
CONTINUOUS
 62
     4
 10
1304.9816049999999
 20
688.86979599999995
 30
0.0
 11
1324.9816049999999
 21
708.86979599999995
 31
0.0
  0
LINE
  5
3D7
  8
NOTE
  6
CONTINUOUS
 62
     4
 10
1309.9816049999999
 20
688.86979599999995
 30
0.0
 11
1329.9816049999999
 21
708.86979599999995
 31
0.0
  0
LINE
  5
3D8
  8
NOTE
  6
CONTINUOUS
 62
     4
 10
1390.246613
 20
688.86979599999995
 30
0.0
 11
1390.246613
 21
708.86979599999995
 31
0.0
  0
LINE
  5
3D9
  8
NOTE
  6
CONTINUOUS
 62
     4
 10
1339.9816049999999
 20
688.86979599999995
 30
0.0
 11
1359.9816049999999
 21
708.86979599999995
 31
0.0
  0
LINE
  5
3DA
  8
NOTE
  6
CONTINUOUS
 62
     4
 10
1344.9816049999999
 20
688.86979599999995
 30
0.0
 11
1364.9816049999999
 21
708.86979599999995
 31
0.0
  0
LINE
  5
3DB
  8
NOTE
  6
CONTINUOUS
 62
     4
 10
1349.9816049999999
 20
688.86979599999995
 30
0.0
 11
1369.9816049999999
 21
708.86979599999995
 31
0.0
  0
LINE
  5
3DC
  8
DETAIL
  6
CONTINUOUS
 62
     5
 10
1404.780389
 20
687.86979599999995
 30
0.0
 11
1404.780389
 21
734.86979599999995
 31
0.0
  0
LINE
  5
3DD
  8
NOTE
  6
CONTINUOUS
 62
     4
 10
1285.2430199999999
 20
855.86979600000006
 30
0.0
 11
1345.2502059999999
 21
855.86979600000006
 31
0.0
  0
LINE
  5
3DE
  8
NOTE
  6
CONTINUOUS
 62
     4
 10
1290.4680980000001
 20
931.78580999999997
 30
0.0
 11
1311.246613
 21
954.86979599999995
 31
0.0
  0
LINE
  5
3DF
  8
NOTE
  6
CONTINUOUS
 62
     4
 10
1283.161832
 20
954.86979599999995
 30
0.0
 11
1339.331394
 21
954.86979599999995
 31
0.0
  0
POINT
  5
3E0
  8
DEFPOINTS
  6
CONTINUOUS
 62
     7
 10
1285.2430199999999
 20
855.86979600000006
 30
0.0
  0
LINE
  5
3E1
  8
NOTE
  6
CONTINUOUS
 62
     4
 10
1247.246613
 20
926.86979599999995
 30
0.0
 11
1238.5678829999999
 21
897.04871700000001
 31
0.0
  0
LINE
  5
3E2
  8
NOTE
  6
CONTINUOUS
 62
     4
 10
1224.8200730000001
 20
905.38334899999995
 30
0.0
 11
1247.246613
 21
926.86979599999995
 31
0.0
  0
POINT
  5
3E3
  8
DEFPOINTS
  6
CONTINUOUS
 62
     7
 10
1217.2430199999999
 20
926.86979599999995
 30
0.0
  0
POINT
  5
3E4
  8
DEFPOINTS
  6
CONTINUOUS
 62
     7
 10
1283.161832
 20
954.86979599999995
 30
0.0
  0
POINT
  5
3E5
  8
DEFPOINTS
  6
CONTINUOUS
 62
     7
 10
1283.161832
 20
954.86979599999995
 30
0.0
  0
POINT
  5
3E6
  8
DEFPOINTS
  6
CONTINUOUS
 62
     7
 10
1247.246613
 20
956.87338899999997
 30
0.0
  0
POINT
  5
3E7
  8
DEFPOINTS
  6
CONTINUOUS
 62
     7
 10
1247.246613
 20
956.87338899999997
 30
0.0
  0
LINE
  5
3E8
  8
NOTE
  6
CONTINUOUS
 62
     4
 10
1247.246613
 20
956.87338899999997
 30
0.0
 11
1247.246613
 21
896.86620299999993
 31
0.0
  0
LINE
  5
3E9
  8
NOTE
  6
CONTINUOUS
 62
     4
 10
1217.2430199999999
 20
926.86979599999995
 30
0.0
 11
1277.2502059999999
 21
926.86979599999995
 31
0.0
  0
LINE
  5
3EA
  8
NOTE
  6
CONTINUOUS
 62
     4
 10
1311.246613
 20
954.86979599999995
 30
0.0
 11
1304.7938839999999
 21
924.48921999999982
 31
0.0
  0
POINT
  5
3EB
  8
DEFPOINTS
  6
CONTINUOUS
 62
     7
 10
1311.246613
 20
984.87338900000009
 30
0.0
  0
LINE
  5
3EC
  8
NOTE
  6
CONTINUOUS
 62
     4
 10
1311.246613
 20
984.87338900000009
 30
0.0
 11
1311.246613
 21
924.86620300000004
 31
0.0
  0
LINE
  5
3ED
  8
NOTE
  6
CONTINUOUS
 62
     4
 10
1375.352443
 20
1012.869796
 30
0.0
 11
1417.1407830000001
 21
1012.869796
 31
0.0
  0
LINE
  5
3EE
  8
DETAIL
  6
CONTINUOUS
 62
     5
 10
1186.8637839999999
 20
1160.869796
 30
0.0
 11
1186.8637839999999
 21
1143.8683590000001
 31
0.0
  0
ARC
  5
3EF
  8
DETAIL
  6
CONTINUOUS
 62
     5
 10
1183.863425
 20
1143.8683590000001
 30
0.0
 40
3.0003589999999991
 50
270.0
 51
0.0
  0
POINT
  5
3F0
  8
DEFPOINTS
  6
CONTINUOUS
 62
     7
 10
1375.352443
 20
1012.869796
 30
0.0
  0
LINE
  5
3F1
  8
NOTE
  6
CONTINUOUS
 62
     4
 10
1396.246613
 20
1012.869796
 30
0.0
 11
1380.207609
 21
1039.466177
 31
0.0
  0
LINE
  5
3F2
  8
NOTE
  6
CONTINUOUS
 62
     4
 10
1369.0582380000001
 20
1027.8834360000001
 30
0.0
 11
1396.246613
 21
1012.869796
 31
0.0
  0
ARC
  5
3F3
  8
DETAIL
  6
CONTINUOUS
 62
     5
 10
1183.863425
 20
1151.8687179999999
 30
0.0
 40
3.0003589999999991
 50
270.0
 51
0.0
  0
POLYLINE
  5
3F4
  8
NOTE
  6
CONTINUOUS
 62
     4
 66
     1
 10
0.0
 20
0.0
 30
0.0
  0
VERTEX
  5
7E1
  8
NOTE
  6
CONTINUOUS
 62
     4
 10
1828.246613
 20
1024.869796
 30
0.0
  0
VERTEX
  5
7E2
  8
NOTE
  6
CONTINUOUS
 62
     4
 10
1980.948112
 20
878.89500899999996
 30
0.0
  0
SEQEND
  5
7E3
  8
NOTE
  6
CONTINUOUS
 62
     4
  0
LINE
  5
3F8
  8
OUTLINE
  6
CONTINUOUS
 62
     3
 10
1898.246613
 20
1160.069796
 30
0.0
 11
1898.246613
 21
828.66979599999991
 31
0.0
  0
LINE
  5
3F9
  8
NOTE
  6
CONTINUOUS
 62
     4
 10
1742.246613
 20
1144.8841669999999
 30
0.0
 11
1742.246613
 21
904.85542499999997
 31
0.0
  0
CIRCLE
  5
3FA
  8
DETAIL
  6
CONTINUOUS
 62
     5
 10
1742.246613
 20
1024.869796
 30
0.0
 40
75.0
  0
LINE
  5
3FB
  8
NOTE
  6
CONTINUOUS
 62
     4
 10
1742.246613
 20
954.85542499999997
 30
0.0
 11
1742.246613
 21
1094.8841669999999
 31
0.0
  0
CIRCLE
  5
3FC
  8
NOTE
  6
CONTINUOUS
 62
     4
 10
1742.246613
 20
1024.869796
 30
0.0
 40
86.0
  0
LINE
  5
3FD
  8
DETAIL
  6
CONTINUOUS
 62
     5
 10
1898.246613
 20
1160.069796
 30
0.0
 11
1898.246613
 21
828.66979599999991
 31
0.0
  0
LINE
  5
3FE
  8
NOTE
  6
CONTINUOUS
 62
     4
 10
1737.1527160000001
 20
938.86979599999995
 30
0.0
 11
1747.34051
 21
938.86979599999995
 31
0.0
  0
CIRCLE
  5
3FF
  8
DETAIL
  6
CONTINUOUS
 62
     5
 10
1742.246613
 20
938.86979599999995
 30
0.0
 40
1.45
  0
LINE
  5
400
  8
NOTE
  6
CONTINUOUS
 62
     4
 10
1956.246613
 20
688.86979599999995
 30
0.0
 11
2057.5540620000002
 21
688.86979599999995
 31
0.0
  0
LINE
  5
401
  8
NOTE
  6
CONTINUOUS
 62
     4
 10
1956.246613
 20
708.86979599999995
 30
0.0
 11
2057.5540620000002
 21
708.86979599999995
 31
0.0
  0
LINE
  5
402
  8
OUTLINE
  6
CONTINUOUS
 62
     3
 10
1941.712837
 20
687.86979599999995
 30
0.0
 11
1941.712837
 21
734.86979599999995
 31
0.0
  0
ARC
  5
403
  8
OUTLINE
  6
CONTINUOUS
 62
     3
 10
1897.4466130000001
 20
828.66979599999991
 30
0.0
 40
0.8
 50
269.99825499999997
 51
0.0
  0
POINT
  5
404
  8
DEFPOINTS
  6
CONTINUOUS
 62
     7
 10
1941.712837
 20
734.86979599999995
 30
0.0
  0
POINT
  5
405
  8
DEFPOINTS
  6
CONTINUOUS
 62
     7
 10
1897.4466130000001
 20
827.86979599999984
 30
0.0
  0
POINT
  5
406
  8
DEFPOINTS
  6
CONTINUOUS
 62
     7
 10
1897.4466130000001
 20
827.86979599999984
 30
0.0
  0
ARC
  5
407
  8
DETAIL
  6
CONTINUOUS
 62
     5
 10
1897.4466130000001
 20
828.66979599999991
 30
0.0
 40
0.8
 50
270.0
 51
0.0
  0
POINT
  5
408
  8
DEFPOINTS
  6
CONTINUOUS
 62
     7
 10
1956.246613
 20
688.86979599999995
 30
0.0
  0
POINT
  5
409
  8
DEFPOINTS
  6
CONTINUOUS
 62
     7
 10
1956.246613
 20
688.86979599999995
 30
0.0
  0
POINT
  5
40A
  8
DEFPOINTS
  6
CONTINUOUS
 62
     7
 10
1956.246613
 20
688.86979599999995
 30
0.0
  0
POINT
  5
40B
  8
DEFPOINTS
  6
CONTINUOUS
 62
     7
 10
1898.246613
 20
828.66979599999991
 30
0.0
  0
LINE
  5
40C
  8
NOTE
  6
CONTINUOUS
 62
     4
 10
1956.246613
 20
688.86979599999995
 30
0.0
 11
1956.246613
 21
708.86979599999995
 31
0.0
  0
LINE
  5
40D
  8
DETAIL
  6
CONTINUOUS
 62
     5
 10
1941.712837
 20
687.86979599999995
 30
0.0
 11
1941.712837
 21
734.86979599999995
 31
0.0
  0
POINT
  5
40E
  8
DEFPOINTS
  6
CONTINUOUS
 62
     7
 10
1973.246613
 20
687.86979599999995
 30
0.0
  0
POINT
  5
40F
  8
DEFPOINTS
  6
CONTINUOUS
 62
     7
 10
1973.246613
 20
687.86979599999995
 30
0.0
  0
POINT
  5
410
  8
DEFPOINTS
  6
CONTINUOUS
 62
     7
 10
1973.246613
 20
687.86979599999995
 30
0.0
  0
POINT
  5
411
  8
DEFPOINTS
  6
CONTINUOUS
 62
     7
 10
1973.246613
 20
687.86979599999995
 30
0.0
  0
LINE
  5
412
  8
NOTE
  6
CONTINUOUS
 62
     4
 10
1996.5116210000001
 20
688.86979599999995
 30
0.0
 11
1976.5116210000001
 21
708.86979599999995
 31
0.0
  0
LINE
  5
413
  8
NOTE
  6
CONTINUOUS
 62
     4
 10
2001.5116210000001
 20
688.86979599999995
 30
0.0
 11
1981.5116210000001
 21
708.86979599999995
 31
0.0
  0
LINE
  5
414
  8
NOTE
  6
CONTINUOUS
 62
     4
 10
2006.5116210000001
 20
688.86979599999995
 30
0.0
 11
1986.5116210000001
 21
708.86979599999995
 31
0.0
  0
LINE
  5
415
  8
NOTE
  6
CONTINUOUS
 62
     4
 10
2036.5116210000001
 20
688.86979599999995
 30
0.0
 11
2016.5116210000001
 21
708.86979599999995
 31
0.0
  0
LINE
  5
416
  8
NOTE
  6
CONTINUOUS
 62
     4
 10
2041.5116210000001
 20
688.86979599999995
 30
0.0
 11
2021.5116210000001
 21
708.86979599999995
 31
0.0
  0
LINE
  5
417
  8
NOTE
  6
CONTINUOUS
 62
     4
 10
2046.5116210000001
 20
688.86979599999995
 30
0.0
 11
2026.5116210000001
 21
708.86979599999995
 31
0.0
  0
LINE
  5
418
  8
SIZE
  6
CONTINUOUS
 62
    30
 10
1878.246613
 20
1280.0211260000001
 30
0.0
 11
1762.246613
 21
1280.0211260000001
 31
0.0
  0
LINE
  5
419
  8
NOTE
  6
CONTINUOUS
 62
     4
 10
1828.246613
 20
1024.869796
 30
0.0
 11
1855.486713
 21
1009.95021
 31
0.0
  0
LINE
  5
41A
  8
NOTE
  6
CONTINUOUS
 62
     4
 10
1847.2456549999999
 20
1160.869796
 30
0.0
 11
1887.2475710000001
 21
1160.869796
 31
0.0
  0
CIRCLE
  5
41B
  8
FIX
  6
CONTINUOUS
 62
    11
 10
1867.246613
 20
1160.869796
 30
0.0
 40
18.598564
  0
LINE
  5
41C
  8
DETAIL
  6
CONTINUOUS
 62
     5
 10
1858.2462539999999
 20
1148.8686339999999
 30
0.0
 11
1841.0469720000001
 21
1148.8686339999999
 31
0.0
  0
ARC
  5
41D
  8
DETAIL
  6
CONTINUOUS
 62
     5
 10
1854.859271
 20
1120.8658800000001
 30
0.0
 40
3.0003589999999991
 50
180.0
 51
270.0
  0
LINE
  5
41E
  8
DETAIL
  6
CONTINUOUS
 62
     5
 10
1896.4466130000001
 20
1160.869796
 30
0.0
 11
1838.046613
 21
1160.869796
 31
0.0
  0
LINE
  5
41F
  8
DETAIL
  6
CONTINUOUS
 62
     5
 10
1838.046613
 20
1160.869796
 30
0.0
 11
1838.046613
 21
1143.8686339999999
 31
0.0
  0
LINE
  5
420
  8
NOTE
  6
CONTINUOUS
 62
     4
 10
1812.260984
 20
1024.869796
 30
0.0
 11
1672.232242
 21
1024.869796
 31
0.0
  0
LINE
  5
421
  8
NOTE
  6
CONTINUOUS
 62
     4
 10
1737.1527160000001
 20
1110.869796
 30
0.0
 11
1747.34051
 21
1110.869796
 31
0.0
  0
LINE
  5
422
  8
SIZE
  6
CONTINUOUS
 62
    30
 10
1656.9454069999999
 20
1013.928849
 30
0.0
 11
1827.5478189999999
 21
1035.810743
 31
0.0
  0
CIRCLE
  5
423
  8
DETAIL
  6
CONTINUOUS
 62
     5
 10
1742.246613
 20
1110.869796
 30
0.0
 40
1.45
  0
LINE
  5
424
  8
NOTE
  6
CONTINUOUS
 62
     4
 10
1656.246613
 20
1019.775899
 30
0.0
 11
1656.246613
 21
1029.9636929999999
 31
0.0
  0
POINT
  5
425
  8
DEFPOINTS
  6
CONTINUOUS
 62
     7
 10
1656.9454069999999
 20
1013.928849
 30
0.0
  0
LINE
  5
426
  8
SIZE
  6
CONTINUOUS
 62
    30
 10
1647.0266630000001
 20
1012.656645
 30
0.0
 11
1637.1079179999999
 21
1011.384442
 31
0.0
  0
CIRCLE
  5
427
  8
SIZE
  6
CONTINUOUS
 62
    30
 10
1656.9454069999999
 20
1013.928849
 30
0.0
 40
10.0
  0
CIRCLE
  5
428
  8
DETAIL
  6
CONTINUOUS
 62
     5
 10
1656.246613
 20
1024.869796
 30
0.0
 40
1.45
  0
POINT
  5
429
  8
DEFPOINTS
  6
CONTINUOUS
 62
     7
 10
1742.246613
 20
1144.8841669999999
 30
0.0
  0
LINE
  5
42A
  8
NOTE
  6
CONTINUOUS
 62
     4
 10
1844.3774390000001
 20
998.32900599999994
 30
0.0
 11
1828.246613
 21
1024.869796
 31
0.0
  0
LINE
  5
42B
  8
NOTE
  6
CONTINUOUS
 62
     4
 10
1742.246613
 20
1024.869796
 30
0.0
 11
1755.5069149999999
 21
1052.95505
 31
0.0
  0
LINE
  5
42C
  8
NOTE
  6
CONTINUOUS
 62
     4
 10
1767.7729979999999
 20
1042.5621880000001
 30
0.0
 11
1742.246613
 21
1024.869796
 31
0.0
  0
LINE
  5
42D
  8
NOTE
  6
CONTINUOUS
 62
     4
 10
1828.246613
 20
1019.775899
 30
0.0
 11
1828.246613
 21
1029.9636929999999
 31
0.0
  0
POINT
  5
42E
  8
DEFPOINTS
  6
CONTINUOUS
 62
     7
 10
1827.5478189999999
 20
1035.810743
 30
0.0
  0
LINE
  5
42F
  8
SIZE
  6
CONTINUOUS
 62
    30
 10
1837.466563
 20
1037.0829470000001
 30
0.0
 11
1847.385307999999
 21
1038.3551500000001
 31
0.0
  0
CIRCLE
  5
430
  8
SIZE
  6
CONTINUOUS
 62
    30
 10
1827.5478189999999
 20
1035.810743
 30
0.0
 40
10.0
  0
CIRCLE
  5
431
  8
DETAIL
  6
CONTINUOUS
 62
     5
 10
1828.246613
 20
1024.869796
 30
0.0
 40
1.45
  0
LINE
  5
432
  8
DETAIL
  6
CONTINUOUS
 62
     5
 10
1851.8589119999999
 20
1140.868275
 30
0.0
 11
1851.8589119999999
 21
1120.8658800000001
 31
0.0
  0
LINE
  5
433
  8
DETAIL
  6
CONTINUOUS
 62
     5
 10
1841.0469720000001
 20
1140.868275
 30
0.0
 11
1851.8589119999999
 21
1140.868275
 31
0.0
  0
ARC
  5
434
  8
DETAIL
  6
CONTINUOUS
 62
     5
 10
1841.0469720000001
 20
1143.8686339999999
 30
0.0
 40
3.0003589999999991
 50
180.0
 51
270.0
  0
CIRCLE
  5
435
  8
SIZE
  6
CONTINUOUS
 62
    30
 10
1742.246613
 20
1280.0211260000001
 30
0.0
 40
10.0
  0
POINT
  5
436
  8
DEFPOINTS
  6
CONTINUOUS
 62
     7
 10
1742.246613
 20
1280.0211260000001
 30
0.0
  0
LINE
  5
437
  8
SIZE
  6
CONTINUOUS
 62
    30
 10
1752.246613
 20
1280.0211260000001
 30
0.0
 11
1762.246613
 21
1280.0211260000001
 31
0.0
  0
LINE
  5
438
  8
SIZE
  6
CONTINUOUS
 62
    30
 10
1742.246613
 20
1164.8841669999999
 30
0.0
 11
1742.246613
 21
1298.0211260000001
 31
0.0
  0
ARC
  5
439
  8
DETAIL
  6
CONTINUOUS
 62
     5
 10
1841.0469720000001
 20
1151.8689939999999
 30
0.0
 40
3.0003589999999991
 50
180.0
 51
270.0
  0
LINE
  5
43A
  8
NOTE
  6
CONTINUOUS
 62
     4
 10
1867.246613
 20
1180.8720530000001
 30
0.0
 11
1867.246613
 21
1140.8675390000001
 31
0.0
  0
LINE
  5
43B
  8
DETAIL
  6
CONTINUOUS
 62
     5
 10
1896.4466130000001
 20
1160.869796
 30
0.0
 11
1896.4466130000001
 21
1120.8658800000001
 31
0.0
  0
POINT
  5
43C
  8
DEFPOINTS
  6
CONTINUOUS
 62
     7
 10
1862.260984
 20
1024.869796
 30
0.0
  0
LINE
  5
43D
  8
DETAIL
  6
CONTINUOUS
 62
     5
 10
1854.859271
 20
1117.8655209999999
 30
0.0
 11
1893.446254
 21
1117.8655209999999
 31
0.0
  0
ARC
  5
43E
  8
DETAIL
  6
CONTINUOUS
 62
     5
 10
1893.446254
 20
1120.8658800000001
 30
0.0
 40
3.0003589999999991
 50
270.0
 51
0.0
  0
POINT
  5
43F
  8
DEFPOINTS
  6
CONTINUOUS
 62
     7
 10
1898.246613
 20
1160.069796
 30
0.0
  0
LINE
  5
440
  8
SIZE
  6
CONTINUOUS
 62
    30
 10
1888.2466129999989
 20
1280.0211260000001
 30
0.0
 11
1878.246613
 21
1280.0211260000001
 31
0.0
  0
CIRCLE
  5
441
  8
SIZE
  6
CONTINUOUS
 62
    30
 10
1898.246613
 20
1280.0211260000001
 30
0.0
 40
10.0
  0
LINE
  5
442
  8
SIZE
  6
CONTINUOUS
 62
    30
 10
1898.246613
 20
1180.069796
 30
0.0
 11
1898.246613
 21
1298.0211260000001
 31
0.0
  0
POINT
  5
443
  8
DEFPOINTS
  6
CONTINUOUS
 62
     7
 10
1898.246613
 20
1160.069796
 30
0.0
  0
POINT
  5
444
  8
DEFPOINTS
  6
CONTINUOUS
 62
     7
 10
1898.246613
 20
1160.069796
 30
0.0
  0
POINT
  5
445
  8
DEFPOINTS
  6
CONTINUOUS
 62
     7
 10
1867.246613
 20
1180.8720530000001
 30
0.0
  0
ARC
  5
446
  8
OUTLINE
  6
CONTINUOUS
 62
     3
 10
1897.4466130000001
 20
1160.069796
 30
0.0
 40
0.8
 50
0.0
 51
90.0
  0
POINT
  5
447
  8
DEFPOINTS
  6
CONTINUOUS
 62
     7
 10
1884.2445769999999
 20
1160.869796
 30
0.0
  0
POINT
  5
448
  8
DEFPOINTS
  6
CONTINUOUS
 62
     7
 10
1867.246613
 20
1180.8720530000001
 30
0.0
  0
POINT
  5
449
  8
DEFPOINTS
  6
CONTINUOUS
 62
     7
 10
1894.4466130000001
 20
1160.869796
 30
0.0
  0
POINT
  5
44A
  8
DEFPOINTS
  6
CONTINUOUS
 62
     7
 10
1884.2445769999999
 20
1160.869796
 30
0.0
  0
POINT
  5
44B
  8
DEFPOINTS
  6
CONTINUOUS
 62
     7
 10
1897.4466130000001
 20
1160.869796
 30
0.0
  0
POINT
  5
44C
  8
DEFPOINTS
  6
CONTINUOUS
 62
     7
 10
1867.246613
 20
1180.8720530000001
 30
0.0
  0
ARC
  5
44D
  8
DETAIL
  6
CONTINUOUS
 62
     5
 10
1897.4466130000001
 20
1160.069796
 30
0.0
 40
0.8
 50
0.0
 51
90.0
  0
LINE
  5
44E
  8
DETAIL
  6
CONTINUOUS
 62
     5
 10
1873.246613
 20
1158.569796
 30
0.0
 11
1861.246613
 21
1158.569796
 31
0.0
  0
LINE
  5
44F
  8
DETAIL
  6
CONTINUOUS
 62
     5
 10
1861.246613
 20
1160.869796
 30
0.0
 11
1861.246613
 21
1151.8689939999999
 31
0.0
  0
ARC
  5
450
  8
DETAIL
  6
CONTINUOUS
 62
     5
 10
1858.2462539999999
 20
1151.8689939999999
 30
0.0
 40
3.0003589999999991
 50
270.0
 51
0.0
  0
ARC
  5
451
  8
DETAIL
  6
CONTINUOUS
 62
     5
 10
1876.2469719999999
 20
1151.8689939999999
 30
0.0
 40
3.0003589999999991
 50
180.0
 51
270.0
  0
ARC
  5
452
  8
DETAIL
  6
CONTINUOUS
 62
     5
 10
1893.446254
 20
1151.8689939999999
 30
0.0
 40
3.0003589999999991
 50
270.0
 51
0.0
  0
LINE
  5
453
  8
DETAIL
  6
CONTINUOUS
 62
     5
 10
1873.246613
 20
1160.869796
 30
0.0
 11
1873.246613
 21
1151.8689939999999
 31
0.0
  0
LINE
  5
454
  8
DETAIL
  6
CONTINUOUS
 62
     5
 10
1876.2469719999999
 20
1148.8686339999999
 30
0.0
 11
1893.446254
 21
1148.8686339999999
 31
0.0
  0
TEXT
  5
455
  8
SIZE
  6
CONTINUOUS
 62
    30
 10
1213.746613
 20
1618.3126319999999
 30
0.0
 40
50.0
  1
710(吊りボルトピッチ)
 41
0.9
 72
     1
 11
1512.246613
 21
1618.3126319999999
 31
0.0
  0
TEXT
  5
456
  8
SIZE
  6
CONTINUOUS
 62
    30
 10
1369.246613
 20
1495.298632
 30
0.0
 40
50.0
  1
64
 41
0.9
 72
     1
 11
1406.746613
 21
1495.298632
 31
0.0
  0
LINE
  5
457
  8
SIZE
  6
CONTINUOUS
 62
    30
 10
1331.246613
 20
1477.298632
 30
0.0
 11
1462.246613
 21
1477.298632
 31
0.0
  0
LINE
  5
458
  8
SIZE
  6
CONTINUOUS
 62
    30
 10
1247.246613
 20
1477.298632
 30
0.0
 11
1311.246613
 21
1477.298632
 31
0.0
  0
LINE
  5
459
  8
SIZE
  6
CONTINUOUS
 62
    30
 10
1237.246613
 20
1477.298632
 30
0.0
 11
1227.246613
 21
1477.298632
 31
0.0
  0
CIRCLE
  5
45A
  8
SIZE
  6
CONTINUOUS
 62
    30
 10
1247.246613
 20
1477.298632
 30
0.0
 40
10.0
  0
LINE
  5
45B
  8
SIZE
  6
CONTINUOUS
 62
    30
 10
1227.246613
 20
1477.298632
 30
0.0
 11
1207.246613
 21
1477.298632
 31
0.0
  0
POINT
  5
45C
  8
DEFPOINTS
  6
CONTINUOUS
 62
     7
 10
1247.246613
 20
1477.298632
 30
0.0
  0
LINE
  5
45D
  8
SIZE
  6
CONTINUOUS
 62
    30
 10
1237.246613
 20
1477.298632
 30
0.0
 11
1227.246613
 21
1477.298632
 31
0.0
  0
CIRCLE
  5
45E
  8
SIZE
  6
CONTINUOUS
 62
    30
 10
1247.246613
 20
1477.298632
 30
0.0
 40
10.0
  0
POINT
  5
45F
  8
DEFPOINTS
  6
CONTINUOUS
 62
     7
 10
1311.246613
 20
1477.298632
 30
0.0
  0
LINE
  5
460
  8
SIZE
  6
CONTINUOUS
 62
    30
 10
1321.246613
 20
1477.298632
 30
0.0
 11
1331.246613
 21
1477.298632
 31
0.0
  0
CIRCLE
  5
461
  8
SIZE
  6
CONTINUOUS
 62
    30
 10
1311.246613
 20
1477.298632
 30
0.0
 40
10.0
  0
TEXT
  5
462
  8
SIZE
  6
CONTINUOUS
 62
    30
 10
1447.1037558571429
 20
1741.1453220000001
 30
0.0
 40
55.0
  1
775
 41
0.9
 72
     1
 11
1510.746613
 21
1741.1453220000001
 31
0.0
  0
LINE
  5
463
  8
SIZE
  6
CONTINUOUS
 62
    30
 10
1857.246613
 20
1587.217394
 30
0.0
 11
1847.246613
 21
1587.217394
 31
0.0
  0
LINE
  5
464
  8
SIZE
  6
CONTINUOUS
 62
    30
 10
1857.246613
 20
1587.217394
 30
0.0
 11
1847.246613
 21
1587.217394
 31
0.0
  0
LINE
  5
465
  8
SIZE
  6
CONTINUOUS
 62
    30
 10
1847.246613
 20
1587.217394
 30
0.0
 11
1827.2466129999989
 21
1587.217394
 31
0.0
  0
LINE
  5
466
  8
SIZE
  6
CONTINUOUS
 62
    30
 10
1918.246613
 20
1587.217394
 30
0.0
 11
2033.1751839999999
 21
1587.217394
 31
0.0
  0
POINT
  5
467
  8
DEFPOINTS
  6
CONTINUOUS
 62
     7
 10
1898.246613
 20
1587.217394
 30
0.0
  0
LINE
  5
468
  8
SIZE
  6
CONTINUOUS
 62
    30
 10
1908.246613
 20
1587.217394
 30
0.0
 11
1918.246613
 21
1587.217394
 31
0.0
  0
CIRCLE
  5
469
  8
SIZE
  6
CONTINUOUS
 62
    30
 10
1898.246613
 20
1587.217394
 30
0.0
 40
10.0
  0
CIRCLE
  5
46A
  8
SIZE
  6
CONTINUOUS
 62
    30
 10
1867.246613
 20
1587.217394
 30
0.0
 40
10.0
  0
LINE
  5
46B
  8
SIZE
  6
CONTINUOUS
 62
    30
 10
1867.246613
 20
1587.217394
 30
0.0
 11
1898.246613
 21
1587.217394
 31
0.0
  0
CIRCLE
  5
46C
  8
SIZE
  6
CONTINUOUS
 62
    30
 10
1867.246613
 20
1587.217394
 30
0.0
 40
10.0
  0
TEXT
  5
46D
  8
SIZE
  6
CONTINUOUS
 62
    30
 10
1956.2466132857139
 20
1605.217394
 30
0.0
 40
55.0
  1
31
 41
0.9
 72
     1
 11
1985.7108989999999
 21
1605.217394
 31
0.0
  0
LINE
  5
46E
  8
SIZE
  6
CONTINUOUS
 62
    30
 10
1888.2466129999989
 20
1723.1453220000001
 30
0.0
 11
1878.246613
 21
1723.1453220000001
 31
0.0
  0
CIRCLE
  5
46F
  8
SIZE
  6
CONTINUOUS
 62
    30
 10
1898.246613
 20
1723.1453220000001
 30
0.0
 40
10.0
  0
LINE
  5
470
  8
SIZE
  6
CONTINUOUS
 62
    30
 10
2428.2667649999999
 20
711.36979599999995
 30
0.0
 11
2531.9521599999998
 21
711.51783599999987
 31
0.0
  0
POINT
  5
471
  8
DEFPOINTS
  6
CONTINUOUS
 62
     7
 10
2428.2667649999999
 20
734.86979599999995
 30
0.0
  0
LINE
  5
472
  8
SIZE
  6
CONTINUOUS
 62
    30
 10
2428.2667649999999
 20
744.86979599999995
 30
0.0
 11
2428.2667649999999
 21
754.86979599999995
 31
0.0
  0
CIRCLE
  5
473
  8
SIZE
  6
CONTINUOUS
 62
    30
 10
2428.2667649999999
 20
734.86979599999995
 30
0.0
 40
10.0
  0
LINE
  5
474
  8
SIZE
  6
CONTINUOUS
 62
    30
 10
2428.2667649999999
 20
687.86979599999995
 30
0.0
 11
2428.2667649999999
 21
734.86979599999995
 31
0.0
  0
LINE
  5
475
  8
SIZE
  6
CONTINUOUS
 62
    30
 10
2428.2667649999999
 20
687.86979599999995
 30
0.0
 11
2428.2667649999999
 21
734.86979599999995
 31
0.0
  0
TEXT
  5
476
  8
SIZE
  6
CONTINUOUS
 62
    30
 10
2513.9521599999998
 20
729.51783657142846
 30
0.0
 40
50.0
  1
47
 50
90.0
 41
0.9
 72
     1
 11
2513.9521599999998
 21
765.94640800000002
 31
0.0
  0
LINE
  5
477
  8
SIZE
  6
CONTINUOUS
 62
    30
 10
2428.2667649999999
 20
754.86979599999995
 30
0.0
 11
2428.2667649999999
 21
774.86979599999995
 31
0.0
  0
LINE
  5
478
  8
SIZE
  6
CONTINUOUS
 62
    30
 10
2428.2667649999999
 20
697.86979599999995
 30
0.0
 11
2428.2667649999999
 21
707.86979599999995
 31
0.0
  0
LINE
  5
479
  8
SIZE
  6
CONTINUOUS
 62
    30
 10
2428.2667649999999
 20
707.86979599999995
 30
0.0
 11
2428.2667649999999
 21
727.86979599999995
 31
0.0
  0
TEXT
  5
47A
  8
SIZE
  6
CONTINUOUS
 62
    30
 10
2409.8246939999999
 20
1040.369796
 30
0.0
 40
50.0
  1
136
 50
90.0
 41
0.9
 72
     1
 11
2409.8246939999999
 21
1092.869796
 31
0.0
  0
LINE
  5
47B
  8
SIZE
  6
CONTINUOUS
 62
    30
 10
2427.8246939999999
 20
1150.869796
 30
0.0
 11
2427.8246939999999
 21
1140.869796
 31
0.0
  0
POINT
  5
47C
  8
DEFPOINTS
  6
CONTINUOUS
 62
     7
 10
2427.8246939999999
 20
1024.869796
 30
0.0
  0
LINE
  5
47D
  8
SIZE
  6
CONTINUOUS
 62
    30
 10
2427.8246939999999
 20
1034.869796
 30
0.0
 11
2427.8246939999999
 21
1044.869796
 31
0.0
  0
CIRCLE
  5
47E
  8
SIZE
  6
CONTINUOUS
 62
    30
 10
2427.8246939999999
 20
1024.869796
 30
0.0
 40
10.0
  0
LINE
  5
47F
  8
SIZE
  6
CONTINUOUS
 62
    30
 10
2427.8246939999999
 20
1140.869796
 30
0.0
 11
2427.8246939999999
 21
1044.869796
 31
0.0
  0
CIRCLE
  5
480
  8
SIZE
  6
CONTINUOUS
 62
    30
 10
2427.8246939999999
 20
1160.869796
 30
0.0
 40
10.0
  0
TEXT
  5
481
  8
SIZE
  6
CONTINUOUS
 62
    30
 10
2622.26478
 20
936.51265314285718
 30
0.0
 40
50.0
  1
333
 50
90.0
 41
0.9
 72
     1
 11
2622.26478
 21
994.36979600000006
 31
0.0
  0
LINE
  5
482
  8
SIZE
  6
CONTINUOUS
 62
    30
 10
2640.26478
 20
847.86979600000006
 30
0.0
 11
2640.26478
 21
1140.869796
 31
0.0
  0
LINE
  5
483
  8
SIZE
  6
CONTINUOUS
 62
    30
 10
2640.26478
 20
837.86979599999995
 30
0.0
 11
2640.26478
 21
847.86979600000006
 31
0.0
  0
CIRCLE
  5
484
  8
SIZE
  6
CONTINUOUS
 62
    30
 10
2640.26478
 20
827.86979599999984
 30
0.0
 40
10.0
  0
CIRCLE
  5
485
  8
SIZE
  6
CONTINUOUS
 62
    30
 10
2640.26478
 20
827.86979599999984
 30
0.0
 40
10.0
  0
LINE
  5
486
  8
SIZE
  6
CONTINUOUS
 62
    30
 10
2531.9521599999998
 20
711.51783599999987
 30
0.0
 11
2531.9521599999998
 21
820.37497899999994
 31
0.0
  0
POINT
  5
487
  8
DEFPOINTS
  6
CONTINUOUS
 62
     7
 10
2640.26478
 20
687.86979599999995
 30
0.0
  0
LINE
  5
488
  8
SIZE
  6
CONTINUOUS
 62
    30
 10
2640.26478
 20
697.86979599999995
 30
0.0
 11
2640.26478
 21
707.86979599999995
 31
0.0
  0
LINE
  5
489
  8
SIZE
  6
CONTINUOUS
 62
    30
 10
2640.26478
 20
817.86979599999995
 30
0.0
 11
2640.26478
 21
807.86979599999995
 31
0.0
  0
LINE
  5
48A
  8
SIZE
  6
CONTINUOUS
 62
    30
 10
2640.26478
 20
807.86979599999995
 30
0.0
 11
2640.26478
 21
707.86979599999995
 31
0.0
  0
LINE
  5
48B
  8
SIZE
  6
CONTINUOUS
 62
    30
 10
2640.26478
 20
1150.869796
 30
0.0
 11
2640.26478
 21
1140.869796
 31
0.0
  0
CIRCLE
  5
48C
  8
SIZE
  6
CONTINUOUS
 62
    30
 10
2640.26478
 20
1160.869796
 30
0.0
 40
10.0
  0
POINT
  5
48D
  8
DEFPOINTS
  6
CONTINUOUS
 62
     7
 10
2640.26478
 20
1160.869796
 30
0.0
  0
ENDBLK
  5
48F
  8
0
 62
     7
  0
ENDSEC
  0
SECTION
  2
ENTITIES
  0
LINE
  5
49B
  8
SIZE
  6
CONTINUOUS
 62
    30
 10
-367.5
 20
-656.27693699999986
 30
0.0
 11
-157.5
 21
-656.27693699999986
 31
0.0
  0
LINE
  5
49C
  8
SIZE
  6
CONTINUOUS
 62
    30
 10
367.5
 20
1035.2755259999999
 30
0.0
 11
-367.5
 21
1035.2755259999999
 31
0.0
  0
LINE
  5
4A5
  8
OUTLINE
  6
CONTINUOUS
 62
     3
 10
-386.699904
 20
140.0
 30
0.0
 11
386.69997599999999
 21
140.0
 31
0.0
  0
LINE
  5
4A6
  8
OUTLINE
  6
CONTINUOUS
 62
     3
 10
386.699904
 20
473.0
 30
0.0
 11
-386.89999999999998
 21
473.0
 31
0.0
  0
LINE
  5
4A7
  8
SIZE
  6
CONTINUOUS
 62
    30
 10
-311.50359300000002
 20
239.0
 30
0.0
 11
-897.43534199999988
 21
239.0
 31
0.0
  0
LINE
  5
4A8
  8
SIZE
  6
CONTINUOUS
 62
    30
 10
-245.58478099999999
 20
267.0
 30
0.0
 11
-897.43534199999988
 21
267.0
 31
0.0
  0
LINE
  5
4A9
  8
SIZE
  6
CONTINUOUS
 62
    30
 10
-245.58478099999999
 20
267.0
 30
0.0
 11
-897.43534199999988
 21
267.0
 31
0.0
  0
LINE
  5
4AA
  8
SIZE
  6
CONTINUOUS
 62
    30
 10
-404.58035998495319
 20
473.0
 30
0.0
 11
-897.43534199999988
 21
473.0
 31
0.0
  0
LINE
  5
4AB
  8
SIZE
  6
CONTINUOUS
 62
    30
 10
-283.5
 20
789.42883600000005
 30
0.0
 11
-367.5
 21
789.42883600000005
 31
0.0
  0
LINE
  5
4AC
  8
SIZE
  6
CONTINUOUS
 62
    30
 10
-333.5
 20
899.34759800000006
 30
0.0
 11
-313.5
 21
899.34759800000006
 31
0.0
  0
LINE
  5
4AD
  8
SIZE
  6
CONTINUOUS
 62
    30
 10
-404.58035998495319
 20
473.0
 30
0.0
 11
-646.96152999999993
 21
473.0
 31
0.0
  0
LINE
  5
4AE
  8
SIZE
  6
CONTINUOUS
 62
    30
 10
336.5
 20
899.34759800000006
 30
0.0
 11
-333.5
 21
899.34759800000006
 31
0.0
  0
LINE
  5
4AF
  8
DETAIL
  6
CONTINUOUS
 62
     5
 10
386.699904
 20
473.0
 30
0.0
 11
-386.89999999999998
 21
473.0
 31
0.0
  0
LINE
  5
4B0
  8
DETAIL
  6
CONTINUOUS
 62
     5
 10
-326.88318800000002
 20
452.99820399999999
 30
0.0
 11
-337.88450499999999
 21
452.99820399999999
 31
0.0
  0
LINE
  5
4B1
  8
DETAIL
  6
CONTINUOUS
 62
     5
 10
-344.38528400000001
 20
460.99856299999988
 30
0.0
 11
-326.88318800000002
 21
460.99856299999988
 31
0.0
  0
LINE
  5
4B2
  8
DETAIL
  6
CONTINUOUS
 62
     5
 10
-386.69999999999999
 20
140.0
 30
0.0
 11
386.69999999999999
 21
140.0
 31
0.0
  0
LINE
  5
4B4
  8
SIZE
  6
CONTINUOUS
 62
    30
 10
-387.5
 20
120.800107
 30
0.0
 11
-387.5
 21
-674.27693699999986
 31
0.0
  0
LINE
  5
4B5
  8
SIZE
  6
CONTINUOUS
 62
    30
 10
-377.5
 20
-656.27693699999986
 30
0.0
 11
-367.5
 21
-656.27693699999986
 31
0.0
  0
CIRCLE
  5
4B6
  8
SIZE
  6
CONTINUOUS
 62
    30
 10
-387.5
 20
-656.27693699999986
 30
0.0
 40
10.0
  0
TEXT
  5
4B9
  8
NOTE
  6
CONTINUOUS
 62
     4
 10
-868.51634600000011
 20
-149.02000899999999
 30
0.0
 40
60.0
  1
RG %%C15.88
 50
0.000003
 41
0.7
  7
STANDARD1
  0
LINE
  5
4BA
  8
NOTE
  6
CONTINUOUS
 62
     4
 10
-882.32336599999985
 20
-159.78903199999999
 30
0.0
 11
-501.243717
 21
-159.78903199999999
 31
0.0
  0
TEXT
  5
4BB
  8
NOTE
  6
CONTINUOUS
 62
     4
 10
-822.21373099999994
 20
-306.66923500000001
 30
0.0
 40
60.0
  1
RL %%C9.52
 50
0.000003
 41
0.7
  7
STANDARD1
  0
LINE
  5
4BC
  8
NOTE
  6
CONTINUOUS
 62
     4
 10
-831.19241499999987
 20
-324.30864300000002
 30
0.0
 11
-493.08136500000012
 21
-324.30864300000002
 31
0.0
  0
TEXT
  5
4BD
  8
ETC
  6
CONTINUOUS
 62
    61
 10
453.87869038734061
 20
1155.072932927123
 30
0.0
 40
65.0
  1
PD-RP112_160FA5_4
 50
0.000003
 41
0.85
  7
STANDARD1
  0
LINE
  5
4BE
  8
NOTE
  6
CONTINUOUS
 62
     4
 10
-1319.2391009999999
 20
669.27029400000004
 30
0.0
 11
-590.13847300000009
 21
669.27029400000004
 31
0.0
  0
TEXT
  5
4BF
  8
NOTE
  6
CONTINUOUS
 62
     4
 10
-1306.213745
 20
685.096856
 30
0.0
 40
60.0
  1
AH 4-14×30長穴(M10)
 50
0.000003
 41
0.7
  7
STANDARD1
  0
LINE
  5
4C0
  8
SIZE
  6
CONTINUOUS
 62
    30
 10
-387.5
 20
492.39999999999992
 30
0.0
 11
-387.5
 21
1053.2755259999999
 31
0.0
  0
LINE
  5
4C5
  8
SIZE
  6
CONTINUOUS
 62
    30
 10
-387.5
 20
490.39999999999992
 30
0.0
 11
-387.5
 21
819.42883599999993
 31
0.0
  0
LINE
  5
4C6
  8
SIZE
  6
CONTINUOUS
 62
    30
 10
-387.5
 20
490.39999999999992
 30
0.0
 11
-387.5
 21
929.34759799999995
 31
0.0
  0
LINE
  5
4C7
  8
SIZE
  6
CONTINUOUS
 62
    30
 10
-353.5
 20
511.00239499999998
 30
0.0
 11
-353.5
 21
929.34759799999995
 31
0.0
  0
LINE
  5
4C8
  8
SIZE
  6
CONTINUOUS
 62
    30
 10
-353.5
 20
511.00239499999998
 30
0.0
 11
-353.5
 21
929.34759799999995
 31
0.0
  0
TEXT
  5
4C9
  8
NOTE
  6
CONTINUOUS
 62
     4
 10
-1187.602048
 20
569.81352499999991
 30
0.0
 40
60.0
  1
%%C200 吹出円形フランジ
 50
0.000003
 41
0.7
  7
STANDARD1
  0
LINE
  5
4CC
  8
NOTE
  6
CONTINUOUS
 62
     4
 10
-592.03104499999995
 20
555.01785800000005
 30
0.0
 11
-1203.976791
 21
555.01785800000005
 31
0.0
  0
LINE
  5
4CF
  8
SIZE
  6
CONTINUOUS
 62
    30
 10
-867.43534199999999
 20
287.0
 30
0.0
 11
-867.43534199999999
 21
307.0
 31
0.0
  0
LINE
  5
4D0
  8
SIZE
  6
CONTINUOUS
 62
    30
 10
-867.43534199999999
 20
453.0
 30
0.0
 11
-867.43534199999999
 21
287.0
 31
0.0
  0
LINE
  5
4D1
  8
SIZE
  6
CONTINUOUS
 62
    30
 10
-867.43534199999999
 20
219.0
 30
0.0
 11
-867.43534199999999
 21
47.142856999999999
 31
0.0
  0
TEXT
  5
4D2
  8
SIZE
  6
CONTINUOUS
 62
    30
 10
-885.43534199999999
 20
65.142857571428564
 30
0.0
 40
50.0
  1
28
 50
90.0
 41
0.9
 72
     1
 11
-885.43534199999999
 21
101.57142899999999
 31
0.0
  0
POINT
  5
4D5
  8
DEFPOINTS
  6
CONTINUOUS
 62
     7
 10
-867.43534199999999
 20
239.0
 30
0.0
  0
LINE
  5
4D6
  8
SIZE
  6
CONTINUOUS
 62
    30
 10
-867.43534199999999
 20
229.0
 30
0.0
 11
-867.43534199999999
 21
219.0
 31
0.0
  0
CIRCLE
  5
4D7
  8
SIZE
  6
CONTINUOUS
 62
    30
 10
-867.43534199999999
 20
239.0
 30
0.0
 40
10.0
  0
LINE
  5
4D8
  8
SIZE
  6
CONTINUOUS
 62
    30
 10
-867.43534199999999
 20
277.0
 30
0.0
 11
-867.43534199999999
 21
287.0
 31
0.0
  0
CIRCLE
  5
4D9
  8
SIZE
  6
CONTINUOUS
 62
    30
 10
-867.43534199999999
 20
267.0
 30
0.0
 40
10.0
  0
LINE
  5
4DA
  8
SIZE
  6
CONTINUOUS
 62
    30
 10
-867.43534199999999
 20
267.0
 30
0.0
 11
-867.43534199999999
 21
239.0
 31
0.0
  0
POINT
  5
4DB
  8
DEFPOINTS
  6
CONTINUOUS
 62
     7
 10
-867.43534199999999
 20
267.0
 30
0.0
  0
LINE
  5
4DC
  8
SIZE
  6
CONTINUOUS
 62
    30
 10
-867.43534199999999
 20
277.0
 30
0.0
 11
-867.43534199999999
 21
287.0
 31
0.0
  0
CIRCLE
  5
4DD
  8
SIZE
  6
CONTINUOUS
 62
    30
 10
-867.43534199999999
 20
267.0
 30
0.0
 40
10.0
  0
LINE
  5
4DF
  8
SIZE
  6
CONTINUOUS
 62
    30
 10
-867.43534199999999
 20
463.0
 30
0.0
 11
-867.43534199999999
 21
453.0
 31
0.0
  0
TEXT
  5
4E0
  8
SIZE
  6
CONTINUOUS
 62
    30
 10
-885.43534199999999
 20
313.21428571428572
 30
0.0
 40
50.0
  1
206
 50
90.0
 41
0.9
 72
     1
 11
-885.43534199999999
 21
370.0
 31
0.0
  0
CIRCLE
  5
4E3
  8
SIZE
  6
CONTINUOUS
 62
    30
 10
-867.43534199999999
 20
473.0
 30
0.0
 40
10.0
  0
LINE
  5
4E4
  8
OUTLINE
  6
CONTINUOUS
 62
     3
 10
-387.5
 20
472.39999999999998
 30
0.0
 11
-387.5
 21
140.800107
 31
0.0
  0
LINE
  5
4E5
  8
NOTE
  6
CONTINUOUS
 62
     4
 10
-457.5
 20
408.94451499999991
 30
0.0
 11
-457.5
 21
265.05548499999998
 31
0.0
  0
LINE
  5
4E6
  8
DETAIL
  6
CONTINUOUS
 62
     5
 10
-387.5
 20
472.39999999999998
 30
0.0
 11
-387.5
 21
140.80000000000001
 31
0.0
  0
LINE
  5
4E7
  8
DETAIL
  6
CONTINUOUS
 62
     5
 10
-402.50179600000001
 20
441.00047899999998
 30
0.0
 11
-402.50179600000001
 21
232.99952099999999
 31
0.0
  0
LINE
  5
4E8
  8
DETAIL
  6
CONTINUOUS
 62
     5
 10
-457.5
 20
239.5
 30
0.0
 11
-457.5
 21
434.49999999999989
 31
0.0
  0
LINE
  5
4E9
  8
DETAIL
  6
CONTINUOUS
 62
     5
 10
-422.50419099999988
 20
237.0
 30
0.0
 11
-422.50419099999988
 21
437.0
 31
0.0
  0
POINT
  5
4EA
  8
DEFPOINTS
  6
CONTINUOUS
 62
     7
 10
-387.5
 20
140.800107
 30
0.0
  0
ARC
  5
4EB
  8
DETAIL
  6
CONTINUOUS
 62
     5
 10
-386.69999999999999
 20
140.80000000000001
 30
0.0
 40
0.8
 50
180.0
 51
270.0
  0
ARC
  5
4EC
  8
OUTLINE
  6
CONTINUOUS
 62
     3
 10
-386.699904
 20
140.800096
 30
0.0
 40
0.800096
 50
179.999189
 51
270.0
  0
LINE
  5
4ED
  8
DETAIL
  6
CONTINUOUS
 62
     5
 10
-422.50419099999988
 20
237.0
 30
0.0
 11
-457.5
 21
239.5
 31
0.0
  0
LINE
  5
4EE
  8
DETAIL
  6
CONTINUOUS
 62
     5
 10
-389.50024000000002
 20
226.99880200000001
 30
0.0
 11
-389.50024000000002
 21
206.984432
 31
0.0
  0
ARC
  5
4EF
  8
DETAIL
  6
CONTINUOUS
 62
     5
 10
-398.50131699999997
 20
232.99952099999999
 30
0.0
 40
4.0004790000000003
 50
180.0
 51
270.0
  0
LINE
  5
4F0
  8
DETAIL
  6
CONTINUOUS
 62
     5
 10
-422.50419099999988
 20
237.0
 30
0.0
 11
-404.50203599999992
 21
237.0
 31
0.0
  0
ARC
  5
4F1
  8
DETAIL
  6
CONTINUOUS
 62
     5
 10
-404.50203599999992
 20
234.99976000000001
 30
0.0
 40
2.0002399999999998
 50
0.0
 51
90.0
  0
LINE
  5
4F2
  8
DETAIL
  6
CONTINUOUS
 62
     5
 10
-398.50131699999997
 20
228.999042
 30
0.0
 11
-391.50047899999998
 21
228.999042
 31
0.0
  0
ARC
  5
4F3
  8
DETAIL
  6
CONTINUOUS
 62
     5
 10
-391.50047899999998
 20
226.99880200000001
 30
0.0
 40
2.0002399999999998
 50
0.0
 51
90.0
  0
LINE
  5
4F4
  8
DETAIL
  6
CONTINUOUS
 62
     5
 10
-389.50024000000002
 20
206.984432
 30
0.0
 11
-387.5
 21
206.984432
 31
0.0
  0
LINE
  5
4FA
  8
SIZE
  6
CONTINUOUS
 62
    30
 10
-547.44451500000002
 20
337.0
 30
0.0
 11
-646.96152999999993
 21
337.0
 31
0.0
  0
LINE
  5
4FC
  8
SIZE
  6
CONTINUOUS
 62
    30
 10
-616.96152999999993
 20
463.0
 30
0.0
 11
-616.96152999999993
 21
453.0
 31
0.0
  0
TEXT
  5
4FD
  8
SIZE
  6
CONTINUOUS
 62
    30
 10
-634.96152999999993
 20
349.56252799999999
 30
0.0
 40
50.0
  1
136
 50
90.0
 41
0.9
 72
     1
 11
-634.96152999999993
 21
402.06252799999987
 31
0.0
  0
POINT
  5
502
  8
DEFPOINTS
  6
CONTINUOUS
 62
     7
 10
-616.96152999999993
 20
337.0
 30
0.0
  0
LINE
  5
503
  8
SIZE
  6
CONTINUOUS
 62
    30
 10
-616.96152999999993
 20
347.0
 30
0.0
 11
-616.96152999999993
 21
357.0
 31
0.0
  0
CIRCLE
  5
504
  8
SIZE
  6
CONTINUOUS
 62
    30
 10
-616.96152999999993
 20
337.0
 30
0.0
 40
10.0
  0
LINE
  5
505
  8
SIZE
  6
CONTINUOUS
 62
    30
 10
-616.96152999999993
 20
453.0
 30
0.0
 11
-616.96152999999993
 21
357.0
 31
0.0
  0
CIRCLE
  5
507
  8
SIZE
  6
CONTINUOUS
 62
    30
 10
-616.96152999999993
 20
473.0
 30
0.0
 40
10.0
  0
CIRCLE
  5
508
  8
FIX
  6
CONTINUOUS
 62
    11
 10
-353.5
 20
473.0
 30
0.0
 40
18.598564
  0
LINE
  5
509
  8
NOTE
  6
CONTINUOUS
 62
     4
 10
-353.5
 20
493.00239499999998
 30
0.0
 11
-353.5
 21
452.99760500000002
 31
0.0
  0
LINE
  5
50A
  8
DETAIL
  6
CONTINUOUS
 62
     5
 10
-382.88964099999998
 20
473.0
 30
0.0
 11
-382.88964099999998
 21
432.99580899999989
 31
0.0
  0
LINE
  5
50B
  8
DETAIL
  6
CONTINUOUS
 62
     5
 10
-389.50024000000002
 20
467.01556799999992
 30
0.0
 11
-389.50024000000002
 21
447.00119799999999
 31
0.0
  0
LINE
  5
50C
  8
NOTE
  6
CONTINUOUS
 62
     4
 10
-529.44451500000002
 20
337.0
 30
0.0
 11
-385.55548499999998
 21
337.0
 31
0.0
  0
LINE
  5
50D
  8
DETAIL
  6
CONTINUOUS
 62
     5
 10
-422.50419099999988
 20
437.0
 30
0.0
 11
-457.5
 21
434.49999999999989
 31
0.0
  0
LINE
  5
50E
  8
NOTE
  6
CONTINUOUS
 62
     4
 10
-457.5
 20
337.0
 30
0.0
 11
-480.23711100000003
 21
358.15752600000002
 31
0.0
  0
LINE
  5
50F
  8
NOTE
  6
CONTINUOUS
 62
     4
 10
-466.61215299999998
 20
366.69150999999999
 30
0.0
 11
-457.5
 21
337.0
 31
0.0
  0
POINT
  5
510
  8
DEFPOINTS
  6
CONTINUOUS
 62
     7
 10
-529.44451500000002
 20
337.0
 30
0.0
  0
LINE
  5
511
  8
DETAIL
  6
CONTINUOUS
 62
     5
 10
-337.88450499999999
 20
452.99820399999999
 30
0.0
 11
-337.88450499999999
 21
432.99580899999989
 31
0.0
  0
ARC
  5
512
  8
DETAIL
  6
CONTINUOUS
 62
     5
 10
-340.88486399999999
 20
432.99580899999989
 30
0.0
 40
3.0003589999999991
 50
270.0
 51
0.0
  0
LINE
  5
513
  8
DETAIL
  6
CONTINUOUS
 62
     5
 10
-379.88953500000002
 20
429.99544900000001
 30
0.0
 11
-340.88486399999999
 21
429.99544900000001
 31
0.0
  0
ARC
  5
514
  8
DETAIL
  6
CONTINUOUS
 62
     5
 10
-379.88953500000002
 20
432.99580899999989
 30
0.0
 40
3.0003589999999991
 50
180.0
 51
270.0
  0
ARC
  5
515
  8
DETAIL
  6
CONTINUOUS
 62
     5
 10
-398.50131699999997
 20
441.00047899999998
 30
0.0
 40
4.0004790000000003
 50
90.0
 51
180.0
  0
LINE
  5
516
  8
DETAIL
  6
CONTINUOUS
 62
     5
 10
-398.50131699999997
 20
445.00095800000003
 30
0.0
 11
-391.50047899999998
 21
445.00095800000003
 31
0.0
  0
ARC
  5
517
  8
DETAIL
  6
CONTINUOUS
 62
     5
 10
-404.50203599999992
 20
439.00024000000002
 30
0.0
 40
2.0002399999999998
 50
270.0
 51
0.0
  0
LINE
  5
518
  8
DETAIL
  6
CONTINUOUS
 62
     5
 10
-422.50419099999988
 20
437.0
 30
0.0
 11
-404.50203599999992
 21
437.0
 31
0.0
  0
ARC
  5
519
  8
DETAIL
  6
CONTINUOUS
 62
     5
 10
-391.50047899999998
 20
447.00119799999999
 30
0.0
 40
2.0002399999999998
 50
270.0
 51
0.0
  0
LINE
  5
51D
  8
NOTE
  6
CONTINUOUS
 62
     4
 10
-353.5
 20
473.0
 30
0.0
 11
-380.21306600000003
 21
484.94695999999988
 31
0.0
  0
LINE
  5
51E
  8
NOTE
  6
CONTINUOUS
 62
     4
 10
-368.2700319999999
 20
495.70950199999987
 30
0.0
 11
-353.5
 21
473.0
 31
0.0
  0
ARC
  5
51F
  8
OUTLINE
  6
CONTINUOUS
 62
     3
 10
-386.89999999999998
 20
472.39999999999998
 30
0.0
 40
0.6
 50
90.0
 51
180.0
  0
POINT
  5
522
  8
DEFPOINTS
  6
CONTINUOUS
 62
     7
 10
-353.5
 20
493.00239499999998
 30
0.0
  0
ARC
  5
523
  8
DETAIL
  6
CONTINUOUS
 62
     5
 10
-386.89999999999998
 20
472.39999999999998
 30
0.0
 40
0.6
 50
90.0
 51
180.0
  0
POINT
  5
524
  8
DEFPOINTS
  6
CONTINUOUS
 62
     7
 10
-353.5
 20
493.00239499999998
 30
0.0
  0
LINE
  5
525
  8
NOTE
  6
CONTINUOUS
 62
     4
 10
-373.50095800000003
 20
473.0
 30
0.0
 11
-333.49904199999997
 21
473.0
 31
0.0
  0
ARC
  5
526
  8
DETAIL
  6
CONTINUOUS
 62
     5
 10
-344.38528400000001
 20
463.99892199999999
 30
0.0
 40
3.0003589999999991
 50
180.0
 51
270.0
  0
LINE
  5
527
  8
DETAIL
  6
CONTINUOUS
 62
     5
 10
-347.38564300000002
 20
473.0
 30
0.0
 11
-347.38564300000002
 21
463.99892199999999
 31
0.0
  0
ARC
  5
528
  8
DETAIL
  6
CONTINUOUS
 62
     5
 10
-379.88953500000002
 20
463.99892199999999
 30
0.0
 40
3.0003589999999991
 50
180.0
 51
270.0
  0
LINE
  5
529
  8
DETAIL
  6
CONTINUOUS
 62
     5
 10
-362.38743900000009
 20
460.99856299999988
 30
0.0
 11
-379.88953500000002
 21
460.99856299999988
 31
0.0
  0
LINE
  5
52A
  8
DETAIL
  6
CONTINUOUS
 62
     5
 10
-359.38708000000003
 20
470.69972499999989
 30
0.0
 11
-347.38564300000002
 21
470.69972499999989
 31
0.0
  0
ARC
  5
52B
  8
DETAIL
  6
CONTINUOUS
 62
     5
 10
-362.38743900000009
 20
463.99892199999999
 30
0.0
 40
3.0003589999999991
 50
270.0
 51
0.0
  0
LINE
  5
52C
  8
DETAIL
  6
CONTINUOUS
 62
     5
 10
-359.38708000000003
 20
473.0
 30
0.0
 11
-359.38708000000003
 21
463.99892199999999
 31
0.0
  0
LINE
  5
52D
  8
DETAIL
  6
CONTINUOUS
 62
     5
 10
-389.50024000000002
 20
467.01556799999992
 30
0.0
 11
-387.5
 21
467.01556799999992
 31
0.0
  0
LINE
  5
530
  8
SIZE
  6
CONTINUOUS
 62
    30
 10
-387.5
 20
789.42883600000005
 30
0.0
 11
-552.78571399999998
 21
789.42883600000005
 31
0.0
  0
TEXT
  5
531
  8
SIZE
  6
CONTINUOUS
 62
    30
 10
-534.78571414285705
 20
807.42883600000005
 30
0.0
 40
50.0
  1
124
 41
0.9
 72
     1
 11
-480.14285699999999
 21
807.42883600000005
 31
0.0
  0
LINE
  5
532
  8
SIZE
  6
CONTINUOUS
 62
    30
 10
-407.5
 20
899.34759800000006
 30
0.0
 11
-538.49999999999989
 21
899.34759800000006
 31
0.0
  0
LINE
  5
533
  8
SIZE
  6
CONTINUOUS
 62
    30
 10
-377.5
 20
789.42883600000005
 30
0.0
 11
-367.5
 21
789.42883600000005
 31
0.0
  0
CIRCLE
  5
534
  8
SIZE
  6
CONTINUOUS
 62
    30
 10
-387.5
 20
789.42883600000005
 30
0.0
 40
10.0
  0
POINT
  5
535
  8
DEFPOINTS
  6
CONTINUOUS
 62
     7
 10
-387.5
 20
899.34759800000006
 30
0.0
  0
LINE
  5
536
  8
SIZE
  6
CONTINUOUS
 62
    30
 10
-397.5
 20
899.34759800000006
 30
0.0
 11
-407.5
 21
899.34759800000006
 31
0.0
  0
CIRCLE
  5
537
  8
SIZE
  6
CONTINUOUS
 62
    30
 10
-387.5
 20
899.34759800000006
 30
0.0
 40
10.0
  0
LINE
  5
538
  8
SIZE
  6
CONTINUOUS
 62
    30
 10
-343.5
 20
899.34759800000006
 30
0.0
 11
-333.5
 21
899.34759800000006
 31
0.0
  0
CIRCLE
  5
539
  8
SIZE
  6
CONTINUOUS
 62
    30
 10
-353.5
 20
899.34759800000006
 30
0.0
 40
10.0
  0
LINE
  5
53A
  8
SIZE
  6
CONTINUOUS
 62
    30
 10
-353.5
 20
899.34759800000006
 30
0.0
 11
-387.5
 21
899.34759800000006
 31
0.0
  0
POINT
  5
53B
  8
DEFPOINTS
  6
CONTINUOUS
 62
     7
 10
-353.5
 20
899.34759800000006
 30
0.0
  0
LINE
  5
53C
  8
SIZE
  6
CONTINUOUS
 62
    30
 10
-343.5
 20
899.34759800000006
 30
0.0
 11
-333.5
 21
899.34759800000006
 31
0.0
  0
CIRCLE
  5
53D
  8
SIZE
  6
CONTINUOUS
 62
    30
 10
-353.5
 20
899.34759800000006
 30
0.0
 40
10.0
  0
TEXT
  5
53E
  8
SIZE
  6
CONTINUOUS
 62
    30
 10
-520.5
 20
917.34759799999995
 30
0.0
 40
50.0
  1
34
 41
0.9
 72
     1
 11
-483.0
 21
917.34759799999995
 31
0.0
  0
POINT
  5
53F
  8
DEFPOINTS
  6
CONTINUOUS
 62
     7
 10
-387.5
 20
1035.2755259999999
 30
0.0
  0
LINE
  5
540
  8
SIZE
  6
CONTINUOUS
 62
    30
 10
-377.5
 20
1035.2755259999999
 30
0.0
 11
-367.5
 21
1035.2755259999999
 31
0.0
  0
CIRCLE
  5
541
  8
SIZE
  6
CONTINUOUS
 62
    30
 10
-387.5
 20
1035.2755259999999
 30
0.0
 40
10.0
  0
LINE
  5
542
  8
BASIS
  6
DASHDOT
 62
     6
 10
0.0
 20
-58.000957999999997
 30
0.0
 11
0.0
 21
523.0
 31
0.0
  0
CIRCLE
  5
543
  8
ARRANGE
  6
CONTINUOUS
 62
     1
 10
0.0
 20
0.0
 30
0.0
 40
50.0
  0
LINE
  5
544
  8
OUTLINE
  6
CONTINUOUS
 62
     3
 10
462.5
 20
-4.0069879999999989
 30
0.0
 11
462.5
 21
0.0
 31
0.0
  0
LINE
  5
545
  8
OUTLINE
  6
CONTINUOUS
 62
     3
 10
-137.5
 20
-4.0069879999999989
 30
0.0
 11
-137.5
 21
0.0
 31
0.0
  0
CIRCLE
  5
546
  8
SIZE
  6
CONTINUOUS
 62
    30
 10
917.52015199999994
 20
0.0
 30
0.0
 40
10.0
  0
CIRCLE
  5
547
  8
SIZE
  6
CONTINUOUS
 62
    30
 10
1129.5181669999999
 20
0.0
 30
0.0
 40
10.0
  0
LINE
  5
548
  8
SIZE
  6
CONTINUOUS
 62
    30
 10
1129.5181669999999
 20
0.0
 30
0.0
 11
1129.5181669999999
 21
-347.42857099999998
 31
0.0
  0
CIRCLE
  5
549
  8
SIZE
  6
CONTINUOUS
 62
    30
 10
917.52015199999994
 20
-8.0
 30
0.0
 40
10.0
  0
CIRCLE
  5
54A
  8
SIZE
  6
CONTINUOUS
 62
    30
 10
917.52015199999994
 20
0.0
 30
0.0
 40
10.0
  0
LINE
  5
54B
  8
SIZE
  6
CONTINUOUS
 62
    30
 10
917.52015199999994
 20
0.0
 30
0.0
 11
917.52015199999994
 21
-8.0
 31
0.0
  0
LINE
  5
54C
  8
SIZE
  6
CONTINUOUS
 62
    30
 10
387.5
 20
122.8
 30
0.0
 11
387.5
 21
-366.24886600000002
 31
0.0
  0
LINE
  5
54D
  8
ARRANGE
  6
CONTINUOUS
 62
     1
 10
-50.037350000000004
 20
-49.522353000000003
 30
0.0
 11
50.037350000000004
 21
49.522353000000003
 31
0.0
  0
LINE
  5
54E
  8
ARRANGE
  6
CONTINUOUS
 62
     1
 10
-49.963763
 20
49.596595000000001
 30
0.0
 11
49.963763
 21
-49.596595000000001
 31
0.0
  0
LINE
  5
55A
  8
DETAIL
  6
CONTINUOUS
 62
     5
 10
-137.5
 20
-4.0069879999999989
 30
0.0
 11
-137.5
 21
0.0
 31
0.0
  0
LINE
  5
55B
  8
DETAIL
  6
CONTINUOUS
 62
     5
 10
462.5
 20
-4.0069879999999989
 30
0.0
 11
462.5
 21
0.0
 31
0.0
  0
LINE
  5
55C
  8
SIZE
  6
CONTINUOUS
 62
    30
 10
449.31678299999987
 20
-8.0
 30
0.0
 11
947.52015199999983
 21
-8.0
 31
0.0
  0
TEXT
  5
55D
  8
SIZE
  6
CONTINUOUS
 62
    30
 10
520.49999985714294
 20
-520.38941899999998
 30
0.0
 40
50.0
  1
17
 41
0.9
 72
     1
 11
552.64285700000005
 21
-520.38941899999998
 31
0.0
  0
LINE
  5
55E
  8
SIZE
  6
CONTINUOUS
 62
    30
 10
482.5
 20
-538.38941900000009
 30
0.0
 11
602.78571399999998
 21
-538.38941900000009
 31
0.0
  0
TEXT
  5
55F
  8
SIZE
  6
CONTINUOUS
 62
    30
 10
503.49999957142859
 20
-318.24886600000002
 30
0.0
 40
50.0
  1
58
 41
0.9
 72
     1
 11
539.92857100000003
 21
-318.24886600000002
 31
0.0
  0
LINE
  5
560
  8
SIZE
  6
CONTINUOUS
 62
    30
 10
465.5
 20
-336.24886600000002
 30
0.0
 11
594.35714299999995
 21
-336.24886600000002
 31
0.0
  0
TEXT
  5
561
  8
SIZE
  6
CONTINUOUS
 62
    30
 10
-326.14285714285711
 20
-638.27693699999998
 30
0.0
 40
55.0
  1
250
 41
0.9
 72
     1
 11
-262.5
 21
-638.27693699999998
 31
0.0
  0
LINE
  5
562
  8
SIZE
  6
CONTINUOUS
 62
    30
 10
-137.5
 20
-20.412922966981569
 30
0.0
 11
-137.5
 21
-674.27693699999986
 31
0.0
  0
TEXT
  5
563
  8
SIZE
  6
CONTINUOUS
 62
    30
 10
104.6428571428571
 20
-639.86979599999995
 30
0.0
 40
50.0
  1
600
 41
0.9
 72
     1
 11
162.5
 21
-639.86979599999995
 31
0.0
  0
LINE
  5
564
  8
SIZE
  6
CONTINUOUS
 62
    30
 10
462.5
 20
-18.0
 30
0.0
 11
462.5
 21
-687.86979599999995
 31
0.0
  0
LINE
  5
565
  8
SIZE
  6
CONTINUOUS
 62
    30
 10
-137.5
 20
-20.412922966981569
 30
0.0
 11
-137.5
 21
-687.86979599999995
 31
0.0
  0
LINE
  5
566
  8
SIZE
  6
CONTINUOUS
 62
    30
 10
-117.5
 20
-657.86979599999995
 30
0.0
 11
442.49999999999989
 21
-657.86979599999995
 31
0.0
  0
POINT
  5
567
  8
DEFPOINTS
  6
CONTINUOUS
 62
     7
 10
-137.5
 20
-656.27693699999986
 30
0.0
  0
LINE
  5
568
  8
SIZE
  6
CONTINUOUS
 62
    30
 10
-147.5
 20
-656.27693699999986
 30
0.0
 11
-157.5
 21
-656.27693699999986
 31
0.0
  0
CIRCLE
  5
569
  8
SIZE
  6
CONTINUOUS
 62
    30
 10
-137.5
 20
-656.27693699999986
 30
0.0
 40
10.0
  0
LINE
  5
56A
  8
SIZE
  6
CONTINUOUS
 62
    30
 10
-127.5
 20
-657.86979599999995
 30
0.0
 11
-117.5
 21
-657.86979599999995
 31
0.0
  0
CIRCLE
  5
56B
  8
SIZE
  6
CONTINUOUS
 62
    30
 10
-137.5
 20
-657.86979599999995
 30
0.0
 40
10.0
  0
CIRCLE
  5
56C
  8
SIZE
  6
CONTINUOUS
 62
    30
 10
462.5
 20
-657.86979599999995
 30
0.0
 40
10.0
  0
LINE
  5
56D
  8
SIZE
  6
CONTINUOUS
 62
    30
 10
452.5
 20
-657.86979599999995
 30
0.0
 11
442.49999999999989
 21
-657.86979599999995
 31
0.0
  0
POINT
  5
56E
  8
DEFPOINTS
  6
CONTINUOUS
 62
     7
 10
462.5
 20
-657.86979599999995
 30
0.0
  0
LINE
  5
56F
  8
OUTLINE
  6
CONTINUOUS
 62
     3
 10
431.31678299999999
 20
-8.0
 30
0.0
 11
-106.316783
 21
-8.0
 31
0.0
  0
TEXT
  5
570
  8
SIZE
  6
CONTINUOUS
 62
    30
 10
-82.898994285714295
 20
-520.38941899999998
 30
0.0
 40
50.0
  1
566（天井開口寸法）
 41
0.9
 72
     1
 11
179.38672
 21
-520.38941899999998
 31
0.0
  0
LINE
  5
571
  8
SIZE
  6
CONTINUOUS
 62
    30
 10
-100.5
 20
-538.38941900000009
 30
0.0
 11
425.49999999999989
 21
-538.38941900000009
 31
0.0
  0
LINE
  5
572
  8
DETAIL
  6
CONTINUOUS
 62
     5
 10
431.31678299999999
 20
-8.0
 30
0.0
 11
-106.316783
 21
-8.0
 31
0.0
  0
LINE
  5
573
  8
SIZE
  6
CONTINUOUS
 62
    30
 10
-120.5
 20
-17.0
 30
0.0
 11
-120.5
 21
-568.38941900000009
 31
0.0
  0
LINE
  5
574
  8
SIZE
  6
CONTINUOUS
 62
    30
 10
-137.5
 20
-20.412922966981569
 30
0.0
 11
-137.5
 21
-568.38941900000009
 31
0.0
  0
LINE
  5
575
  8
SIZE
  6
CONTINUOUS
 62
    30
 10
-120.5
 20
-17.0
 30
0.0
 11
-120.5
 21
-568.38941900000009
 31
0.0
  0
LINE
  5
576
  8
SIZE
  6
CONTINUOUS
 62
    30
 10
-110.5
 20
-538.38941900000009
 30
0.0
 11
-100.5
 21
-538.38941900000009
 31
0.0
  0
LINE
  5
577
  8
SIZE
  6
CONTINUOUS
 62
    30
 10
-110.5
 20
-538.38941900000009
 30
0.0
 11
-100.5
 21
-538.38941900000009
 31
0.0
  0
TEXT
  5
578
  8
SIZE
  6
CONTINUOUS
 62
    30
 10
-259.78571414285722
 20
-520.38941899999998
 30
0.0
 40
50.0
  1
17
 41
0.9
 72
     1
 11
-227.64285699999999
 21
-520.38941899999998
 31
0.0
  0
LINE
  5
579
  8
SIZE
  6
CONTINUOUS
 62
    30
 10
-157.5
 20
-538.38941900000009
 30
0.0
 11
-277.78571399999998
 21
-538.38941900000009
 31
0.0
  0
CIRCLE
  5
57A
  8
SIZE
  6
CONTINUOUS
 62
    30
 10
-120.5
 20
-538.38941900000009
 30
0.0
 40
10.0
  0
POINT
  5
57B
  8
DEFPOINTS
  6
CONTINUOUS
 62
     7
 10
-137.5
 20
-538.38941900000009
 30
0.0
  0
LINE
  5
57C
  8
SIZE
  6
CONTINUOUS
 62
    30
 10
-147.5
 20
-538.38941900000009
 30
0.0
 11
-157.5
 21
-538.38941900000009
 31
0.0
  0
CIRCLE
  5
57D
  8
SIZE
  6
CONTINUOUS
 62
    30
 10
-137.5
 20
-538.38941900000009
 30
0.0
 40
10.0
  0
CIRCLE
  5
57E
  8
SIZE
  6
CONTINUOUS
 62
    30
 10
-120.5
 20
-538.38941900000009
 30
0.0
 40
10.0
  0
LINE
  5
57F
  8
SIZE
  6
CONTINUOUS
 62
    30
 10
-120.5
 20
-538.38941900000009
 30
0.0
 11
-137.5
 21
-538.38941900000009
 31
0.0
  0
LINE
  5
580
  8
SIZE
  6
CONTINUOUS
 62
    30
 10
-100.5
 20
-538.38941900000009
 30
0.0
 11
-80.5
 21
-538.38941900000009
 31
0.0
  0
POINT
  5
581
  8
DEFPOINTS
  6
CONTINUOUS
 62
     7
 10
-137.5
 20
-4.0069879999999989
 30
0.0
  0
ARC
  5
582
  8
OUTLINE
  6
CONTINUOUS
 62
     3
 10
-106.796323
 20
112.013413
 30
0.0
 40
120.014371
 50
255.17703
 51
270.22893699999997
  0
POINT
  5
583
  8
DEFPOINTS
  6
CONTINUOUS
 62
     7
 10
-137.5
 20
-4.0069879999999989
 30
0.0
  0
POINT
  5
584
  8
DEFPOINTS
  6
CONTINUOUS
 62
     7
 10
-137.5
 20
-4.0069879999999989
 30
0.0
  0
ARC
  5
585
  8
DETAIL
  6
CONTINUOUS
 62
     5
 10
-106.796323
 20
112.013413
 30
0.0
 40
120.014371
 50
255.17703
 51
270.22893699999997
  0
LINE
  5
586
  8
SIZE
  6
CONTINUOUS
 62
    30
 10
445.5
 20
-17.0
 30
0.0
 11
445.5
 21
-568.38941900000009
 31
0.0
  0
LINE
  5
587
  8
SIZE
  6
CONTINUOUS
 62
    30
 10
462.5
 20
-18.0
 30
0.0
 11
462.5
 21
-568.38941900000009
 31
0.0
  0
LINE
  5
588
  8
SIZE
  6
CONTINUOUS
 62
    30
 10
445.5
 20
-17.0
 30
0.0
 11
445.5
 21
-568.38941900000009
 31
0.0
  0
LINE
  5
589
  8
SIZE
  6
CONTINUOUS
 62
    30
 10
445.5
 20
-17.0
 30
0.0
 11
445.5
 21
-366.24886600000002
 31
0.0
  0
CIRCLE
  5
58A
  8
SIZE
  6
CONTINUOUS
 62
    30
 10
445.5
 20
-538.38941900000009
 30
0.0
 40
10.0
  0
CIRCLE
  5
58B
  8
SIZE
  6
CONTINUOUS
 62
    30
 10
462.5
 20
-538.38941900000009
 30
0.0
 40
10.0
  0
CIRCLE
  5
58C
  8
SIZE
  6
CONTINUOUS
 62
    30
 10
445.5
 20
-538.38941900000009
 30
0.0
 40
10.0
  0
LINE
  5
58D
  8
SIZE
  6
CONTINUOUS
 62
    30
 10
445.5
 20
-538.38941900000009
 30
0.0
 11
462.5
 21
-538.38941900000009
 31
0.0
  0
POINT
  5
58E
  8
DEFPOINTS
  6
CONTINUOUS
 62
     7
 10
445.5
 20
-538.38941900000009
 30
0.0
  0
LINE
  5
58F
  8
SIZE
  6
CONTINUOUS
 62
    30
 10
435.5
 20
-538.38941900000009
 30
0.0
 11
425.49999999999989
 21
-538.38941900000009
 31
0.0
  0
LINE
  5
590
  8
SIZE
  6
CONTINUOUS
 62
    30
 10
435.5
 20
-538.38941900000009
 30
0.0
 11
425.49999999999989
 21
-538.38941900000009
 31
0.0
  0
LINE
  5
591
  8
SIZE
  6
CONTINUOUS
 62
    30
 10
425.49999999999989
 20
-538.38941900000009
 30
0.0
 11
405.49999999999989
 21
-538.38941900000009
 31
0.0
  0
POINT
  5
592
  8
DEFPOINTS
  6
CONTINUOUS
 62
     7
 10
462.5
 20
-538.38941900000009
 30
0.0
  0
LINE
  5
593
  8
SIZE
  6
CONTINUOUS
 62
    30
 10
472.5
 20
-538.38941900000009
 30
0.0
 11
482.5
 21
-538.38941900000009
 31
0.0
  0
CIRCLE
  5
594
  8
SIZE
  6
CONTINUOUS
 62
    30
 10
445.5
 20
-336.24886600000002
 30
0.0
 40
10.0
  0
POINT
  5
595
  8
DEFPOINTS
  6
CONTINUOUS
 62
     7
 10
445.5
 20
-336.24886600000002
 30
0.0
  0
LINE
  5
596
  8
SIZE
  6
CONTINUOUS
 62
    30
 10
377.5
 20
-336.24886600000002
 30
0.0
 11
367.5
 21
-336.24886600000002
 31
0.0
  0
CIRCLE
  5
597
  8
SIZE
  6
CONTINUOUS
 62
    30
 10
387.5
 20
-336.24886600000002
 30
0.0
 40
10.0
  0
LINE
  5
598
  8
SIZE
  6
CONTINUOUS
 62
    30
 10
387.5
 20
-336.24886600000002
 30
0.0
 11
445.5
 21
-336.24886600000002
 31
0.0
  0
LINE
  5
599
  8
SIZE
  6
CONTINUOUS
 62
    30
 10
367.5
 20
-336.24886600000002
 30
0.0
 11
347.5
 21
-336.24886600000002
 31
0.0
  0
LINE
  5
59A
  8
SIZE
  6
CONTINUOUS
 62
    30
 10
455.49999999999989
 20
-336.24886600000002
 30
0.0
 11
465.5
 21
-336.24886600000002
 31
0.0
  0
ARC
  5
59B
  8
OUTLINE
  6
CONTINUOUS
 62
     3
 10
431.79632299999997
 20
112.013413
 30
0.0
 40
120.014371
 50
269.77106299999991
 51
284.82297
  0
ARC
  5
59C
  8
DETAIL
  6
CONTINUOUS
 62
     5
 10
431.79632299999997
 20
112.013413
 30
0.0
 40
120.014371
 50
269.77106299999991
 51
284.82297
  0
POINT
  5
59D
  8
DEFPOINTS
  6
CONTINUOUS
 62
     7
 10
431.31678299999999
 20
-8.0
 30
0.0
  0
POINT
  5
59E
  8
DEFPOINTS
  6
CONTINUOUS
 62
     7
 10
462.5
 20
-4.0069879999999989
 30
0.0
  0
TEXT
  5
59F
  8
SIZE
  6
CONTINUOUS
 62
    30
 10
899.52015200000005
 20
-96.0
 30
0.0
 40
50.0
  1
8
 50
90.0
 41
0.9
 72
     1
 11
899.52015200000005
 21
-81.0
 31
0.0
  0
LINE
  5
5A0
  8
SIZE
  6
CONTINUOUS
 62
    30
 10
917.52015199999994
 20
-10.0
 30
0.0
 11
917.52015199999994
 21
-20.0
 31
0.0
  0
LINE
  5
5A1
  8
SIZE
  6
CONTINUOUS
 62
    30
 10
917.52015199999994
 20
-20.0
 30
0.0
 11
917.52015199999994
 21
-40.0
 31
0.0
  0
POINT
  5
5A2
  8
DEFPOINTS
  6
CONTINUOUS
 62
     7
 10
917.52015199999994
 20
-8.0
 30
0.0
  0
LINE
  5
5A3
  8
SIZE
  6
CONTINUOUS
 62
    30
 10
917.52015199999994
 20
-18.0
 30
0.0
 11
917.52015199999994
 21
-28.0
 31
0.0
  0
LINE
  5
5A4
  8
SIZE
  6
CONTINUOUS
 62
    30
 10
917.52015199999994
 20
-28.0
 30
0.0
 11
917.52015199999994
 21
-114.0
 31
0.0
  0
TEXT
  5
5A5
  8
SIZE
  6
CONTINUOUS
 62
    30
 10
1111.5181669999999
 20
-329.42857171428568
 30
0.0
 40
50.0
  1
140-300
 50
90.0
 41
0.9
 72
     1
 11
1111.5181669999999
 21
-183.71428599999999
 31
0.0
  0
TEXT
  5
5A6
  8
SIZE
  6
CONTINUOUS
 62
    30
 10
1238.2911240000001
 20
-360.62920200000008
 30
0.0
 40
55.0
  1
パネル直付時
 50
90.0
 41
0.9
 72
     1
 11
1238.2911240000001
 21
-189.029202
 31
0.0
  0
TEXT
  5
5B3
  8
SIZE
  6
CONTINUOUS
 62
    30
 10
1322.0409030000001
 20
-303.7705507142856
 30
0.0
 40
55.0
  1
50～60
 50
90.0
 41
0.9
 72
     1
 11
1322.0409030000001
 21
-186.85626500000001
 31
0.0
  0
LINE
  5
5B4
  8
SIZE
  6
CONTINUOUS
 62
    30
 10
448.96622400000001
 20
47.0
 30
0.0
 11
947.52015199999983
 21
47.0
 31
0.0
  0
LINE
  5
5B5
  8
SIZE
  6
CONTINUOUS
 62
    30
 10
480.49999999999989
 20
0.0
 30
0.0
 11
947.52015199999983
 21
0.0
 31
0.0
  0
LINE
  5
5B6
  8
SIZE
  6
CONTINUOUS
 62
    30
 10
369.51437099999998
 20
337.0
 30
0.0
 11
947.078081
 21
337.0
 31
0.0
  0
LINE
  5
5B7
  8
SIZE
  6
CONTINUOUS
 62
    30
 10
401.69999999999999
 20
473.0
 30
0.0
 11
947.078081
 21
473.0
 31
0.0
  0
LINE
  5
5B8
  8
SIZE
  6
CONTINUOUS
 62
    30
 10
401.69999999999999
 20
473.0
 30
0.0
 11
1159.5181669999999
 21
473.0
 31
0.0
  0
LINE
  5
5B9
  8
SIZE
  6
CONTINUOUS
 62
    30
 10
404.69999999999987
 20
140.0
 30
0.0
 11
1159.5181669999999
 21
140.0
 31
0.0
  0
LINE
  5
5BA
  8
SIZE
  6
CONTINUOUS
 62
    30
 10
480.49999999999989
 20
0.0
 30
0.0
 11
1159.5181669999999
 21
0.0
 31
0.0
  0
LINE
  5
5BB
  8
SIZE
  6
CONTINUOUS
 62
    30
 10
404.69999999999987
 20
140.0
 30
0.0
 11
1159.5181669999999
 21
140.0
 31
0.0
  0
LINE
  5
5BC
  8
SIZE
  6
CONTINUOUS
 62
    30
 10
480.49999999999989
 20
0.0
 30
0.0
 11
947.52015199999983
 21
0.0
 31
0.0
  0
TEXT
  5
5BD
  8
NOTE
  6
CONTINUOUS
 62
     4
 10
511.16753999999997
 20
650.882474
 30
0.0
 40
60.0
  1
外気取入口%%C150（ノックアウト穴）
 50
0.000003
 41
0.7
  7
STANDARD1
  0
LINE
  5
5BE
  8
NOTE
  6
CONTINUOUS
 62
     4
 10
487.23517399999997
 20
633.24305300000003
 30
0.0
 11
1376.3423499999999
 21
633.24305300000003
 31
0.0
  0
TEXT
  5
5BF
  8
NOTE
  6
CONTINUOUS
 62
     4
 10
487.95907799999998
 20
206.851775
 30
0.0
 40
60.0
  1
4-%%C2.9取付穴
 50
0.000003
 41
0.7
  7
STANDARD1
  0
LINE
  5
5C0
  8
NOTE
  6
CONTINUOUS
 62
     4
 10
473.20149900000001
 20
191.02521300000001
 30
0.0
 11
892.03792199999998
 21
191.02521300000001
 31
0.0
  0
TEXT
  5
5C1
  8
SIZE
  6
CONTINUOUS
 62
    30
 10
431.71684649500781
 20
380.82777397631429
 30
0.0
 40
50.0
  1
%%c172
 50
7.3089949999999977
 41
0.9
 72
     1
 11
505.0447099999999
 21
390.23299100000003
 31
0.0
  0
LINE
  5
5C2
  8
SIZE
  6
CONTINUOUS
 62
    30
 10
598.51627999999994
 20
384.074432
 30
0.0
 11
336.63869499999998
 21
350.48535399999997
 31
0.0
  0
TEXT
  5
5C3
  8
SIZE
  6
CONTINUOUS
 62
    30
 10
78.0
 20
610.15133000000003
 30
0.0
 40
55.0
  1
156
 41
0.9
 72
     1
 11
135.75
 21
610.15133000000003
 31
0.0
  0
LINE
  5
5C4
  8
SIZE
  6
CONTINUOUS
 62
    30
 10
387.5
 20
492.19999999999987
 30
0.0
 11
387.5
 21
1053.2755259999999
 31
0.0
  0
LINE
  5
5C5
  8
SIZE
  6
CONTINUOUS
 62
    30
 10
387.5
 20
492.19999999999987
 30
0.0
 11
387.5
 21
917.34759799999995
 31
0.0
  0
LINE
  5
5C6
  8
SIZE
  6
CONTINUOUS
 62
    30
 10
356.5
 20
513.00225699999999
 30
0.0
 11
356.5
 21
917.34759799999995
 31
0.0
  0
LINE
  5
5CB
  8
SIZE
  6
CONTINUOUS
 62
    30
 10
-199.5
 20
315.00359300000002
 30
0.0
 11
-199.5
 21
819.42883599999993
 31
0.0
  0
LINE
  5
5CC
  8
SIZE
  6
CONTINUOUS
 62
    30
 10
-263.5
 20
287.00359300000002
 30
0.0
 11
-263.5
 21
819.42883599999993
 31
0.0
  0
LINE
  5
5CD
  8
SIZE
  6
CONTINUOUS
 62
    30
 10
-263.5
 20
287.00359300000002
 30
0.0
 11
-263.5
 21
819.42883599999993
 31
0.0
  0
LINE
  5
5CE
  8
SIZE
  6
CONTINUOUS
 62
    30
 10
356.5
 20
511.00225699999999
 30
0.0
 11
356.5
 21
822.13952699999982
 31
0.0
  0
LINE
  5
5CF
  8
SIZE
  6
CONTINUOUS
 62
    30
 10
356.5
 20
511.00225699999999
 30
0.0
 11
356.5
 21
929.34759799999995
 31
0.0
  0
LINE
  5
5D0
  8
OUTLINE
  6
CONTINUOUS
 62
     3
 10
-137.5
 20
0.0
 30
0.0
 11
462.5
 21
0.0
 31
0.0
  0
LINE
  5
5D1
  8
SIZE
  6
CONTINUOUS
 62
    30
 10
231.5
 20
592.15132999999992
 30
0.0
 11
60.0
 21
592.15132999999992
 31
0.0
  0
LINE
  5
5D2
  8
OUTLINE
  6
CONTINUOUS
 62
     3
 10
430.96622400000001
 20
47.0
 30
0.0
 11
-105.966224
 21
47.0
 31
0.0
  0
LINE
  5
5D3
  8
SIZE
  6
CONTINUOUS
 62
    30
 10
126.361305
 20
323.51464600000003
 30
0.0
 11
106.523815
 21
320.97023999999999
 31
0.0
  0
LINE
  5
5D4
  8
NOTE
  6
CONTINUOUS
 62
     4
 10
351.51437099999998
 20
337.0
 30
0.0
 11
111.485629
 21
337.0
 31
0.0
  0
LINE
  5
5D5
  8
DETAIL
  6
CONTINUOUS
 62
     5
 10
430.96622400000001
 20
47.0
 30
0.0
 11
-105.966224
 21
47.0
 31
0.0
  0
LINE
  5
5D6
  8
DETAIL
  6
CONTINUOUS
 62
     5
 10
-137.5
 20
0.0
 30
0.0
 11
462.5
 21
0.0
 31
0.0
  0
LINE
  5
5DB
  8
NOTE
  6
CONTINUOUS
 62
     4
 10
-120.5
 20
1.0
 30
0.0
 11
-221.80744899999999
 21
1.0
 31
0.0
  0
LINE
  5
5DC
  8
NOTE
  6
CONTINUOUS
 62
     4
 10
-120.5
 20
21.0
 30
0.0
 11
-221.80744899999999
 21
21.0
 31
0.0
  0
LINE
  5
5DD
  8
OUTLINE
  6
CONTINUOUS
 62
     3
 10
-105.966224
 20
0.0
 30
0.0
 11
-105.966224
 21
47.0
 31
0.0
  0
POINT
  5
5DE
  8
DEFPOINTS
  6
CONTINUOUS
 62
     7
 10
-120.5
 20
1.0
 30
0.0
  0
POINT
  5
5DF
  8
DEFPOINTS
  6
CONTINUOUS
 62
     7
 10
-120.5
 20
1.0
 30
0.0
  0
LINE
  5
5E0
  8
NOTE
  6
CONTINUOUS
 62
     4
 10
-210.76500799999999
 20
1.0
 30
0.0
 11
-190.76500799999999
 21
21.0
 31
0.0
  0
LINE
  5
5E1
  8
NOTE
  6
CONTINUOUS
 62
     4
 10
-205.76500799999999
 20
1.0
 30
0.0
 11
-185.76500799999999
 21
21.0
 31
0.0
  0
LINE
  5
5E2
  8
NOTE
  6
CONTINUOUS
 62
     4
 10
-200.76500799999999
 20
1.0
 30
0.0
 11
-180.76500799999999
 21
21.0
 31
0.0
  0
LINE
  5
5E3
  8
NOTE
  6
CONTINUOUS
 62
     4
 10
-120.5
 20
1.0
 30
0.0
 11
-120.5
 21
21.0
 31
0.0
  0
LINE
  5
5E4
  8
NOTE
  6
CONTINUOUS
 62
     4
 10
-170.76500799999999
 20
1.0
 30
0.0
 11
-150.76500799999999
 21
21.0
 31
0.0
  0
LINE
  5
5E5
  8
NOTE
  6
CONTINUOUS
 62
     4
 10
-165.76500799999999
 20
1.0
 30
0.0
 11
-145.76500799999999
 21
21.0
 31
0.0
  0
LINE
  5
5E6
  8
NOTE
  6
CONTINUOUS
 62
     4
 10
-160.76500799999999
 20
1.0
 30
0.0
 11
-140.76500799999999
 21
21.0
 31
0.0
  0
LINE
  5
5E7
  8
DETAIL
  6
CONTINUOUS
 62
     5
 10
-105.966224
 20
0.0
 30
0.0
 11
-105.966224
 21
47.0
 31
0.0
  0
LINE
  5
5E9
  8
NOTE
  6
CONTINUOUS
 62
     4
 10
-220.278515
 20
243.91601399999999
 30
0.0
 11
-199.5
 21
267.0
 31
0.0
  0
LINE
  5
5EA
  8
NOTE
  6
CONTINUOUS
 62
     4
 10
-227.58478099999999
 20
267.0
 30
0.0
 11
-171.41521900000001
 21
267.0
 31
0.0
  0
LINE
  5
5EC
  8
NOTE
  6
CONTINUOUS
 62
     4
 10
-263.5
 20
239.0
 30
0.0
 11
-272.17872999999997
 21
209.178921
 31
0.0
  0
LINE
  5
5ED
  8
NOTE
  6
CONTINUOUS
 62
     4
 10
-285.92653999999999
 20
217.513553
 30
0.0
 11
-263.5
 21
239.0
 31
0.0
  0
POINT
  5
5EE
  8
DEFPOINTS
  6
CONTINUOUS
 62
     7
 10
-293.50359300000002
 20
239.0
 30
0.0
  0
POINT
  5
5EF
  8
DEFPOINTS
  6
CONTINUOUS
 62
     7
 10
-227.58478099999999
 20
267.0
 30
0.0
  0
POINT
  5
5F0
  8
DEFPOINTS
  6
CONTINUOUS
 62
     7
 10
-227.58478099999999
 20
267.0
 30
0.0
  0
POINT
  5
5F1
  8
DEFPOINTS
  6
CONTINUOUS
 62
     7
 10
-263.5
 20
269.00359300000002
 30
0.0
  0
POINT
  5
5F2
  8
DEFPOINTS
  6
CONTINUOUS
 62
     7
 10
-263.5
 20
269.00359300000002
 30
0.0
  0
LINE
  5
5F3
  8
NOTE
  6
CONTINUOUS
 62
     4
 10
-263.5
 20
269.00359300000002
 30
0.0
 11
-263.5
 21
208.996407
 31
0.0
  0
LINE
  5
5F4
  8
NOTE
  6
CONTINUOUS
 62
     4
 10
-293.50359300000002
 20
239.0
 30
0.0
 11
-233.496407
 21
239.0
 31
0.0
  0
LINE
  5
5F5
  8
NOTE
  6
CONTINUOUS
 62
     4
 10
-199.5
 20
267.0
 30
0.0
 11
-205.95272900000001
 21
236.61942400000001
 31
0.0
  0
POINT
  5
5F6
  8
DEFPOINTS
  6
CONTINUOUS
 62
     7
 10
-199.5
 20
297.00359300000002
 30
0.0
  0
LINE
  5
5F7
  8
NOTE
  6
CONTINUOUS
 62
     4
 10
-199.5
 20
297.00359300000002
 30
0.0
 11
-199.5
 21
236.996407
 31
0.0
  0
LINE
  5
5F9
  8
DETAIL
  6
CONTINUOUS
 62
     5
 10
-323.88282900000002
 20
473.0
 30
0.0
 11
-323.88282900000002
 21
455.99856299999988
 31
0.0
  0
ARC
  5
5FA
  8
DETAIL
  6
CONTINUOUS
 62
     5
 10
-326.88318800000002
 20
455.99856299999988
 30
0.0
 40
3.0003589999999991
 50
270.0
 51
0.0
  0
ARC
  5
5FE
  8
DETAIL
  6
CONTINUOUS
 62
     5
 10
-326.88318800000002
 20
463.99892199999999
 30
0.0
 40
3.0003589999999991
 50
270.0
 51
0.0
  0
LINE
  5
603
  8
OUTLINE
  6
CONTINUOUS
 62
     3
 10
387.5
 20
472.19999999999999
 30
0.0
 11
387.5
 21
140.80000000000001
 31
0.0
  0
LINE
  5
604
  8
NOTE
  6
CONTINUOUS
 62
     4
 10
231.5
 20
457.01437099999993
 30
0.0
 11
231.5
 21
216.98562899999999
 31
0.0
  0
CIRCLE
  5
605
  8
DETAIL
  6
CONTINUOUS
 62
     5
 10
231.5
 20
337.0
 30
0.0
 40
75.0
  0
LINE
  5
606
  8
NOTE
  6
CONTINUOUS
 62
     4
 10
231.5
 20
266.98562900000002
 30
0.0
 11
231.5
 21
407.01437099999993
 31
0.0
  0
CIRCLE
  5
607
  8
NOTE
  6
CONTINUOUS
 62
     4
 10
231.5
 20
337.0
 30
0.0
 40
86.0
  0
LINE
  5
608
  8
DETAIL
  6
CONTINUOUS
 62
     5
 10
387.5
 20
472.19999999999999
 30
0.0
 11
387.5
 21
140.80000000000001
 31
0.0
  0
LINE
  5
609
  8
NOTE
  6
CONTINUOUS
 62
     4
 10
226.406103
 20
251.0
 30
0.0
 11
236.593897
 21
251.0
 31
0.0
  0
CIRCLE
  5
60A
  8
DETAIL
  6
CONTINUOUS
 62
     5
 10
231.5
 20
251.0
 30
0.0
 40
1.45
  0
LINE
  5
60B
  8
NOTE
  6
CONTINUOUS
 62
     4
 10
445.5
 20
1.0
 30
0.0
 11
546.80744900000002
 21
1.0
 31
0.0
  0
LINE
  5
60C
  8
NOTE
  6
CONTINUOUS
 62
     4
 10
445.5
 20
21.0
 30
0.0
 11
546.80744900000002
 21
21.0
 31
0.0
  0
LINE
  5
60D
  8
OUTLINE
  6
CONTINUOUS
 62
     3
 10
430.96622400000001
 20
0.0
 30
0.0
 11
430.96622400000001
 21
47.0
 31
0.0
  0
ARC
  5
60E
  8
OUTLINE
  6
CONTINUOUS
 62
     3
 10
386.69999999999999
 20
140.80000000000001
 30
0.0
 40
0.8
 50
269.99825499999997
 51
0.0
  0
POINT
  5
60F
  8
DEFPOINTS
  6
CONTINUOUS
 62
     7
 10
430.96622400000001
 20
47.0
 30
0.0
  0
POINT
  5
610
  8
DEFPOINTS
  6
CONTINUOUS
 62
     7
 10
386.69999999999999
 20
140.0
 30
0.0
  0
POINT
  5
611
  8
DEFPOINTS
  6
CONTINUOUS
 62
     7
 10
386.69999999999999
 20
140.0
 30
0.0
  0
ARC
  5
612
  8
DETAIL
  6
CONTINUOUS
 62
     5
 10
386.69999999999999
 20
140.80000000000001
 30
0.0
 40
0.8
 50
270.0
 51
0.0
  0
POINT
  5
613
  8
DEFPOINTS
  6
CONTINUOUS
 62
     7
 10
445.5
 20
1.0
 30
0.0
  0
POINT
  5
614
  8
DEFPOINTS
  6
CONTINUOUS
 62
     7
 10
445.5
 20
1.0
 30
0.0
  0
POINT
  5
615
  8
DEFPOINTS
  6
CONTINUOUS
 62
     7
 10
445.5
 20
1.0
 30
0.0
  0
POINT
  5
616
  8
DEFPOINTS
  6
CONTINUOUS
 62
     7
 10
387.5
 20
140.80000000000001
 30
0.0
  0
LINE
  5
617
  8
NOTE
  6
CONTINUOUS
 62
     4
 10
445.5
 20
1.0
 30
0.0
 11
445.5
 21
21.0
 31
0.0
  0
LINE
  5
618
  8
DETAIL
  6
CONTINUOUS
 62
     5
 10
430.96622400000001
 20
0.0
 30
0.0
 11
430.96622400000001
 21
47.0
 31
0.0
  0
POINT
  5
619
  8
DEFPOINTS
  6
CONTINUOUS
 62
     7
 10
462.5
 20
0.0
 30
0.0
  0
POINT
  5
61A
  8
DEFPOINTS
  6
CONTINUOUS
 62
     7
 10
462.5
 20
0.0
 30
0.0
  0
POINT
  5
61B
  8
DEFPOINTS
  6
CONTINUOUS
 62
     7
 10
462.5
 20
0.0
 30
0.0
  0
POINT
  5
61C
  8
DEFPOINTS
  6
CONTINUOUS
 62
     7
 10
462.5
 20
0.0
 30
0.0
  0
LINE
  5
61D
  8
NOTE
  6
CONTINUOUS
 62
     4
 10
485.76500799999991
 20
1.0
 30
0.0
 11
465.76500800000002
 21
21.0
 31
0.0
  0
LINE
  5
61E
  8
NOTE
  6
CONTINUOUS
 62
     4
 10
490.76500800000002
 20
1.0
 30
0.0
 11
470.76500800000002
 21
21.0
 31
0.0
  0
LINE
  5
61F
  8
NOTE
  6
CONTINUOUS
 62
     4
 10
495.76500800000002
 20
1.0
 30
0.0
 11
475.76500800000002
 21
21.0
 31
0.0
  0
LINE
  5
620
  8
NOTE
  6
CONTINUOUS
 62
     4
 10
525.76500799999985
 20
1.0
 30
0.0
 11
505.76500800000002
 21
21.0
 31
0.0
  0
LINE
  5
621
  8
NOTE
  6
CONTINUOUS
 62
     4
 10
530.76500799999997
 20
1.0
 30
0.0
 11
510.76500799999991
 21
21.0
 31
0.0
  0
LINE
  5
622
  8
NOTE
  6
CONTINUOUS
 62
     4
 10
535.76500799999985
 20
1.0
 30
0.0
 11
515.76500799999985
 21
21.0
 31
0.0
  0
LINE
  5
623
  8
SIZE
  6
CONTINUOUS
 62
    30
 10
367.5
 20
592.15132999999992
 30
0.0
 11
251.5
 21
592.15132999999992
 31
0.0
  0
LINE
  5
624
  8
NOTE
  6
CONTINUOUS
 62
     4
 10
317.5
 20
337.0
 30
0.0
 11
344.74009999999998
 21
322.08041400000002
 31
0.0
  0
LINE
  5
625
  8
NOTE
  6
CONTINUOUS
 62
     4
 10
336.49904199999997
 20
473.0
 30
0.0
 11
376.50095800000003
 21
473.0
 31
0.0
  0
CIRCLE
  5
626
  8
FIX
  6
CONTINUOUS
 62
    11
 10
356.5
 20
473.0
 30
0.0
 40
18.598564
  0
LINE
  5
627
  8
DETAIL
  6
CONTINUOUS
 62
     5
 10
347.499641
 20
460.99883799999992
 30
0.0
 11
330.3003589999999
 21
460.99883799999992
 31
0.0
  0
ARC
  5
628
  8
DETAIL
  6
CONTINUOUS
 62
     5
 10
344.11265800000001
 20
432.996084
 30
0.0
 40
3.0003589999999991
 50
180.0
 51
270.0
  0
LINE
  5
62A
  8
DETAIL
  6
CONTINUOUS
 62
     5
 10
327.30000000000001
 20
473.0
 30
0.0
 11
327.30000000000001
 21
455.99883799999998
 31
0.0
  0
LINE
  5
62B
  8
NOTE
  6
CONTINUOUS
 62
     4
 10
301.51437099999998
 20
337.0
 30
0.0
 11
161.48562899999999
 21
337.0
 31
0.0
  0
LINE
  5
62C
  8
NOTE
  6
CONTINUOUS
 62
     4
 10
226.406103
 20
423.0
 30
0.0
 11
236.593897
 21
423.0
 31
0.0
  0
LINE
  5
62D
  8
SIZE
  6
CONTINUOUS
 62
    30
 10
146.19879399999999
 20
326.05905300000001
 30
0.0
 11
316.80120599999998
 21
347.94094699999999
 31
0.0
  0
CIRCLE
  5
62E
  8
DETAIL
  6
CONTINUOUS
 62
     5
 10
231.5
 20
423.0
 30
0.0
 40
1.45
  0
LINE
  5
62F
  8
NOTE
  6
CONTINUOUS
 62
     4
 10
145.5
 20
331.90610299999997
 30
0.0
 11
145.5
 21
342.09389700000003
 31
0.0
  0
POINT
  5
630
  8
DEFPOINTS
  6
CONTINUOUS
 62
     7
 10
146.19879399999999
 20
326.05905300000001
 30
0.0
  0
LINE
  5
631
  8
SIZE
  6
CONTINUOUS
 62
    30
 10
136.28004999999999
 20
324.78684900000002
 30
0.0
 11
126.361305
 21
323.51464600000003
 31
0.0
  0
CIRCLE
  5
632
  8
SIZE
  6
CONTINUOUS
 62
    30
 10
146.19879399999999
 20
326.05905300000001
 30
0.0
 40
10.0
  0
CIRCLE
  5
633
  8
DETAIL
  6
CONTINUOUS
 62
     5
 10
145.5
 20
337.0
 30
0.0
 40
1.45
  0
POINT
  5
634
  8
DEFPOINTS
  6
CONTINUOUS
 62
     7
 10
231.5
 20
457.01437099999993
 30
0.0
  0
LINE
  5
635
  8
NOTE
  6
CONTINUOUS
 62
     4
 10
333.63082600000001
 20
310.45920999999998
 30
0.0
 11
317.5
 21
337.0
 31
0.0
  0
LINE
  5
636
  8
NOTE
  6
CONTINUOUS
 62
     4
 10
231.5
 20
337.0
 30
0.0
 11
244.760302
 21
365.08525400000002
 31
0.0
  0
LINE
  5
637
  8
NOTE
  6
CONTINUOUS
 62
     4
 10
257.026385
 20
354.69239199999998
 30
0.0
 11
231.5
 21
337.0
 31
0.0
  0
LINE
  5
638
  8
NOTE
  6
CONTINUOUS
 62
     4
 10
317.5
 20
331.90610299999997
 30
0.0
 11
317.5
 21
342.09389700000003
 31
0.0
  0
POINT
  5
639
  8
DEFPOINTS
  6
CONTINUOUS
 62
     7
 10
316.80120599999998
 20
347.94094699999999
 30
0.0
  0
LINE
  5
63A
  8
SIZE
  6
CONTINUOUS
 62
    30
 10
326.71994999999998
 20
349.21315099999998
 30
0.0
 11
336.63869499999998
 21
350.48535399999997
 31
0.0
  0
CIRCLE
  5
63B
  8
SIZE
  6
CONTINUOUS
 62
    30
 10
316.80120599999998
 20
347.94094699999999
 30
0.0
 40
10.0
  0
CIRCLE
  5
63C
  8
DETAIL
  6
CONTINUOUS
 62
     5
 10
317.5
 20
337.0
 30
0.0
 40
1.45
  0
LINE
  5
63D
  8
DETAIL
  6
CONTINUOUS
 62
     5
 10
341.11229900000001
 20
452.99847899999997
 30
0.0
 11
341.11229900000001
 21
432.996084
 31
0.0
  0
LINE
  5
63E
  8
DETAIL
  6
CONTINUOUS
 62
     5
 10
330.3003589999999
 20
452.99847899999997
 30
0.0
 11
341.11229900000001
 21
452.99847899999997
 31
0.0
  0
ARC
  5
63F
  8
DETAIL
  6
CONTINUOUS
 62
     5
 10
330.3003589999999
 20
455.99883799999998
 30
0.0
 40
3.0003589999999991
 50
180.0
 51
270.0
  0
CIRCLE
  5
640
  8
SIZE
  6
CONTINUOUS
 62
    30
 10
231.5
 20
592.15132999999992
 30
0.0
 40
10.0
  0
POINT
  5
641
  8
DEFPOINTS
  6
CONTINUOUS
 62
     7
 10
231.5
 20
592.15132999999992
 30
0.0
  0
LINE
  5
642
  8
SIZE
  6
CONTINUOUS
 62
    30
 10
241.5
 20
592.15132999999992
 30
0.0
 11
251.5
 21
592.15132999999992
 31
0.0
  0
LINE
  5
643
  8
SIZE
  6
CONTINUOUS
 62
    30
 10
231.5
 20
477.01437099999998
 30
0.0
 11
231.5
 21
610.15133000000003
 31
0.0
  0
ARC
  5
644
  8
DETAIL
  6
CONTINUOUS
 62
     5
 10
330.3003589999999
 20
463.99919799999998
 30
0.0
 40
3.0003589999999991
 50
180.0
 51
270.0
  0
LINE
  5
645
  8
NOTE
  6
CONTINUOUS
 62
     4
 10
356.5
 20
493.00225699999999
 30
0.0
 11
356.5
 21
452.9977429999999
 31
0.0
  0
LINE
  5
646
  8
DETAIL
  6
CONTINUOUS
 62
     5
 10
385.69999999999999
 20
473.0
 30
0.0
 11
385.69999999999999
 21
432.996084
 31
0.0
  0
POINT
  5
647
  8
DEFPOINTS
  6
CONTINUOUS
 62
     7
 10
351.51437099999998
 20
337.0
 30
0.0
  0
LINE
  5
648
  8
DETAIL
  6
CONTINUOUS
 62
     5
 10
344.11265800000001
 20
429.99572499999999
 30
0.0
 11
382.69964099999999
 21
429.99572499999999
 31
0.0
  0
ARC
  5
649
  8
DETAIL
  6
CONTINUOUS
 62
     5
 10
382.69964099999999
 20
432.996084
 30
0.0
 40
3.0003589999999991
 50
270.0
 51
0.0
  0
POINT
  5
64A
  8
DEFPOINTS
  6
CONTINUOUS
 62
     7
 10
387.5
 20
472.19999999999999
 30
0.0
  0
LINE
  5
64B
  8
SIZE
  6
CONTINUOUS
 62
    30
 10
377.5
 20
592.15132999999992
 30
0.0
 11
367.5
 21
592.15132999999992
 31
0.0
  0
CIRCLE
  5
64C
  8
SIZE
  6
CONTINUOUS
 62
    30
 10
387.5
 20
592.15132999999992
 30
0.0
 40
10.0
  0
LINE
  5
64D
  8
SIZE
  6
CONTINUOUS
 62
    30
 10
387.5
 20
492.19999999999987
 30
0.0
 11
387.5
 21
610.15133000000003
 31
0.0
  0
POINT
  5
64E
  8
DEFPOINTS
  6
CONTINUOUS
 62
     7
 10
387.5
 20
472.19999999999999
 30
0.0
  0
POINT
  5
64F
  8
DEFPOINTS
  6
CONTINUOUS
 62
     7
 10
387.5
 20
472.19999999999999
 30
0.0
  0
POINT
  5
650
  8
DEFPOINTS
  6
CONTINUOUS
 62
     7
 10
356.5
 20
493.00225699999999
 30
0.0
  0
ARC
  5
651
  8
OUTLINE
  6
CONTINUOUS
 62
     3
 10
386.69999999999999
 20
472.19999999999999
 30
0.0
 40
0.8
 50
0.0
 51
90.0
  0
POINT
  5
653
  8
DEFPOINTS
  6
CONTINUOUS
 62
     7
 10
356.5
 20
493.00225699999999
 30
0.0
  0
POINT
  5
656
  8
DEFPOINTS
  6
CONTINUOUS
 62
     7
 10
386.69999999999999
 20
473.0
 30
0.0
  0
POINT
  5
657
  8
DEFPOINTS
  6
CONTINUOUS
 62
     7
 10
356.5
 20
493.00225699999999
 30
0.0
  0
ARC
  5
658
  8
DETAIL
  6
CONTINUOUS
 62
     5
 10
386.69999999999999
 20
472.19999999999999
 30
0.0
 40
0.8
 50
0.0
 51
90.0
  0
LINE
  5
659
  8
DETAIL
  6
CONTINUOUS
 62
     5
 10
362.5
 20
470.69999999999987
 30
0.0
 11
350.5
 21
470.69999999999987
 31
0.0
  0
LINE
  5
65A
  8
DETAIL
  6
CONTINUOUS
 62
     5
 10
350.5
 20
473.0
 30
0.0
 11
350.5
 21
463.99919799999998
 31
0.0
  0
ARC
  5
65B
  8
DETAIL
  6
CONTINUOUS
 62
     5
 10
347.499641
 20
463.99919799999998
 30
0.0
 40
3.0003589999999991
 50
270.0
 51
0.0
  0
ARC
  5
65C
  8
DETAIL
  6
CONTINUOUS
 62
     5
 10
365.500359
 20
463.99919799999998
 30
0.0
 40
3.0003589999999991
 50
180.0
 51
270.0
  0
ARC
  5
65D
  8
DETAIL
  6
CONTINUOUS
 62
     5
 10
382.69964099999999
 20
463.99919799999998
 30
0.0
 40
3.0003589999999991
 50
270.0
 51
0.0
  0
LINE
  5
65E
  8
DETAIL
  6
CONTINUOUS
 62
     5
 10
362.5
 20
473.0
 30
0.0
 11
362.5
 21
463.99919799999998
 31
0.0
  0
LINE
  5
65F
  8
DETAIL
  6
CONTINUOUS
 62
     5
 10
365.500359
 20
460.99883799999992
 30
0.0
 11
382.69964099999999
 21
460.99883799999992
 31
0.0
  0
TEXT
  5
660
  8
SIZE
  6
CONTINUOUS
 62
    30
 10
-297.0
 20
930.44283599999994
 30
0.0
 40
50.0
  1
710(吊りボルトピッチ)
 41
0.9
 72
     1
 11
1.5
 21
930.44283599999994
 31
0.0
  0
TEXT
  5
661
  8
SIZE
  6
CONTINUOUS
 62
    30
 10
-141.5
 20
807.42883600000005
 30
0.0
 40
50.0
  1
64
 41
0.9
 72
     1
 11
-104.0
 21
807.42883600000005
 31
0.0
  0
LINE
  5
662
  8
SIZE
  6
CONTINUOUS
 62
    30
 10
-179.5
 20
789.42883600000005
 30
0.0
 11
-48.5
 21
789.42883600000005
 31
0.0
  0
LINE
  5
663
  8
SIZE
  6
CONTINUOUS
 62
    30
 10
-263.5
 20
789.42883600000005
 30
0.0
 11
-199.5
 21
789.42883600000005
 31
0.0
  0
LINE
  5
664
  8
SIZE
  6
CONTINUOUS
 62
    30
 10
-273.5
 20
789.42883600000005
 30
0.0
 11
-283.5
 21
789.42883600000005
 31
0.0
  0
CIRCLE
  5
665
  8
SIZE
  6
CONTINUOUS
 62
    30
 10
-263.5
 20
789.42883600000005
 30
0.0
 40
10.0
  0
LINE
  5
666
  8
SIZE
  6
CONTINUOUS
 62
    30
 10
-283.5
 20
789.42883600000005
 30
0.0
 11
-303.5
 21
789.42883600000005
 31
0.0
  0
POINT
  5
667
  8
DEFPOINTS
  6
CONTINUOUS
 62
     7
 10
-263.5
 20
789.42883600000005
 30
0.0
  0
LINE
  5
668
  8
SIZE
  6
CONTINUOUS
 62
    30
 10
-273.5
 20
789.42883600000005
 30
0.0
 11
-283.5
 21
789.42883600000005
 31
0.0
  0
CIRCLE
  5
669
  8
SIZE
  6
CONTINUOUS
 62
    30
 10
-263.5
 20
789.42883600000005
 30
0.0
 40
10.0
  0
POINT
  5
66A
  8
DEFPOINTS
  6
CONTINUOUS
 62
     7
 10
-199.5
 20
789.42883600000005
 30
0.0
  0
LINE
  5
66B
  8
SIZE
  6
CONTINUOUS
 62
    30
 10
-189.5
 20
789.42883600000005
 30
0.0
 11
-179.5
 21
789.42883600000005
 31
0.0
  0
CIRCLE
  5
66C
  8
SIZE
  6
CONTINUOUS
 62
    30
 10
-199.5
 20
789.42883600000005
 30
0.0
 40
10.0
  0
TEXT
  5
66D
  8
SIZE
  6
CONTINUOUS
 62
    30
 10
-63.642857142857132
 20
1053.2755259999999
 30
0.0
 40
55.0
  1
775
 41
0.9
 72
     1
 11
0.0
 21
1053.2755259999999
 31
0.0
  0
LINE
  5
66E
  8
SIZE
  6
CONTINUOUS
 62
    30
 10
346.5
 20
899.34759800000006
 30
0.0
 11
336.5
 21
899.34759800000006
 31
0.0
  0
LINE
  5
66F
  8
SIZE
  6
CONTINUOUS
 62
    30
 10
346.5
 20
899.34759800000006
 30
0.0
 11
336.5
 21
899.34759800000006
 31
0.0
  0
LINE
  5
670
  8
SIZE
  6
CONTINUOUS
 62
    30
 10
336.5
 20
899.34759800000006
 30
0.0
 11
316.5
 21
899.34759800000006
 31
0.0
  0
LINE
  5
671
  8
SIZE
  6
CONTINUOUS
 62
    30
 10
407.5
 20
899.34759800000006
 30
0.0
 11
522.42857100000003
 21
899.34759800000006
 31
0.0
  0
POINT
  5
672
  8
DEFPOINTS
  6
CONTINUOUS
 62
     7
 10
387.5
 20
899.34759800000006
 30
0.0
  0
LINE
  5
673
  8
SIZE
  6
CONTINUOUS
 62
    30
 10
397.5
 20
899.34759800000006
 30
0.0
 11
407.5
 21
899.34759800000006
 31
0.0
  0
CIRCLE
  5
674
  8
SIZE
  6
CONTINUOUS
 62
    30
 10
387.5
 20
899.34759800000006
 30
0.0
 40
10.0
  0
CIRCLE
  5
675
  8
SIZE
  6
CONTINUOUS
 62
    30
 10
356.5
 20
899.34759800000006
 30
0.0
 40
10.0
  0
LINE
  5
676
  8
SIZE
  6
CONTINUOUS
 62
    30
 10
356.5
 20
899.34759800000006
 30
0.0
 11
387.5
 21
899.34759800000006
 31
0.0
  0
CIRCLE
  5
677
  8
SIZE
  6
CONTINUOUS
 62
    30
 10
356.5
 20
899.34759800000006
 30
0.0
 40
10.0
  0
TEXT
  5
678
  8
SIZE
  6
CONTINUOUS
 62
    30
 10
445.50000028571429
 20
917.34759799999995
 30
0.0
 40
55.0
  1
31
 41
0.9
 72
     1
 11
474.96428600000002
 21
917.34759799999995
 31
0.0
  0
LINE
  5
679
  8
SIZE
  6
CONTINUOUS
 62
    30
 10
377.5
 20
1035.2755259999999
 30
0.0
 11
367.5
 21
1035.2755259999999
 31
0.0
  0
CIRCLE
  5
67A
  8
SIZE
  6
CONTINUOUS
 62
    30
 10
387.5
 20
1035.2755259999999
 30
0.0
 40
10.0
  0
LINE
  5
67B
  8
SIZE
  6
CONTINUOUS
 62
    30
 10
917.52015199999994
 20
23.5
 30
0.0
 11
1021.205547
 21
23.648040000000002
 31
0.0
  0
POINT
  5
67C
  8
DEFPOINTS
  6
CONTINUOUS
 62
     7
 10
917.52015199999994
 20
47.0
 30
0.0
  0
LINE
  5
67D
  8
SIZE
  6
CONTINUOUS
 62
    30
 10
917.52015199999994
 20
57.0
 30
0.0
 11
917.52015199999994
 21
67.0
 31
0.0
  0
CIRCLE
  5
67E
  8
SIZE
  6
CONTINUOUS
 62
    30
 10
917.52015199999994
 20
47.0
 30
0.0
 40
10.0
  0
LINE
  5
67F
  8
SIZE
  6
CONTINUOUS
 62
    30
 10
917.52015199999994
 20
0.0
 30
0.0
 11
917.52015199999994
 21
47.0
 31
0.0
  0
LINE
  5
680
  8
SIZE
  6
CONTINUOUS
 62
    30
 10
917.52015199999994
 20
0.0
 30
0.0
 11
917.52015199999994
 21
47.0
 31
0.0
  0
TEXT
  5
681
  8
SIZE
  6
CONTINUOUS
 62
    30
 10
1003.205547
 20
41.648040571428567
 30
0.0
 40
50.0
  1
47
 50
90.0
 41
0.9
 72
     1
 11
1003.205547
 21
78.076611999999997
 31
0.0
  0
LINE
  5
682
  8
SIZE
  6
CONTINUOUS
 62
    30
 10
917.52015199999994
 20
67.0
 30
0.0
 11
917.52015199999994
 21
87.0
 31
0.0
  0
LINE
  5
683
  8
SIZE
  6
CONTINUOUS
 62
    30
 10
917.52015199999994
 20
10.0
 30
0.0
 11
917.52015199999994
 21
20.0
 31
0.0
  0
LINE
  5
684
  8
SIZE
  6
CONTINUOUS
 62
    30
 10
917.52015199999994
 20
20.0
 30
0.0
 11
917.52015199999994
 21
40.0
 31
0.0
  0
TEXT
  5
685
  8
SIZE
  6
CONTINUOUS
 62
    30
 10
899.078081
 20
352.5
 30
0.0
 40
50.0
  1
136
 50
90.0
 41
0.9
 72
     1
 11
899.078081
 21
405.0
 31
0.0
  0
LINE
  5
686
  8
SIZE
  6
CONTINUOUS
 62
    30
 10
917.078081
 20
463.0
 30
0.0
 11
917.078081
 21
453.0
 31
0.0
  0
POINT
  5
687
  8
DEFPOINTS
  6
CONTINUOUS
 62
     7
 10
917.078081
 20
337.0
 30
0.0
  0
LINE
  5
688
  8
SIZE
  6
CONTINUOUS
 62
    30
 10
917.078081
 20
347.0
 30
0.0
 11
917.078081
 21
357.0
 31
0.0
  0
CIRCLE
  5
689
  8
SIZE
  6
CONTINUOUS
 62
    30
 10
917.078081
 20
337.0
 30
0.0
 40
10.0
  0
LINE
  5
68A
  8
SIZE
  6
CONTINUOUS
 62
    30
 10
917.078081
 20
453.0
 30
0.0
 11
917.078081
 21
357.0
 31
0.0
  0
CIRCLE
  5
68B
  8
SIZE
  6
CONTINUOUS
 62
    30
 10
917.078081
 20
473.0
 30
0.0
 40
10.0
  0
TEXT
  5
68C
  8
SIZE
  6
CONTINUOUS
 62
    30
 10
1111.5181669999999
 20
248.6428571428572
 30
0.0
 40
50.0
  1
333
 50
90.0
 41
0.9
 72
     1
 11
1111.5181669999999
 21
306.5
 31
0.0
  0
LINE
  5
68D
  8
SIZE
  6
CONTINUOUS
 62
    30
 10
1129.5181669999999
 20
160.0
 30
0.0
 11
1129.5181669999999
 21
453.0
 31
0.0
  0
LINE
  5
68E
  8
SIZE
  6
CONTINUOUS
 62
    30
 10
1129.5181669999999
 20
150.0
 30
0.0
 11
1129.5181669999999
 21
160.0
 31
0.0
  0
CIRCLE
  5
68F
  8
SIZE
  6
CONTINUOUS
 62
    30
 10
1129.5181669999999
 20
140.0
 30
0.0
 40
10.0
  0
CIRCLE
  5
690
  8
SIZE
  6
CONTINUOUS
 62
    30
 10
1129.5181669999999
 20
140.0
 30
0.0
 40
10.0
  0
LINE
  5
691
  8
SIZE
  6
CONTINUOUS
 62
    30
 10
1021.205547
 20
23.648040000000002
 30
0.0
 11
1021.205547
 21
132.50518299999999
 31
0.0
  0
POINT
  5
692
  8
DEFPOINTS
  6
CONTINUOUS
 62
     7
 10
1129.5181669999999
 20
0.0
 30
0.0
  0
LINE
  5
693
  8
SIZE
  6
CONTINUOUS
 62
    30
 10
1129.5181669999999
 20
10.0
 30
0.0
 11
1129.5181669999999
 21
20.0
 31
0.0
  0
LINE
  5
694
  8
SIZE
  6
CONTINUOUS
 62
    30
 10
1129.5181669999999
 20
130.0
 30
0.0
 11
1129.5181669999999
 21
120.0
 31
0.0
  0
LINE
  5
695
  8
SIZE
  6
CONTINUOUS
 62
    30
 10
1129.5181669999999
 20
120.0
 30
0.0
 11
1129.5181669999999
 21
20.0
 31
0.0
  0
LINE
  5
696
  8
SIZE
  6
CONTINUOUS
 62
    30
 10
1129.5181669999999
 20
463.0
 30
0.0
 11
1129.5181669999999
 21
453.0
 31
0.0
  0
CIRCLE
  5
697
  8
SIZE
  6
CONTINUOUS
 62
    30
 10
1129.5181669999999
 20
473.0
 30
0.0
 40
10.0
  0
POINT
  5
698
  8
DEFPOINTS
  6
CONTINUOUS
 62
     7
 10
1129.5181669999999
 20
473.0
 30
0.0
  0
LINE
  5
733
  8
NOTE
  6
CONTINUOUS
 62
     4
 10
317.5
 20
337.0
 30
0.0
 11
470.20149900000001
 21
191.02521300000001
 31
0.0
  0
LINE
  5
736
  8
NOTE
  6
CONTINUOUS
 62
     4
 10
231.5
 20
337.0
 30
0.0
 11
484.23517399999997
 21
633.24305300000003
 31
0.0
  0
ARC
  5
737
  8
SIZE
  6
CONTINUOUS
 62
    30
 10
1193.6801188282061
 20
-353.07070305164427
 30
0.0
 40
31.597198222215269
 50
181.8085285788801
 51
223.99350352523689
  0
ARC
  5
738
  8
SIZE
  6
CONTINUOUS
 62
    30
 10
1215.619957135531
 20
-333.61471928854041
 30
0.0
 40
60.907462704317901
 50
222.825158048943
 51
241.60012473519609
  0
ARC
  5
739
  8
SIZE
  6
CONTINUOUS
 62
    30
 10
1234.7068640273869
 20
-299.31294731000708
 30
0.0
 40
100.1602882448895
 50
241.32834555280559
 51
254.79475247108539
  0
ARC
  5
73A
  8
SIZE
  6
CONTINUOUS
 62
    30
 10
1245.41620981394
 20
-260.21332568872782
 30
0.0
 40
140.69997251379331
 50
254.76238472147489
 51
270.20744549779181
  0
ARC
  5
73B
  8
SIZE
  6
CONTINUOUS
 62
    30
 10
1246.4350461860599
 20
-260.21332568872702
 30
0.0
 40
140.69997251379411
 50
269.79255450220819
 51
285.23761527852503
  0
ARC
  5
73C
  8
SIZE
  6
CONTINUOUS
 62
    30
 10
1257.1443919726121
 20
-299.31294731000708
 30
0.0
 40
100.1602882448896
 50
285.2052475289147
 51
298.67165444719461
  0
ARC
  5
73D
  8
SIZE
  6
CONTINUOUS
 62
    30
 10
1276.231298864469
 20
-333.6147192885411
 30
0.0
 40
60.907462704317403
 50
298.39987526480439
 51
317.17484195105737
  0
ARC
  5
73E
  8
SIZE
  6
CONTINUOUS
 62
    30
 10
1298.1711371717929
 20
-353.07070305164427
 30
0.0
 40
31.597198222215209
 50
316.00649647476308
 51
358.1914714211199
  0
LINE
  5
73F
  8
SIZE
  6
CONTINUOUS
 62
    30
 10
1329.752596
 20
-354.06789600000002
 30
0.0
 11
1329.752596
 21
-354.06789600000002
 31
0.0
  0
ARC
  5
740
  8
SIZE
  6
CONTINUOUS
 62
    30
 10
1298.1711371717929
 20
-27.319462948355731
 30
0.0
 40
31.597198222215269
 50
1.8085285788800709
 51
43.993503525236846
  0
ARC
  5
741
  8
SIZE
  6
CONTINUOUS
 62
    30
 10
1276.231298864469
 20
-46.77544671145894
 30
0.0
 40
60.90746270431746
 50
42.82515804894259
 51
61.600124735195578
  0
ARC
  5
742
  8
SIZE
  6
CONTINUOUS
 62
    30
 10
1257.1443919726121
 20
-81.077218689992861
 30
0.0
 40
100.1602882448897
 50
61.328345552805288
 51
74.794752471085133
  0
ARC
  5
743
  8
SIZE
  6
CONTINUOUS
 62
    30
 10
1246.435049873219
 20
-120.176840811273
 30
0.0
 40
140.69997202714711
 50
74.762386223685695
 51
90.207447000002531
  0
ARC
  5
744
  8
SIZE
  6
CONTINUOUS
 62
    30
 10
1245.41620612678
 20
-120.1768408112721
 30
0.0
 40
140.69997202714629
 50
89.792552999997554
 51
105.2376137763144
  0
ARC
  5
745
  8
SIZE
  6
CONTINUOUS
 62
    30
 10
1234.7068640273881
 20
-81.077218689992861
 30
0.0
 40
100.1602882448896
 50
105.2052475289147
 51
118.6716544471946
  0
ARC
  5
746
  8
SIZE
  6
CONTINUOUS
 62
    30
 10
1215.619957135531
 20
-46.775446711459622
 30
0.0
 40
60.907462704317901
 50
118.3998752648039
 51
137.17484195105689
  0
ARC
  5
747
  8
SIZE
  6
CONTINUOUS
 62
    30
 10
1193.6801188282061
 20
-27.319462948355731
 30
0.0
 40
31.597198222215219
 50
136.00649647476311
 51
178.1914714211199
  0
LINE
  5
748
  8
NOTE
  6
CONTINUOUS
 62
     4
 10
-457.5
 20
337.0
 30
0.0
 11
-592.03104499999995
 21
555.01785800000005
 31
0.0
  0
LINE
  5
749
  8
NOTE
  6
CONTINUOUS
 62
     4
 10
-353.5
 20
473.0
 30
0.0
 11
-590.13847300000009
 21
669.27029400000004
 31
0.0
  0
LINE
  5
74A
  8
NOTE
  6
CONTINUOUS
 62
     4
 10
-263.5
 20
239.0
 30
0.0
 11
-501.243717
 21
-159.78903199999999
 31
0.0
  0
LINE
  5
74B
  8
NOTE
  6
CONTINUOUS
 62
     4
 10
-199.5
 20
267.0
 30
0.0
 11
-493.08136500000012
 21
-324.30864300000002
 31
0.0
  0
ENDSEC
  0
EOF
