  0
SECTION
  2
HEADER
  9
$ACADVER
  1
AC1009
  9
$INSBASE
 10
0.0
 20
0.0
 30
0.0
  9
$EXTMIN
 10
-1546.2228504937959
 20
-917.46915600422278
 30
-0.000000000013056
  9
$EXTMAX
 10
1513.358419789125
 20
859.59024260547449
 30
0.0000000000011552
  9
$LIMMIN
 10
-4267.1522210000003
 20
-2696.0832100000011
  9
$LIMMAX
 10
7190.7174229999991
 20
5141.1553640000002
  9
$ORTHOMODE
 70
     0
  9
$REGENMODE
 70
     1
  9
$FILLMODE
 70
     1
  9
$QTEXTMODE
 70
     0
  9
$MIRRTEXT
 70
     0
  9
$DRAGMODE
 70
     2
  9
$LTSCALE
 40
20.0
  9
$OSMODE
 70
   431
  9
$ATTMODE
 70
     1
  9
$TEXTSIZE
 40
64.0
  9
$TRACEWID
 40
0.05
  9
$TEXTSTYLE
  7
STANDARD1
  9
$CLAYER
  8
SYMBOLLINE
  9
$CELTYPE
  6
CONTINUOUS
  9
$CECOLOR
 62
     7
  9
$DIMSCALE
 40
1.0
  9
$DIMASZ
 40
20.0
  9
$DIMEXO
 40
20.0
  9
$DIMDLI
 40
80.0
  9
$DIMRND
 40
0.0
  9
$DIMDLE
 40
0.0
  9
$DIMEXE
 40
18.0
  9
$DIMTP
 40
0.0
  9
$DIMTM
 40
0.0
  9
$DIMTXT
 40
55.0
  9
$DIMCEN
 40
0.09
  9
$DIMTSZ
 40
0.0
  9
$DIMTOL
 70
     0
  9
$DIMLIM
 70
     0
  9
$DIMTIH
 70
     0
  9
$DIMTOH
 70
     0
  9
$DIMSE1
 70
     0
  9
$DIMSE2
 70
     0
  9
$DIMTAD
 70
     1
  9
$DIMZIN
 70
     8
  9
$DIMBLK
  1
ORIGIN
  9
$DIMASO
 70
     1
  9
$DIMSHO
 70
     0
  9
$DIMPOST
  1

  9
$DIMAPOST
  1

  9
$DIMALT
 70
     0
  9
$DIMALTD
 70
     2
  9
$DIMALTF
 40
25.399999999999999
  9
$DIMLFAC
 40
1.0
  9
$DIMTOFL
 70
     0
  9
$DIMTVP
 40
0.0
  9
$DIMTIX
 70
     0
  9
$DIMSOXD
 70
     0
  9
$DIMSAH
 70
     0
  9
$DIMBLK1
  1

  9
$DIMBLK2
  1

  9
$DIMSTYLE
  2
STANDARD
  9
$DIMCLRD
 70
     0
  9
$DIMCLRE
 70
     0
  9
$DIMCLRT
 70
     0
  9
$DIMTFAC
 40
1.0
  9
$DIMGAP
 40
0.09
  9
$LUNITS
 70
     2
  9
$LUPREC
 70
     4
  9
$SKETCHINC
 40
0.1
  9
$FILLETRAD
 40
0.8
  9
$AUNITS
 70
     1
  9
$AUPREC
 70
     3
  9
$MENU
  1
ACAD
  9
$ELEVATION
 40
0.0
  9
$PELEVATION
 40
0.0
  9
$THICKNESS
 40
0.0
  9
$LIMCHECK
 70
     0
  9
$BLIPMODE
 70
     0
  9
$CHAMFERA
 40
0.0
  9
$CHAMFERB
 40
0.0
  9
$SKPOLY
 70
     0
  9
$TDCREATE
 40
2450330.4399309959
  9
$TDUPDATE
 40
2455866.822796829
  9
$TDINDWG
 40
3.7006165971999998
  9
$TDUSRTIMER
 40
3.7006162499999999
  9
$USRTIMER
 70
     1
  9
$ANGBASE
 50
0.0
  9
$ANGDIR
 70
     0
  9
$PDMODE
 70
     3
  9
$PDSIZE
 40
-2.0
  9
$PLINEWID
 40
0.0
  9
$COORDS
 70
     0
  9
$SPLFRAME
 70
     0
  9
$SPLINETYPE
 70
     6
  9
$SPLINESEGS
 70
     8
  9
$ATTDIA
 70
     0
  9
$ATTREQ
 70
     1
  9
$HANDLING
 70
     1
  9
$HANDSEED
  5
B51
  9
$SURFTAB1
 70
     6
  9
$SURFTAB2
 70
     6
  9
$SURFTYPE
 70
     6
  9
$SURFU
 70
     6
  9
$SURFV
 70
     6
  9
$UCSNAME
  2

  9
$UCSORG
 10
0.0
 20
0.0
 30
0.0
  9
$UCSXDIR
 10
1.0
 20
0.0
 30
0.0
  9
$UCSYDIR
 10
0.0
 20
1.0
 30
0.0
  9
$PUCSNAME
  2

  9
$PUCSORG
 10
0.0
 20
0.0
 30
0.0
  9
$PUCSXDIR
 10
1.0
 20
0.0
 30
0.0
  9
$PUCSYDIR
 10
0.0
 20
1.0
 30
0.0
  9
$USERI1
 70
     0
  9
$USERI2
 70
     0
  9
$USERI3
 70
     0
  9
$USERI4
 70
     0
  9
$USERI5
 70
     0
  9
$USERR1
 40
20.0
  9
$USERR2
 40
0.0
  9
$USERR3
 40
0.0
  9
$USERR4
 40
0.0
  9
$USERR5
 40
0.0
  9
$WORLDVIEW
 70
     1
  9
$SHADEDGE
 70
     3
  9
$SHADEDIF
 70
    70
  9
$TILEMODE
 70
     1
  9
$MAXACTVP
 70
    48
  9
$PLIMCHECK
 70
     0
  9
$PEXTMIN
 10
1.0000000000000000E+020
 20
1.0000000000000000E+020
 30
1.0000000000000000E+020
  9
$PEXTMAX
 10
-1.0000000000000000E+020
 20
-1.0000000000000000E+020
 30
-1.0000000000000000E+020
  9
$PLIMMIN
 10
0.0
 20
0.0
  9
$PLIMMAX
 10
12.0
 20
9.0
  9
$UNITMODE
 70
     0
  9
$VISRETAIN
 70
     1
  9
$PLINEGEN
 70
     0
  9
$PSLTSCALE
 70
     1
  0
ENDSEC
  0
SECTION
  2
TABLES
  0
TABLE
  2
VPORT
 70
     1
  0
VPORT
  2
*ACTIVE
 70
     0
 10
0.0
 20
0.0
 11
1.0
 21
1.0
 12
1461.782600999999
 22
1222.536077
 13
0.0
 23
0.0
 14
50.0
 24
50.0
 15
100.0
 25
100.0
 16
0.0
 26
0.0
 36
1.0
 17
0.0
 27
0.0
 37
0.0
 40
7896.9888045514617
 41
1.555979643765903
 42
50.0
 43
0.0
 44
0.0
 50
0.0
 51
0.0
 71
     0
 72
  1000
 73
     1
 74
     0
 75
     0
 76
     0
 77
     0
 78
     0
  0
ENDTAB
  0
TABLE
  2
LTYPE
 70
     2
  0
LTYPE
  2
CONTINUOUS
 70
     0
  3
実線
 72
    65
 73
     0
 40
0.0
  0
LTYPE
  2
DASHDOT
 70
     0
  3
____ _ ____ _ ____ _ ____ _ ____ _ ____ _ ____
 72
    65
 73
     4
 40
5.5
 49
4.0
 49
-0.6
 49
0.3
 49
-0.6
  0
ENDTAB
  0
TABLE
  2
LAYER
 70
    12
  0
LAYER
  2
0
 70
     0
 62
     7
  6
CONTINUOUS
  0
LAYER
  2
SYMBOLLINE
 70
     0
 62
    15
  6
CONTINUOUS
  0
LAYER
  2
NOTE
 70
     0
 62
     4
  6
CONTINUOUS
  0
LAYER
  2
OUTLINE
 70
     0
 62
     3
  6
CONTINUOUS
  0
LAYER
  2
DETAIL
 70
     0
 62
     5
  6
CONTINUOUS
  0
LAYER
  2
BASIS
 70
     0
 62
     6
  6
DASHDOT
  0
LAYER
  2
SIZE
 70
     0
 62
    30
  6
CONTINUOUS
  0
LAYER
  2
ARRANGE
 70
     0
 62
     1
  6
CONTINUOUS
  0
LAYER
  2
FIX
 70
     0
 62
    11
  6
CONTINUOUS
  0
LAYER
  2
SERVICESPACE
 70
     0
 62
     2
  6
DASHDOT
  0
LAYER
  2
ETC
 70
     0
 62
    61
  6
CONTINUOUS
  0
LAYER
  2
DEFPOINTS
 70
     0
 62
     7
  6
CONTINUOUS
  0
ENDTAB
  0
TABLE
  2
STYLE
 70
     4
  0
STYLE
  2
STANDARD
 70
     0
 40
0.0
 41
0.9
 50
0.0
 71
     0
 42
64.0
  3
SIMPLEX
  4
BIGFONT
  0
STYLE
  2
ANNOTATIVE
 70
     0
 40
0.0
 41
1.0
 50
0.0
 71
     0
 42
0.2
  3
txt
  4

  0
STYLE
  2
STANDARD1
 70
     0
 40
0.0
 41
1.0
 50
0.0
 71
     0
 42
64.0
  3
MONOTXT
  4
BIGFONT
  0
STYLE
  2

 70
     1
 40
0.0
 41
1.0
 50
0.0
 71
     0
 42
64.0
  3
ltypeshp.shx
  4

  0
ENDTAB
  0
TABLE
  2
VIEW
 70
     2
  0
VIEW
  2
ALL
 70
     0
 40
9000.0
 10
241.50664699999999
 20
0.0
 41
12483.01
 11
0.0
 21
0.0
 31
1.0
 12
0.0
 22
0.0
 32
0.0
 42
50.0
 43
0.0
 44
0.0
 50
0.0
 71
     0
  0
ENDTAB
  0
TABLE
  2
UCS
 70
     0
  0
ENDTAB
  0
TABLE
  2
APPID
 70
     4
  0
APPID
  2
ACAD
 70
     0
  0
APPID
  2
ACADANNOTATIVE
 70
     0
  0
APPID
  2
ACAD_MLEADERVER
 70
     0
  0
APPID
  2
ACAD_EXEMPT_FROM_CAD_STANDARDS
 70
     0
  0
ENDTAB
  0
TABLE
  2
DIMSTYLE
 70
     2
  0
DIMSTYLE
  2
STANDARD
 70
     0
  3

  4

  5

  6

  7

 40
1.0
 41
0.18
 42
0.0625
 43
0.38
 44
0.18
 45
0.0
 46
0.0
 47
0.0
 48
0.0
140
0.18
141
0.09
142
0.0
143
25.399999999999999
144
1.0
145
0.0
146
1.0
147
0.09
 71
     0
 72
     0
 73
     1
 74
     1
 75
     0
 76
     0
 77
     0
 78
     0
170
     0
171
     2
172
     0
173
     0
174
     0
175
     0
176
     0
177
     0
178
     0
  0
DIMSTYLE
  2
ANNOTATIVE
 70
     0
  3

  4

  5

  6

  7

 40
1.0
 41
0.18
 42
0.0625
 43
0.38
 44
0.18
 45
0.0
 46
0.0
 47
0.0
 48
0.0
140
0.18
141
0.09
142
0.0
143
25.399999999999999
144
1.0
145
0.0
146
1.0
147
0.09
 71
     0
 72
     0
 73
     1
 74
     1
 75
     0
 76
     0
 77
     0
 78
     0
170
     0
171
     2
172
     0
173
     0
174
     0
175
     0
176
     0
177
     0
178
     0
  0
ENDTAB
  0
ENDSEC
  0
SECTION
  2
BLOCKS
  0
BLOCK
  8
0
  2
$MODEL_SPACE
 70
     0
 10
0.0
 20
0.0
 30
0.0
  3
$MODEL_SPACE
  1

  0
ENDBLK
  5
AEC
  8
0
  0
BLOCK
 67
     1
  8
0
  2
$PAPER_SPACE
 70
     0
 10
0.0
 20
0.0
 30
0.0
  3
$PAPER_SPACE
  1

  0
ENDBLK
  5
AE8
 67
     1
  8
0
  0
BLOCK
  8
0
  2
_ORIGIN
 70
     0
 10
0.0
 20
0.0
 30
0.0
  3
_ORIGIN
  1

  0
CIRCLE
  5
34
  8
0
  6
CONTINUOUS
 62
     7
 10
0.0
 20
0.0
 30
0.0
 40
0.5
  0
LINE
  5
35
  8
0
  6
CONTINUOUS
 62
     7
 10
-0.5
 20
0.0
 30
0.0
 11
-1.0
 21
0.0
 31
0.0
  0
ENDBLK
  5
36
  8
0
  0
BLOCK
  8
0
 62
     7
  2
A$C5C2D2188
 70
     0
 10
0.0
 20
0.0
 30
0.0
  3
A$C5C2D2188
  1

  0
LINE
  5
353
  8
NOTE
  6
CONTINUOUS
 62
     4
 10
2890.947463
 20
1729.827483
 30
0.0
 11
3525.7246060000002
 21
1729.827483
 31
0.0
  0
TEXT
  5
354
  8
NOTE
  6
CONTINUOUS
 62
     4
 10
2914.879829
 20
1747.4669040000001
 30
0.0
 40
60.0
  1
%%C150（ノックアウト穴）
 50
0.000003
 41
0.7
  7
STANDARD1
  0
LINE
  5
355
  8
SIZE
  6
CONTINUOUS
 62
    30
 10
2654.8632210000001
 20
682.62851699999999
 30
0.0
 11
3458.3512850000011
 21
682.62851699999999
 31
0.0
  0
LINE
  5
356
  8
SIZE
  6
CONTINUOUS
 62
    30
 10
2678.8632210000001
 20
932.62851700000022
 30
0.0
 11
3458.3512850000011
 21
932.62851700000022
 31
0.0
  0
LINE
  5
357
  8
SIZE
  6
CONTINUOUS
 62
    30
 10
2678.8632210000001
 20
932.62851700000022
 30
0.0
 11
3458.3512850000011
 21
932.62851700000022
 31
0.0
  0
LINE
  5
358
  8
SIZE
  6
CONTINUOUS
 62
    30
 10
2678.8632210000001
 20
1532.6285170000001
 30
0.0
 11
3458.3512850000011
 21
1532.6285170000001
 31
0.0
  0
LINE
  5
359
  8
BASIS
  6
DASHDOT
 62
     6
 10
966.836319
 20
1070.1285170000001
 30
0.0
 11
2796.8900629999998
 21
1070.1285170000001
 31
0.0
  0
LINE
  5
35A
  8
OUTLINE
  6
CONTINUOUS
 62
     3
 10
1102.8632210000001
 20
932.62851700000022
 30
0.0
 11
2660.8632210000001
 21
932.62851700000022
 31
0.0
  0
LINE
  5
35B
  8
OUTLINE
  6
CONTINUOUS
 62
     3
 10
1102.8632210000001
 20
1532.6285170000001
 30
0.0
 11
2660.8632210000001
 21
1532.6285170000001
 31
0.0
  0
LINE
  5
35C
  8
OUTLINE
  6
CONTINUOUS
 62
     3
 10
1126.8632210000001
 20
682.62851699999999
 30
0.0
 11
2636.8632210000001
 21
682.62851699999999
 31
0.0
  0
LINE
  5
35D
  8
SIZE
  6
CONTINUOUS
 62
    30
 10
1106.8632210000001
 20
1801.753882
 30
0.0
 11
2656.8632210000001
 21
1801.753882
 31
0.0
  0
LINE
  5
35E
  8
SIZE
  6
CONTINUOUS
 62
    30
 10
2616.8632210000001
 20
320.24515000000002
 30
0.0
 11
1146.8632210000001
 21
320.24515000000002
 31
0.0
  0
ARC
  5
35F
  8
DETAIL
  6
CONTINUOUS
 62
     5
 10
1579.6019679999999
 20
567.66602799999998
 30
0.0
 40
100.0
 50
85.835943999999998
 51
121.227886
  0
LINE
  5
360
  8
SIZE
  6
CONTINUOUS
 62
    30
 10
2636.8632210000001
 20
1698.0493449999999
 30
0.0
 11
1126.8632210000001
 21
1698.0493449999999
 31
0.0
  0
LINE
  5
361
  8
SIZE
  6
CONTINUOUS
 62
    30
 10
1153.8632210000001
 20
168.716362
 30
0.0
 11
2609.8632210000001
 21
168.716362
 31
0.0
  0
TEXT
  5
362
  8
SIZE
  6
CONTINUOUS
 62
    30
 10
1529.0060781428569
 20
451.46862699999991
 30
0.0
 40
50.0
  1
320
 41
0.9
 72
     1
 11
1586.8632210000001
 21
451.46862699999991
 31
0.0
  0
LINE
  5
363
  8
SIZE
  6
CONTINUOUS
 62
    30
 10
1446.8632210000001
 20
433.4686269999998
 30
0.0
 11
1726.8632210000001
 21
433.4686269999998
 31
0.0
  0
LINE
  5
364
  8
SIZE
  6
CONTINUOUS
 62
    30
 10
1130.8632210000001
 20
54.982098999999991
 30
0.0
 11
2632.8632210000001
 21
54.982098999999991
 31
0.0
  0
LINE
  5
365
  8
DETAIL
  6
CONTINUOUS
 62
     5
 10
2636.8632210000001
 20
1457.6285170000001
 30
0.0
 11
1126.8632210000001
 21
1457.6285170000001
 31
0.0
  0
LINE
  5
366
  8
DETAIL
  6
CONTINUOUS
 62
     5
 10
1126.8632210000001
 20
682.62851699999999
 30
0.0
 11
2636.8632210000001
 21
682.62851699999999
 31
0.0
  0
LINE
  5
367
  8
SERVICESPACE
  6
CONTINUOUS
 62
     2
 10
1106.8632210000001
 20
949.6285170000001
 30
0.0
 11
2656.8632210000001
 21
949.6285170000001
 31
0.0
  0
LINE
  5
368
  8
SERVICESPACE
  6
CONTINUOUS
 62
     2
 10
1106.8632210000001
 20
1515.6285170000001
 30
0.0
 11
2656.8632210000001
 21
1515.6285170000001
 31
0.0
  0
LINE
  5
369
  8
DETAIL
  6
CONTINUOUS
 62
     5
 10
1102.8632210000001
 20
1532.6285170000001
 30
0.0
 11
2660.8632210000001
 21
1532.6285170000001
 31
0.0
  0
LINE
  5
36A
  8
DETAIL
  6
CONTINUOUS
 62
     5
 10
1102.8632210000001
 20
932.62851700000022
 30
0.0
 11
2660.8632210000001
 21
932.62851700000022
 31
0.0
  0
LINE
  5
36B
  8
DETAIL
  6
CONTINUOUS
 62
     5
 10
2629.8575620000001
 20
1031.0718859999999
 30
0.0
 11
1131.868616
 21
1031.0718859999999
 31
0.0
  0
LINE
  5
36C
  8
DETAIL
  6
CONTINUOUS
 62
     5
 10
2613.8556870000002
 20
968.13294800000006
 30
0.0
 11
1149.870776
 21
968.13294800000006
 31
0.0
  0
LINE
  5
36D
  8
DETAIL
  6
CONTINUOUS
 62
     5
 10
2613.855646
 20
1494.124086
 30
0.0
 11
1149.870735
 21
1494.124086
 31
0.0
  0
LINE
  5
36E
  8
DETAIL
  6
CONTINUOUS
 62
     5
 10
2407.0000719999998
 20
1494.124086
 30
0.0
 11
1149.870735
 21
1494.124086
 31
0.0
  0
POLYLINE
  5
36F
  8
NOTE
  6
CONTINUOUS
 62
     4
 66
     1
 10
0.0
 20
0.0
 30
0.0
  0
VERTEX
  5
B30
  8
NOTE
  6
CONTINUOUS
 62
     4
 10
1126.8632210000001
 20
874.62851699999999
 30
0.0
  0
VERTEX
  5
B31
  8
NOTE
  6
CONTINUOUS
 62
     4
 10
666.86057800000003
 20
1246.7881649999999
 30
0.0
  0
SEQEND
  5
B32
  8
NOTE
  6
CONTINUOUS
 62
     4
  0
POLYLINE
  5
373
  8
NOTE
  6
CONTINUOUS
 62
     4
 66
     1
 10
0.0
 20
0.0
 30
0.0
  0
VERTEX
  5
B33
  8
NOTE
  6
CONTINUOUS
 62
     4
 10
1092.8632210000001
 20
955.62851699999999
 30
0.0
  0
VERTEX
  5
B34
  8
NOTE
  6
CONTINUOUS
 62
     4
 10
675.0302429999997
 20
1373.9940859999999
 30
0.0
  0
SEQEND
  5
B35
  8
NOTE
  6
CONTINUOUS
 62
     4
  0
POLYLINE
  5
377
  8
NOTE
  6
CONTINUOUS
 62
     4
 66
     1
 10
0.0
 20
0.0
 30
0.0
  0
VERTEX
  5
B36
  8
NOTE
  6
CONTINUOUS
 62
     4
 10
1087.8632210000001
 20
870.62851699999987
 30
0.0
  0
VERTEX
  5
B37
  8
NOTE
  6
CONTINUOUS
 62
     4
 10
670.8735230000002
 20
1130.2020339999999
 30
0.0
  0
SEQEND
  5
B38
  8
NOTE
  6
CONTINUOUS
 62
     4
  0
LINE
  5
37B
  8
OUTLINE
  6
CONTINUOUS
 62
     3
 10
1086.8632210000001
 20
948.62851699999999
 30
0.0
 11
1086.8632210000001
 21
1516.6285170000001
 31
0.0
  0
LINE
  5
37C
  8
SIZE
  6
CONTINUOUS
 62
    30
 10
1092.8632210000001
 20
993.62851699999987
 30
0.0
 11
1092.8632210000001
 21
1159.1157229999999
 31
0.0
  0
LINE
  5
37D
  8
SIZE
  6
CONTINUOUS
 62
    30
 10
1126.8632210000001
 20
989.62851699999999
 30
0.0
 11
1126.8632210000001
 21
1159.1157229999999
 31
0.0
  0
LINE
  5
37E
  8
SIZE
  6
CONTINUOUS
 62
    30
 10
1087.8632210000001
 20
908.6285170000001
 30
0.0
 11
1087.8632210000001
 21
1252.607655
 31
0.0
  0
LINE
  5
37F
  8
SIZE
  6
CONTINUOUS
 62
    30
 10
1126.8632210000001
 20
989.62851699999999
 30
0.0
 11
1126.8632210000001
 21
1252.607655
 31
0.0
  0
LINE
  5
380
  8
SIZE
  6
CONTINUOUS
 62
    30
 10
286.64912099999998
 20
890.62851699999999
 30
0.0
 11
286.64912099999998
 21
1076.4177669999999
 31
0.0
  0
TEXT
  5
381
  8
NOTE
  6
CONTINUOUS
 62
     4
 10
358.16242
 20
1027.347949
 30
0.0
 40
60.0
  1
RG %%C15.88
 50
0.000003
 41
0.7
  7
STANDARD1
  0
LINE
  5
382
  8
DETAIL
  6
CONTINUOUS
 62
     5
 10
1126.8632210000001
 20
733.63032399999975
 30
0.0
 11
1126.8632210000001
 21
1409.6267210000001
 31
0.0
  0
LINE
  5
383
  8
SERVICESPACE
  6
CONTINUOUS
 62
     2
 10
1106.8632210000001
 20
1515.6285170000001
 30
0.0
 11
1106.8632210000001
 21
949.6285170000001
 31
0.0
  0
LINE
  5
384
  8
DETAIL
  6
CONTINUOUS
 62
     5
 10
1086.8632210000001
 20
948.62851699999999
 30
0.0
 11
1086.8632210000001
 21
1516.6285170000001
 31
0.0
  0
LINE
  5
385
  8
DETAIL
  6
CONTINUOUS
 62
     5
 10
1131.86862
 20
986.13510399999996
 30
0.0
 11
1131.8685800000001
 21
1476.12193
 31
0.0
  0
LINE
  5
386
  8
SIZE
  6
CONTINUOUS
 62
    30
 10
1106.8632210000001
 20
682.62851699999999
 30
0.0
 11
160.50688400000001
 21
682.62851699999999
 31
0.0
  0
LINE
  5
387
  8
SIZE
  6
CONTINUOUS
 62
    30
 10
1133.5245560000001
 20
874.62851699999999
 30
0.0
 11
160.50688400000001
 21
874.62851699999999
 31
0.0
  0
LINE
  5
388
  8
SIZE
  6
CONTINUOUS
 62
    30
 10
1311.3632210000001
 20
612.62851699999999
 30
0.0
 11
38.000003
 21
612.62851699999999
 31
0.0
  0
LINE
  5
389
  8
SIZE
  6
CONTINUOUS
 62
    30
 10
1108.8632210000001
 20
682.62851699999999
 30
0.0
 11
38.000003
 21
682.62851699999999
 31
0.0
  0
LINE
  5
38A
  8
SIZE
  6
CONTINUOUS
 62
    30
 10
1035.2018860000001
 20
806.62851699999999
 30
0.0
 11
256.64912099999998
 21
806.62851699999999
 31
0.0
  0
LINE
  5
38B
  8
SIZE
  6
CONTINUOUS
 62
    30
 10
1108.8632210000001
 20
682.62851699999999
 30
0.0
 11
256.64912099999998
 21
682.62851699999999
 31
0.0
  0
LINE
  5
38C
  8
SIZE
  6
CONTINUOUS
 62
    30
 10
1049.862263
 20
870.62851699999987
 30
0.0
 11
256.64912099999998
 21
870.62851699999987
 31
0.0
  0
LINE
  5
38D
  8
SIZE
  6
CONTINUOUS
 62
    30
 10
1035.2018860000001
 20
806.62851699999999
 30
0.0
 11
256.64912099999998
 21
806.62851699999999
 31
0.0
  0
LINE
  5
38E
  8
SIZE
  6
CONTINUOUS
 62
    30
 10
1108.8632210000001
 20
682.62851699999999
 30
0.0
 11
38.000003
 21
682.62851699999999
 31
0.0
  0
LINE
  5
38F
  8
SIZE
  6
CONTINUOUS
 62
    30
 10
1054.862263
 20
955.62851699999999
 30
0.0
 11
38.000003
 21
955.62851699999999
 31
0.0
  0
LINE
  5
390
  8
NOTE
  6
CONTINUOUS
 62
     4
 10
708.28394800000001
 20
1011.521418
 30
0.0
 11
336.48714799999999
 21
1011.521418
 31
0.0
  0
TEXT
  5
391
  8
NOTE
  6
CONTINUOUS
 62
     4
 10
362.92677099999997
 20
402.3585999999998
 30
0.0
 40
60.0
  1
4-14X30長穴
 50
0.000003
 41
0.7
  7
STANDARD1
  0
LINE
  5
392
  8
NOTE
  6
CONTINUOUS
 62
     4
 10
346.36574200000001
 20
394.35761300000001
 30
0.0
 11
756.62031399999989
 21
394.35761300000001
 31
0.0
  0
TEXT
  5
393
  8
SIZE
  6
CONTINUOUS
 62
    30
 10
160.50688400000001
 20
719.69994557142854
 30
0.0
 40
55.0
  1
192
 50
90.0
 41
0.9
 72
     1
 11
160.50688400000001
 21
778.62851699999999
 31
0.0
  0
LINE
  5
394
  8
SIZE
  6
CONTINUOUS
 62
    30
 10
178.50688400000001
 20
854.62851699999999
 30
0.0
 11
178.50688400000001
 21
702.62851699999999
 31
0.0
  0
TEXT
  5
395
  8
SIZE
  6
CONTINUOUS
 62
    30
 10
50.000002999999992
 20
761.2713741428571
 30
0.0
 40
50.0
  1
273
 50
90.0
 41
0.9
 72
     1
 11
50.000002999999992
 21
819.12851699999999
 31
0.0
  0
LINE
  5
396
  8
SIZE
  6
CONTINUOUS
 62
    30
 10
68.000003000000007
 20
935.62851699999987
 30
0.0
 11
68.000003000000007
 21
702.62851699999999
 31
0.0
  0
CIRCLE
  5
397
  8
SIZE
  6
CONTINUOUS
 62
    30
 10
68.000003000000007
 20
612.62851699999999
 30
0.0
 40
10.0
  0
TEXT
  5
398
  8
SIZE
  6
CONTINUOUS
 62
    30
 10
50.000002999999992
 20
481.77137457142851
 30
0.0
 40
50.0
  1
70
 50
90.0
 41
0.9
 72
     1
 11
50.000002999999992
 21
518.19994599999995
 31
0.0
  0
LINE
  5
399
  8
SIZE
  6
CONTINUOUS
 62
    30
 10
68.000003000000007
 20
602.62851699999999
 30
0.0
 11
68.000003000000007
 21
592.62851699999976
 31
0.0
  0
LINE
  5
39A
  8
SIZE
  6
CONTINUOUS
 62
    30
 10
68.000003000000007
 20
592.62851699999976
 30
0.0
 11
68.000003000000007
 21
463.77137399999992
 31
0.0
  0
POINT
  5
39B
  8
DEFPOINTS
  6
CONTINUOUS
 62
     7
 10
68.000003000000007
 20
612.62851699999999
 30
0.0
  0
LINE
  5
39C
  8
SIZE
  6
CONTINUOUS
 62
    30
 10
68.000003000000007
 20
692.62851699999976
 30
0.0
 11
68.000003000000007
 21
702.62851699999999
 31
0.0
  0
CIRCLE
  5
39D
  8
SIZE
  6
CONTINUOUS
 62
    30
 10
68.000003000000007
 20
682.62851699999999
 30
0.0
 40
10.0
  0
LINE
  5
39E
  8
SIZE
  6
CONTINUOUS
 62
    30
 10
68.000003000000007
 20
682.62851699999999
 30
0.0
 11
68.000003000000007
 21
612.62851699999999
 31
0.0
  0
LINE
  5
39F
  8
SIZE
  6
CONTINUOUS
 62
    30
 10
68.000003000000007
 20
702.62851699999999
 30
0.0
 11
68.000003000000007
 21
722.62851699999976
 31
0.0
  0
POINT
  5
3A0
  8
DEFPOINTS
  6
CONTINUOUS
 62
     7
 10
68.000003000000007
 20
682.62851699999999
 30
0.0
  0
LINE
  5
3A1
  8
SIZE
  6
CONTINUOUS
 62
    30
 10
68.000003000000007
 20
692.62851699999976
 30
0.0
 11
68.000003000000007
 21
702.62851699999999
 31
0.0
  0
CIRCLE
  5
3A2
  8
SIZE
  6
CONTINUOUS
 62
    30
 10
68.000003000000007
 20
682.62851699999999
 30
0.0
 40
10.0
  0
POINT
  5
3A3
  8
DEFPOINTS
  6
CONTINUOUS
 62
     7
 10
178.50688400000001
 20
682.62851699999999
 30
0.0
  0
LINE
  5
3A4
  8
SIZE
  6
CONTINUOUS
 62
    30
 10
178.50688400000001
 20
692.62851699999976
 30
0.0
 11
178.50688400000001
 21
702.62851699999999
 31
0.0
  0
CIRCLE
  5
3A5
  8
SIZE
  6
CONTINUOUS
 62
    30
 10
178.50688400000001
 20
682.62851699999999
 30
0.0
 40
10.0
  0
LINE
  5
3A6
  8
SIZE
  6
CONTINUOUS
 62
    30
 10
178.50688400000001
 20
864.62851699999999
 30
0.0
 11
178.50688400000001
 21
854.62851699999999
 31
0.0
  0
CIRCLE
  5
3A7
  8
SIZE
  6
CONTINUOUS
 62
    30
 10
178.50688400000001
 20
874.62851699999999
 30
0.0
 40
10.0
  0
LINE
  5
3A8
  8
SIZE
  6
CONTINUOUS
 62
    30
 10
68.000003000000007
 20
945.62851699999987
 30
0.0
 11
68.000003000000007
 21
935.62851699999987
 31
0.0
  0
CIRCLE
  5
3A9
  8
SIZE
  6
CONTINUOUS
 62
    30
 10
68.000003000000007
 20
955.62851699999999
 30
0.0
 40
10.0
  0
TEXT
  5
3AA
  8
SIZE
  6
CONTINUOUS
 62
    30
 10
268.64912099999998
 20
706.83368085714278
 30
0.0
 40
50.0
  1
124
 50
90.0
 41
0.9
 72
     1
 11
268.64912099999998
 21
761.47653800000001
 31
0.0
  0
LINE
  5
3AB
  8
SIZE
  6
CONTINUOUS
 62
    30
 10
286.64912099999998
 20
702.62851699999999
 30
0.0
 11
286.64912099999998
 21
786.62851699999999
 31
0.0
  0
TEXT
  5
3AC
  8
NOTE
  6
CONTINUOUS
 62
     4
 10
362.92677099999997
 20
477.36458800000003
 30
0.0
 40
60.0
  1
吊り金具
 50
0.000003
 41
0.7
  7
STANDARD1
  0
LINE
  5
3AD
  8
SIZE
  6
CONTINUOUS
 62
    30
 10
286.64912099999998
 20
692.62851699999976
 30
0.0
 11
286.64912099999998
 21
702.62851699999999
 31
0.0
  0
CIRCLE
  5
3AE
  8
SIZE
  6
CONTINUOUS
 62
    30
 10
286.64912099999998
 20
682.62851699999999
 30
0.0
 40
10.0
  0
POINT
  5
3AF
  8
DEFPOINTS
  6
CONTINUOUS
 62
     7
 10
286.64912099999998
 20
806.62851699999999
 30
0.0
  0
LINE
  5
3B0
  8
SIZE
  6
CONTINUOUS
 62
    30
 10
286.64912099999998
 20
796.62851699999987
 30
0.0
 11
286.64912099999998
 21
786.62851699999999
 31
0.0
  0
CIRCLE
  5
3B1
  8
SIZE
  6
CONTINUOUS
 62
    30
 10
286.64912099999998
 20
806.62851699999999
 30
0.0
 40
10.0
  0
POINT
  5
3B2
  8
DEFPOINTS
  6
CONTINUOUS
 62
     7
 10
286.64912099999998
 20
870.62851699999987
 30
0.0
  0
LINE
  5
3B3
  8
SIZE
  6
CONTINUOUS
 62
    30
 10
286.64912099999998
 20
880.62851699999999
 30
0.0
 11
286.64912099999998
 21
890.62851699999999
 31
0.0
  0
CIRCLE
  5
3B4
  8
SIZE
  6
CONTINUOUS
 62
    30
 10
286.64912099999998
 20
870.62851699999987
 30
0.0
 40
10.0
  0
LINE
  5
3B5
  8
SIZE
  6
CONTINUOUS
 62
    30
 10
286.64912099999998
 20
796.62851699999987
 30
0.0
 11
286.64912099999998
 21
786.62851699999999
 31
0.0
  0
CIRCLE
  5
3B6
  8
SIZE
  6
CONTINUOUS
 62
    30
 10
286.64912099999998
 20
806.62851699999999
 30
0.0
 40
10.0
  0
LINE
  5
3B7
  8
SIZE
  6
CONTINUOUS
 62
    30
 10
286.64912099999998
 20
806.62851699999999
 30
0.0
 11
286.64912099999998
 21
870.62851699999987
 31
0.0
  0
LINE
  5
3B8
  8
SIZE
  6
CONTINUOUS
 62
    30
 10
286.64912099999998
 20
786.62851699999999
 30
0.0
 11
286.64912099999998
 21
766.62851699999999
 31
0.0
  0
TEXT
  5
3B9
  8
SIZE
  6
CONTINUOUS
 62
    30
 10
268.64912099999998
 20
983.41776700000003
 30
0.0
 40
50.0
  1
64
 50
90.0
 41
0.9
 72
     1
 11
268.64912099999998
 21
1020.917767
 31
0.0
  0
POLYLINE
  5
3BA
  8
NOTE
  6
CONTINUOUS
 62
     4
 66
     1
 10
0.0
 20
0.0
 30
0.0
  0
VERTEX
  5
B39
  8
NOTE
  6
CONTINUOUS
 62
     4
 10
1133.8632210000001
 20
719.62851699999999
 30
0.0
  0
VERTEX
  5
B3A
  8
NOTE
  6
CONTINUOUS
 62
     4
 10
756.62031399999989
 20
394.35761300000001
 30
0.0
  0
SEQEND
  5
B3B
  8
NOTE
  6
CONTINUOUS
 62
     4
  0
TEXT
  5
3BE
  8
SIZE
  6
CONTINUOUS
 62
    30
 10
949.00607857142859
 20
448.85168499999992
 30
0.0
 40
50.0
  1
47
 41
0.9
 72
     1
 11
985.43465000000003
 21
448.85168499999992
 31
0.0
  0
LINE
  5
3BF
  8
SIZE
  6
CONTINUOUS
 62
    30
 10
1079.8632210000001
 20
768.62851699999976
 30
0.0
 11
1079.8632210000001
 21
400.85168499999992
 31
0.0
  0
LINE
  5
3C0
  8
SIZE
  6
CONTINUOUS
 62
    30
 10
1126.8632210000001
 20
664.62851699999976
 30
0.0
 11
1126.8632210000001
 21
400.85168499999992
 31
0.0
  0
LINE
  5
3C1
  8
SIZE
  6
CONTINUOUS
 62
    30
 10
1110.8632210000001
 20
672.12498400000004
 30
0.0
 11
1110.8632210000001
 21
290.24515000000002
 31
0.0
  0
LINE
  5
3C2
  8
SIZE
  6
CONTINUOUS
 62
    30
 10
1126.8632210000001
 20
664.62851699999976
 30
0.0
 11
1126.8632210000001
 21
290.24515000000002
 31
0.0
  0
LINE
  5
3C3
  8
SIZE
  6
CONTINUOUS
 62
    30
 10
1126.8632210000001
 20
664.62851699999976
 30
0.0
 11
1126.8632210000001
 21
290.24515000000002
 31
0.0
  0
LINE
  5
3C4
  8
SIZE
  6
CONTINUOUS
 62
    30
 10
1133.8632210000001
 20
678.62851699999999
 30
0.0
 11
1133.8632210000001
 21
138.716362
 31
0.0
  0
LINE
  5
3C5
  8
SIZE
  6
CONTINUOUS
 62
    30
 10
1426.8632210000001
 20
522.68400199999996
 30
0.0
 11
1426.8632210000001
 21
403.46862699999991
 31
0.0
  0
LINE
  5
3C6
  8
SIZE
  6
CONTINUOUS
 62
    30
 10
1110.8632210000001
 20
669.12498400000004
 30
0.0
 11
1110.8632210000001
 21
138.716362
 31
0.0
  0
LINE
  5
3C7
  8
SIZE
  6
CONTINUOUS
 62
    30
 10
1133.8632210000001
 20
681.62851699999999
 30
0.0
 11
1133.8632210000001
 21
138.716362
 31
0.0
  0
LINE
  5
3C8
  8
SIZE
  6
CONTINUOUS
 62
    30
 10
1110.8632210000001
 20
672.12498400000004
 30
0.0
 11
1110.8632210000001
 21
24.982099000000002
 31
0.0
  0
LINE
  5
3C9
  8
SIZE
  6
CONTINUOUS
 62
    30
 10
1126.8632210000001
 20
430.85168499999997
 30
0.0
 11
1079.8632210000001
 21
430.85168499999997
 31
0.0
  0
CIRCLE
  5
3CA
  8
SIZE
  6
CONTINUOUS
 62
    30
 10
1110.8632210000001
 20
320.24515000000002
 30
0.0
 40
10.0
  0
CIRCLE
  5
3CB
  8
SIZE
  6
CONTINUOUS
 62
    30
 10
1110.8632210000001
 20
168.716362
 30
0.0
 40
10.0
  0
CIRCLE
  5
3CC
  8
SIZE
  6
CONTINUOUS
 62
    30
 10
1110.8632210000001
 20
54.982098999999991
 30
0.0
 40
10.0
  0
TEXT
  5
3CD
  8
SIZE
  6
CONTINUOUS
 62
    30
 10
980.00607857142859
 20
186.716362
 30
0.0
 40
50.0
  1
23
 41
0.9
 72
     1
 11
1016.43465
 21
186.716362
 31
0.0
  0
LINE
  5
3CE
  8
SIZE
  6
CONTINUOUS
 62
    30
 10
1090.8632210000001
 20
168.716362
 30
0.0
 11
962.00607800000012
 21
168.716362
 31
0.0
  0
LINE
  5
3CF
  8
SIZE
  6
CONTINUOUS
 62
    30
 10
1100.8632210000001
 20
168.716362
 30
0.0
 11
1090.8632210000001
 21
168.716362
 31
0.0
  0
LINE
  5
3D0
  8
SIZE
  6
CONTINUOUS
 62
    30
 10
1059.8632210000001
 20
430.85168499999997
 30
0.0
 11
931.00607799999966
 21
430.85168499999997
 31
0.0
  0
TEXT
  5
3D1
  8
SIZE
  6
CONTINUOUS
 62
    30
 10
990.72036342857143
 20
338.24515000000002
 30
0.0
 40
50.0
  1
16
 41
0.9
 72
     1
 11
1021.791792
 21
338.24515000000002
 31
0.0
  0
LINE
  5
3D2
  8
SIZE
  6
CONTINUOUS
 62
    30
 10
1090.8632210000001
 20
320.24515000000002
 30
0.0
 11
972.72036400000002
 21
320.24515000000002
 31
0.0
  0
POINT
  5
3D3
  8
DEFPOINTS
  6
CONTINUOUS
 62
     7
 10
1079.8632210000001
 20
430.85168499999997
 30
0.0
  0
LINE
  5
3D4
  8
SIZE
  6
CONTINUOUS
 62
    30
 10
1069.8632210000001
 20
430.85168499999997
 30
0.0
 11
1059.8632210000001
 21
430.85168499999997
 31
0.0
  0
CIRCLE
  5
3D5
  8
SIZE
  6
CONTINUOUS
 62
    30
 10
1079.8632210000001
 20
430.85168499999997
 30
0.0
 40
10.0
  0
LINE
  5
3D6
  8
SIZE
  6
CONTINUOUS
 62
    30
 10
1100.8632210000001
 20
320.24515000000002
 30
0.0
 11
1090.8632210000001
 21
320.24515000000002
 31
0.0
  0
LINE
  5
3D7
  8
SIZE
  6
CONTINUOUS
 62
    30
 10
1120.8632210000001
 20
54.982098999999991
 30
0.0
 11
1130.8632210000001
 21
54.982098999999991
 31
0.0
  0
LINE
  5
3D8
  8
SIZE
  6
CONTINUOUS
 62
    30
 10
1143.8632210000001
 20
168.716362
 30
0.0
 11
1153.8632210000001
 21
168.716362
 31
0.0
  0
CIRCLE
  5
3D9
  8
SIZE
  6
CONTINUOUS
 62
    30
 10
1133.8632210000001
 20
168.716362
 30
0.0
 40
10.0
  0
POINT
  5
3DA
  8
DEFPOINTS
  6
CONTINUOUS
 62
     7
 10
1110.8632210000001
 20
168.716362
 30
0.0
  0
LINE
  5
3DB
  8
SIZE
  6
CONTINUOUS
 62
    30
 10
1143.8632210000001
 20
168.716362
 30
0.0
 11
1153.8632210000001
 21
168.716362
 31
0.0
  0
CIRCLE
  5
3DC
  8
SIZE
  6
CONTINUOUS
 62
    30
 10
1133.8632210000001
 20
168.716362
 30
0.0
 40
10.0
  0
LINE
  5
3DD
  8
SIZE
  6
CONTINUOUS
 62
    30
 10
1133.8632210000001
 20
168.716362
 30
0.0
 11
1110.8632210000001
 21
168.716362
 31
0.0
  0
LINE
  5
3DE
  8
SIZE
  6
CONTINUOUS
 62
    30
 10
1153.8632210000001
 20
168.716362
 30
0.0
 11
1173.8632210000001
 21
168.716362
 31
0.0
  0
LINE
  5
3DF
  8
SIZE
  6
CONTINUOUS
 62
    30
 10
1136.8632210000001
 20
430.85168499999997
 30
0.0
 11
1146.8632210000001
 21
430.85168499999997
 31
0.0
  0
CIRCLE
  5
3E0
  8
SIZE
  6
CONTINUOUS
 62
    30
 10
1126.8632210000001
 20
430.85168499999997
 30
0.0
 40
10.0
  0
LINE
  5
3E1
  8
SIZE
  6
CONTINUOUS
 62
    30
 10
1146.8632210000001
 20
430.85168499999997
 30
0.0
 11
1166.8632210000001
 21
430.85168499999997
 31
0.0
  0
POINT
  5
3E2
  8
DEFPOINTS
  6
CONTINUOUS
 62
     7
 10
1110.8632210000001
 20
320.24515000000002
 30
0.0
  0
LINE
  5
3E3
  8
SIZE
  6
CONTINUOUS
 62
    30
 10
1136.8632210000001
 20
320.24515000000002
 30
0.0
 11
1146.8632210000001
 21
320.24515000000002
 31
0.0
  0
CIRCLE
  5
3E4
  8
SIZE
  6
CONTINUOUS
 62
    30
 10
1126.8632210000001
 20
320.24515000000002
 30
0.0
 40
10.0
  0
LINE
  5
3E5
  8
SIZE
  6
CONTINUOUS
 62
    30
 10
1126.8632210000001
 20
320.24515000000002
 30
0.0
 11
1110.8632210000001
 21
320.24515000000002
 31
0.0
  0
LINE
  5
3E6
  8
SIZE
  6
CONTINUOUS
 62
    30
 10
1146.8632210000001
 20
320.24515000000002
 30
0.0
 11
1166.8632210000001
 21
320.24515000000002
 31
0.0
  0
POINT
  5
3E7
  8
DEFPOINTS
  6
CONTINUOUS
 62
     7
 10
1126.8632210000001
 20
320.24515000000002
 30
0.0
  0
LINE
  5
3E8
  8
SIZE
  6
CONTINUOUS
 62
    30
 10
1136.8632210000001
 20
320.24515000000002
 30
0.0
 11
1146.8632210000001
 21
320.24515000000002
 31
0.0
  0
CIRCLE
  5
3E9
  8
SIZE
  6
CONTINUOUS
 62
    30
 10
1126.8632210000001
 20
320.24515000000002
 30
0.0
 40
10.0
  0
LINE
  5
3EA
  8
SIZE
  6
CONTINUOUS
 62
    30
 10
1436.8632210000001
 20
433.4686269999998
 30
0.0
 11
1446.8632210000001
 21
433.4686269999998
 31
0.0
  0
CIRCLE
  5
3EB
  8
SIZE
  6
CONTINUOUS
 62
    30
 10
1426.8632210000001
 20
433.4686269999998
 30
0.0
 40
10.0
  0
LINE
  5
3EC
  8
NOTE
  6
CONTINUOUS
 62
     4
 10
1126.8632210000001
 20
874.62851699999999
 30
0.0
 11
1098.568888
 21
887.43663200000003
 31
0.0
  0
LINE
  5
3ED
  8
NOTE
  6
CONTINUOUS
 62
     4
 10
1100.2018860000001
 20
874.62851699999999
 30
0.0
 11
1153.5245560000001
 21
874.62851699999999
 31
0.0
  0
LINE
  5
3EE
  8
DETAIL
  6
CONTINUOUS
 62
     5
 10
1092.8632210000001
 20
971.62851699999999
 30
0.0
 11
1126.8632210000001
 21
971.62851699999999
 31
0.0
  0
LINE
  5
3EF
  8
DETAIL
  6
CONTINUOUS
 62
     5
 10
1092.8632210000001
 20
939.62851699999999
 30
0.0
 11
1126.8632210000001
 21
939.62851699999999
 31
0.0
  0
LINE
  5
3F0
  8
NOTE
  6
CONTINUOUS
 62
     4
 10
1072.862263
 20
955.62851699999999
 30
0.0
 11
1112.8641789999999
 21
955.62851699999999
 31
0.0
  0
LINE
  5
3F1
  8
DETAIL
  6
CONTINUOUS
 62
     5
 10
1126.8632210000001
 20
875.38851699999998
 30
0.0
 11
1087.8632210000001
 21
875.38851699999998
 31
0.0
  0
LINE
  5
3F2
  8
DETAIL
  6
CONTINUOUS
 62
     5
 10
1087.8632210000001
 20
865.868517
 30
0.0
 11
1126.8632210000001
 21
865.868517
 31
0.0
  0
LINE
  5
3F3
  8
NOTE
  6
CONTINUOUS
 62
     4
 10
1067.862263
 20
870.62851699999987
 30
0.0
 11
1107.8641789999999
 21
870.62851699999987
 31
0.0
  0
LINE
  5
3F4
  8
DETAIL
  6
CONTINUOUS
 62
     5
 10
1079.8632210000001
 20
798.68851700000005
 30
0.0
 11
1126.8632210000001
 21
798.68851700000005
 31
0.0
  0
LINE
  5
3F5
  8
DETAIL
  6
CONTINUOUS
 62
     5
 10
1126.8632210000001
 20
814.56851700000004
 30
0.0
 11
1079.8632210000001
 21
814.56851700000004
 31
0.0
  0
LINE
  5
3F6
  8
NOTE
  6
CONTINUOUS
 62
     4
 10
1053.2018860000001
 20
806.62851699999999
 30
0.0
 11
1106.5245560000001
 21
806.62851699999999
 31
0.0
  0
POLYLINE
  5
3F7
  8
NOTE
  6
CONTINUOUS
 62
     4
 66
     1
 10
0.0
 20
0.0
 30
0.0
  0
VERTEX
  5
B3C
  8
NOTE
  6
CONTINUOUS
 62
     4
 10
1079.8632210000001
 20
806.62851699999999
 30
0.0
  0
VERTEX
  5
B3D
  8
NOTE
  6
CONTINUOUS
 62
     4
 10
708.28394800000001
 20
1011.521418
 30
0.0
  0
SEQEND
  5
B3E
  8
NOTE
  6
CONTINUOUS
 62
     4
  0
LINE
  5
3FB
  8
NOTE
  6
CONTINUOUS
 62
     4
 10
1079.8632210000001
 20
806.62851699999999
 30
0.0
 11
1049.710896
 21
814.075288
 31
0.0
  0
LINE
  5
3FC
  8
NOTE
  6
CONTINUOUS
 62
     4
 10
1057.473927
 20
828.15377199999989
 30
0.0
 11
1079.8632210000001
 21
806.62851699999999
 31
0.0
  0
LINE
  5
3FD
  8
NOTE
  6
CONTINUOUS
 62
     4
 10
1087.8632210000001
 20
870.62851699999987
 30
0.0
 11
1058.3578680000001
 21
880.32651799999985
 31
0.0
  0
LINE
  5
3FE
  8
NOTE
  6
CONTINUOUS
 62
     4
 10
1067.159836
 20
893.77990899999998
 30
0.0
 11
1087.8632210000001
 21
870.62851699999987
 31
0.0
  0
POINT
  5
3FF
  8
DEFPOINTS
  6
CONTINUOUS
 62
     7
 10
1087.8632210000001
 20
890.62851699999999
 30
0.0
  0
POINT
  5
400
  8
DEFPOINTS
  6
CONTINUOUS
 62
     7
 10
1079.8632210000001
 20
786.62851699999999
 30
0.0
  0
POINT
  5
401
  8
DEFPOINTS
  6
CONTINUOUS
 62
     7
 10
1053.2018860000001
 20
806.62851699999999
 30
0.0
  0
POINT
  5
402
  8
DEFPOINTS
  6
CONTINUOUS
 62
     7
 10
1067.862263
 20
870.62851699999987
 30
0.0
  0
POINT
  5
403
  8
DEFPOINTS
  6
CONTINUOUS
 62
     7
 10
1053.2018860000001
 20
806.62851699999999
 30
0.0
  0
LINE
  5
404
  8
DETAIL
  6
CONTINUOUS
 62
     5
 10
1087.8632210000001
 20
875.38851699999998
 30
0.0
 11
1087.8632210000001
 21
865.868517
 31
0.0
  0
LINE
  5
405
  8
NOTE
  6
CONTINUOUS
 62
     4
 10
1087.8632210000001
 20
850.62851699999976
 30
0.0
 11
1087.8632210000001
 21
890.62851699999999
 31
0.0
  0
LINE
  5
406
  8
DETAIL
  6
CONTINUOUS
 62
     5
 10
1079.8632210000001
 20
814.56851700000004
 30
0.0
 11
1079.8632210000001
 21
798.68851700000005
 31
0.0
  0
LINE
  5
407
  8
NOTE
  6
CONTINUOUS
 62
     4
 10
1079.8632210000001
 20
786.62851699999999
 30
0.0
 11
1079.8632210000001
 21
826.62851699999987
 31
0.0
  0
LINE
  5
408
  8
NOTE
  6
CONTINUOUS
 62
     4
 10
1092.8632210000001
 20
955.62851699999999
 30
0.0
 11
1065.767227
 21
970.80824700000005
 31
0.0
  0
LINE
  5
409
  8
NOTE
  6
CONTINUOUS
 62
     4
 10
1076.987267
 20
982.32254599999987
 30
0.0
 11
1092.8632210000001
 21
955.62851699999999
 31
0.0
  0
ARC
  5
40A
  8
OUTLINE
  6
CONTINUOUS
 62
     3
 10
1102.8632210000001
 20
948.62851699999999
 30
0.0
 40
16.0
 50
180.0
 51
270.0
  0
ARC
  5
40B
  8
DETAIL
  6
CONTINUOUS
 62
     5
 10
1102.8632210000001
 20
948.62851699999999
 30
0.0
 40
16.0
 50
180.0
 51
270.0
  0
POINT
  5
40C
  8
DEFPOINTS
  6
CONTINUOUS
 62
     7
 10
1092.8632210000001
 20
975.62851699999976
 30
0.0
  0
POINT
  5
40D
  8
DEFPOINTS
  6
CONTINUOUS
 62
     7
 10
1072.862263
 20
955.62851699999999
 30
0.0
  0
LINE
  5
40E
  8
DETAIL
  6
CONTINUOUS
 62
     5
 10
1092.8632210000001
 20
971.62851699999999
 30
0.0
 11
1092.8632210000001
 21
939.62851699999999
 31
0.0
  0
LINE
  5
40F
  8
NOTE
  6
CONTINUOUS
 62
     4
 10
1092.8632210000001
 20
935.62851699999987
 30
0.0
 11
1092.8632210000001
 21
975.62851699999976
 31
0.0
  0
LINE
  5
410
  8
OUTLINE
  6
CONTINUOUS
 62
     3
 10
1126.8632210000001
 20
682.62851699999999
 30
0.0
 11
1126.8632210000001
 21
934.12851699999999
 31
0.0
  0
LINE
  5
411
  8
DETAIL
  6
CONTINUOUS
 62
     5
 10
1326.8632210000001
 20
652.62851699999999
 30
0.0
 11
1526.8632210000001
 21
652.62851699999999
 31
0.0
  0
LINE
  5
412
  8
DETAIL
  6
CONTINUOUS
 62
     5
 10
1329.3632210000001
 20
612.62851699999999
 30
0.0
 11
1524.3632210000001
 21
612.62851699999999
 31
0.0
  0
LINE
  5
413
  8
DETAIL
  6
CONTINUOUS
 62
     5
 10
1322.151758
 20
660.18189299999995
 30
0.0
 11
1163.1995979999999
 21
674.62755900000002
 31
0.0
  0
POINT
  5
414
  8
DEFPOINTS
  6
CONTINUOUS
 62
     7
 10
1126.8632210000001
 20
682.62851699999999
 30
0.0
  0
LINE
  5
415
  8
NOTE
  6
CONTINUOUS
 62
     4
 10
1133.8632210000001
 20
716.62851699999999
 30
0.0
 11
1116.391963
 21
690.95027300000004
 31
0.0
  0
LINE
  5
416
  8
NOTE
  6
CONTINUOUS
 62
     4
 10
1105.8935449999999
 20
703.12613399999998
 30
0.0
 11
1133.8632210000001
 21
716.62851699999999
 31
0.0
  0
POINT
  5
417
  8
DEFPOINTS
  6
CONTINUOUS
 62
     7
 10
1126.8632210000001
 20
682.62851699999999
 30
0.0
  0
POINT
  5
418
  8
DEFPOINTS
  6
CONTINUOUS
 62
     7
 10
1110.8632210000001
 20
690.12498400000004
 30
0.0
  0
POINT
  5
419
  8
DEFPOINTS
  6
CONTINUOUS
 62
     7
 10
1126.8632210000001
 20
682.62851699999999
 30
0.0
  0
POINT
  5
41A
  8
DEFPOINTS
  6
CONTINUOUS
 62
     7
 10
1126.8632210000001
 20
682.62851699999999
 30
0.0
  0
POINT
  5
41B
  8
DEFPOINTS
  6
CONTINUOUS
 62
     7
 10
1126.8632210000001
 20
682.62851699999999
 30
0.0
  0
POINT
  5
41C
  8
DEFPOINTS
  6
CONTINUOUS
 62
     7
 10
1126.8632210000001
 20
682.62851699999999
 30
0.0
  0
POINT
  5
41D
  8
DEFPOINTS
  6
CONTINUOUS
 62
     7
 10
1126.8632210000001
 20
682.62851699999999
 30
0.0
  0
POINT
  5
41E
  8
DEFPOINTS
  6
CONTINUOUS
 62
     7
 10
1133.8632210000001
 20
696.62851699999987
 30
0.0
  0
POINT
  5
41F
  8
DEFPOINTS
  6
CONTINUOUS
 62
     7
 10
1110.8632210000001
 20
687.12498400000004
 30
0.0
  0
POINT
  5
420
  8
DEFPOINTS
  6
CONTINUOUS
 62
     7
 10
1133.8632210000001
 20
699.62851699999999
 30
0.0
  0
POINT
  5
421
  8
DEFPOINTS
  6
CONTINUOUS
 62
     7
 10
1110.8632210000001
 20
690.12498400000004
 30
0.0
  0
LINE
  5
422
  8
DETAIL
  6
CONTINUOUS
 62
     5
 10
1159.1991190000001
 20
680.6282769999998
 30
0.0
 11
1159.1991190000001
 21
678.62803799999995
 31
0.0
  0
ARC
  5
423
  8
DETAIL
  6
CONTINUOUS
 62
     5
 10
1163.1995979999999
 20
678.62803799999995
 30
0.0
 40
4.0004790000000003
 50
180.0
 51
270.0
  0
ARC
  5
424
  8
DETAIL
  6
CONTINUOUS
 62
     5
 10
1157.198879
 20
680.6282769999998
 30
0.0
 40
2.0002399999999989
 50
0.0
 51
90.0
  0
LINE
  5
425
  8
DETAIL
  6
CONTINUOUS
 62
     5
 10
1110.8632210000001
 20
722.62923599999999
 30
0.0
 11
1110.8632210000001
 21
746.13205000000005
 31
0.0
  0
LINE
  5
426
  8
DETAIL
  6
CONTINUOUS
 62
     5
 10
1126.8623829999999
 20
708.62755900000002
 30
0.0
 11
1126.8623829999999
 21
710.6277980000001
 31
0.0
  0
ARC
  5
427
  8
DETAIL
  6
CONTINUOUS
 62
     5
 10
1133.8632210000001
 20
724.62947499999984
 30
0.0
 40
7.000837999999999
 50
0.0
 51
180.0
  0
ARC
  5
428
  8
DETAIL
  6
CONTINUOUS
 62
     5
 10
1133.8632210000001
 20
708.62755900000002
 30
0.0
 40
7.000837999999999
 50
180.0
 51
0.0
  0
LINE
  5
429
  8
DETAIL
  6
CONTINUOUS
 62
     5
 10
1126.8623829999999
 20
722.62923599999999
 30
0.0
 11
1126.8623829999999
 21
724.62947499999984
 31
0.0
  0
LINE
  5
42A
  8
DETAIL
  6
CONTINUOUS
 62
     5
 10
1110.8632210000001
 20
687.12498400000004
 30
0.0
 11
1110.8632210000001
 21
710.6277980000001
 31
0.0
  0
LINE
  5
42B
  8
DETAIL
  6
CONTINUOUS
 62
     5
 10
1126.8623829999999
 20
722.62923599999999
 30
0.0
 11
1110.8632210000001
 21
722.62923599999999
 31
0.0
  0
LINE
  5
42C
  8
DETAIL
  6
CONTINUOUS
 62
     5
 10
1126.8623829999999
 20
710.6277980000001
 30
0.0
 11
1110.8632210000001
 21
710.6277980000001
 31
0.0
  0
LINE
  5
42D
  8
DETAIL
  6
CONTINUOUS
 62
     5
 10
1140.864059
 20
708.62755900000002
 30
0.0
 11
1140.864059
 21
724.62947499999984
 31
0.0
  0
LINE
  5
42E
  8
DETAIL
  6
CONTINUOUS
 62
     5
 10
1126.8632210000001
 20
687.12498400000004
 30
0.0
 11
1110.8632210000001
 21
687.12498400000004
 31
0.0
  0
LINE
  5
42F
  8
DETAIL
  6
CONTINUOUS
 62
     5
 10
1126.8632210000001
 20
746.13205000000005
 30
0.0
 11
1110.8632210000001
 21
746.13205000000005
 31
0.0
  0
LINE
  5
430
  8
DETAIL
  6
CONTINUOUS
 62
     5
 10
1128.8632210000001
 20
701.62673099999995
 30
0.0
 11
1140.664035
 21
701.62673099999995
 31
0.0
  0
LINE
  5
431
  8
DETAIL
  6
CONTINUOUS
 62
     5
 10
1128.8632210000001
 20
731.63032399999975
 30
0.0
 11
1140.664035
 21
731.63032399999975
 31
0.0
  0
LINE
  5
432
  8
DETAIL
  6
CONTINUOUS
 62
     5
 10
1140.664035
 20
701.62673099999995
 30
0.0
 11
1140.664035
 21
731.63032399999975
 31
0.0
  0
LINE
  5
433
  8
DETAIL
  6
CONTINUOUS
 62
     5
 10
1126.8632210000001
 20
682.62851699999999
 30
0.0
 11
1126.8632210000001
 21
699.62673099999995
 31
0.0
  0
LINE
  5
434
  8
NOTE
  6
CONTINUOUS
 62
     4
 10
1133.8632210000001
 20
696.62851699999987
 30
0.0
 11
1133.8632210000001
 21
736.62851699999999
 31
0.0
  0
LINE
  5
435
  8
NOTE
  6
CONTINUOUS
 62
     4
 10
1113.862263
 20
716.62851699999999
 30
0.0
 11
1153.8641789999999
 21
716.62851699999999
 31
0.0
  0
CIRCLE
  5
436
  8
FIX
  6
CONTINUOUS
 62
    11
 10
1133.8632210000001
 20
716.62851699999999
 30
0.0
 40
18.598564
  0
ARC
  5
437
  8
DETAIL
  6
CONTINUOUS
 62
     5
 10
1128.8632210000001
 20
699.62673099999995
 30
0.0
 40
2.0
 50
90.0
 51
180.0
  0
ARC
  5
438
  8
DETAIL
  6
CONTINUOUS
 62
     5
 10
1128.8632210000001
 20
733.63032399999975
 30
0.0
 40
2.0
 50
180.0
 51
270.0
  0
ARC
  5
439
  8
DETAIL
  6
CONTINUOUS
 62
     5
 10
1321.69922
 20
655.2024150000002
 30
0.0
 40
5.0
 50
3.5675199999999991
 51
84.807190999999989
  0
POINT
  5
43A
  8
DEFPOINTS
  6
CONTINUOUS
 62
     7
 10
1329.3632210000001
 20
612.62851699999999
 30
0.0
  0
LINE
  5
43B
  8
DETAIL
  6
CONTINUOUS
 62
     5
 10
1329.3632210000001
 20
612.62851699999999
 30
0.0
 11
1326.689531
 21
655.51353800000004
 31
0.0
  0
LINE
  5
43C
  8
NOTE
  6
CONTINUOUS
 62
     4
 10
1426.8632210000001
 20
684.57303200000001
 30
0.0
 11
1426.8632210000001
 21
540.68400199999985
 31
0.0
  0
POINT
  5
43D
  8
DEFPOINTS
  6
CONTINUOUS
 62
     7
 10
1426.8632210000001
 20
540.68400199999985
 30
0.0
  0
LINE
  5
43E
  8
NOTE
  6
CONTINUOUS
 62
     4
 10
1354.9187059999999
 20
612.62851699999999
 30
0.0
 11
1498.807736
 21
612.62851699999999
 31
0.0
  0
ARC
  5
43F
  8
DETAIL
  6
CONTINUOUS
 62
     5
 10
1528.794529
 20
651.46700700000008
 30
0.0
 40
2.0
 50
121.227886
 51
176.423666
  0
LINE
  5
440
  8
DETAIL
  6
CONTINUOUS
 62
     5
 10
1524.3632210000001
 20
612.62851699999999
 30
0.0
 11
1526.7984240000001
 21
651.59176400000001
 31
0.0
  0
POINT
  5
441
  8
DEFPOINTS
  6
CONTINUOUS
 62
     7
 10
1153.5245560000001
 20
874.62851699999999
 30
0.0
  0
LINE
  5
442
  8
NOTE
  6
CONTINUOUS
 62
     4
 10
1108.7636669999999
 20
899.8678359999999
 30
0.0
 11
1126.8632210000001
 21
874.62851699999999
 31
0.0
  0
POINT
  5
443
  8
DEFPOINTS
  6
CONTINUOUS
 62
     7
 10
1126.8632210000001
 20
971.62851699999999
 30
0.0
  0
POINT
  5
444
  8
DEFPOINTS
  6
CONTINUOUS
 62
     7
 10
1126.8632210000001
 20
971.62851699999999
 30
0.0
  0
ARC
  5
445
  8
DETAIL
  6
CONTINUOUS
 62
     5
 10
1149.870776
 20
986.13510399999996
 30
0.0
 40
18.002155999999999
 50
180.0
 51
270.0
  0
LINE
  5
446
  8
DETAIL
  6
CONTINUOUS
 62
     5
 10
1156.8716139999999
 20
932.62851700000022
 30
0.0
 11
1156.8716139999999
 21
968.13294800000006
 31
0.0
  0
LINE
  5
447
  8
NOTE
  6
CONTINUOUS
 62
     4
 10
666.86057800000003
 20
1246.7881649999999
 30
0.0
 11
231.929778
 21
1246.7881649999999
 31
0.0
  0
TEXT
  5
448
  8
NOTE
  6
CONTINUOUS
 62
     4
 10
363.51227399999999
 20
1146.0285650000001
 30
0.0
 40
60.0
  1
RL %%C9.52
 50
0.000003
 41
0.7
  7
STANDARD1
  0
LINE
  5
449
  8
NOTE
  6
CONTINUOUS
 62
     4
 10
670.8735230000002
 20
1130.2020339999999
 30
0.0
 11
341.83700199999998
 21
1130.2020339999999
 31
0.0
  0
TEXT
  5
44A
  8
NOTE
  6
CONTINUOUS
 62
     4
 10
363.51227399999999
 20
1146.0285650000001
 30
0.0
 40
60.0
  1
RL %%C9.52
 50
0.000003
 41
0.7
  7
STANDARD1
  0
LINE
  5
44B
  8
NOTE
  6
CONTINUOUS
 62
     4
 10
670.8735230000002
 20
1130.2020339999999
 30
0.0
 11
341.83700199999998
 21
1130.2020339999999
 31
0.0
  0
LINE
  5
44C
  8
NOTE
  6
CONTINUOUS
 62
     4
 10
675.0302429999997
 20
1373.9940859999999
 30
0.0
 11
345.99372099999999
 21
1373.9940859999999
 31
0.0
  0
LINE
  5
44D
  8
NOTE
  6
CONTINUOUS
 62
     4
 10
675.0302429999997
 20
1373.9940859999999
 30
0.0
 11
345.99372099999999
 21
1373.9940859999999
 31
0.0
  0
TEXT
  5
44E
  8
ETC
  6
CONTINUOUS
 62
    61
 10
23.424741999999998
 20
1850.2199390000001
 30
0.0
 40
65.0
  1
MPD-RP112_160FA3_6
 50
0.000003
 41
0.85
  7
STANDARD1
  0
TEXT
  5
44F
  8
NOTE
  6
CONTINUOUS
 62
     4
 10
253.60505000000001
 20
1262.6146960000001
 30
0.0
 40
60.0
  1
D2（自然排水口）
 50
0.000003
 41
0.7
  7
STANDARD1
  0
TEXT
  5
450
  8
NOTE
  6
CONTINUOUS
 62
     4
 10
367.668993
 20
1389.8206170000001
 30
0.0
 40
60.0
  1
RD VP25
 50
0.000003
 41
0.7
  7
STANDARD1
  0
LINE
  5
451
  8
SIZE
  6
CONTINUOUS
 62
    30
 10
1086.8632210000001
 20
1534.6285170000001
 30
0.0
 11
1086.8632210000001
 21
1728.0493449999999
 31
0.0
  0
LINE
  5
452
  8
SIZE
  6
CONTINUOUS
 62
    30
 10
1106.8632210000001
 20
1533.6285170000001
 30
0.0
 11
1106.8632210000001
 21
1728.0493449999999
 31
0.0
  0
LINE
  5
453
  8
SIZE
  6
CONTINUOUS
 62
    30
 10
1086.8632210000001
 20
1534.6285170000001
 30
0.0
 11
1086.8632210000001
 21
1831.753882
 31
0.0
  0
LINE
  5
454
  8
SIZE
  6
CONTINUOUS
 62
    30
 10
1106.8632210000001
 20
1533.6285170000001
 30
0.0
 11
1106.8632210000001
 21
1728.0493449999999
 31
0.0
  0
CIRCLE
  5
455
  8
SIZE
  6
CONTINUOUS
 62
    30
 10
1110.8632210000001
 20
1592.7405160000001
 30
0.0
 40
10.0
  0
CIRCLE
  5
456
  8
SIZE
  6
CONTINUOUS
 62
    30
 10
1106.8632210000001
 20
1592.7405160000001
 30
0.0
 40
10.0
  0
LINE
  5
457
  8
SIZE
  6
CONTINUOUS
 62
    30
 10
1126.8632210000001
 20
1129.1157229999999
 30
0.0
 11
1092.8632210000001
 21
1129.1157229999999
 31
0.0
  0
LINE
  5
458
  8
SIZE
  6
CONTINUOUS
 62
    30
 10
1126.8632210000001
 20
1222.607655
 30
0.0
 11
1087.8632210000001
 21
1222.607655
 31
0.0
  0
CIRCLE
  5
459
  8
SIZE
  6
CONTINUOUS
 62
    30
 10
1087.8632210000001
 20
1222.607655
 30
0.0
 40
10.0
  0
TEXT
  5
45A
  8
SIZE
  6
CONTINUOUS
 62
    30
 10
959.86322099999995
 20
1147.1157229999999
 30
0.0
 40
50.0
  1
34
 41
0.9
 72
     1
 11
997.36322099999995
 21
1147.1157229999999
 31
0.0
  0
LINE
  5
45B
  8
SIZE
  6
CONTINUOUS
 62
    30
 10
1072.8632210000001
 20
1129.1157229999999
 30
0.0
 11
941.86322099999995
 21
1129.1157229999999
 31
0.0
  0
POINT
  5
45C
  8
DEFPOINTS
  6
CONTINUOUS
 62
     7
 10
1092.8632210000001
 20
1129.1157229999999
 30
0.0
  0
LINE
  5
45D
  8
SIZE
  6
CONTINUOUS
 62
    30
 10
1082.8632210000001
 20
1129.1157229999999
 30
0.0
 11
1072.8632210000001
 21
1129.1157229999999
 31
0.0
  0
CIRCLE
  5
45E
  8
SIZE
  6
CONTINUOUS
 62
    30
 10
1092.8632210000001
 20
1129.1157229999999
 30
0.0
 40
10.0
  0
TEXT
  5
45F
  8
SIZE
  6
CONTINUOUS
 62
    30
 10
959.14893514285666
 20
1240.607655
 30
0.0
 40
50.0
  1
39
 41
0.9
 72
     1
 11
994.50607799999955
 21
1240.607655
 31
0.0
  0
LINE
  5
460
  8
SIZE
  6
CONTINUOUS
 62
    30
 10
1067.8632210000001
 20
1222.607655
 30
0.0
 11
941.14893500000005
 21
1222.607655
 31
0.0
  0
POINT
  5
461
  8
DEFPOINTS
  6
CONTINUOUS
 62
     7
 10
1087.8632210000001
 20
1222.607655
 30
0.0
  0
LINE
  5
462
  8
SIZE
  6
CONTINUOUS
 62
    30
 10
1077.8632210000001
 20
1222.607655
 30
0.0
 11
1067.8632210000001
 21
1222.607655
 31
0.0
  0
ARC
  5
463
  8
OUTLINE
  6
CONTINUOUS
 62
     3
 10
1102.8632210000001
 20
1516.6285170000001
 30
0.0
 40
16.0
 50
90.0
 51
180.0
  0
ARC
  5
464
  8
DETAIL
  6
CONTINUOUS
 62
     5
 10
1102.8632210000001
 20
1516.6285170000001
 30
0.0
 40
16.0
 50
90.0
 51
180.0
  0
POINT
  5
465
  8
DEFPOINTS
  6
CONTINUOUS
 62
     7
 10
1086.8632210000001
 20
1516.6285170000001
 30
0.0
  0
POINT
  5
466
  8
DEFPOINTS
  6
CONTINUOUS
 62
     7
 10
1086.8632210000001
 20
1516.6285170000001
 30
0.0
  0
LINE
  5
467
  8
SIZE
  6
CONTINUOUS
 62
    30
 10
1096.8632210000001
 20
1592.7405160000001
 30
0.0
 11
1086.8632210000001
 21
1592.7405160000001
 31
0.0
  0
LINE
  5
468
  8
SIZE
  6
CONTINUOUS
 62
    30
 10
1086.8632210000001
 20
1592.7405160000001
 30
0.0
 11
1066.8632210000001
 21
1592.7405160000001
 31
0.0
  0
CIRCLE
  5
469
  8
SIZE
  6
CONTINUOUS
 62
    30
 10
1126.8632210000001
 20
1222.607655
 30
0.0
 40
10.0
  0
LINE
  5
46A
  8
SIZE
  6
CONTINUOUS
 62
    30
 10
1136.8632210000001
 20
1129.1157229999999
 30
0.0
 11
1146.8632210000001
 21
1129.1157229999999
 31
0.0
  0
CIRCLE
  5
46B
  8
SIZE
  6
CONTINUOUS
 62
    30
 10
1126.8632210000001
 20
1129.1157229999999
 30
0.0
 40
10.0
  0
LINE
  5
46C
  8
SIZE
  6
CONTINUOUS
 62
    30
 10
1146.8632210000001
 20
1129.1157229999999
 30
0.0
 11
1166.8632210000001
 21
1129.1157229999999
 31
0.0
  0
LINE
  5
46D
  8
SIZE
  6
CONTINUOUS
 62
    30
 10
1136.8632210000001
 20
1222.607655
 30
0.0
 11
1146.8632210000001
 21
1222.607655
 31
0.0
  0
LINE
  5
46E
  8
SIZE
  6
CONTINUOUS
 62
    30
 10
1146.8632210000001
 20
1222.607655
 30
0.0
 11
1166.8632210000001
 21
1222.607655
 31
0.0
  0
LINE
  5
46F
  8
SIZE
  6
CONTINUOUS
 62
    30
 10
1110.8632210000001
 20
1473.8285169999999
 30
0.0
 11
1110.8632210000001
 21
1622.7405160000001
 31
0.0
  0
LINE
  5
470
  8
DETAIL
  6
CONTINUOUS
 62
     5
 10
1156.871574
 20
1494.124086
 30
0.0
 11
1156.871574
 21
1532.6285170000001
 31
0.0
  0
POINT
  5
471
  8
DEFPOINTS
  6
CONTINUOUS
 62
     7
 10
1110.8632210000001
 20
1455.8285169999999
 30
0.0
  0
POINT
  5
472
  8
DEFPOINTS
  6
CONTINUOUS
 62
     7
 10
1106.8632210000001
 20
1515.6285170000001
 30
0.0
  0
POINT
  5
473
  8
DEFPOINTS
  6
CONTINUOUS
 62
     7
 10
1106.8632210000001
 20
1515.6285170000001
 30
0.0
  0
POINT
  5
474
  8
DEFPOINTS
  6
CONTINUOUS
 62
     7
 10
1106.8632210000001
 20
1515.6285170000001
 30
0.0
  0
LINE
  5
475
  8
DETAIL
  6
CONTINUOUS
 62
     5
 10
1126.8632210000001
 20
1457.6285170000001
 30
0.0
 11
1126.8632210000001
 21
1456.8284209999999
 31
0.0
  0
LINE
  5
476
  8
DETAIL
  6
CONTINUOUS
 62
     5
 10
1126.8623829999999
 20
1434.629475
 30
0.0
 11
1126.8623829999999
 21
1432.6285170000001
 31
0.0
  0
ARC
  5
477
  8
DETAIL
  6
CONTINUOUS
 62
     5
 10
1133.8632210000001
 20
1418.627559
 30
0.0
 40
7.000837999999999
 50
180.0
 51
0.00057
  0
ARC
  5
478
  8
DETAIL
  6
CONTINUOUS
 62
     5
 10
1133.8632210000001
 20
1434.629475
 30
0.0
 40
7.000837999999999
 50
359.99943000000002
 51
180.0
  0
LINE
  5
479
  8
DETAIL
  6
CONTINUOUS
 62
     5
 10
1126.8623829999999
 20
1420.6285170000001
 30
0.0
 11
1126.8623829999999
 21
1418.627559
 31
0.0
  0
LINE
  5
47A
  8
DETAIL
  6
CONTINUOUS
 62
     5
 10
1110.8632210000001
 20
1455.8285169999999
 30
0.0
 11
1110.8632210000001
 21
1432.6285170000001
 31
0.0
  0
LINE
  5
47B
  8
DETAIL
  6
CONTINUOUS
 62
     5
 10
1126.8623829999999
 20
1420.6285170000001
 30
0.0
 11
1110.8632210000001
 21
1420.6285170000001
 31
0.0
  0
LINE
  5
47C
  8
DETAIL
  6
CONTINUOUS
 62
     5
 10
1126.8623829999999
 20
1432.6285170000001
 30
0.0
 11
1110.8632210000001
 21
1432.6285170000001
 31
0.0
  0
LINE
  5
47D
  8
DETAIL
  6
CONTINUOUS
 62
     5
 10
1110.8632210000001
 20
1420.6285170000001
 30
0.0
 11
1110.8632210000001
 21
1397.4285170000001
 31
0.0
  0
LINE
  5
47E
  8
DETAIL
  6
CONTINUOUS
 62
     5
 10
1140.864059
 20
1434.6294049999999
 30
0.0
 11
1140.864059
 21
1418.6276290000001
 31
0.0
  0
LINE
  5
47F
  8
DETAIL
  6
CONTINUOUS
 62
     5
 10
1126.8632210000001
 20
1397.4285170000001
 30
0.0
 11
1110.8632210000001
 21
1397.4285170000001
 31
0.0
  0
LINE
  5
480
  8
DETAIL
  6
CONTINUOUS
 62
     5
 10
1126.8632210000001
 20
1455.8285169999999
 30
0.0
 11
1110.8632210000001
 21
1455.8285169999999
 31
0.0
  0
LINE
  5
481
  8
DETAIL
  6
CONTINUOUS
 62
     5
 10
1128.8632210000001
 20
1441.6303129999999
 30
0.0
 11
1140.730689
 21
1441.6303129999999
 31
0.0
  0
LINE
  5
482
  8
DETAIL
  6
CONTINUOUS
 62
     5
 10
1128.8632210000001
 20
1411.6267210000001
 30
0.0
 11
1140.730689
 21
1411.6267210000001
 31
0.0
  0
LINE
  5
483
  8
DETAIL
  6
CONTINUOUS
 62
     5
 10
1140.730689
 20
1411.6267210000001
 30
0.0
 11
1140.730689
 21
1441.6303129999999
 31
0.0
  0
LINE
  5
484
  8
DETAIL
  6
CONTINUOUS
 62
     5
 10
1126.8632210000001
 20
1443.6303129999999
 30
0.0
 11
1126.8632210000001
 21
1456.8284209999999
 31
0.0
  0
LINE
  5
485
  8
NOTE
  6
CONTINUOUS
 62
     4
 10
1113.7308089999999
 20
1426.6285170000001
 30
0.0
 11
1153.8641789999999
 21
1426.6285170000001
 31
0.0
  0
LINE
  5
486
  8
NOTE
  6
CONTINUOUS
 62
     4
 10
1133.8632210000001
 20
1406.6285170000001
 30
0.0
 11
1133.8632210000001
 21
1446.6285170000001
 31
0.0
  0
CIRCLE
  5
487
  8
FIX
  6
CONTINUOUS
 62
    11
 10
1133.8632210000001
 20
1426.6285170000001
 30
0.0
 40
18.598564
  0
ARC
  5
488
  8
DETAIL
  6
CONTINUOUS
 62
     5
 10
1128.8632210000001
 20
1443.6303129999999
 30
0.0
 40
2.0
 50
180.0
 51
270.0
  0
ARC
  5
489
  8
DETAIL
  6
CONTINUOUS
 62
     5
 10
1128.8632210000001
 20
1409.6267210000001
 30
0.0
 40
2.0
 50
90.0
 51
180.0
  0
ARC
  5
48A
  8
DETAIL
  6
CONTINUOUS
 62
     5
 10
1149.870735
 20
1476.12193
 30
0.0
 40
18.002155999999999
 50
90.0
 51
180.0
  0
LINE
  5
48B
  8
SIZE
  6
CONTINUOUS
 62
    30
 10
1130.8632210000001
 20
1592.7405160000001
 30
0.0
 11
1219.0060779999999
 21
1592.7405160000001
 31
0.0
  0
POINT
  5
48C
  8
DEFPOINTS
  6
CONTINUOUS
 62
     7
 10
1110.8632210000001
 20
1592.7405160000001
 30
0.0
  0
TEXT
  5
48D
  8
SIZE
  6
CONTINUOUS
 62
    30
 10
1168.863221428571
 20
1610.7405160000001
 30
0.0
 40
50.0
  1
4
 41
0.9
 72
     1
 11
1184.9346499999999
 21
1610.7405160000001
 31
0.0
  0
LINE
  5
48E
  8
SIZE
  6
CONTINUOUS
 62
    30
 10
1120.8632210000001
 20
1592.7405160000001
 30
0.0
 11
1130.8632210000001
 21
1592.7405160000001
 31
0.0
  0
LINE
  5
48F
  8
SIZE
  6
CONTINUOUS
 62
    30
 10
1106.8632210000001
 20
1592.7405160000001
 30
0.0
 11
1110.8632210000001
 21
1592.7405160000001
 31
0.0
  0
LINE
  5
490
  8
SIZE
  6
CONTINUOUS
 62
    30
 10
1106.8632210000001
 20
1533.6285170000001
 30
0.0
 11
1106.8632210000001
 21
1622.7405160000001
 31
0.0
  0
CIRCLE
  5
491
  8
SIZE
  6
CONTINUOUS
 62
    30
 10
1106.8632210000001
 20
1698.0493449999999
 30
0.0
 40
10.0
  0
LINE
  5
492
  8
SIZE
  6
CONTINUOUS
 62
    30
 10
1106.8632210000001
 20
1698.0493449999999
 30
0.0
 11
1086.8632210000001
 21
1698.0493449999999
 31
0.0
  0
LINE
  5
493
  8
SIZE
  6
CONTINUOUS
 62
    30
 10
1096.8632210000001
 20
1801.753882
 30
0.0
 11
1106.8632210000001
 21
1801.753882
 31
0.0
  0
CIRCLE
  5
494
  8
SIZE
  6
CONTINUOUS
 62
    30
 10
1106.8632210000001
 20
1698.0493449999999
 30
0.0
 40
10.0
  0
TEXT
  5
495
  8
SIZE
  6
CONTINUOUS
 62
    30
 10
956.00607857142859
 20
1716.0493449999999
 30
0.0
 40
50.0
  1
20
 41
0.9
 72
     1
 11
992.43465000000003
 21
1716.0493449999999
 31
0.0
  0
LINE
  5
496
  8
SIZE
  6
CONTINUOUS
 62
    30
 10
1066.8632210000001
 20
1698.0493449999999
 30
0.0
 11
938.006078
 21
1698.0493449999999
 31
0.0
  0
POINT
  5
497
  8
DEFPOINTS
  6
CONTINUOUS
 62
     7
 10
1086.8632210000001
 20
1698.0493449999999
 30
0.0
  0
LINE
  5
498
  8
SIZE
  6
CONTINUOUS
 62
    30
 10
1076.8632210000001
 20
1698.0493449999999
 30
0.0
 11
1066.8632210000001
 21
1698.0493449999999
 31
0.0
  0
CIRCLE
  5
499
  8
SIZE
  6
CONTINUOUS
 62
    30
 10
1086.8632210000001
 20
1698.0493449999999
 30
0.0
 40
10.0
  0
CIRCLE
  5
49A
  8
SIZE
  6
CONTINUOUS
 62
    30
 10
1086.8632210000001
 20
1801.753882
 30
0.0
 40
10.0
  0
LINE
  5
49B
  8
SIZE
  6
CONTINUOUS
 62
    30
 10
1116.8632210000001
 20
1698.0493449999999
 30
0.0
 11
1126.8632210000001
 21
1698.0493449999999
 31
0.0
  0
LINE
  5
49C
  8
SIZE
  6
CONTINUOUS
 62
    30
 10
1126.8632210000001
 20
1698.0493449999999
 30
0.0
 11
1146.8632210000001
 21
1698.0493449999999
 31
0.0
  0
POINT
  5
49D
  8
DEFPOINTS
  6
CONTINUOUS
 62
     7
 10
1106.8632210000001
 20
1698.0493449999999
 30
0.0
  0
LINE
  5
49E
  8
SIZE
  6
CONTINUOUS
 62
    30
 10
1116.8632210000001
 20
1698.0493449999999
 30
0.0
 11
1126.8632210000001
 21
1698.0493449999999
 31
0.0
  0
LINE
  5
49F
  8
BASIS
  6
DASHDOT
 62
     6
 10
1881.863231
 20
540.68400199999985
 30
0.0
 11
1881.8631909999999
 21
1555.1473229999999
 31
0.0
  0
CIRCLE
  5
4A0
  8
ARRANGE
  6
CONTINUOUS
 62
     1
 10
1881.8632210000001
 20
1070.1285170000001
 30
0.0
 40
50.0
  0
LINE
  5
4A1
  8
OUTLINE
  6
CONTINUOUS
 62
     3
 10
2676.8632210000001
 20
948.62851699999999
 30
0.0
 11
2676.8632210000001
 21
1516.6285170000001
 31
0.0
  0
TEXT
  5
4A2
  8
SIZE
  6
CONTINUOUS
 62
    30
 10
3290.498513
 20
985.99027871428575
 30
0.0
 40
50.0
  1
566（天井開口寸法）
 50
90.0
 41
0.9
 72
     1
 11
3290.498513
 21
1248.275993
 31
0.0
  0
LINE
  5
4A3
  8
SIZE
  6
CONTINUOUS
 62
    30
 10
3308.498513
 20
1495.6285170000001
 30
0.0
 11
3308.498513
 21
969.62851699999987
 31
0.0
  0
LINE
  5
4A4
  8
SIZE
  6
CONTINUOUS
 62
    30
 10
3049.0190170000001
 20
1071.6285170000001
 30
0.0
 11
3216.7939719999999
 21
632.99999500000001
 31
0.0
  0
LINE
  5
4A5
  8
SIZE
  6
CONTINUOUS
 62
    30
 10
3049.0190170000001
 20
1406.6285170000001
 30
0.0
 11
3049.0190170000001
 21
736.62851699999999
 31
0.0
  0
LINE
  5
4A6
  8
DETAIL
  6
CONTINUOUS
 62
     5
 10
2636.8632210000001
 20
733.63056299999982
 30
0.0
 11
2636.8632210000001
 21
1409.616385
 31
0.0
  0
LINE
  5
4A7
  8
SERVICESPACE
  6
CONTINUOUS
 62
     2
 10
2656.8632210000001
 20
1515.6285170000001
 30
0.0
 11
2656.8632210000001
 21
949.6285170000001
 31
0.0
  0
LINE
  5
4A8
  8
ARRANGE
  6
CONTINUOUS
 62
     1
 10
1931.9005709999999
 20
1020.606164
 30
0.0
 11
1831.825871
 21
1119.6508699999999
 31
0.0
  0
LINE
  5
4A9
  8
ARRANGE
  6
CONTINUOUS
 62
     1
 10
1931.826984
 20
1119.7251120000001
 30
0.0
 11
1831.8994580000001
 21
1020.531922
 31
0.0
  0
LINE
  5
4AA
  8
DETAIL
  6
CONTINUOUS
 62
     5
 10
2631.8578419999999
 20
986.13510399999996
 30
0.0
 11
2631.857802
 21
1476.12193
 31
0.0
  0
LINE
  5
4AB
  8
DETAIL
  6
CONTINUOUS
 62
     5
 10
2676.8632210000001
 20
948.62851699999999
 30
0.0
 11
2676.8632210000001
 21
1516.6285170000001
 31
0.0
  0
LINE
  5
4AC
  8
SIZE
  6
CONTINUOUS
 62
    30
 10
2406.8632210000001
 20
433.4686269999998
 30
0.0
 11
2616.8632210000001
 21
433.4686269999998
 31
0.0
  0
LINE
  5
4AD
  8
DETAIL
  6
CONTINUOUS
 62
     5
 10
2286.8632210000001
 20
652.62851699999999
 30
0.0
 11
2486.8632210000001
 21
652.62851699999999
 31
0.0
  0
LINE
  5
4AE
  8
DETAIL
  6
CONTINUOUS
 62
     5
 10
2484.363221000001
 20
612.62851699999999
 30
0.0
 11
2289.3632210000001
 21
612.62851699999999
 31
0.0
  0
LINE
  5
4AF
  8
NOTE
  6
CONTINUOUS
 62
     4
 10
2553.323613
 20
809.0637089999999
 30
0.0
 11
1959.0051779999999
 21
809.0637089999999
 31
0.0
  0
TEXT
  5
4B0
  8
NOTE
  6
CONTINUOUS
 62
     4
 10
1975.379921
 20
823.859376
 30
0.0
 40
60.0
  1
%%C200 吹出円形フランジ
 50
0.000003
 41
0.7
  7
STANDARD1
  0
LINE
  5
4B1
  8
NOTE
  6
CONTINUOUS
 62
     4
 10
2314.9187059999999
 20
612.62851699999999
 30
0.0
 11
2458.8077360000011
 21
612.62851699999999
 31
0.0
  0
LINE
  5
4B2
  8
SIZE
  6
CONTINUOUS
 62
    30
 10
1746.8632210000001
 20
522.68400199999996
 30
0.0
 11
1746.8632210000001
 21
403.46862699999991
 31
0.0
  0
TEXT
  5
4B3
  8
SIZE
  6
CONTINUOUS
 62
    30
 10
1849.0060781428569
 20
451.46862699999991
 30
0.0
 40
50.0
  1
320
 41
0.9
 72
     1
 11
1906.8632210000001
 21
451.46862699999991
 31
0.0
  0
LINE
  5
4B4
  8
SIZE
  6
CONTINUOUS
 62
    30
 10
2066.8632210000001
 20
522.68400199999996
 30
0.0
 11
2066.8632210000001
 21
403.46862699999991
 31
0.0
  0
LINE
  5
4B5
  8
SIZE
  6
CONTINUOUS
 62
    30
 10
1746.8632210000001
 20
522.68400199999996
 30
0.0
 11
1746.8632210000001
 21
403.46862699999991
 31
0.0
  0
TEXT
  5
4B6
  8
SIZE
  6
CONTINUOUS
 62
    30
 10
2169.0060781428569
 20
451.46862699999991
 30
0.0
 40
50.0
  1
320
 41
0.9
 72
     1
 11
2226.8632210000001
 21
451.46862699999991
 31
0.0
  0
LINE
  5
4B7
  8
SIZE
  6
CONTINUOUS
 62
    30
 10
2386.8632210000001
 20
522.68400199999996
 30
0.0
 11
2386.8632210000001
 21
403.46862699999991
 31
0.0
  0
LINE
  5
4B8
  8
SIZE
  6
CONTINUOUS
 62
    30
 10
2066.8632210000001
 20
522.68400199999996
 30
0.0
 11
2066.8632210000001
 21
403.46862699999991
 31
0.0
  0
LINE
  5
4B9
  8
SIZE
  6
CONTINUOUS
 62
    30
 10
2386.8632210000001
 20
522.68400199999996
 30
0.0
 11
2386.8632210000001
 21
403.46862699999991
 31
0.0
  0
TEXT
  5
4BA
  8
SIZE
  6
CONTINUOUS
 62
    30
 10
1561.9346495714281
 20
199.8116
 30
0.0
 40
50.0
  1
1496(吊りボルトピッチ)
 41
0.9
 72
     1
 11
1881.8632210000001
 21
199.8116
 31
0.0
  0
LINE
  5
4BB
  8
SIZE
  6
CONTINUOUS
 62
    30
 10
1766.8632210000001
 20
433.4686269999998
 30
0.0
 11
2046.8632210000001
 21
433.4686269999998
 31
0.0
  0
TEXT
  5
4BC
  8
SIZE
  6
CONTINUOUS
 62
    30
 10
1806.8632210000001
 20
72.982099000000005
 30
0.0
 40
50.0
  1
1542
 41
0.9
 72
     1
 11
1881.8632210000001
 21
72.982099000000005
 31
0.0
  0
POINT
  5
4BD
  8
DEFPOINTS
  6
CONTINUOUS
 62
     7
 10
1746.8632210000001
 20
433.4686269999998
 30
0.0
  0
LINE
  5
4BE
  8
SIZE
  6
CONTINUOUS
 62
    30
 10
1736.8632210000001
 20
433.4686269999998
 30
0.0
 11
1726.8632210000001
 21
433.4686269999998
 31
0.0
  0
CIRCLE
  5
4BF
  8
SIZE
  6
CONTINUOUS
 62
    30
 10
1746.8632210000001
 20
433.4686269999998
 30
0.0
 40
10.0
  0
LINE
  5
4C0
  8
SIZE
  6
CONTINUOUS
 62
    30
 10
1756.8632210000001
 20
433.4686269999998
 30
0.0
 11
1766.8632210000001
 21
433.4686269999998
 31
0.0
  0
CIRCLE
  5
4C1
  8
SIZE
  6
CONTINUOUS
 62
    30
 10
1746.8632210000001
 20
433.4686269999998
 30
0.0
 40
10.0
  0
TEXT
  5
4C2
  8
SIZE
  6
CONTINUOUS
 62
    30
 10
1811.1489352857141
 20
338.24515000000002
 30
0.0
 40
50.0
  1
1510
 41
0.9
 72
     1
 11
1881.8632210000001
 21
338.24515000000002
 31
0.0
  0
LINE
  5
4C3
  8
SIZE
  6
CONTINUOUS
 62
    30
 10
2086.8632210000001
 20
433.4686269999998
 30
0.0
 11
2366.8632210000001
 21
433.4686269999998
 31
0.0
  0
POINT
  5
4C4
  8
DEFPOINTS
  6
CONTINUOUS
 62
     7
 10
2066.8632210000001
 20
433.4686269999998
 30
0.0
  0
LINE
  5
4C5
  8
SIZE
  6
CONTINUOUS
 62
    30
 10
2056.8632210000001
 20
433.4686269999998
 30
0.0
 11
2046.8632210000001
 21
433.4686269999998
 31
0.0
  0
CIRCLE
  5
4C6
  8
SIZE
  6
CONTINUOUS
 62
    30
 10
2066.8632210000001
 20
433.4686269999998
 30
0.0
 40
10.0
  0
LINE
  5
4C7
  8
SIZE
  6
CONTINUOUS
 62
    30
 10
2076.8632210000001
 20
433.4686269999998
 30
0.0
 11
2086.8632210000001
 21
433.4686269999998
 31
0.0
  0
CIRCLE
  5
4C8
  8
SIZE
  6
CONTINUOUS
 62
    30
 10
2066.8632210000001
 20
433.4686269999998
 30
0.0
 40
10.0
  0
POINT
  5
4C9
  8
DEFPOINTS
  6
CONTINUOUS
 62
     7
 10
2386.8632210000001
 20
433.4686269999998
 30
0.0
  0
LINE
  5
4CA
  8
SIZE
  6
CONTINUOUS
 62
    30
 10
2376.8632210000001
 20
433.4686269999998
 30
0.0
 11
2366.8632210000001
 21
433.4686269999998
 31
0.0
  0
CIRCLE
  5
4CB
  8
SIZE
  6
CONTINUOUS
 62
    30
 10
2386.8632210000001
 20
433.4686269999998
 30
0.0
 40
10.0
  0
LINE
  5
4CC
  8
SIZE
  6
CONTINUOUS
 62
    30
 10
2396.8632210000001
 20
433.4686269999998
 30
0.0
 11
2406.8632210000001
 21
433.4686269999998
 31
0.0
  0
CIRCLE
  5
4CD
  8
SIZE
  6
CONTINUOUS
 62
    30
 10
2386.8632210000001
 20
433.4686269999998
 30
0.0
 40
10.0
  0
LINE
  5
4CE
  8
DETAIL
  6
CONTINUOUS
 62
     5
 10
1969.3632210000001
 20
612.62851699999999
 30
0.0
 11
2164.3632210000001
 21
612.62851699999999
 31
0.0
  0
LINE
  5
4CF
  8
DETAIL
  6
CONTINUOUS
 62
     5
 10
1966.8632210000001
 20
652.62851699999999
 30
0.0
 11
2166.8632210000001
 21
652.62851699999999
 31
0.0
  0
LINE
  5
4D0
  8
NOTE
  6
CONTINUOUS
 62
     4
 10
1994.9187059999999
 20
612.62851699999999
 30
0.0
 11
2138.8077360000002
 21
612.62851699999999
 31
0.0
  0
POLYLINE
  5
4D1
  8
NOTE
  6
CONTINUOUS
 62
     4
 66
     1
 10
0.0
 20
0.0
 30
0.0
  0
VERTEX
  5
B3F
  8
NOTE
  6
CONTINUOUS
 62
     4
 10
1746.8632210000001
 20
612.62851699999999
 30
0.0
  0
VERTEX
  5
B40
  8
NOTE
  6
CONTINUOUS
 62
     4
 10
1959.0051779999999
 20
809.0637089999999
 30
0.0
  0
SEQEND
  5
B41
  8
NOTE
  6
CONTINUOUS
 62
     4
  0
LINE
  5
4D5
  8
DETAIL
  6
CONTINUOUS
 62
     5
 10
1646.8632210000001
 20
652.62851699999999
 30
0.0
 11
1846.8632210000001
 21
652.62851699999999
 31
0.0
  0
LINE
  5
4D6
  8
DETAIL
  6
CONTINUOUS
 62
     5
 10
1649.3632210000001
 20
612.62851699999999
 30
0.0
 11
1844.3632210000001
 21
612.62851699999999
 31
0.0
  0
LINE
  5
4D7
  8
NOTE
  6
CONTINUOUS
 62
     4
 10
1674.9187059999999
 20
612.62851699999999
 30
0.0
 11
1818.807736
 21
612.62851699999999
 31
0.0
  0
LINE
  5
4D8
  8
NOTE
  6
CONTINUOUS
 62
     4
 10
1746.8632210000001
 20
684.57303200000001
 30
0.0
 11
1746.8632210000001
 21
540.68400199999985
 31
0.0
  0
POINT
  5
4D9
  8
DEFPOINTS
  6
CONTINUOUS
 62
     7
 10
1746.8632210000001
 20
540.68400199999985
 30
0.0
  0
POINT
  5
4DA
  8
DEFPOINTS
  6
CONTINUOUS
 62
     7
 10
1746.8632210000001
 20
540.68400199999985
 30
0.0
  0
LINE
  5
4DB
  8
DETAIL
  6
CONTINUOUS
 62
     5
 10
1649.3632210000001
 20
612.62851699999999
 30
0.0
 11
1646.9280180000001
 21
651.59176400000001
 31
0.0
  0
ARC
  5
4DC
  8
DETAIL
  6
CONTINUOUS
 62
     5
 10
1594.124474
 20
567.66602799999998
 30
0.0
 40
100.0
 50
58.772114000000002
 51
94.164056000000002
  0
ARC
  5
4DD
  8
DETAIL
  6
CONTINUOUS
 62
     5
 10
1644.9319129999999
 20
651.46700700000008
 30
0.0
 40
2.0
 50
3.5763339999999979
 51
58.772114000000002
  0
LINE
  5
4DE
  8
NOTE
  6
CONTINUOUS
 62
     4
 10
1746.8632210000001
 20
612.62851699999999
 30
0.0
 11
1763.414139
 21
638.90938800000004
 31
0.0
  0
LINE
  5
4DF
  8
NOTE
  6
CONTINUOUS
 62
     4
 10
1774.337172
 20
627.11295999999982
 30
0.0
 11
1746.8632210000001
 21
612.62851699999999
 31
0.0
  0
ARC
  5
4E0
  8
DETAIL
  6
CONTINUOUS
 62
     5
 10
1899.6019679999999
 20
567.66602799999998
 30
0.0
 40
100.0
 50
85.835943999999998
 51
121.227886
  0
ARC
  5
4E1
  8
DETAIL
  6
CONTINUOUS
 62
     5
 10
1848.794529
 20
651.46700700000008
 30
0.0
 40
2.0
 50
121.227886
 51
176.423666
  0
LINE
  5
4E2
  8
DETAIL
  6
CONTINUOUS
 62
     5
 10
1844.3632210000001
 20
612.62851699999999
 30
0.0
 11
1846.7984240000001
 21
651.59176400000001
 31
0.0
  0
LINE
  5
4E3
  8
DETAIL
  6
CONTINUOUS
 62
     5
 10
1969.3632210000001
 20
612.62851699999999
 30
0.0
 11
1966.9280180000001
 21
651.59176400000001
 31
0.0
  0
ARC
  5
4E4
  8
DETAIL
  6
CONTINUOUS
 62
     5
 10
1914.124474
 20
567.66602799999998
 30
0.0
 40
100.0
 50
58.772114000000002
 51
94.164056000000002
  0
ARC
  5
4E5
  8
DETAIL
  6
CONTINUOUS
 62
     5
 10
1964.9319129999999
 20
651.46700700000008
 30
0.0
 40
2.0
 50
3.5763339999999979
 51
58.772114000000002
  0
ARC
  5
4E6
  8
DETAIL
  6
CONTINUOUS
 62
     5
 10
2219.6019679999999
 20
567.66602799999998
 30
0.0
 40
100.0
 50
85.835943999999998
 51
121.227886
  0
LINE
  5
4E7
  8
NOTE
  6
CONTINUOUS
 62
     4
 10
2066.8632210000001
 20
684.57303200000001
 30
0.0
 11
2066.8632210000001
 21
540.68400199999985
 31
0.0
  0
POINT
  5
4E8
  8
DEFPOINTS
  6
CONTINUOUS
 62
     7
 10
2066.8632210000001
 20
540.68400199999985
 30
0.0
  0
POINT
  5
4E9
  8
DEFPOINTS
  6
CONTINUOUS
 62
     7
 10
2066.8632210000001
 20
540.68400199999985
 30
0.0
  0
ARC
  5
4EA
  8
DETAIL
  6
CONTINUOUS
 62
     5
 10
2168.7945289999998
 20
651.46700700000008
 30
0.0
 40
2.0
 50
121.227886
 51
176.423666
  0
LINE
  5
4EB
  8
DETAIL
  6
CONTINUOUS
 62
     5
 10
2164.3632210000001
 20
612.62851699999999
 30
0.0
 11
2166.7984240000001
 21
651.59176400000001
 31
0.0
  0
LINE
  5
4EC
  8
NOTE
  6
CONTINUOUS
 62
     4
 10
2386.8632210000001
 20
684.57303200000001
 30
0.0
 11
2386.8632210000001
 21
540.68400199999985
 31
0.0
  0
POINT
  5
4ED
  8
DEFPOINTS
  6
CONTINUOUS
 62
     7
 10
2386.8632210000001
 20
540.68400199999985
 30
0.0
  0
POINT
  5
4EE
  8
DEFPOINTS
  6
CONTINUOUS
 62
     7
 10
2386.8632210000001
 20
540.68400199999985
 30
0.0
  0
LINE
  5
4EF
  8
DETAIL
  6
CONTINUOUS
 62
     5
 10
2289.3632210000001
 20
612.62851699999999
 30
0.0
 11
2286.9280180000001
 21
651.59176400000001
 31
0.0
  0
ARC
  5
4F0
  8
DETAIL
  6
CONTINUOUS
 62
     5
 10
2234.1244740000011
 20
567.66602799999998
 30
0.0
 40
100.0
 50
58.772114000000002
 51
94.164056000000002
  0
ARC
  5
4F1
  8
DETAIL
  6
CONTINUOUS
 62
     5
 10
2284.9319129999999
 20
651.46700700000008
 30
0.0
 40
2.0
 50
3.5763339999999979
 51
58.772114000000002
  0
LINE
  5
4F2
  8
SIZE
  6
CONTINUOUS
 62
    30
 10
2636.8632210000001
 20
664.62851699999976
 30
0.0
 11
2636.8632210000001
 21
290.24515000000002
 31
0.0
  0
LINE
  5
4F3
  8
SIZE
  6
CONTINUOUS
 62
    30
 10
2629.8632210000001
 20
678.62851699999999
 30
0.0
 11
2629.8632210000001
 21
138.716362
 31
0.0
  0
TEXT
  5
4F4
  8
SIZE
  6
CONTINUOUS
 62
    30
 10
2454.0060781428579
 20
451.46862699999991
 30
0.0
 40
50.0
  1
250
 41
0.9
 72
     1
 11
2511.8632210000001
 21
451.46862699999991
 31
0.0
  0
LINE
  5
4F5
  8
SIZE
  6
CONTINUOUS
 62
    30
 10
2636.8632210000001
 20
664.62851699999976
 30
0.0
 11
2636.8632210000001
 21
403.46862699999991
 31
0.0
  0
LINE
  5
4F6
  8
SIZE
  6
CONTINUOUS
 62
    30
 10
2652.8632210000001
 20
669.12498400000004
 30
0.0
 11
2652.8632210000001
 21
138.716362
 31
0.0
  0
LINE
  5
4F7
  8
SIZE
  6
CONTINUOUS
 62
    30
 10
2629.8632210000001
 20
681.62851699999999
 30
0.0
 11
2629.8632210000001
 21
138.716362
 31
0.0
  0
LINE
  5
4F8
  8
SIZE
  6
CONTINUOUS
 62
    30
 10
2652.8632210000001
 20
672.12498400000004
 30
0.0
 11
2652.8632210000001
 21
289.96393899999998
 31
0.0
  0
LINE
  5
4F9
  8
SIZE
  6
CONTINUOUS
 62
    30
 10
2636.8632210000001
 20
664.62851699999976
 30
0.0
 11
2636.8632210000001
 21
289.96393899999998
 31
0.0
  0
LINE
  5
4FA
  8
SIZE
  6
CONTINUOUS
 62
    30
 10
2652.8632210000001
 20
672.12498400000004
 30
0.0
 11
2652.8632210000001
 21
24.982099000000002
 31
0.0
  0
TEXT
  5
4FB
  8
SIZE
  6
CONTINUOUS
 62
    30
 10
3185.6987340000001
 20
17.999994999999949
 30
0.0
 40
50.0
  1
710(吊りボルトピッチ)
 50
90.0
 41
0.9
 72
     1
 11
3185.6987340000001
 21
316.49999500000001
 31
0.0
  0
LINE
  5
4FC
  8
SIZE
  6
CONTINUOUS
 62
    30
 10
3216.7939719999999
 20
632.99999500000001
 30
0.0
 11
3216.7939719999999
 21
-0.000005
 31
0.0
  0
POINT
  5
4FD
  8
DEFPOINTS
  6
CONTINUOUS
 62
     7
 10
2652.8632210000001
 20
54.982098999999991
 30
0.0
  0
LINE
  5
4FE
  8
SIZE
  6
CONTINUOUS
 62
    30
 10
2642.8632210000001
 20
54.982098999999991
 30
0.0
 11
2632.8632210000001
 21
54.982098999999991
 31
0.0
  0
CIRCLE
  5
4FF
  8
SIZE
  6
CONTINUOUS
 62
    30
 10
2652.8632210000001
 20
54.982098999999991
 30
0.0
 40
10.0
  0
LINE
  5
500
  8
SIZE
  6
CONTINUOUS
 62
    30
 10
2662.8632210000001
 20
168.716362
 30
0.0
 11
2672.8632210000001
 21
168.716362
 31
0.0
  0
LINE
  5
501
  8
SIZE
  6
CONTINUOUS
 62
    30
 10
2662.8632210000001
 20
319.9639390000001
 30
0.0
 11
2672.8632210000001
 21
319.9639390000001
 31
0.0
  0
POINT
  5
502
  8
DEFPOINTS
  6
CONTINUOUS
 62
     7
 10
2629.8632210000001
 20
168.716362
 30
0.0
  0
LINE
  5
503
  8
SIZE
  6
CONTINUOUS
 62
    30
 10
2619.8632210000001
 20
168.716362
 30
0.0
 11
2609.8632210000001
 21
168.716362
 31
0.0
  0
CIRCLE
  5
504
  8
SIZE
  6
CONTINUOUS
 62
    30
 10
2629.8632210000001
 20
168.716362
 30
0.0
 40
10.0
  0
POINT
  5
505
  8
DEFPOINTS
  6
CONTINUOUS
 62
     7
 10
2652.8632210000001
 20
168.716362
 30
0.0
  0
CIRCLE
  5
506
  8
SIZE
  6
CONTINUOUS
 62
    30
 10
2652.8632210000001
 20
168.716362
 30
0.0
 40
10.0
  0
LINE
  5
507
  8
SIZE
  6
CONTINUOUS
 62
    30
 10
2619.8632210000001
 20
168.716362
 30
0.0
 11
2609.8632210000001
 21
168.716362
 31
0.0
  0
CIRCLE
  5
508
  8
SIZE
  6
CONTINUOUS
 62
    30
 10
2629.8632210000001
 20
168.716362
 30
0.0
 40
10.0
  0
LINE
  5
509
  8
SIZE
  6
CONTINUOUS
 62
    30
 10
2629.8632210000001
 20
168.716362
 30
0.0
 11
2652.8632210000001
 21
168.716362
 31
0.0
  0
LINE
  5
50A
  8
SIZE
  6
CONTINUOUS
 62
    30
 10
2609.8632210000001
 20
168.716362
 30
0.0
 11
2589.8632210000001
 21
168.716362
 31
0.0
  0
LINE
  5
50B
  8
SIZE
  6
CONTINUOUS
 62
    30
 10
2626.8632210000001
 20
320.24515000000002
 30
0.0
 11
2616.8632210000001
 21
320.24515000000002
 31
0.0
  0
CIRCLE
  5
50C
  8
SIZE
  6
CONTINUOUS
 62
    30
 10
2636.8632210000001
 20
320.24515000000002
 30
0.0
 40
10.0
  0
POINT
  5
50D
  8
DEFPOINTS
  6
CONTINUOUS
 62
     7
 10
2636.8632210000001
 20
433.4686269999998
 30
0.0
  0
LINE
  5
50E
  8
SIZE
  6
CONTINUOUS
 62
    30
 10
2626.8632210000001
 20
433.4686269999998
 30
0.0
 11
2616.8632210000001
 21
433.4686269999998
 31
0.0
  0
CIRCLE
  5
50F
  8
SIZE
  6
CONTINUOUS
 62
    30
 10
2636.8632210000001
 20
433.4686269999998
 30
0.0
 40
10.0
  0
POINT
  5
510
  8
DEFPOINTS
  6
CONTINUOUS
 62
     7
 10
2652.8632210000001
 20
319.9639390000001
 30
0.0
  0
CIRCLE
  5
511
  8
SIZE
  6
CONTINUOUS
 62
    30
 10
2652.8632210000001
 20
319.9639390000001
 30
0.0
 40
10.0
  0
LINE
  5
512
  8
SIZE
  6
CONTINUOUS
 62
    30
 10
2626.8632210000001
 20
319.9639390000001
 30
0.0
 11
2616.8632210000001
 21
319.9639390000001
 31
0.0
  0
CIRCLE
  5
513
  8
SIZE
  6
CONTINUOUS
 62
    30
 10
2636.8632210000001
 20
319.9639390000001
 30
0.0
 40
10.0
  0
LINE
  5
514
  8
SIZE
  6
CONTINUOUS
 62
    30
 10
2636.8632210000001
 20
319.9639390000001
 30
0.0
 11
2652.8632210000001
 21
319.9639390000001
 31
0.0
  0
LINE
  5
515
  8
SIZE
  6
CONTINUOUS
 62
    30
 10
2616.8632210000001
 20
319.9639390000001
 30
0.0
 11
2596.8632210000001
 21
319.9639390000001
 31
0.0
  0
LINE
  5
516
  8
SIZE
  6
CONTINUOUS
 62
    30
 10
2672.8632210000001
 20
168.716362
 30
0.0
 11
2801.7203639999998
 21
168.716362
 31
0.0
  0
TEXT
  5
517
  8
SIZE
  6
CONTINUOUS
 62
    30
 10
2710.8632205714289
 20
186.716362
 30
0.0
 40
50.0
  1
23
 41
0.9
 72
     1
 11
2747.291792
 21
186.716362
 31
0.0
  0
LINE
  5
518
  8
SIZE
  6
CONTINUOUS
 62
    30
 10
2672.8632210000001
 20
319.9639390000001
 30
0.0
 11
2791.0060780000008
 21
319.9639390000001
 31
0.0
  0
TEXT
  5
519
  8
SIZE
  6
CONTINUOUS
 62
    30
 10
2710.8632214285731
 20
337.96393899999998
 30
0.0
 40
50.0
  1
16
 41
0.9
 72
     1
 11
2741.9346500000011
 21
337.96393899999998
 31
0.0
  0
LINE
  5
51A
  8
SIZE
  6
CONTINUOUS
 62
    30
 10
2654.8632210000001
 20
682.62851699999999
 30
0.0
 11
3079.0190170000001
 21
682.62851699999999
 31
0.0
  0
LINE
  5
51B
  8
SIZE
  6
CONTINUOUS
 62
    30
 10
2667.9396260000012
 20
716.62851699999999
 30
0.0
 11
3079.0190170000001
 21
716.62851699999999
 31
0.0
  0
LINE
  5
51C
  8
SIZE
  6
CONTINUOUS
 62
    30
 10
2674.8632210000001
 20
949.6285170000001
 30
0.0
 11
3338.4985130000009
 21
949.6285170000001
 31
0.0
  0
LINE
  5
51D
  8
SIZE
  6
CONTINUOUS
 62
    30
 10
2667.9396260000012
 20
716.62851699999999
 30
0.0
 11
3079.0190170000001
 21
716.62851699999999
 31
0.0
  0
LINE
  5
51E
  8
SIZE
  6
CONTINUOUS
 62
    30
 10
2654.8632210000001
 20
682.62851699999999
 30
0.0
 11
3339.1796220000001
 21
682.62851699999999
 31
0.0
  0
LINE
  5
51F
  8
SIZE
  6
CONTINUOUS
 62
    30
 10
2674.8632210000001
 20
949.6285170000001
 30
0.0
 11
3339.1796220000001
 21
949.6285170000001
 31
0.0
  0
LINE
  5
520
  8
OUTLINE
  6
CONTINUOUS
 62
     3
 10
2636.8632210000001
 20
682.62851699999999
 30
0.0
 11
2636.8632210000001
 21
934.12851699999999
 31
0.0
  0
LINE
  5
521
  8
DETAIL
  6
CONTINUOUS
 62
     5
 10
2601.3572349999999
 20
674.65507300000002
 30
0.0
 11
2491.8013259999998
 21
664.18563400000005
 31
0.0
  0
ARC
  5
522
  8
DETAIL
  6
CONTINUOUS
 62
     5
 10
2492.2769720000001
 20
659.20830899999999
 30
0.0
 40
5.0
 50
95.458753000000002
 51
176.43248
  0
LINE
  5
523
  8
DETAIL
  6
CONTINUOUS
 62
     5
 10
2484.363221000001
 20
612.62851699999999
 30
0.0
 11
2487.286661000001
 21
659.51943300000005
 31
0.0
  0
POINT
  5
524
  8
DEFPOINTS
  6
CONTINUOUS
 62
     7
 10
2636.8632210000001
 20
682.62851699999999
 30
0.0
  0
POINT
  5
525
  8
DEFPOINTS
  6
CONTINUOUS
 62
     7
 10
2636.8632210000001
 20
682.62851699999999
 30
0.0
  0
POINT
  5
526
  8
DEFPOINTS
  6
CONTINUOUS
 62
     7
 10
2629.8632210000001
 20
696.62851699999987
 30
0.0
  0
POINT
  5
527
  8
DEFPOINTS
  6
CONTINUOUS
 62
     7
 10
2636.8632210000001
 20
682.62851699999999
 30
0.0
  0
POINT
  5
528
  8
DEFPOINTS
  6
CONTINUOUS
 62
     7
 10
2652.8632210000001
 20
687.12498400000004
 30
0.0
  0
POINT
  5
529
  8
DEFPOINTS
  6
CONTINUOUS
 62
     7
 10
2629.8632210000001
 20
699.62851699999999
 30
0.0
  0
POINT
  5
52A
  8
DEFPOINTS
  6
CONTINUOUS
 62
     7
 10
2652.8632210000001
 20
690.12498400000004
 30
0.0
  0
POINT
  5
52B
  8
DEFPOINTS
  6
CONTINUOUS
 62
     7
 10
2636.8632210000001
 20
682.62851699999999
 30
0.0
  0
POINT
  5
52C
  8
DEFPOINTS
  6
CONTINUOUS
 62
     7
 10
2652.8632210000001
 20
690.12498400000004
 30
0.0
  0
POINT
  5
52D
  8
DEFPOINTS
  6
CONTINUOUS
 62
     7
 10
2636.8632210000001
 20
682.62851699999999
 30
0.0
  0
POINT
  5
52E
  8
DEFPOINTS
  6
CONTINUOUS
 62
     7
 10
2649.9396259999999
 20
716.62851699999999
 30
0.0
  0
POINT
  5
52F
  8
DEFPOINTS
  6
CONTINUOUS
 62
     7
 10
2649.9396259999999
 20
716.62851699999999
 30
0.0
  0
POINT
  5
530
  8
DEFPOINTS
  6
CONTINUOUS
 62
     7
 10
2636.8632210000001
 20
682.62851699999999
 30
0.0
  0
ARC
  5
531
  8
DETAIL
  6
CONTINUOUS
 62
     5
 10
2600.8888489999999
 20
678.62803799999995
 30
0.0
 40
4.0004790000000003
 50
274.91189500000002
 51
0.0
  0
ARC
  5
532
  8
DETAIL
  6
CONTINUOUS
 62
     5
 10
2606.8895670000002
 20
680.6282769999998
 30
0.0
 40
2.0002399999999989
 50
90.0
 51
180.0
  0
LINE
  5
533
  8
DETAIL
  6
CONTINUOUS
 62
     5
 10
2604.8893280000002
 20
680.6282769999998
 30
0.0
 11
2604.8893280000002
 21
678.62803799999995
 31
0.0
  0
LINE
  5
534
  8
DETAIL
  6
CONTINUOUS
 62
     5
 10
2636.864059
 20
708.62755900000002
 30
0.0
 11
2636.864059
 21
710.6277980000001
 31
0.0
  0
ARC
  5
535
  8
DETAIL
  6
CONTINUOUS
 62
     5
 10
2629.8632210000001
 20
724.62947499999984
 30
0.0
 40
7.000837999999999
 50
0.0
 51
180.0
  0
ARC
  5
536
  8
DETAIL
  6
CONTINUOUS
 62
     5
 10
2629.8632210000001
 20
708.62755900000002
 30
0.0
 40
7.000837999999999
 50
180.0
 51
0.0
  0
LINE
  5
537
  8
DETAIL
  6
CONTINUOUS
 62
     5
 10
2636.864059
 20
722.62923599999999
 30
0.0
 11
2636.864059
 21
724.62947499999984
 31
0.0
  0
LINE
  5
538
  8
DETAIL
  6
CONTINUOUS
 62
     5
 10
2636.8632210000001
 20
687.12498400000004
 30
0.0
 11
2652.8632210000001
 21
687.12498400000004
 31
0.0
  0
LINE
  5
539
  8
DETAIL
  6
CONTINUOUS
 62
     5
 10
2636.8632210000001
 20
746.13205000000005
 30
0.0
 11
2652.8632210000001
 21
746.13205000000005
 31
0.0
  0
LINE
  5
53A
  8
DETAIL
  6
CONTINUOUS
 62
     5
 10
2652.8632210000001
 20
687.12498400000004
 30
0.0
 11
2652.8632210000001
 21
710.6277980000001
 31
0.0
  0
LINE
  5
53B
  8
DETAIL
  6
CONTINUOUS
 62
     5
 10
2636.864059
 20
722.62923599999999
 30
0.0
 11
2652.8632210000001
 21
722.62923599999999
 31
0.0
  0
LINE
  5
53C
  8
DETAIL
  6
CONTINUOUS
 62
     5
 10
2636.864059
 20
710.6277980000001
 30
0.0
 11
2652.8632210000001
 21
710.6277980000001
 31
0.0
  0
LINE
  5
53D
  8
DETAIL
  6
CONTINUOUS
 62
     5
 10
2652.8632210000001
 20
722.62923599999999
 30
0.0
 11
2652.8632210000001
 21
746.13205000000005
 31
0.0
  0
LINE
  5
53E
  8
DETAIL
  6
CONTINUOUS
 62
     5
 10
2622.862383000001
 20
708.62755900000002
 30
0.0
 11
2622.862383000001
 21
724.62947499999984
 31
0.0
  0
ARC
  5
53F
  8
DETAIL
  6
CONTINUOUS
 62
     5
 10
2634.8629810000002
 20
699.62649199999976
 30
0.0
 40
2.0002399999999989
 50
359.99759
 51
90.002410999999995
  0
ARC
  5
540
  8
DETAIL
  6
CONTINUOUS
 62
     5
 10
2634.8629810000002
 20
733.63056299999982
 30
0.0
 40
2.0002399999999989
 50
269.997589
 51
0.0
  0
LINE
  5
541
  8
DETAIL
  6
CONTINUOUS
 62
     5
 10
2634.862897
 20
701.62673099999995
 30
0.0
 11
2623.0624069999999
 21
701.62673099999995
 31
0.0
  0
LINE
  5
542
  8
DETAIL
  6
CONTINUOUS
 62
     5
 10
2634.862897
 20
731.63032399999975
 30
0.0
 11
2623.0624069999999
 21
731.63032399999975
 31
0.0
  0
LINE
  5
543
  8
DETAIL
  6
CONTINUOUS
 62
     5
 10
2623.0624069999999
 20
701.62673099999995
 30
0.0
 11
2623.0624069999999
 21
731.63032399999975
 31
0.0
  0
LINE
  5
544
  8
DETAIL
  6
CONTINUOUS
 62
     5
 10
2636.8632210000001
 20
682.62851699999999
 30
0.0
 11
2636.8632210000001
 21
699.62640799999986
 31
0.0
  0
LINE
  5
545
  8
NOTE
  6
CONTINUOUS
 62
     4
 10
2629.8632210000001
 20
696.62851699999987
 30
0.0
 11
2629.8632210000001
 21
736.62851699999999
 31
0.0
  0
LINE
  5
546
  8
NOTE
  6
CONTINUOUS
 62
     4
 10
2609.7868159999998
 20
716.62851699999999
 30
0.0
 11
2649.9396259999999
 21
716.62851699999999
 31
0.0
  0
CIRCLE
  5
547
  8
FIX
  6
CONTINUOUS
 62
    11
 10
2629.8632210000001
 20
716.62851699999999
 30
0.0
 40
18.598564
  0
ARC
  5
548
  8
OUTLINE
  6
CONTINUOUS
 62
     3
 10
2660.8632210000001
 20
948.62851699999999
 30
0.0
 40
16.0
 50
270.0
 51
0.0
  0
ARC
  5
549
  8
DETAIL
  6
CONTINUOUS
 62
     5
 10
2660.8632210000001
 20
948.62851699999999
 30
0.0
 40
16.0
 50
270.0
 51
0.0
  0
POINT
  5
54A
  8
DEFPOINTS
  6
CONTINUOUS
 62
     7
 10
2660.8632210000001
 20
932.62851700000022
 30
0.0
  0
POINT
  5
54B
  8
DEFPOINTS
  6
CONTINUOUS
 62
     7
 10
2656.8632210000001
 20
949.6285170000001
 30
0.0
  0
POINT
  5
54C
  8
DEFPOINTS
  6
CONTINUOUS
 62
     7
 10
2656.8632210000001
 20
949.6285170000001
 30
0.0
  0
POINT
  5
54D
  8
DEFPOINTS
  6
CONTINUOUS
 62
     7
 10
2660.8632210000001
 20
932.62851700000022
 30
0.0
  0
LINE
  5
54E
  8
DETAIL
  6
CONTINUOUS
 62
     5
 10
2606.8548479999999
 20
932.62851700000022
 30
0.0
 11
2606.8548479999999
 21
968.13294800000006
 31
0.0
  0
ARC
  5
54F
  8
DETAIL
  6
CONTINUOUS
 62
     5
 10
2613.8556870000002
 20
986.13510399999996
 30
0.0
 40
18.002155999999999
 50
270.0
 51
0.0
  0
TEXT
  5
550
  8
SIZE
  6
CONTINUOUS
 62
    30
 10
3291.1796220000001
 20
758.27137414285698
 30
0.0
 40
50.0
  1
267
 50
90.0
 41
0.9
 72
     1
 11
3291.1796220000001
 21
816.12851699999987
 31
0.0
  0
LINE
  5
551
  8
SIZE
  6
CONTINUOUS
 62
    30
 10
3309.1796220000001
 20
929.62851699999999
 30
0.0
 11
3309.1796220000001
 21
702.62851699999999
 31
0.0
  0
TEXT
  5
552
  8
SIZE
  6
CONTINUOUS
 62
    30
 10
3031.0190170000001
 20
549.62851699999999
 30
0.0
 40
50.0
  1
34
 50
90.0
 41
0.9
 72
     1
 11
3031.0190170000001
 21
587.12851699999999
 31
0.0
  0
LINE
  5
553
  8
SIZE
  6
CONTINUOUS
 62
    30
 10
3049.0190170000001
 20
662.62851699999999
 30
0.0
 11
3049.0190170000001
 21
531.62851699999976
 31
0.0
  0
POINT
  5
554
  8
DEFPOINTS
  6
CONTINUOUS
 62
     7
 10
3049.0190170000001
 20
682.62851699999999
 30
0.0
  0
LINE
  5
555
  8
SIZE
  6
CONTINUOUS
 62
    30
 10
3049.0190170000001
 20
672.62851699999976
 30
0.0
 11
3049.0190170000001
 21
662.62851699999999
 31
0.0
  0
CIRCLE
  5
556
  8
SIZE
  6
CONTINUOUS
 62
    30
 10
3049.0190170000001
 20
682.62851699999999
 30
0.0
 40
10.0
  0
LINE
  5
557
  8
SIZE
  6
CONTINUOUS
 62
    30
 10
3049.0190170000001
 20
726.62851699999976
 30
0.0
 11
3049.0190170000001
 21
736.62851699999999
 31
0.0
  0
CIRCLE
  5
558
  8
SIZE
  6
CONTINUOUS
 62
    30
 10
3049.0190170000001
 20
716.62851699999999
 30
0.0
 40
10.0
  0
LINE
  5
559
  8
SIZE
  6
CONTINUOUS
 62
    30
 10
3049.0190170000001
 20
716.62851699999999
 30
0.0
 11
3049.0190170000001
 21
682.62851699999999
 31
0.0
  0
LINE
  5
55A
  8
SIZE
  6
CONTINUOUS
 62
    30
 10
3049.0190170000001
 20
736.62851699999999
 30
0.0
 11
3049.0190170000001
 21
756.62851699999999
 31
0.0
  0
POINT
  5
55B
  8
DEFPOINTS
  6
CONTINUOUS
 62
     7
 10
3049.0190170000001
 20
716.62851699999999
 30
0.0
  0
LINE
  5
55C
  8
SIZE
  6
CONTINUOUS
 62
    30
 10
3049.0190170000001
 20
726.62851699999976
 30
0.0
 11
3049.0190170000001
 21
736.62851699999999
 31
0.0
  0
CIRCLE
  5
55D
  8
SIZE
  6
CONTINUOUS
 62
    30
 10
3049.0190170000001
 20
716.62851699999999
 30
0.0
 40
10.0
  0
POINT
  5
55E
  8
DEFPOINTS
  6
CONTINUOUS
 62
     7
 10
3309.1796220000001
 20
682.62851699999999
 30
0.0
  0
LINE
  5
55F
  8
SIZE
  6
CONTINUOUS
 62
    30
 10
3309.1796220000001
 20
692.62851699999976
 30
0.0
 11
3309.1796220000001
 21
702.62851699999999
 31
0.0
  0
CIRCLE
  5
560
  8
SIZE
  6
CONTINUOUS
 62
    30
 10
3309.1796220000001
 20
682.62851699999999
 30
0.0
 40
10.0
  0
POINT
  5
561
  8
DEFPOINTS
  6
CONTINUOUS
 62
     7
 10
3308.498513
 20
949.6285170000001
 30
0.0
  0
LINE
  5
562
  8
SIZE
  6
CONTINUOUS
 62
    30
 10
3308.498513
 20
959.62851699999987
 30
0.0
 11
3308.498513
 21
969.62851699999987
 31
0.0
  0
CIRCLE
  5
563
  8
SIZE
  6
CONTINUOUS
 62
    30
 10
3308.498513
 20
949.6285170000001
 30
0.0
 40
10.0
  0
LINE
  5
564
  8
SIZE
  6
CONTINUOUS
 62
    30
 10
3309.1796220000001
 20
939.62851699999999
 30
0.0
 11
3309.1796220000001
 21
929.62851699999999
 31
0.0
  0
CIRCLE
  5
565
  8
SIZE
  6
CONTINUOUS
 62
    30
 10
3309.1796220000001
 20
949.6285170000001
 30
0.0
 40
10.0
  0
TEXT
  5
566
  8
SIZE
  6
CONTINUOUS
 62
    30
 10
1602.434649571429
 20
1716.0493449999999
 30
0.0
 40
50.0
  1
1550（天井開口寸法）
 41
0.9
 72
     1
 11
1881.8632210000001
 21
1716.0493449999999
 31
0.0
  0
TEXT
  5
567
  8
SIZE
  6
CONTINUOUS
 62
    30
 10
1806.8632210000001
 20
1819.753882
 30
0.0
 40
50.0
  1
1590
 41
0.9
 72
     1
 11
1881.8632210000001
 21
1819.753882
 31
0.0
  0
POLYLINE
  5
568
  8
NOTE
  6
CONTINUOUS
 62
     4
 66
     1
 10
0.0
 20
0.0
 30
0.0
  0
VERTEX
  5
B42
  8
NOTE
  6
CONTINUOUS
 62
     4
 10
2636.8632210000001
 20
1301.6285170000001
 30
0.0
  0
VERTEX
  5
B43
  8
NOTE
  6
CONTINUOUS
 62
     4
 10
2890.947463
 20
1729.827483
 30
0.0
  0
SEQEND
  5
B44
  8
NOTE
  6
CONTINUOUS
 62
     4
  0
LINE
  5
56C
  8
SIZE
  6
CONTINUOUS
 62
    30
 10
2676.8632210000001
 20
1534.6285170000001
 30
0.0
 11
2676.8632210000001
 21
1728.0493449999999
 31
0.0
  0
LINE
  5
56D
  8
SIZE
  6
CONTINUOUS
 62
    30
 10
2656.8632210000001
 20
1533.6285170000001
 30
0.0
 11
2656.8632210000001
 21
1728.0493449999999
 31
0.0
  0
LINE
  5
56E
  8
SIZE
  6
CONTINUOUS
 62
    30
 10
2676.8632210000001
 20
1534.6285170000001
 30
0.0
 11
2676.8632210000001
 21
1831.753882
 31
0.0
  0
LINE
  5
56F
  8
SIZE
  6
CONTINUOUS
 62
    30
 10
2656.8632210000001
 20
1533.6285170000001
 30
0.0
 11
2656.8632210000001
 21
1728.0493449999999
 31
0.0
  0
LINE
  5
570
  8
SIZE
  6
CONTINUOUS
 62
    30
 10
2680.8632210000001
 20
1532.6285170000001
 30
0.0
 11
3326.498513
 21
1532.6285170000001
 31
0.0
  0
LINE
  5
571
  8
SIZE
  6
CONTINUOUS
 62
    30
 10
2676.8632210000001
 20
1515.6285170000001
 30
0.0
 11
3326.498513
 21
1515.6285170000001
 31
0.0
  0
TEXT
  5
572
  8
SIZE
  6
CONTINUOUS
 62
    30
 10
2919.31801
 20
1315.7490660000001
 30
0.0
 40
50.0
  1
156
 50
90.0
 41
0.9
 72
     1
 11
2919.31801
 21
1368.2490660000001
 31
0.0
  0
LINE
  5
573
  8
SIZE
  6
CONTINUOUS
 62
    30
 10
2674.9396259999999
 20
1301.6285170000001
 30
0.0
 11
2967.31801
 21
1301.6285170000001
 31
0.0
  0
LINE
  5
574
  8
SIZE
  6
CONTINUOUS
 62
    30
 10
2654.8632210000001
 20
1457.6285170000001
 30
0.0
 11
2967.31801
 21
1457.6285170000001
 31
0.0
  0
LINE
  5
575
  8
SIZE
  6
CONTINUOUS
 62
    30
 10
2654.8632210000001
 20
1457.6285170000001
 30
0.0
 11
3079.0190170000001
 21
1457.6285170000001
 31
0.0
  0
LINE
  5
576
  8
SIZE
  6
CONTINUOUS
 62
    30
 10
2667.9396260000012
 20
1426.6285170000001
 30
0.0
 11
3079.0190170000001
 21
1426.6285170000001
 31
0.0
  0
LINE
  5
577
  8
SIZE
  6
CONTINUOUS
 62
    30
 10
2674.8632210000001
 20
1515.6285170000001
 30
0.0
 11
3338.4985130000009
 21
1515.6285170000001
 31
0.0
  0
LINE
  5
578
  8
SIZE
  6
CONTINUOUS
 62
    30
 10
2674.8632210000001
 20
1515.6285170000001
 30
0.0
 11
3079.0190170000001
 21
1515.6285170000001
 31
0.0
  0
LINE
  5
579
  8
SIZE
  6
CONTINUOUS
 62
    30
 10
2654.8632210000001
 20
1457.6285170000001
 30
0.0
 11
3079.0190170000001
 21
1457.6285170000001
 31
0.0
  0
LINE
  5
57A
  8
SIZE
  6
CONTINUOUS
 62
    30
 10
2667.9396260000012
 20
1426.6285170000001
 30
0.0
 11
3079.0190170000001
 21
1426.6285170000001
 31
0.0
  0
LINE
  5
57B
  8
NOTE
  6
CONTINUOUS
 62
     4
 10
2636.8632210000001
 20
1301.6285170000001
 30
0.0
 11
2645.3516340000001
 21
1331.5043250000001
 31
0.0
  0
LINE
  5
57C
  8
NOTE
  6
CONTINUOUS
 62
     4
 10
2659.1523069999998
 20
1323.257519
 30
0.0
 11
2636.8632210000001
 21
1301.6285170000001
 31
0.0
  0
POINT
  5
57D
  8
DEFPOINTS
  6
CONTINUOUS
 62
     7
 10
2656.9396260000012
 20
1301.6285170000001
 30
0.0
  0
LINE
  5
57E
  8
NOTE
  6
CONTINUOUS
 62
     4
 10
2616.7868159999998
 20
1301.6285170000001
 30
0.0
 11
2656.9396260000012
 21
1301.6285170000001
 31
0.0
  0
LINE
  5
57F
  8
NOTE
  6
CONTINUOUS
 62
     4
 10
2636.8632210000001
 20
1281.6285170000001
 30
0.0
 11
2636.8632210000001
 21
1321.6285170000001
 31
0.0
  0
LINE
  5
580
  8
SIZE
  6
CONTINUOUS
 62
    30
 10
2666.8632210000001
 20
1591.7503999999999
 30
0.0
 11
2676.8632210000001
 21
1591.7503999999999
 31
0.0
  0
ARC
  5
581
  8
OUTLINE
  6
CONTINUOUS
 62
     3
 10
2660.8632210000001
 20
1516.6285170000001
 30
0.0
 40
16.0
 50
0.0
 51
90.0
  0
ARC
  5
582
  8
DETAIL
  6
CONTINUOUS
 62
     5
 10
2660.8632210000001
 20
1516.6285170000001
 30
0.0
 40
16.0
 50
0.0
 51
90.0
  0
LINE
  5
583
  8
SIZE
  6
CONTINUOUS
 62
    30
 10
2652.8632210000001
 20
1473.8285169999999
 30
0.0
 11
2652.8632210000001
 21
1621.750399999999
 31
0.0
  0
LINE
  5
584
  8
DETAIL
  6
CONTINUOUS
 62
     5
 10
2606.854808
 20
1494.124086
 30
0.0
 11
2606.854808
 21
1532.6285170000001
 31
0.0
  0
POINT
  5
585
  8
DEFPOINTS
  6
CONTINUOUS
 62
     7
 10
2656.8632210000001
 20
1515.6285170000001
 30
0.0
  0
POINT
  5
586
  8
DEFPOINTS
  6
CONTINUOUS
 62
     7
 10
2652.8632210000001
 20
1455.8285169999999
 30
0.0
  0
POINT
  5
587
  8
DEFPOINTS
  6
CONTINUOUS
 62
     7
 10
2656.8632210000001
 20
1515.6285170000001
 30
0.0
  0
POINT
  5
588
  8
DEFPOINTS
  6
CONTINUOUS
 62
     7
 10
2656.8632210000001
 20
1515.6285170000001
 30
0.0
  0
POINT
  5
589
  8
DEFPOINTS
  6
CONTINUOUS
 62
     7
 10
2636.8632210000001
 20
1457.6285170000001
 30
0.0
  0
POINT
  5
58A
  8
DEFPOINTS
  6
CONTINUOUS
 62
     7
 10
2656.8632210000001
 20
1515.6285170000001
 30
0.0
  0
POINT
  5
58B
  8
DEFPOINTS
  6
CONTINUOUS
 62
     7
 10
2636.8632210000001
 20
1457.6285170000001
 30
0.0
  0
POINT
  5
58C
  8
DEFPOINTS
  6
CONTINUOUS
 62
     7
 10
2649.9396259999999
 20
1426.6285170000001
 30
0.0
  0
POINT
  5
58D
  8
DEFPOINTS
  6
CONTINUOUS
 62
     7
 10
2656.8632210000001
 20
1515.6285170000001
 30
0.0
  0
POINT
  5
58E
  8
DEFPOINTS
  6
CONTINUOUS
 62
     7
 10
2656.8632210000001
 20
1515.6285170000001
 30
0.0
  0
POINT
  5
58F
  8
DEFPOINTS
  6
CONTINUOUS
 62
     7
 10
2636.8632210000001
 20
1457.6285170000001
 30
0.0
  0
POINT
  5
590
  8
DEFPOINTS
  6
CONTINUOUS
 62
     7
 10
2649.9396259999999
 20
1426.6285170000001
 30
0.0
  0
LINE
  5
591
  8
DETAIL
  6
CONTINUOUS
 62
     5
 10
2636.8632210000001
 20
1457.6285170000001
 30
0.0
 11
2636.8632210000001
 21
1456.8284209999999
 31
0.0
  0
LINE
  5
592
  8
DETAIL
  6
CONTINUOUS
 62
     5
 10
2636.864059
 20
1434.629475
 30
0.0
 11
2636.864059
 21
1432.6285170000001
 31
0.0
  0
ARC
  5
593
  8
DETAIL
  6
CONTINUOUS
 62
     5
 10
2629.8632210000001
 20
1418.627559
 30
0.0
 40
7.000837999999999
 50
180.0
 51
0.0
  0
ARC
  5
594
  8
DETAIL
  6
CONTINUOUS
 62
     5
 10
2629.8632210000001
 20
1434.629475
 30
0.0
 40
7.000837999999999
 50
0.0
 51
180.0
  0
LINE
  5
595
  8
DETAIL
  6
CONTINUOUS
 62
     5
 10
2636.864059
 20
1420.6285170000001
 30
0.0
 11
2636.864059
 21
1418.627559
 31
0.0
  0
LINE
  5
596
  8
DETAIL
  6
CONTINUOUS
 62
     5
 10
2652.8632210000001
 20
1455.8285169999999
 30
0.0
 11
2652.8632210000001
 21
1432.6285170000001
 31
0.0
  0
LINE
  5
597
  8
DETAIL
  6
CONTINUOUS
 62
     5
 10
2636.864059
 20
1420.6285170000001
 30
0.0
 11
2652.8632210000001
 21
1420.6285170000001
 31
0.0
  0
LINE
  5
598
  8
DETAIL
  6
CONTINUOUS
 62
     5
 10
2636.864059
 20
1432.6285170000001
 30
0.0
 11
2652.8632210000001
 21
1432.6285170000001
 31
0.0
  0
LINE
  5
599
  8
DETAIL
  6
CONTINUOUS
 62
     5
 10
2652.8632210000001
 20
1420.6285170000001
 30
0.0
 11
2652.8632210000001
 21
1397.4285170000001
 31
0.0
  0
LINE
  5
59A
  8
DETAIL
  6
CONTINUOUS
 62
     5
 10
2622.862383000001
 20
1434.629475
 30
0.0
 11
2622.862383000001
 21
1418.627559
 31
0.0
  0
LINE
  5
59B
  8
DETAIL
  6
CONTINUOUS
 62
     5
 10
2636.8632210000001
 20
1455.8285169999999
 30
0.0
 11
2652.8632210000001
 21
1455.8285169999999
 31
0.0
  0
LINE
  5
59C
  8
DETAIL
  6
CONTINUOUS
 62
     5
 10
2636.8632210000001
 20
1397.4285170000001
 30
0.0
 11
2652.8632210000001
 21
1397.4285170000001
 31
0.0
  0
LINE
  5
59D
  8
DETAIL
  6
CONTINUOUS
 62
     5
 10
2634.8632210000001
 20
1441.6199770000001
 30
0.0
 11
2622.9957530000001
 21
1441.6199770000001
 31
0.0
  0
LINE
  5
59E
  8
DETAIL
  6
CONTINUOUS
 62
     5
 10
2634.8632210000001
 20
1411.616385
 30
0.0
 11
2622.9957530000001
 21
1411.616385
 31
0.0
  0
LINE
  5
59F
  8
DETAIL
  6
CONTINUOUS
 62
     5
 10
2622.9957530000001
 20
1411.616385
 30
0.0
 11
2622.9957530000001
 21
1441.6199770000001
 31
0.0
  0
LINE
  5
5A0
  8
DETAIL
  6
CONTINUOUS
 62
     5
 10
2636.8632210000001
 20
1443.6199770000001
 30
0.0
 11
2636.8632210000001
 21
1456.8284209999999
 31
0.0
  0
LINE
  5
5A1
  8
NOTE
  6
CONTINUOUS
 62
     4
 10
2629.8632210000001
 20
1406.6285170000001
 30
0.0
 11
2629.8632210000001
 21
1446.6285170000001
 31
0.0
  0
LINE
  5
5A2
  8
NOTE
  6
CONTINUOUS
 62
     4
 10
2609.7868159999998
 20
1426.6285170000001
 30
0.0
 11
2649.9396259999999
 21
1426.6285170000001
 31
0.0
  0
CIRCLE
  5
5A3
  8
FIX
  6
CONTINUOUS
 62
    11
 10
2629.8632210000001
 20
1426.6285170000001
 30
0.0
 40
18.598564
  0
ARC
  5
5A4
  8
DETAIL
  6
CONTINUOUS
 62
     5
 10
2634.8632210000001
 20
1409.616385
 30
0.0
 40
2.0
 50
0.0
 51
90.0
  0
ARC
  5
5A5
  8
DETAIL
  6
CONTINUOUS
 62
     5
 10
2634.8632210000001
 20
1443.6199770000001
 30
0.0
 40
2.0
 50
270.0
 51
0.0
  0
ARC
  5
5A6
  8
DETAIL
  6
CONTINUOUS
 62
     5
 10
2613.855646
 20
1476.12193
 30
0.0
 40
18.002155999999999
 50
0.0
 51
90.0
  0
LINE
  5
5A7
  8
SIZE
  6
CONTINUOUS
 62
    30
 10
2632.8632210000001
 20
1591.7503999999999
 30
0.0
 11
2544.7203639999998
 21
1591.7503999999999
 31
0.0
  0
POINT
  5
5A8
  8
DEFPOINTS
  6
CONTINUOUS
 62
     7
 10
2660.8632210000001
 20
1532.6285170000001
 30
0.0
  0
POINT
  5
5A9
  8
DEFPOINTS
  6
CONTINUOUS
 62
     7
 10
2652.8632210000001
 20
1591.7503999999999
 30
0.0
  0
TEXT
  5
5AA
  8
SIZE
  6
CONTINUOUS
 62
    30
 10
2562.720363428572
 20
1609.7503999999999
 30
0.0
 40
50.0
  1
4
 41
0.9
 72
     1
 11
2578.791792
 21
1609.7503999999999
 31
0.0
  0
LINE
  5
5AB
  8
SIZE
  6
CONTINUOUS
 62
    30
 10
2642.8632210000001
 20
1591.7503999999999
 30
0.0
 11
2632.8632210000001
 21
1591.7503999999999
 31
0.0
  0
CIRCLE
  5
5AC
  8
SIZE
  6
CONTINUOUS
 62
    30
 10
2652.8632210000001
 20
1591.7503999999999
 30
0.0
 40
10.0
  0
CIRCLE
  5
5AD
  8
SIZE
  6
CONTINUOUS
 62
    30
 10
2656.8632210000001
 20
1591.7503999999999
 30
0.0
 40
10.0
  0
LINE
  5
5AE
  8
SIZE
  6
CONTINUOUS
 62
    30
 10
2656.8632210000001
 20
1591.7503999999999
 30
0.0
 11
2652.8632210000001
 21
1591.7503999999999
 31
0.0
  0
LINE
  5
5AF
  8
SIZE
  6
CONTINUOUS
 62
    30
 10
2656.8632210000001
 20
1533.6285170000001
 30
0.0
 11
2656.8632210000001
 21
1621.750399999999
 31
0.0
  0
POINT
  5
5B0
  8
DEFPOINTS
  6
CONTINUOUS
 62
     7
 10
2660.8632210000001
 20
1532.6285170000001
 30
0.0
  0
POINT
  5
5B1
  8
DEFPOINTS
  6
CONTINUOUS
 62
     7
 10
2676.8632210000001
 20
1516.6285170000001
 30
0.0
  0
POINT
  5
5B2
  8
DEFPOINTS
  6
CONTINUOUS
 62
     7
 10
2676.8632210000001
 20
1516.6285170000001
 30
0.0
  0
LINE
  5
5B3
  8
SIZE
  6
CONTINUOUS
 62
    30
 10
2676.8632210000001
 20
1591.7503999999999
 30
0.0
 11
2696.8632210000001
 21
1591.7503999999999
 31
0.0
  0
LINE
  5
5B4
  8
SIZE
  6
CONTINUOUS
 62
    30
 10
2937.31801
 20
1437.6285170000001
 30
0.0
 11
2937.31801
 21
1321.6285170000001
 31
0.0
  0
TEXT
  5
5B5
  8
SIZE
  6
CONTINUOUS
 62
    30
 10
3161.2810359999999
 20
1370.925706714286
 30
0.0
 40
50.0
  1
31
 50
90.0
 41
0.9
 72
     1
 11
3161.2810359999999
 21
1397.711421
 31
0.0
  0
LINE
  5
5B6
  8
SIZE
  6
CONTINUOUS
 62
    30
 10
3179.2810359999999
 20
1442.4971350000001
 30
0.0
 11
3179.2810359999999
 21
1352.9257070000001
 31
0.0
  0
POINT
  5
5B7
  8
DEFPOINTS
  6
CONTINUOUS
 62
     7
 10
2937.31801
 20
1301.6285170000001
 30
0.0
  0
LINE
  5
5B8
  8
SIZE
  6
CONTINUOUS
 62
    30
 10
2937.31801
 20
1311.6285170000001
 30
0.0
 11
2937.31801
 21
1321.6285170000001
 31
0.0
  0
CIRCLE
  5
5B9
  8
SIZE
  6
CONTINUOUS
 62
    30
 10
2937.31801
 20
1301.6285170000001
 30
0.0
 40
10.0
  0
LINE
  5
5BA
  8
SIZE
  6
CONTINUOUS
 62
    30
 10
3049.0190170000001
 20
1442.1285170000001
 30
0.0
 11
3179.2810359999999
 21
1442.4971350000001
 31
0.0
  0
LINE
  5
5BB
  8
SIZE
  6
CONTINUOUS
 62
    30
 10
3049.0190170000001
 20
1525.6285170000001
 30
0.0
 11
3049.0190170000001
 21
1535.6285170000001
 31
0.0
  0
LINE
  5
5BC
  8
SIZE
  6
CONTINUOUS
 62
    30
 10
2937.31801
 20
1447.6285170000001
 30
0.0
 11
2937.31801
 21
1437.6285170000001
 31
0.0
  0
CIRCLE
  5
5BD
  8
SIZE
  6
CONTINUOUS
 62
    30
 10
2937.31801
 20
1457.6285170000001
 30
0.0
 40
10.0
  0
POINT
  5
5BE
  8
DEFPOINTS
  6
CONTINUOUS
 62
     7
 10
3049.0190170000001
 20
1457.6285170000001
 30
0.0
  0
LINE
  5
5BF
  8
SIZE
  6
CONTINUOUS
 62
    30
 10
3049.0190170000001
 20
1467.6285170000001
 30
0.0
 11
3049.0190170000001
 21
1477.6285170000001
 31
0.0
  0
CIRCLE
  5
5C0
  8
SIZE
  6
CONTINUOUS
 62
    30
 10
3049.0190170000001
 20
1457.6285170000001
 30
0.0
 40
10.0
  0
LINE
  5
5C1
  8
SIZE
  6
CONTINUOUS
 62
    30
 10
3049.0190170000001
 20
1416.6285170000001
 30
0.0
 11
3049.0190170000001
 21
1406.6285170000001
 31
0.0
  0
CIRCLE
  5
5C2
  8
SIZE
  6
CONTINUOUS
 62
    30
 10
3049.0190170000001
 20
1426.6285170000001
 30
0.0
 40
10.0
  0
LINE
  5
5C3
  8
SIZE
  6
CONTINUOUS
 62
    30
 10
3049.0190170000001
 20
1426.6285170000001
 30
0.0
 11
3049.0190170000001
 21
1457.6285170000001
 31
0.0
  0
LINE
  5
5C4
  8
SIZE
  6
CONTINUOUS
 62
    30
 10
3049.0190170000001
 20
1426.6285170000001
 30
0.0
 11
3049.0190170000001
 21
1457.6285170000001
 31
0.0
  0
LINE
  5
5C5
  8
SIZE
  6
CONTINUOUS
 62
    30
 10
3049.0190170000001
 20
1477.6285170000001
 30
0.0
 11
3049.0190170000001
 21
1497.6285170000001
 31
0.0
  0
LINE
  5
5C6
  8
SIZE
  6
CONTINUOUS
 62
    30
 10
3049.0190170000001
 20
1406.6285170000001
 30
0.0
 11
3049.0190170000001
 21
1386.6285170000001
 31
0.0
  0
POINT
  5
5C7
  8
DEFPOINTS
  6
CONTINUOUS
 62
     7
 10
3049.0190170000001
 20
1515.6285170000001
 30
0.0
  0
CIRCLE
  5
5C8
  8
SIZE
  6
CONTINUOUS
 62
    30
 10
3049.0190170000001
 20
1515.6285170000001
 30
0.0
 40
10.0
  0
LINE
  5
5C9
  8
SIZE
  6
CONTINUOUS
 62
    30
 10
3049.0190170000001
 20
1447.6285170000001
 30
0.0
 11
3049.0190170000001
 21
1437.6285170000001
 31
0.0
  0
CIRCLE
  5
5CA
  8
SIZE
  6
CONTINUOUS
 62
    30
 10
3049.0190170000001
 20
1457.6285170000001
 30
0.0
 40
10.0
  0
LINE
  5
5CB
  8
SIZE
  6
CONTINUOUS
 62
    30
 10
3049.0190170000001
 20
1457.6285170000001
 30
0.0
 11
3049.0190170000001
 21
1515.6285170000001
 31
0.0
  0
LINE
  5
5CC
  8
SIZE
  6
CONTINUOUS
 62
    30
 10
3049.0190170000001
 20
1437.6285170000001
 30
0.0
 11
3049.0190170000001
 21
1417.6285170000001
 31
0.0
  0
LINE
  5
5CD
  8
SIZE
  6
CONTINUOUS
 62
    30
 10
3049.0190170000001
 20
1416.6285170000001
 30
0.0
 11
3049.0190170000001
 21
1406.6285170000001
 31
0.0
  0
CIRCLE
  5
5CE
  8
SIZE
  6
CONTINUOUS
 62
    30
 10
3049.0190170000001
 20
1426.6285170000001
 30
0.0
 40
10.0
  0
TEXT
  5
5CF
  8
SIZE
  6
CONTINUOUS
 62
    30
 10
3031.0190170000001
 20
1573.628516571428
 30
0.0
 40
50.0
  1
58
 50
90.0
 41
0.9
 72
     1
 11
3031.0190170000001
 21
1610.057088
 31
0.0
  0
LINE
  5
5D0
  8
SIZE
  6
CONTINUOUS
 62
    30
 10
3049.0190170000001
 20
1535.6285170000001
 30
0.0
 11
3049.0190170000001
 21
1664.4856600000001
 31
0.0
  0
CIRCLE
  5
5D1
  8
SIZE
  6
CONTINUOUS
 62
    30
 10
3308.498513
 20
1532.6285170000001
 30
0.0
 40
10.0
  0
LINE
  5
5D2
  8
SIZE
  6
CONTINUOUS
 62
    30
 10
3308.498513
 20
1505.6285170000001
 30
0.0
 11
3308.498513
 21
1495.6285170000001
 31
0.0
  0
CIRCLE
  5
5D3
  8
SIZE
  6
CONTINUOUS
 62
    30
 10
3308.498513
 20
1515.6285170000001
 30
0.0
 40
10.0
  0
LINE
  5
5D4
  8
SIZE
  6
CONTINUOUS
 62
    30
 10
3308.498513
 20
1495.6285170000001
 30
0.0
 11
3308.498513
 21
1475.6285170000001
 31
0.0
  0
LINE
  5
5D5
  8
SIZE
  6
CONTINUOUS
 62
    30
 10
3308.498513
 20
1505.6285170000001
 30
0.0
 11
3308.498513
 21
1495.6285170000001
 31
0.0
  0
CIRCLE
  5
5D6
  8
SIZE
  6
CONTINUOUS
 62
    30
 10
3308.498513
 20
1515.6285170000001
 30
0.0
 40
10.0
  0
POINT
  5
5D7
  8
DEFPOINTS
  6
CONTINUOUS
 62
     7
 10
3308.498513
 20
1532.6285170000001
 30
0.0
  0
TEXT
  5
5D8
  8
SIZE
  6
CONTINUOUS
 62
    30
 10
3290.498513
 20
1590.6285171428569
 30
0.0
 40
55.0
  1
17
 50
90.0
 41
0.9
 72
     1
 11
3290.498513
 21
1625.9856600000001
 31
0.0
  0
LINE
  5
5D9
  8
SIZE
  6
CONTINUOUS
 62
    30
 10
3308.498513
 20
1542.6285170000001
 30
0.0
 11
3308.498513
 21
1552.6285170000001
 31
0.0
  0
LINE
  5
5DA
  8
SIZE
  6
CONTINUOUS
 62
    30
 10
3308.498513
 20
1552.6285170000001
 30
0.0
 11
3308.498513
 21
1679.342803
 31
0.0
  0
CIRCLE
  5
5DB
  8
SIZE
  6
CONTINUOUS
 62
    30
 10
2676.8632210000001
 20
1698.0493449999999
 30
0.0
 40
10.0
  0
LINE
  5
5DC
  8
SIZE
  6
CONTINUOUS
 62
    30
 10
2656.8632210000001
 20
1698.0493449999999
 30
0.0
 11
2676.8632210000001
 21
1698.0493449999999
 31
0.0
  0
CIRCLE
  5
5DD
  8
SIZE
  6
CONTINUOUS
 62
    30
 10
2676.8632210000001
 20
1801.753882
 30
0.0
 40
10.0
  0
LINE
  5
5DE
  8
SIZE
  6
CONTINUOUS
 62
    30
 10
2646.8632210000001
 20
1698.0493449999999
 30
0.0
 11
2636.8632210000001
 21
1698.0493449999999
 31
0.0
  0
CIRCLE
  5
5DF
  8
SIZE
  6
CONTINUOUS
 62
    30
 10
2656.8632210000001
 20
1698.0493449999999
 30
0.0
 40
10.0
  0
LINE
  5
5E0
  8
SIZE
  6
CONTINUOUS
 62
    30
 10
2636.8632210000001
 20
1698.0493449999999
 30
0.0
 11
2616.8632210000001
 21
1698.0493449999999
 31
0.0
  0
LINE
  5
5E1
  8
SIZE
  6
CONTINUOUS
 62
    30
 10
2666.8632210000001
 20
1801.753882
 30
0.0
 11
2656.8632210000001
 21
1801.753882
 31
0.0
  0
LINE
  5
5E2
  8
SIZE
  6
CONTINUOUS
 62
    30
 10
2646.8632210000001
 20
1698.0493449999999
 30
0.0
 11
2636.8632210000001
 21
1698.0493449999999
 31
0.0
  0
CIRCLE
  5
5E3
  8
SIZE
  6
CONTINUOUS
 62
    30
 10
2656.8632210000001
 20
1698.0493449999999
 30
0.0
 40
10.0
  0
TEXT
  5
5E4
  8
SIZE
  6
CONTINUOUS
 62
    30
 10
2734.863220571428
 20
1716.0493449999999
 30
0.0
 40
50.0
  1
20
 41
0.9
 72
     1
 11
2771.291792
 21
1716.0493449999999
 31
0.0
  0
LINE
  5
5E5
  8
SIZE
  6
CONTINUOUS
 62
    30
 10
2696.8632210000001
 20
1698.0493449999999
 30
0.0
 11
2825.7203639999998
 21
1698.0493449999999
 31
0.0
  0
POINT
  5
5E6
  8
DEFPOINTS
  6
CONTINUOUS
 62
     7
 10
2676.8632210000001
 20
1698.0493449999999
 30
0.0
  0
LINE
  5
5E7
  8
SIZE
  6
CONTINUOUS
 62
    30
 10
2686.8632210000001
 20
1698.0493449999999
 30
0.0
 11
2696.8632210000001
 21
1698.0493449999999
 31
0.0
  0
POINT
  5
5E8
  8
DEFPOINTS
  6
CONTINUOUS
 62
     7
 10
2676.8632210000001
 20
1801.753882
 30
0.0
  0
TEXT
  5
5E9
  8
NOTE
  6
CONTINUOUS
 62
     4
 10
2906.5510429999999
 20
1818.1473140000001
 30
0.0
 40
60.0
  1
外気取入口
 50
0.000003
 41
0.7
  7
STANDARD1
  0
LINE
  5
5EA
  8
SIZE
  6
CONTINUOUS
 62
    30
 10
3428.3512850000002
 20
1512.6285170000001
 30
0.0
 11
3428.3512850000002
 21
952.62851699999987
 31
0.0
  0
TEXT
  5
5EB
  8
SIZE
  6
CONTINUOUS
 62
    30
 10
3410.3512850000002
 20
749.7713741428571
 30
0.0
 40
50.0
  1
250
 50
90.0
 41
0.9
 72
     1
 11
3410.3512850000002
 21
807.62851699999999
 31
0.0
  0
LINE
  5
5EC
  8
SIZE
  6
CONTINUOUS
 62
    30
 10
3428.3512850000002
 20
912.62851699999999
 30
0.0
 11
3428.3512850000002
 21
702.62851699999999
 31
0.0
  0
POINT
  5
5ED
  8
DEFPOINTS
  6
CONTINUOUS
 62
     7
 10
3428.3512850000002
 20
682.62851699999999
 30
0.0
  0
LINE
  5
5EE
  8
SIZE
  6
CONTINUOUS
 62
    30
 10
3428.3512850000002
 20
692.62851699999976
 30
0.0
 11
3428.3512850000002
 21
702.62851699999999
 31
0.0
  0
CIRCLE
  5
5EF
  8
SIZE
  6
CONTINUOUS
 62
    30
 10
3428.3512850000002
 20
682.62851699999999
 30
0.0
 40
10.0
  0
LINE
  5
5F0
  8
SIZE
  6
CONTINUOUS
 62
    30
 10
3428.3512850000002
 20
922.62851699999999
 30
0.0
 11
3428.3512850000002
 21
912.62851699999999
 31
0.0
  0
CIRCLE
  5
5F1
  8
SIZE
  6
CONTINUOUS
 62
    30
 10
3428.3512850000002
 20
932.62851700000022
 30
0.0
 40
10.0
  0
POINT
  5
5F2
  8
DEFPOINTS
  6
CONTINUOUS
 62
     7
 10
3428.3512850000002
 20
932.62851700000022
 30
0.0
  0
LINE
  5
5F3
  8
SIZE
  6
CONTINUOUS
 62
    30
 10
3428.3512850000002
 20
942.62851699999976
 30
0.0
 11
3428.3512850000002
 21
952.62851699999987
 31
0.0
  0
CIRCLE
  5
5F4
  8
SIZE
  6
CONTINUOUS
 62
    30
 10
3428.3512850000002
 20
932.62851700000022
 30
0.0
 40
10.0
  0
TEXT
  5
5F5
  8
SIZE
  6
CONTINUOUS
 62
    30
 10
3410.3512850000002
 20
1174.771374142857
 30
0.0
 40
50.0
  1
600
 50
90.0
 41
0.9
 72
     1
 11
3410.3512850000002
 21
1232.6285170000001
 31
0.0
  0
CIRCLE
  5
5F6
  8
SIZE
  6
CONTINUOUS
 62
    30
 10
3428.3512850000002
 20
1532.6285170000001
 30
0.0
 40
10.0
  0
LINE
  5
5F7
  8
SIZE
  6
CONTINUOUS
 62
    30
 10
3428.3512850000002
 20
1522.6285170000001
 30
0.0
 11
3428.3512850000002
 21
1512.6285170000001
 31
0.0
  0
ENDBLK
  5
5F9
  8
0
 62
     7
  0
ENDSEC
  0
SECTION
  2
ENTITIES
  0
LINE
  5
5FF
  8
SIZE
  6
CONTINUOUS
 62
    30
 10
797.00001099999986
 20
-137.500011
 30
0.0
 11
1028.8782982594601
 21
-137.500011
 31
0.0
  0
LINE
  5
600
  8
SIZE
  6
CONTINUOUS
 62
    30
 10
797.00001099999986
 20
462.4999889999998
 30
0.0
 11
1029.9945605278481
 21
462.4999889999998
 31
0.0
  0
LINE
  5
601
  8
BASIS
  6
DASHDOT
 62
     6
 10
-850.0
 20
-0.000011
 30
0.0
 11
850.0
 21
-0.000011
 31
0.0
  0
LINE
  5
602
  8
OUTLINE
  6
CONTINUOUS
 62
     3
 10
-778.99998899999969
 20
-137.500011
 30
0.0
 11
779.0000110000002
 21
-137.500011
 31
0.0
  0
LINE
  5
603
  8
OUTLINE
  6
CONTINUOUS
 62
     3
 10
-778.99998899999969
 20
462.4999889999998
 30
0.0
 11
779.0000110000002
 21
462.4999889999998
 31
0.0
  0
LINE
  5
604
  8
OUTLINE
  6
CONTINUOUS
 62
     3
 10
-754.99998899999969
 20
-387.50001099999997
 30
0.0
 11
755.00001099999986
 21
-387.50001099999997
 31
0.0
  0
LINE
  5
605
  8
SIZE
  6
CONTINUOUS
 62
    30
 10
-774.99998899999969
 20
607.88706002042818
 30
0.0
 11
775.00001100000009
 21
607.88706002042818
 31
0.0
  0
LINE
  5
606
  8
SIZE
  6
CONTINUOUS
 62
    30
 10
735.00001099999974
 20
-749.88337799999999
 30
0.0
 11
-734.9999889999998
 21
-749.88337799999999
 31
0.0
  0
ARC
  5
607
  8
DETAIL
  6
CONTINUOUS
 62
     5
 10
-291.82070805748828
 20
-544.86481447028825
 30
0.0
 40
142.17388896502069
 50
91.281350515111043
 51
116.3836998350021
  0
TEXT
  5
60A
  8
SIZE
  6
CONTINUOUS
 62
    30
 10
-352.85713185714292
 20
-618.65990099999999
 30
0.0
 40
50.0
  1
320
 41
0.9
 72
     1
 11
-294.99998900000008
 21
-618.65990099999999
 31
0.0
  0
LINE
  5
60B
  8
SIZE
  6
CONTINUOUS
 62
    30
 10
-434.99998899999991
 20
-636.65990099999976
 30
0.0
 11
-154.999989
 21
-636.65990099999976
 31
0.0
  0
LINE
  5
60C
  8
SIZE
  6
CONTINUOUS
 62
    30
 10
-750.99998899999969
 20
-883.8462461748818
 30
0.0
 11
751.00001099999986
 21
-883.8462461748818
 31
0.0
  0
LINE
  5
60D
  8
DETAIL
  6
CONTINUOUS
 62
     5
 10
749.99459350970699
 20
387.49998900000003
 30
0.0
 11
-749.99462849029294
 21
387.4999894086119
 31
0.0
  0
LINE
  5
60E
  8
DETAIL
  6
CONTINUOUS
 62
     5
 10
-754.99998899999969
 20
-387.50001099999997
 30
0.0
 11
755.00001099999986
 21
-387.50001099999997
 31
0.0
  0
LINE
  5
611
  8
DETAIL
  6
CONTINUOUS
 62
     5
 10
-778.99998899999969
 20
462.4999889999998
 30
0.0
 11
779.0000110000002
 21
462.4999889999998
 31
0.0
  0
LINE
  5
612
  8
DETAIL
  6
CONTINUOUS
 62
     5
 10
-778.99998899999969
 20
-137.500011
 30
0.0
 11
779.0000110000002
 21
-137.500011
 31
0.0
  0
LINE
  5
613
  8
DETAIL
  6
CONTINUOUS
 62
     5
 10
747.99435199999982
 20
-39.056641999999997
 30
0.0
 11
-749.99459399999989
 21
-39.056641999999997
 31
0.0
  0
LINE
  5
614
  8
DETAIL
  6
CONTINUOUS
 62
     5
 10
731.99247700000001
 20
-101.99558
 30
0.0
 11
-731.992434
 21
-101.99558
 31
0.0
  0
LINE
  5
615
  8
DETAIL
  6
CONTINUOUS
 62
     5
 10
731.99243599999988
 20
423.99555800000002
 30
0.0
 11
-731.99247500000001
 21
423.99555800000002
 31
0.0
  0
LINE
  5
623
  8
OUTLINE
  6
CONTINUOUS
 62
     3
 10
-794.9999889999998
 20
-121.500011
 30
0.0
 11
-794.9999889999998
 21
446.49998899999991
 31
0.0
  0
LINE
  5
625
  8
SIZE
  6
CONTINUOUS
 62
    30
 10
-754.99998899999969
 20
-80.500011000000015
 30
0.0
 11
-754.99998899999969
 21
183.1462921638049
 31
0.0
  0
LINE
  5
626
  8
SIZE
  6
CONTINUOUS
 62
    30
 10
-793.9999889999998
 20
-161.500011
 30
0.0
 11
-793.9999889999998
 21
182.47912700000001
 31
0.0
  0
LINE
  5
628
  8
SIZE
  6
CONTINUOUS
 62
    30
 10
-1185.369043845988
 20
-179.500011
 30
0.0
 11
-1185.369043845988
 21
-96.584400253967075
 31
0.0
  0
TEXT
  5
629
  8
NOTE
  6
CONTINUOUS
 62
     4
 10
-1523.7007900000001
 20
-42.780578999999989
 30
0.0
 40
60.0
  1
RG %%C15.88
 50
0.000003
 41
0.7
  7
STANDARD1
  0
LINE
  5
62C
  8
DETAIL
  6
CONTINUOUS
 62
     5
 10
-794.9999889999998
 20
-121.500011
 30
0.0
 11
-794.9999889999998
 21
446.49998899999991
 31
0.0
  0
LINE
  5
62D
  8
DETAIL
  6
CONTINUOUS
 62
     5
 10
-749.99459000000002
 20
-83.993424000000005
 30
0.0
 11
-749.99463000000003
 21
405.993402
 31
0.0
  0
LINE
  5
62E
  8
SIZE
  6
CONTINUOUS
 62
    30
 10
-774.99998899999969
 20
-387.50001099999997
 30
0.0
 11
-1228.0485621541411
 21
-387.50001099999997
 31
0.0
  0
LINE
  5
630
  8
SIZE
  6
CONTINUOUS
 62
    30
 10
-570.4999889999998
 20
-457.50001099999992
 30
0.0
 11
-1120.717212539246
 21
-457.50001099999992
 31
0.0
  0
LINE
  5
632
  8
SIZE
  6
CONTINUOUS
 62
    30
 10
-846.66132400000004
 20
-263.50001099999997
 30
0.0
 11
-1227.9570409194559
 21
-263.50001099999997
 31
0.0
  0
LINE
  5
634
  8
SIZE
  6
CONTINUOUS
 62
    30
 10
-832.000947
 20
-199.500011
 30
0.0
 11
-1228.9991044943019
 21
-199.500011
 31
0.0
  0
LINE
  5
635
  8
SIZE
  6
CONTINUOUS
 62
    30
 10
-846.66132400000004
 20
-263.50001099999997
 30
0.0
 11
-1227.9570409194559
 21
-263.50001099999997
 31
0.0
  0
LINE
  5
638
  8
NOTE
  6
CONTINUOUS
 62
     4
 10
-1173.579262
 20
-58.607109999999999
 30
0.0
 11
-1545.376062
 21
-58.607109999999999
 31
0.0
  0
CIRCLE
  5
63F
  8
SIZE
  6
CONTINUOUS
 62
    30
 10
-1075.480016534771
 20
-457.50001099999992
 30
0.0
 40
10.0
  0
TEXT
  5
640
  8
SIZE
  6
CONTINUOUS
 62
    30
 10
-1093.480016534771
 20
-588.35715342857145
 30
0.0
 40
50.0
  1
70
 50
90.0
 41
0.9
 72
     1
 11
-1093.480016534771
 21
-551.92858200000001
 31
0.0
  0
LINE
  5
641
  8
SIZE
  6
CONTINUOUS
 62
    30
 10
-1075.480016534771
 20
-467.50001099999997
 30
0.0
 11
-1075.480016534771
 21
-477.50001099999992
 31
0.0
  0
LINE
  5
642
  8
SIZE
  6
CONTINUOUS
 62
    30
 10
-1075.480016534771
 20
-477.50001099999992
 30
0.0
 11
-1075.480016534771
 21
-606.35715400000004
 31
0.0
  0
POINT
  5
643
  8
DEFPOINTS
  6
CONTINUOUS
 62
     7
 10
-1075.480016534771
 20
-457.50001099999992
 30
0.0
  0
LINE
  5
644
  8
SIZE
  6
CONTINUOUS
 62
    30
 10
-1075.480016534771
 20
-377.50001099999997
 30
0.0
 11
-1075.480016534771
 21
-367.50001099999997
 31
0.0
  0
CIRCLE
  5
645
  8
SIZE
  6
CONTINUOUS
 62
    30
 10
-1075.480016534771
 20
-387.50001099999997
 30
0.0
 40
10.0
  0
LINE
  5
646
  8
SIZE
  6
CONTINUOUS
 62
    30
 10
-1075.480016534771
 20
-387.50001099999997
 30
0.0
 11
-1075.480016534771
 21
-457.50001099999992
 31
0.0
  0
LINE
  5
647
  8
SIZE
  6
CONTINUOUS
 62
    30
 10
-1075.480016534771
 20
-367.50001099999997
 30
0.0
 11
-1075.480016534771
 21
-347.50001099999997
 31
0.0
  0
POINT
  5
648
  8
DEFPOINTS
  6
CONTINUOUS
 62
     7
 10
-1075.480016534771
 20
-387.50001099999997
 30
0.0
  0
LINE
  5
649
  8
SIZE
  6
CONTINUOUS
 62
    30
 10
-1075.480016534771
 20
-377.50001099999997
 30
0.0
 11
-1075.480016534771
 21
-367.50001099999997
 31
0.0
  0
CIRCLE
  5
64A
  8
SIZE
  6
CONTINUOUS
 62
    30
 10
-1075.480016534771
 20
-387.50001099999997
 30
0.0
 40
10.0
  0
TEXT
  5
652
  8
SIZE
  6
CONTINUOUS
 62
    30
 10
-1203.369043845988
 20
-378.34467008439242
 30
0.0
 40
50.0
  1
124
 50
90.0
 41
0.9
 72
     1
 11
-1203.369043845988
 21
-323.70181294153531
 31
0.0
  0
LINE
  5
653
  8
SIZE
  6
CONTINUOUS
 62
    30
 10
-1185.369043845988
 20
-367.50001099999997
 30
0.0
 11
-1185.369043845988
 21
-283.50001099999997
 31
0.0
  0
LINE
  5
655
  8
SIZE
  6
CONTINUOUS
 62
    30
 10
-1185.369043845988
 20
-377.50001099999997
 30
0.0
 11
-1185.369043845988
 21
-367.50001099999997
 31
0.0
  0
CIRCLE
  5
656
  8
SIZE
  6
CONTINUOUS
 62
    30
 10
-1185.369043845988
 20
-387.50001099999997
 30
0.0
 40
10.0
  0
POINT
  5
657
  8
DEFPOINTS
  6
CONTINUOUS
 62
     7
 10
-1185.369043845988
 20
-263.50001099999997
 30
0.0
  0
LINE
  5
658
  8
SIZE
  6
CONTINUOUS
 62
    30
 10
-1185.369043845988
 20
-273.50001099999997
 30
0.0
 11
-1185.369043845988
 21
-283.50001099999997
 31
0.0
  0
CIRCLE
  5
659
  8
SIZE
  6
CONTINUOUS
 62
    30
 10
-1185.369043845988
 20
-263.50001099999997
 30
0.0
 40
10.0
  0
POINT
  5
65A
  8
DEFPOINTS
  6
CONTINUOUS
 62
     7
 10
-1185.369043845988
 20
-199.500011
 30
0.0
  0
LINE
  5
65B
  8
SIZE
  6
CONTINUOUS
 62
    30
 10
-1185.369043845988
 20
-189.500011
 30
0.0
 11
-1185.369043845988
 21
-179.500011
 31
0.0
  0
CIRCLE
  5
65C
  8
SIZE
  6
CONTINUOUS
 62
    30
 10
-1185.369043845988
 20
-199.500011
 30
0.0
 40
10.0
  0
LINE
  5
65D
  8
SIZE
  6
CONTINUOUS
 62
    30
 10
-1185.369043845988
 20
-273.50001099999997
 30
0.0
 11
-1185.369043845988
 21
-283.50001099999997
 31
0.0
  0
CIRCLE
  5
65E
  8
SIZE
  6
CONTINUOUS
 62
    30
 10
-1185.369043845988
 20
-263.50001099999997
 30
0.0
 40
10.0
  0
LINE
  5
65F
  8
SIZE
  6
CONTINUOUS
 62
    30
 10
-1185.369043845988
 20
-263.50001099999997
 30
0.0
 11
-1185.369043845988
 21
-199.500011
 31
0.0
  0
LINE
  5
660
  8
SIZE
  6
CONTINUOUS
 62
    30
 10
-1185.369043845988
 20
-283.50001099999997
 30
0.0
 11
-1185.369043845988
 21
-303.50001099999997
 31
0.0
  0
TEXT
  5
661
  8
SIZE
  6
CONTINUOUS
 62
    30
 10
-1203.369043845988
 20
-174.2601826191457
 30
0.0
 40
50.0
  1
64
 50
90.0
 41
0.9
 72
     1
 11
-1203.369043845988
 21
-136.7601826191457
 31
0.0
  0
TEXT
  5
666
  8
SIZE
  6
CONTINUOUS
 62
    30
 10
-932.85713142857117
 20
-621.27684299999976
 30
0.0
 40
50.0
  1
47
 41
0.9
 72
     1
 11
-896.42855999999983
 21
-621.27684299999976
 31
0.0
  0
LINE
  5
667
  8
SIZE
  6
CONTINUOUS
 62
    30
 10
-801.99998899999969
 20
-301.50001099999997
 30
0.0
 11
-801.99998899999969
 21
-669.27684299999999
 31
0.0
  0
LINE
  5
668
  8
SIZE
  6
CONTINUOUS
 62
    30
 10
-754.99998899999969
 20
-405.50001099999992
 30
0.0
 11
-754.99998899999969
 21
-669.27684299999999
 31
0.0
  0
LINE
  5
669
  8
SIZE
  6
CONTINUOUS
 62
    30
 10
-770.99998899999969
 20
-398.00354399999998
 30
0.0
 11
-770.99998899999969
 21
-779.88337799999988
 31
0.0
  0
LINE
  5
66A
  8
SIZE
  6
CONTINUOUS
 62
    30
 10
-754.99998899999969
 20
-405.50001099999992
 30
0.0
 11
-754.99998899999969
 21
-779.88337799999988
 31
0.0
  0
LINE
  5
66B
  8
SIZE
  6
CONTINUOUS
 62
    30
 10
-754.99998899999969
 20
-405.50001099999992
 30
0.0
 11
-754.99998899999969
 21
-779.88337799999988
 31
0.0
  0
LINE
  5
66D
  8
SIZE
  6
CONTINUOUS
 62
    30
 10
-454.99998899999991
 20
-547.444526
 30
0.0
 11
-454.99998899999991
 21
-666.65990099999976
 31
0.0
  0
LINE
  5
66E
  8
SIZE
  6
CONTINUOUS
 62
    30
 10
-770.99998899999969
 20
-401.00354399999998
 30
0.0
 11
-770.99998899999969
 21
-916.36218502671193
 31
0.0
  0
LINE
  5
670
  8
SIZE
  6
CONTINUOUS
 62
    30
 10
-770.99998899999969
 20
-398.00354399999998
 30
0.0
 11
-770.99998899999969
 21
-916.36218502671193
 31
0.0
  0
LINE
  5
671
  8
SIZE
  6
CONTINUOUS
 62
    30
 10
-754.99998899999969
 20
-639.27684299999999
 30
0.0
 11
-801.99998899999969
 21
-639.27684299999999
 31
0.0
  0
CIRCLE
  5
672
  8
SIZE
  6
CONTINUOUS
 62
    30
 10
-770.99998899999969
 20
-749.88337799999999
 30
0.0
 40
10.0
  0
CIRCLE
  5
674
  8
SIZE
  6
CONTINUOUS
 62
    30
 10
-770.99998899999969
 20
-883.8462461748818
 30
0.0
 40
10.0
  0
LINE
  5
678
  8
SIZE
  6
CONTINUOUS
 62
    30
 10
-821.99998899999957
 20
-639.27684299999999
 30
0.0
 11
-950.85713199999987
 21
-639.27684299999999
 31
0.0
  0
TEXT
  5
679
  8
SIZE
  6
CONTINUOUS
 62
    30
 10
-891.14284657142855
 20
-731.88337799999999
 30
0.0
 40
50.0
  1
16
 41
0.9
 72
     1
 11
-860.07141799999999
 21
-731.88337799999999
 31
0.0
  0
LINE
  5
67A
  8
SIZE
  6
CONTINUOUS
 62
    30
 10
-790.9999889999998
 20
-749.88337799999999
 30
0.0
 11
-909.14284599999985
 21
-749.88337799999999
 31
0.0
  0
POINT
  5
67B
  8
DEFPOINTS
  6
CONTINUOUS
 62
     7
 10
-801.99998899999969
 20
-639.27684299999999
 30
0.0
  0
LINE
  5
67C
  8
SIZE
  6
CONTINUOUS
 62
    30
 10
-811.99998899999969
 20
-639.27684299999999
 30
0.0
 11
-821.99998899999957
 21
-639.27684299999999
 31
0.0
  0
CIRCLE
  5
67D
  8
SIZE
  6
CONTINUOUS
 62
    30
 10
-801.99998899999969
 20
-639.27684299999999
 30
0.0
 40
10.0
  0
LINE
  5
67E
  8
SIZE
  6
CONTINUOUS
 62
    30
 10
-780.9999889999998
 20
-749.88337799999999
 30
0.0
 11
-790.9999889999998
 21
-749.88337799999999
 31
0.0
  0
LINE
  5
67F
  8
SIZE
  6
CONTINUOUS
 62
    30
 10
-760.9999889999998
 20
-883.8462461748818
 30
0.0
 11
-750.99998899999969
 21
-883.8462461748818
 31
0.0
  0
LINE
  5
687
  8
SIZE
  6
CONTINUOUS
 62
    30
 10
-744.9999889999998
 20
-639.27684299999999
 30
0.0
 11
-734.9999889999998
 21
-639.27684299999999
 31
0.0
  0
CIRCLE
  5
688
  8
SIZE
  6
CONTINUOUS
 62
    30
 10
-754.99998899999969
 20
-639.27684299999999
 30
0.0
 40
10.0
  0
LINE
  5
689
  8
SIZE
  6
CONTINUOUS
 62
    30
 10
-734.9999889999998
 20
-639.27684299999999
 30
0.0
 11
-714.9999889999998
 21
-639.27684299999999
 31
0.0
  0
POINT
  5
68A
  8
DEFPOINTS
  6
CONTINUOUS
 62
     7
 10
-770.99998899999969
 20
-749.88337799999999
 30
0.0
  0
LINE
  5
68B
  8
SIZE
  6
CONTINUOUS
 62
    30
 10
-744.9999889999998
 20
-749.88337799999999
 30
0.0
 11
-734.9999889999998
 21
-749.88337799999999
 31
0.0
  0
CIRCLE
  5
68C
  8
SIZE
  6
CONTINUOUS
 62
    30
 10
-754.99998899999969
 20
-749.88337799999999
 30
0.0
 40
10.0
  0
LINE
  5
68D
  8
SIZE
  6
CONTINUOUS
 62
    30
 10
-754.99998899999969
 20
-749.88337799999999
 30
0.0
 11
-770.99998899999969
 21
-749.88337799999999
 31
0.0
  0
LINE
  5
68E
  8
SIZE
  6
CONTINUOUS
 62
    30
 10
-734.9999889999998
 20
-749.88337799999999
 30
0.0
 11
-714.9999889999998
 21
-749.88337799999999
 31
0.0
  0
POINT
  5
68F
  8
DEFPOINTS
  6
CONTINUOUS
 62
     7
 10
-754.99998899999969
 20
-749.88337799999999
 30
0.0
  0
LINE
  5
690
  8
SIZE
  6
CONTINUOUS
 62
    30
 10
-744.9999889999998
 20
-749.88337799999999
 30
0.0
 11
-734.9999889999998
 21
-749.88337799999999
 31
0.0
  0
CIRCLE
  5
691
  8
SIZE
  6
CONTINUOUS
 62
    30
 10
-754.99998899999969
 20
-749.88337799999999
 30
0.0
 40
10.0
  0
LINE
  5
692
  8
SIZE
  6
CONTINUOUS
 62
    30
 10
-444.99998899999991
 20
-636.65990099999976
 30
0.0
 11
-434.99998899999991
 21
-636.65990099999976
 31
0.0
  0
CIRCLE
  5
693
  8
SIZE
  6
CONTINUOUS
 62
    30
 10
-454.99998899999991
 20
-636.65990099999976
 30
0.0
 40
10.0
  0
LINE
  5
69B
  8
NOTE
  6
CONTINUOUS
 62
     4
 10
-814.000947
 20
-199.500011
 30
0.0
 11
-773.99903099999983
 21
-199.500011
 31
0.0
  0
LINE
  5
69E
  8
NOTE
  6
CONTINUOUS
 62
     4
 10
-828.66132400000015
 20
-263.50001099999997
 30
0.0
 11
-775.33865400000002
 21
-263.50001099999997
 31
0.0
  0
LINE
  5
6A3
  8
NOTE
  6
CONTINUOUS
 62
     4
 10
-801.99998899999969
 20
-263.50001099999997
 30
0.0
 11
-832.15231400000005
 21
-256.05324000000002
 31
0.0
  0
LINE
  5
6A4
  8
NOTE
  6
CONTINUOUS
 62
     4
 10
-824.38928299999998
 20
-241.97475600000001
 30
0.0
 11
-801.99998899999969
 21
-263.50001099999997
 31
0.0
  0
LINE
  5
6A5
  8
NOTE
  6
CONTINUOUS
 62
     4
 10
-793.9999889999998
 20
-199.500011
 30
0.0
 11
-823.50534199999981
 21
-189.80201
 31
0.0
  0
LINE
  5
6A6
  8
NOTE
  6
CONTINUOUS
 62
     4
 10
-814.70337400000005
 20
-176.34861900000001
 30
0.0
 11
-793.9999889999998
 21
-199.500011
 31
0.0
  0
POINT
  5
6A7
  8
DEFPOINTS
  6
CONTINUOUS
 62
     7
 10
-793.9999889999998
 20
-179.500011
 30
0.0
  0
POINT
  5
6A8
  8
DEFPOINTS
  6
CONTINUOUS
 62
     7
 10
-801.99998899999969
 20
-283.50001099999997
 30
0.0
  0
POINT
  5
6A9
  8
DEFPOINTS
  6
CONTINUOUS
 62
     7
 10
-828.66132400000015
 20
-263.50001099999997
 30
0.0
  0
POINT
  5
6AA
  8
DEFPOINTS
  6
CONTINUOUS
 62
     7
 10
-814.000947
 20
-199.500011
 30
0.0
  0
POINT
  5
6AB
  8
DEFPOINTS
  6
CONTINUOUS
 62
     7
 10
-828.66132400000015
 20
-263.50001099999997
 30
0.0
  0
LINE
  5
6AD
  8
NOTE
  6
CONTINUOUS
 62
     4
 10
-793.9999889999998
 20
-219.500011
 30
0.0
 11
-793.9999889999998
 21
-179.500011
 31
0.0
  0
LINE
  5
6AF
  8
NOTE
  6
CONTINUOUS
 62
     4
 10
-801.99998899999969
 20
-283.50001099999997
 30
0.0
 11
-801.99998899999969
 21
-243.500011
 31
0.0
  0
ARC
  5
6B2
  8
OUTLINE
  6
CONTINUOUS
 62
     3
 10
-778.99998899999969
 20
-121.500011
 30
0.0
 40
16.0
 50
180.0
 51
270.0
  0
ARC
  5
6B3
  8
DETAIL
  6
CONTINUOUS
 62
     5
 10
-778.99998899999969
 20
-121.500011
 30
0.0
 40
16.0
 50
180.0
 51
270.0
  0
LINE
  5
6B8
  8
OUTLINE
  6
CONTINUOUS
 62
     3
 10
-754.99998899999969
 20
-387.50001099999997
 30
0.0
 11
-754.99998899999969
 21
-137.500011
 31
0.0
  0
LINE
  5
6B9
  8
DETAIL
  6
CONTINUOUS
 62
     5
 10
-554.99998899999991
 20
-417.50001099999997
 30
0.0
 11
-354.99998900000008
 21
-417.50001099999997
 31
0.0
  0
LINE
  5
6BA
  8
DETAIL
  6
CONTINUOUS
 62
     5
 10
-552.49998899999991
 20
-457.50001099999992
 30
0.0
 11
-357.49998900000008
 21
-457.50001099999992
 31
0.0
  0
LINE
  5
6BB
  8
DETAIL
  6
CONTINUOUS
 62
     5
 10
-563.265629353603
 20
-409.62362926698609
 30
0.0
 11
-718.66361200000006
 21
-395.500969
 31
0.0
  0
LINE
  5
6CA
  8
DETAIL
  6
CONTINUOUS
 62
     5
 10
-722.66409099999998
 20
-389.50025099999999
 30
0.0
 11
-722.66409099999998
 21
-391.50049000000001
 31
0.0
  0
ARC
  5
6CB
  8
DETAIL
  6
CONTINUOUS
 62
     5
 10
-718.66361200000006
 20
-391.50049000000001
 30
0.0
 40
4.0004790000000003
 50
180.0
 51
270.0
  0
ARC
  5
6CC
  8
DETAIL
  6
CONTINUOUS
 62
     5
 10
-724.66433099999983
 20
-389.50025099999999
 30
0.0
 40
2.0002399999999989
 50
0.0
 51
90.0
  0
LINE
  5
6CD
  8
DETAIL
  6
CONTINUOUS
 62
     5
 10
-770.99998899999969
 20
-347.49929200000008
 30
0.0
 11
-770.99998899999969
 21
-323.99647800000002
 31
0.0
  0
LINE
  5
6D2
  8
DETAIL
  6
CONTINUOUS
 62
     5
 10
-770.99998899999969
 20
-383.00354399999992
 30
0.0
 11
-770.99998899999969
 21
-359.50072999999998
 31
0.0
  0
LINE
  5
6D3
  8
DETAIL
  6
CONTINUOUS
 62
     5
 10
-755.00082699999984
 20
-347.49929200000008
 30
0.0
 11
-770.99998899999969
 21
-347.49929200000008
 31
0.0
  0
LINE
  5
6D4
  8
DETAIL
  6
CONTINUOUS
 62
     5
 10
-755.00082699999984
 20
-359.50072999999998
 30
0.0
 11
-770.99998899999969
 21
-359.50072999999998
 31
0.0
  0
LINE
  5
6D6
  8
DETAIL
  6
CONTINUOUS
 62
     5
 10
-754.99998899999969
 20
-383.00354399999992
 30
0.0
 11
-770.99998899999969
 21
-383.00354399999992
 31
0.0
  0
LINE
  5
6D7
  8
DETAIL
  6
CONTINUOUS
 62
     5
 10
-754.99998899999969
 20
-323.99647800000002
 30
0.0
 11
-770.99998899999969
 21
-323.99647800000002
 31
0.0
  0
ARC
  5
6E1
  8
DETAIL
  6
CONTINUOUS
 62
     5
 10
-565.1259058098824
 20
-419.8511015640525
 30
0.0
 40
10.39527864374206
 50
13.071633546174979
 51
79.691162135531627
  0
POINT
  5
6E2
  8
DEFPOINTS
  6
CONTINUOUS
 62
     7
 10
-552.49998899999991
 20
-457.50001099999992
 30
0.0
  0
LINE
  5
6E3
  8
DETAIL
  6
CONTINUOUS
 62
     5
 10
-552.49998899999991
 20
-457.50001099999992
 30
0.0
 11
-554.99998899999991
 21
-417.50001099999997
 31
0.0
  0
LINE
  5
6E4
  8
NOTE
  6
CONTINUOUS
 62
     4
 10
-454.99998899999991
 20
-385.55549600000001
 30
0.0
 11
-454.99998899999991
 21
-529.44452599999977
 31
0.0
  0
POINT
  5
6E5
  8
DEFPOINTS
  6
CONTINUOUS
 62
     7
 10
-454.99998899999991
 20
-529.44452599999977
 30
0.0
  0
LINE
  5
6E6
  8
NOTE
  6
CONTINUOUS
 62
     4
 10
-526.94450400000005
 20
-457.50001099999992
 30
0.0
 11
-383.055474
 21
-457.50001099999992
 31
0.0
  0
LINE
  5
6E8
  8
DETAIL
  6
CONTINUOUS
 62
     5
 10
-357.49998900000008
 20
-457.50001099999992
 30
0.0
 11
-354.99998900000008
 21
-417.50001099999997
 31
0.0
  0
ARC
  5
6ED
  8
DETAIL
  6
CONTINUOUS
 62
     5
 10
-731.992434
 20
-83.993424000000005
 30
0.0
 40
18.002155999999999
 50
180.0
 51
270.0
  0
LINE
  5
6EE
  8
DETAIL
  6
CONTINUOUS
 62
     5
 10
-724.99159599999984
 20
-137.500011
 30
0.0
 11
-724.99159599999984
 21
-101.99558
 31
0.0
  0
TEXT
  5
6F0
  8
NOTE
  6
CONTINUOUS
 62
     4
 10
-1518.350936
 20
75.900036999999998
 30
0.0
 40
60.0
  1
RL %%C9.52
 50
0.000003
 41
0.7
  7
STANDARD1
  0
LINE
  5
6F1
  8
NOTE
  6
CONTINUOUS
 62
     4
 10
-1210.989687
 20
60.073506000000009
 30
0.0
 11
-1540.026208
 21
60.073506000000009
 31
0.0
  0
TEXT
  5
6F2
  8
NOTE
  6
CONTINUOUS
 62
     4
 10
-1518.350936
 20
75.900036999999998
 30
0.0
 40
60.0
  1
RL %%C9.52
 50
0.000003
 41
0.7
  7
STANDARD1
  0
LINE
  5
6F3
  8
NOTE
  6
CONTINUOUS
 62
     4
 10
-1210.989687
 20
60.073506000000009
 30
0.0
 11
-1540.026208
 21
60.073506000000009
 31
0.0
  0
TEXT
  5
6F6
  8
ETC
  6
CONTINUOUS
 62
    61
 10
592.08768362897194
 20
794.46491724394923
 30
0.0
 40
65.0
  1
PD-RP112_160FA6_6
 50
0.000003
 41
0.85
  7
STANDARD1
  0
LINE
  5
6F9
  8
SIZE
  6
CONTINUOUS
 62
    30
 10
-794.9999889999998
 20
464.49998900000003
 30
0.0
 11
-794.9999889999998
 21
651.25346437127871
 31
0.0
  0
LINE
  5
700
  8
SIZE
  6
CONTINUOUS
 62
    30
 10
-754.99998899999969
 20
152.47912700000001
 30
0.0
 11
-793.9999889999998
 21
152.47912700000001
 31
0.0
  0
CIRCLE
  5
701
  8
SIZE
  6
CONTINUOUS
 62
    30
 10
-793.9999889999998
 20
152.47912700000001
 30
0.0
 40
10.0
  0
TEXT
  5
707
  8
SIZE
  6
CONTINUOUS
 62
    30
 10
-922.71427485714275
 20
170.47912700000001
 30
0.0
 40
50.0
  1
39
 41
0.9
 72
     1
 11
-887.35713199999975
 21
170.47912700000001
 31
0.0
  0
LINE
  5
708
  8
SIZE
  6
CONTINUOUS
 62
    30
 10
-813.99998899999957
 20
152.47912700000001
 30
0.0
 11
-940.71427500000004
 21
152.47912700000001
 31
0.0
  0
POINT
  5
709
  8
DEFPOINTS
  6
CONTINUOUS
 62
     7
 10
-793.9999889999998
 20
152.47912700000001
 30
0.0
  0
LINE
  5
70A
  8
SIZE
  6
CONTINUOUS
 62
    30
 10
-803.99998899999969
 20
152.47912700000001
 30
0.0
 11
-813.99998899999957
 21
152.47912700000001
 31
0.0
  0
ARC
  5
70B
  8
OUTLINE
  6
CONTINUOUS
 62
     3
 10
-778.99998899999969
 20
446.49998899999991
 30
0.0
 40
16.0
 50
90.0
 51
180.0
  0
ARC
  5
70C
  8
DETAIL
  6
CONTINUOUS
 62
     5
 10
-778.99998899999969
 20
446.49998899999991
 30
0.0
 40
16.0
 50
90.0
 51
180.0
  0
POINT
  5
70D
  8
DEFPOINTS
  6
CONTINUOUS
 62
     7
 10
-794.9999889999998
 20
446.49998899999991
 30
0.0
  0
POINT
  5
70E
  8
DEFPOINTS
  6
CONTINUOUS
 62
     7
 10
-794.9999889999998
 20
446.49998899999991
 30
0.0
  0
CIRCLE
  5
711
  8
SIZE
  6
CONTINUOUS
 62
    30
 10
-754.99998899999969
 20
152.47912700000001
 30
0.0
 40
10.0
  0
LINE
  5
715
  8
SIZE
  6
CONTINUOUS
 62
    30
 10
-744.9999889999998
 20
152.47912700000001
 30
0.0
 11
-734.9999889999998
 21
152.47912700000001
 31
0.0
  0
LINE
  5
716
  8
SIZE
  6
CONTINUOUS
 62
    30
 10
-734.9999889999998
 20
152.47912700000001
 30
0.0
 11
-714.9999889999998
 21
152.47912700000001
 31
0.0
  0
LINE
  5
718
  8
DETAIL
  6
CONTINUOUS
 62
     5
 10
-724.9916360000002
 20
423.99555800000002
 30
0.0
 11
-724.9916360000002
 21
462.4999889999998
 31
0.0
  0
ARC
  5
732
  8
DETAIL
  6
CONTINUOUS
 62
     5
 10
-731.99247500000001
 20
405.993402
 30
0.0
 40
18.002155999999999
 50
90.0
 51
180.0
  0
LINE
  5
73B
  8
SIZE
  6
CONTINUOUS
 62
    30
 10
-784.9999889999998
 20
607.88706002042818
 30
0.0
 11
-774.99998899999969
 21
607.88706002042818
 31
0.0
  0
CIRCLE
  5
742
  8
SIZE
  6
CONTINUOUS
 62
    30
 10
-794.9999889999998
 20
607.88706002042818
 30
0.0
 40
10.0
  0
LINE
  5
747
  8
BASIS
  6
DASHDOT
 62
     6
 10
0.000021
 20
-500.0
 30
0.0
 11
-0.000019
 21
500.0
 31
0.0
  0
CIRCLE
  5
748
  8
ARRANGE
  6
CONTINUOUS
 62
     1
 10
0.0
 20
0.0
 30
0.0
 40
50.0
  0
LINE
  5
749
  8
OUTLINE
  6
CONTINUOUS
 62
     3
 10
795.0000110000002
 20
-121.500011
 30
0.0
 11
795.0000110000002
 21
446.49998899999991
 31
0.0
  0
LINE
  5
750
  8
ARRANGE
  6
CONTINUOUS
 62
     1
 10
50.037360999999997
 20
-49.522364000000003
 30
0.0
 11
-50.037339000000003
 21
49.522342000000002
 31
0.0
  0
LINE
  5
751
  8
ARRANGE
  6
CONTINUOUS
 62
     1
 10
49.963774000000001
 20
49.596584
 30
0.0
 11
-49.963751999999999
 21
-49.596606000000001
 31
0.0
  0
LINE
  5
752
  8
DETAIL
  6
CONTINUOUS
 62
     5
 10
749.99463200000002
 20
-83.993424000000005
 30
0.0
 11
749.99459200000001
 21
405.993402
 31
0.0
  0
LINE
  5
753
  8
DETAIL
  6
CONTINUOUS
 62
     5
 10
795.0000110000002
 20
-121.500011
 30
0.0
 11
795.0000110000002
 21
446.49998899999991
 31
0.0
  0
LINE
  5
754
  8
SIZE
  6
CONTINUOUS
 62
    30
 10
525.00001100000009
 20
-636.65990099999976
 30
0.0
 11
735.00001099999974
 21
-636.65990099999976
 31
0.0
  0
LINE
  5
755
  8
DETAIL
  6
CONTINUOUS
 62
     5
 10
405.00001099999997
 20
-417.50001099999997
 30
0.0
 11
605.00001099999997
 21
-417.50001099999997
 31
0.0
  0
LINE
  5
756
  8
DETAIL
  6
CONTINUOUS
 62
     5
 10
602.50001099999986
 20
-457.50001099999992
 30
0.0
 11
407.50001099999992
 21
-457.50001099999992
 31
0.0
  0
LINE
  5
757
  8
NOTE
  6
CONTINUOUS
 62
     4
 10
671.46040300000004
 20
-261.064819
 30
0.0
 11
77.141968000000006
 21
-261.064819
 31
0.0
  0
TEXT
  5
758
  8
NOTE
  6
CONTINUOUS
 62
     4
 10
93.516711000000001
 20
-246.26915199999999
 30
0.0
 40
60.0
  1
%%C200 吹出円形フランジ
 50
0.000003
 41
0.7
  7
STANDARD1
  0
LINE
  5
759
  8
NOTE
  6
CONTINUOUS
 62
     4
 10
433.05549599999989
 20
-457.50001099999992
 30
0.0
 11
576.944526
 21
-457.50001099999992
 31
0.0
  0
LINE
  5
75A
  8
SIZE
  6
CONTINUOUS
 62
    30
 10
-134.999989
 20
-547.444526
 30
0.0
 11
-134.999989
 21
-666.65990099999976
 31
0.0
  0
TEXT
  5
75B
  8
SIZE
  6
CONTINUOUS
 62
    30
 10
-32.857131857142861
 20
-618.65990099999999
 30
0.0
 40
50.0
  1
320
 41
0.9
 72
     1
 11
25.000011000000001
 21
-618.65990099999999
 31
0.0
  0
LINE
  5
75C
  8
SIZE
  6
CONTINUOUS
 62
    30
 10
185.000011
 20
-547.444526
 30
0.0
 11
185.000011
 21
-666.65990099999976
 31
0.0
  0
LINE
  5
75D
  8
SIZE
  6
CONTINUOUS
 62
    30
 10
-134.999989
 20
-547.444526
 30
0.0
 11
-134.999989
 21
-666.65990099999976
 31
0.0
  0
TEXT
  5
75E
  8
SIZE
  6
CONTINUOUS
 62
    30
 10
287.14286814285708
 20
-618.65990099999999
 30
0.0
 40
50.0
  1
320
 41
0.9
 72
     1
 11
345.00001099999997
 21
-618.65990099999999
 31
0.0
  0
LINE
  5
75F
  8
SIZE
  6
CONTINUOUS
 62
    30
 10
505.00001099999997
 20
-547.444526
 30
0.0
 11
505.00001099999997
 21
-666.65990099999976
 31
0.0
  0
LINE
  5
760
  8
SIZE
  6
CONTINUOUS
 62
    30
 10
185.000011
 20
-547.444526
 30
0.0
 11
185.000011
 21
-666.65990099999976
 31
0.0
  0
LINE
  5
761
  8
SIZE
  6
CONTINUOUS
 62
    30
 10
505.00001099999997
 20
-547.444526
 30
0.0
 11
505.00001099999997
 21
-666.65990099999976
 31
0.0
  0
LINE
  5
763
  8
SIZE
  6
CONTINUOUS
 62
    30
 10
-114.999989
 20
-636.65990099999976
 30
0.0
 11
165.000011
 21
-636.65990099999976
 31
0.0
  0
TEXT
  5
764
  8
SIZE
  6
CONTINUOUS
 62
    30
 10
-74.999988999999999
 20
-865.8462461748818
 30
0.0
 40
50.0
  1
1542
 41
0.9
 72
     1
 11
0.000011
 21
-865.8462461748818
 31
0.0
  0
POINT
  5
765
  8
DEFPOINTS
  6
CONTINUOUS
 62
     7
 10
-134.999989
 20
-636.65990099999976
 30
0.0
  0
LINE
  5
766
  8
SIZE
  6
CONTINUOUS
 62
    30
 10
-144.999989
 20
-636.65990099999976
 30
0.0
 11
-154.999989
 21
-636.65990099999976
 31
0.0
  0
CIRCLE
  5
767
  8
SIZE
  6
CONTINUOUS
 62
    30
 10
-134.999989
 20
-636.65990099999976
 30
0.0
 40
10.0
  0
LINE
  5
768
  8
SIZE
  6
CONTINUOUS
 62
    30
 10
-124.999989
 20
-636.65990099999976
 30
0.0
 11
-114.999989
 21
-636.65990099999976
 31
0.0
  0
CIRCLE
  5
769
  8
SIZE
  6
CONTINUOUS
 62
    30
 10
-134.999989
 20
-636.65990099999976
 30
0.0
 40
10.0
  0
TEXT
  5
76A
  8
SIZE
  6
CONTINUOUS
 62
    30
 10
-70.714274714285693
 20
-731.88337799999999
 30
0.0
 40
50.0
  1
1510
 41
0.9
 72
     1
 11
0.000011
 21
-731.88337799999999
 31
0.0
  0
LINE
  5
76B
  8
SIZE
  6
CONTINUOUS
 62
    30
 10
205.000011
 20
-636.65990099999976
 30
0.0
 11
485.00001099999992
 21
-636.65990099999976
 31
0.0
  0
POINT
  5
76C
  8
DEFPOINTS
  6
CONTINUOUS
 62
     7
 10
185.000011
 20
-636.65990099999976
 30
0.0
  0
LINE
  5
76D
  8
SIZE
  6
CONTINUOUS
 62
    30
 10
175.000011
 20
-636.65990099999976
 30
0.0
 11
165.000011
 21
-636.65990099999976
 31
0.0
  0
CIRCLE
  5
76E
  8
SIZE
  6
CONTINUOUS
 62
    30
 10
185.000011
 20
-636.65990099999976
 30
0.0
 40
10.0
  0
LINE
  5
76F
  8
SIZE
  6
CONTINUOUS
 62
    30
 10
195.000011
 20
-636.65990099999976
 30
0.0
 11
205.000011
 21
-636.65990099999976
 31
0.0
  0
CIRCLE
  5
770
  8
SIZE
  6
CONTINUOUS
 62
    30
 10
185.000011
 20
-636.65990099999976
 30
0.0
 40
10.0
  0
POINT
  5
771
  8
DEFPOINTS
  6
CONTINUOUS
 62
     7
 10
505.00001099999997
 20
-636.65990099999976
 30
0.0
  0
LINE
  5
772
  8
SIZE
  6
CONTINUOUS
 62
    30
 10
495.00001099999992
 20
-636.65990099999976
 30
0.0
 11
485.00001099999992
 21
-636.65990099999976
 31
0.0
  0
CIRCLE
  5
773
  8
SIZE
  6
CONTINUOUS
 62
    30
 10
505.00001099999997
 20
-636.65990099999976
 30
0.0
 40
10.0
  0
LINE
  5
774
  8
SIZE
  6
CONTINUOUS
 62
    30
 10
515.00001099999986
 20
-636.65990099999976
 30
0.0
 11
525.00001100000009
 21
-636.65990099999976
 31
0.0
  0
CIRCLE
  5
775
  8
SIZE
  6
CONTINUOUS
 62
    30
 10
505.00001099999997
 20
-636.65990099999976
 30
0.0
 40
10.0
  0
LINE
  5
776
  8
DETAIL
  6
CONTINUOUS
 62
     5
 10
87.500011000000001
 20
-457.50001099999992
 30
0.0
 11
282.50001099999997
 21
-457.50001099999992
 31
0.0
  0
LINE
  5
777
  8
DETAIL
  6
CONTINUOUS
 62
     5
 10
85.000011000000001
 20
-417.50001099999997
 30
0.0
 11
285.00001099999997
 21
-417.50001099999997
 31
0.0
  0
LINE
  5
778
  8
NOTE
  6
CONTINUOUS
 62
     4
 10
113.05549600000001
 20
-457.50001099999992
 30
0.0
 11
256.944526
 21
-457.50001099999992
 31
0.0
  0
LINE
  5
77D
  8
DETAIL
  6
CONTINUOUS
 62
     5
 10
-234.999989
 20
-417.50001099999997
 30
0.0
 11
-34.999988999999999
 21
-417.50001099999997
 31
0.0
  0
LINE
  5
77E
  8
DETAIL
  6
CONTINUOUS
 62
     5
 10
-232.499989
 20
-457.50001099999992
 30
0.0
 11
-37.499988999999999
 21
-457.50001099999992
 31
0.0
  0
LINE
  5
77F
  8
NOTE
  6
CONTINUOUS
 62
     4
 10
-206.94450399999999
 20
-457.50001099999992
 30
0.0
 11
-63.055473999999997
 21
-457.50001099999992
 31
0.0
  0
LINE
  5
780
  8
NOTE
  6
CONTINUOUS
 62
     4
 10
-134.999989
 20
-385.55549600000001
 30
0.0
 11
-134.999989
 21
-529.44452599999977
 31
0.0
  0
POINT
  5
781
  8
DEFPOINTS
  6
CONTINUOUS
 62
     7
 10
-134.999989
 20
-529.44452599999977
 30
0.0
  0
POINT
  5
782
  8
DEFPOINTS
  6
CONTINUOUS
 62
     7
 10
-134.999989
 20
-529.44452599999977
 30
0.0
  0
LINE
  5
783
  8
DETAIL
  6
CONTINUOUS
 62
     5
 10
-232.499989
 20
-457.50001099999992
 30
0.0
 11
-234.999989
 21
-417.50001099999997
 31
0.0
  0
ARC
  5
784
  8
DETAIL
  6
CONTINUOUS
 62
     5
 10
-295.66461874244823
 20
-534.65201942351825
 30
0.0
 40
131.92721621959751
 50
62.623598666139472
 51
89.711350983746982
  0
LINE
  5
786
  8
NOTE
  6
CONTINUOUS
 62
     4
 10
-134.999989
 20
-457.50001099999992
 30
0.0
 11
-118.449071
 21
-431.21913999999992
 31
0.0
  0
LINE
  5
787
  8
NOTE
  6
CONTINUOUS
 62
     4
 10
-107.526038
 20
-443.01556799999992
 30
0.0
 11
-134.999989
 21
-457.50001099999992
 31
0.0
  0
ARC
  5
788
  8
DETAIL
  6
CONTINUOUS
 62
     5
 10
26.57348858126494
 20
-538.34313837723255
 30
0.0
 40
135.62578875627091
 50
90.664738386687148
 51
117.0003119634262
  0
LINE
  5
78A
  8
DETAIL
  6
CONTINUOUS
 62
     5
 10
-37.499988999999999
 20
-457.50001099999992
 30
0.0
 11
-34.999988999999999
 21
-417.50001099999997
 31
0.0
  0
LINE
  5
78B
  8
DETAIL
  6
CONTINUOUS
 62
     5
 10
87.500011000000001
 20
-457.50001099999992
 30
0.0
 11
85.000011000000001
 21
-417.50001099999997
 31
0.0
  0
ARC
  5
78C
  8
DETAIL
  6
CONTINUOUS
 62
     5
 10
16.359137792182239
 20
-567.04607063542903
 30
0.0
 40
164.54662994791161
 50
65.345120168267329
 51
86.989829481619239
  0
ARC
  5
78E
  8
DETAIL
  6
CONTINUOUS
 62
     5
 10
346.87963647237541
 20
-539.58650193629501
 30
0.0
 40
136.8729312820453
 50
90.786846688840129
 51
116.8782036612732
  0
LINE
  5
78F
  8
NOTE
  6
CONTINUOUS
 62
     4
 10
185.000011
 20
-385.55549600000001
 30
0.0
 11
185.000011
 21
-529.44452599999977
 31
0.0
  0
POINT
  5
790
  8
DEFPOINTS
  6
CONTINUOUS
 62
     7
 10
185.000011
 20
-529.44452599999977
 30
0.0
  0
POINT
  5
791
  8
DEFPOINTS
  6
CONTINUOUS
 62
     7
 10
185.000011
 20
-529.44452599999977
 30
0.0
  0
LINE
  5
793
  8
DETAIL
  6
CONTINUOUS
 62
     5
 10
282.50001099999997
 20
-457.50001099999992
 30
0.0
 11
285.00001099999997
 21
-417.50001099999997
 31
0.0
  0
LINE
  5
794
  8
NOTE
  6
CONTINUOUS
 62
     4
 10
505.00001099999997
 20
-385.55549600000001
 30
0.0
 11
505.00001099999997
 21
-529.44452599999977
 31
0.0
  0
POINT
  5
795
  8
DEFPOINTS
  6
CONTINUOUS
 62
     7
 10
505.00001099999997
 20
-529.44452599999977
 30
0.0
  0
POINT
  5
796
  8
DEFPOINTS
  6
CONTINUOUS
 62
     7
 10
505.00001099999997
 20
-529.44452599999977
 30
0.0
  0
LINE
  5
797
  8
DETAIL
  6
CONTINUOUS
 62
     5
 10
407.50001099999992
 20
-457.50001099999992
 30
0.0
 11
405.00001099999997
 21
-417.50001099999997
 31
0.0
  0
ARC
  5
798
  8
DETAIL
  6
CONTINUOUS
 62
     5
 10
339.94368954234
 20
-552.48807056051862
 30
0.0
 40
149.8469258460664
 50
64.268662361707015
 51
88.066287288179566
  0
LINE
  5
79A
  8
SIZE
  6
CONTINUOUS
 62
    30
 10
755.00001099999986
 20
-405.50001099999992
 30
0.0
 11
755.00001099999986
 21
-779.88337799999988
 31
0.0
  0
TEXT
  5
79C
  8
SIZE
  6
CONTINUOUS
 62
    30
 10
572.14286814285697
 20
-618.65990099999999
 30
0.0
 40
50.0
  1
250
 41
0.9
 72
     1
 11
630.00001099999997
 21
-618.65990099999999
 31
0.0
  0
LINE
  5
79D
  8
SIZE
  6
CONTINUOUS
 62
    30
 10
755.00001099999986
 20
-405.50001099999992
 30
0.0
 11
755.00001099999986
 21
-666.65990099999976
 31
0.0
  0
LINE
  5
79E
  8
SIZE
  6
CONTINUOUS
 62
    30
 10
771.00001100000009
 20
-398.00354399999998
 30
0.0
 11
771.00001100000009
 21
-917.34178344272345
 31
0.0
  0
LINE
  5
7A0
  8
SIZE
  6
CONTINUOUS
 62
    30
 10
771.00001100000009
 20
-398.00354399999998
 30
0.0
 11
771.00001100000009
 21
-780.16458899999975
 31
0.0
  0
LINE
  5
7A1
  8
SIZE
  6
CONTINUOUS
 62
    30
 10
755.00001099999986
 20
-405.50001099999992
 30
0.0
 11
755.00001099999986
 21
-780.16458899999975
 31
0.0
  0
POINT
  5
7A5
  8
DEFPOINTS
  6
CONTINUOUS
 62
     7
 10
771.00001100000009
 20
-883.8462461748818
 30
0.0
  0
LINE
  5
7A6
  8
SIZE
  6
CONTINUOUS
 62
    30
 10
761.0000110000002
 20
-883.8462461748818
 30
0.0
 11
751.00001099999986
 21
-883.8462461748818
 31
0.0
  0
CIRCLE
  5
7A7
  8
SIZE
  6
CONTINUOUS
 62
    30
 10
771.00001100000009
 20
-883.8462461748818
 30
0.0
 40
10.0
  0
LINE
  5
7A9
  8
SIZE
  6
CONTINUOUS
 62
    30
 10
781.00001099999974
 20
-750.16458899999975
 30
0.0
 11
791.0000110000002
 21
-750.16458899999975
 31
0.0
  0
LINE
  5
7B3
  8
SIZE
  6
CONTINUOUS
 62
    30
 10
745.0000110000002
 20
-749.88337799999999
 30
0.0
 11
735.00001099999974
 21
-749.88337799999999
 31
0.0
  0
CIRCLE
  5
7B4
  8
SIZE
  6
CONTINUOUS
 62
    30
 10
755.00001099999986
 20
-749.88337799999999
 30
0.0
 40
10.0
  0
POINT
  5
7B5
  8
DEFPOINTS
  6
CONTINUOUS
 62
     7
 10
755.00001099999986
 20
-636.65990099999976
 30
0.0
  0
LINE
  5
7B6
  8
SIZE
  6
CONTINUOUS
 62
    30
 10
745.0000110000002
 20
-636.65990099999976
 30
0.0
 11
735.00001099999974
 21
-636.65990099999976
 31
0.0
  0
CIRCLE
  5
7B7
  8
SIZE
  6
CONTINUOUS
 62
    30
 10
755.00001099999986
 20
-636.65990099999976
 30
0.0
 40
10.0
  0
POINT
  5
7B8
  8
DEFPOINTS
  6
CONTINUOUS
 62
     7
 10
771.00001100000009
 20
-750.16458899999975
 30
0.0
  0
CIRCLE
  5
7B9
  8
SIZE
  6
CONTINUOUS
 62
    30
 10
771.00001100000009
 20
-750.16458899999975
 30
0.0
 40
10.0
  0
LINE
  5
7BA
  8
SIZE
  6
CONTINUOUS
 62
    30
 10
745.0000110000002
 20
-750.16458899999975
 30
0.0
 11
735.00001099999974
 21
-750.16458899999975
 31
0.0
  0
CIRCLE
  5
7BB
  8
SIZE
  6
CONTINUOUS
 62
    30
 10
755.00001099999986
 20
-750.16458899999975
 30
0.0
 40
10.0
  0
LINE
  5
7BC
  8
SIZE
  6
CONTINUOUS
 62
    30
 10
755.00001099999986
 20
-750.16458899999975
 30
0.0
 11
771.00001100000009
 21
-750.16458899999975
 31
0.0
  0
LINE
  5
7BD
  8
SIZE
  6
CONTINUOUS
 62
    30
 10
735.00001099999974
 20
-750.16458899999975
 30
0.0
 11
715.00001099999986
 21
-750.16458899999975
 31
0.0
  0
LINE
  5
7C0
  8
SIZE
  6
CONTINUOUS
 62
    30
 10
791.0000110000002
 20
-750.16458899999975
 30
0.0
 11
909.14286799999991
 21
-750.16458899999975
 31
0.0
  0
TEXT
  5
7C1
  8
SIZE
  6
CONTINUOUS
 62
    30
 10
829.00001142857138
 20
-732.16458899999998
 30
0.0
 40
50.0
  1
16
 41
0.9
 72
     1
 11
860.07144000000005
 21
-732.16458899999998
 31
0.0
  0
LINE
  5
7C2
  8
SIZE
  6
CONTINUOUS
 62
    30
 10
773.00001099999974
 20
-387.50001099999997
 30
0.0
 11
1028.8782982594601
 21
-387.50001099999997
 31
0.0
  0
LINE
  5
7C8
  8
OUTLINE
  6
CONTINUOUS
 62
     3
 10
755.00001099999986
 20
-387.50001099999997
 30
0.0
 11
755.00001099999986
 21
-137.500011
 31
0.0
  0
LINE
  5
7C9
  8
DETAIL
  6
CONTINUOUS
 62
     5
 10
719.36817509165701
 20
-395.4862774071949
 30
0.0
 11
617.7302067588422
 21
-405.19826215287452
 31
0.0
  0
ARC
  5
7CA
  8
DETAIL
  6
CONTINUOUS
 62
     5
 10
623.74017655933369
 20
-424.15520472592789
 30
0.0
 40
19.886814946613882
 50
107.5903151246456
 51
160.44852657142971
  0
LINE
  5
7CB
  8
DETAIL
  6
CONTINUOUS
 62
     5
 10
602.50001099999986
 20
-457.50001099999992
 30
0.0
 11
605.00001099999997
 21
-417.50001099999997
 31
0.0
  0
ARC
  5
7D9
  8
DETAIL
  6
CONTINUOUS
 62
     5
 10
719.02563899999996
 20
-391.50049000000001
 30
0.0
 40
4.0004790000000003
 50
274.91189500000002
 51
0.0
  0
ARC
  5
7DA
  8
DETAIL
  6
CONTINUOUS
 62
     5
 10
725.02635699999985
 20
-389.50025099999999
 30
0.0
 40
2.0002399999999989
 50
90.0
 51
180.0
  0
LINE
  5
7DB
  8
DETAIL
  6
CONTINUOUS
 62
     5
 10
723.026118
 20
-389.50025099999999
 30
0.0
 11
723.026118
 21
-391.50049000000001
 31
0.0
  0
LINE
  5
7E0
  8
DETAIL
  6
CONTINUOUS
 62
     5
 10
755.00001099999986
 20
-383.00354399999992
 30
0.0
 11
771.00001100000009
 21
-383.00354399999992
 31
0.0
  0
LINE
  5
7E1
  8
DETAIL
  6
CONTINUOUS
 62
     5
 10
755.00001099999986
 20
-323.99647800000002
 30
0.0
 11
771.00001100000009
 21
-323.99647800000002
 31
0.0
  0
LINE
  5
7E2
  8
DETAIL
  6
CONTINUOUS
 62
     5
 10
771.00001100000009
 20
-383.00354399999992
 30
0.0
 11
771.00001100000009
 21
-359.50072999999998
 31
0.0
  0
LINE
  5
7E3
  8
DETAIL
  6
CONTINUOUS
 62
     5
 10
755.00084900000002
 20
-347.49929200000008
 30
0.0
 11
771.00001100000009
 21
-347.49929200000008
 31
0.0
  0
LINE
  5
7E4
  8
DETAIL
  6
CONTINUOUS
 62
     5
 10
755.00084900000002
 20
-359.50072999999998
 30
0.0
 11
771.00001100000009
 21
-359.50072999999998
 31
0.0
  0
LINE
  5
7E5
  8
DETAIL
  6
CONTINUOUS
 62
     5
 10
771.00001100000009
 20
-347.49929200000008
 30
0.0
 11
771.00001100000009
 21
-323.99647800000002
 31
0.0
  0
ARC
  5
7F0
  8
OUTLINE
  6
CONTINUOUS
 62
     3
 10
779.0000110000002
 20
-121.500011
 30
0.0
 40
16.0
 50
270.0
 51
0.0
  0
ARC
  5
7F1
  8
DETAIL
  6
CONTINUOUS
 62
     5
 10
779.0000110000002
 20
-121.500011
 30
0.0
 40
16.0
 50
270.0
 51
0.0
  0
POINT
  5
7F2
  8
DEFPOINTS
  6
CONTINUOUS
 62
     7
 10
779.0000110000002
 20
-137.500011
 30
0.0
  0
POINT
  5
7F5
  8
DEFPOINTS
  6
CONTINUOUS
 62
     7
 10
779.0000110000002
 20
-137.500011
 30
0.0
  0
LINE
  5
7F6
  8
DETAIL
  6
CONTINUOUS
 62
     5
 10
724.99163799999985
 20
-137.500011
 30
0.0
 11
724.99163799999985
 21
-101.99558
 31
0.0
  0
ARC
  5
7F7
  8
DETAIL
  6
CONTINUOUS
 62
     5
 10
731.99247700000001
 20
-83.993424000000005
 30
0.0
 40
18.002155999999999
 50
270.0
 51
0.0
  0
TEXT
  5
80F
  8
SIZE
  6
CONTINUOUS
 62
    30
 10
-74.999988999999971
 20
625.88706002042841
 30
0.0
 40
50.0
  1
1590
 41
0.9
 72
     1
 11
0.000011
 21
625.88706002042841
 31
0.0
  0
LINE
  5
814
  8
SIZE
  6
CONTINUOUS
 62
    30
 10
795.0000110000002
 20
464.49998900000003
 30
0.0
 11
795.0000110000002
 21
651.33258550107348
 31
0.0
  0
ARC
  5
829
  8
OUTLINE
  6
CONTINUOUS
 62
     3
 10
779.0000110000002
 20
446.49998899999991
 30
0.0
 40
16.0
 50
0.0
 51
90.0
  0
ARC
  5
82A
  8
DETAIL
  6
CONTINUOUS
 62
     5
 10
779.0000110000002
 20
446.49998899999991
 30
0.0
 40
16.0
 50
0.0
 51
90.0
  0
LINE
  5
82C
  8
DETAIL
  6
CONTINUOUS
 62
     5
 10
724.99159799999984
 20
423.99555800000002
 30
0.0
 11
724.99159799999984
 21
462.4999889999998
 31
0.0
  0
ARC
  5
84E
  8
DETAIL
  6
CONTINUOUS
 62
     5
 10
731.99243599999988
 20
405.993402
 30
0.0
 40
18.002155999999999
 50
0.0
 51
90.0
  0
POINT
  5
850
  8
DEFPOINTS
  6
CONTINUOUS
 62
     7
 10
779.0000110000002
 20
462.4999889999998
 30
0.0
  0
POINT
  5
858
  8
DEFPOINTS
  6
CONTINUOUS
 62
     7
 10
779.0000110000002
 20
462.4999889999998
 30
0.0
  0
POINT
  5
859
  8
DEFPOINTS
  6
CONTINUOUS
 62
     7
 10
795.0000110000002
 20
446.49998899999991
 30
0.0
  0
POINT
  5
85A
  8
DEFPOINTS
  6
CONTINUOUS
 62
     7
 10
795.0000110000002
 20
446.49998899999991
 30
0.0
  0
CIRCLE
  5
885
  8
SIZE
  6
CONTINUOUS
 62
    30
 10
795.0000110000002
 20
607.88706002042818
 30
0.0
 40
10.0
  0
LINE
  5
889
  8
SIZE
  6
CONTINUOUS
 62
    30
 10
785.00001099999974
 20
607.88706002042818
 30
0.0
 11
775.00001100000009
 21
607.88706002042818
 31
0.0
  0
POINT
  5
890
  8
DEFPOINTS
  6
CONTINUOUS
 62
     7
 10
795.0000110000002
 20
607.88706002042818
 30
0.0
  0
LINE
  5
892
  8
SIZE
  6
CONTINUOUS
 62
    30
 10
984.7732580608523
 20
442.49998899999991
 30
0.0
 11
984.7732580608523
 21
-117.500011
 31
0.0
  0
TEXT
  5
893
  8
SIZE
  6
CONTINUOUS
 62
    30
 10
966.7732580608523
 20
-320.35715385714281
 30
0.0
 40
50.0
  1
250
 50
90.0
 41
0.9
 72
     1
 11
966.7732580608523
 21
-262.50001099999997
 31
0.0
  0
LINE
  5
894
  8
SIZE
  6
CONTINUOUS
 62
    30
 10
984.7732580608523
 20
-157.500011
 30
0.0
 11
984.7732580608523
 21
-367.50001099999997
 31
0.0
  0
POINT
  5
895
  8
DEFPOINTS
  6
CONTINUOUS
 62
     7
 10
984.7732580608523
 20
-387.50001099999997
 30
0.0
  0
LINE
  5
896
  8
SIZE
  6
CONTINUOUS
 62
    30
 10
984.7732580608523
 20
-377.50001099999997
 30
0.0
 11
984.7732580608523
 21
-367.50001099999997
 31
0.0
  0
CIRCLE
  5
897
  8
SIZE
  6
CONTINUOUS
 62
    30
 10
984.7732580608523
 20
-387.50001099999997
 30
0.0
 40
10.0
  0
LINE
  5
898
  8
SIZE
  6
CONTINUOUS
 62
    30
 10
984.7732580608523
 20
-147.500011
 30
0.0
 11
984.7732580608523
 21
-157.500011
 31
0.0
  0
CIRCLE
  5
899
  8
SIZE
  6
CONTINUOUS
 62
    30
 10
984.7732580608523
 20
-137.500011
 30
0.0
 40
10.0
  0
POINT
  5
89A
  8
DEFPOINTS
  6
CONTINUOUS
 62
     7
 10
984.7732580608523
 20
-137.500011
 30
0.0
  0
LINE
  5
89B
  8
SIZE
  6
CONTINUOUS
 62
    30
 10
984.7732580608523
 20
-127.500011
 30
0.0
 11
984.7732580608523
 21
-117.500011
 31
0.0
  0
CIRCLE
  5
89C
  8
SIZE
  6
CONTINUOUS
 62
    30
 10
984.7732580608523
 20
-137.500011
 30
0.0
 40
10.0
  0
TEXT
  5
89D
  8
SIZE
  6
CONTINUOUS
 62
    30
 10
966.7732580608523
 20
104.6428461428571
 30
0.0
 40
50.0
  1
600
 50
90.0
 41
0.9
 72
     1
 11
966.7732580608523
 21
162.499989
 31
0.0
  0
CIRCLE
  5
89E
  8
SIZE
  6
CONTINUOUS
 62
    30
 10
984.7732580608523
 20
462.4999889999998
 30
0.0
 40
10.0
  0
LINE
  5
89F
  8
SIZE
  6
CONTINUOUS
 62
    30
 10
984.7732580608523
 20
452.49998900000003
 30
0.0
 11
984.7732580608523
 21
442.49998899999991
 31
0.0
  0
LINE
  5
93A
  8
NOTE
  6
CONTINUOUS
 62
     4
 10
-134.999989
 20
-457.50001099999992
 30
0.0
 11
77.141968000000006
 21
-261.064819
 31
0.0
  0
LINE
  5
93B
  8
NOTE
  6
CONTINUOUS
 62
     4
 10
-801.99998899999969
 20
-263.50001099999997
 30
0.0
 11
-1173.579262
 21
-58.607109999999999
 31
0.0
  0
LINE
  5
93D
  8
NOTE
  6
CONTINUOUS
 62
     4
 10
-793.9999889999998
 20
-199.500011
 30
0.0
 11
-1210.989687
 21
60.073506000000009
 31
0.0
  0
LINE
  5
96A
  8
DETAIL
  6
CONTINUOUS
 62
     5
 10
-754.99998845539551
 20
-387.5000078806101
 30
0.0
 11
-754.99998899999969
 21
-137.500011
 31
0.0
  0
LINE
  5
972
  8
DETAIL
  6
CONTINUOUS
 62
     5
 10
755.00001154460415
 20
-387.5000078806101
 30
0.0
 11
755.00001099999986
 21
-137.500011
 31
0.0
  0
POINT
  5
9D0
  8
DEFPOINTS
  6
CONTINUOUS
 62
     7
 10
-801.99998899999969
 20
-252.56597089759629
 30
0.0
  0
LINE
  5
9D1
  8
DETAIL
  6
CONTINUOUS
 62
     5
 10
-775.00913799999967
 20
-205.000011
 30
0.0
 11
-755.00913799999955
 21
-205.000011
 31
0.0
  0
LINE
  5
9D2
  8
DETAIL
  6
CONTINUOUS
 62
     5
 10
-774.00913799999989
 20
-209.00001100000009
 30
0.0
 11
-755.00913799999955
 21
-209.00001100000009
 31
0.0
  0
LINE
  5
9D3
  8
DETAIL
  6
CONTINUOUS
 62
     5
 10
-774.00913799999989
 20
-190.000011
 30
0.0
 11
-755.00913799999955
 21
-190.000011
 31
0.0
  0
LINE
  5
9D4
  8
DETAIL
  6
CONTINUOUS
 62
     5
 10
-775.00913799999967
 20
-194.000011
 30
0.0
 11
-755.00913799999955
 21
-194.000011
 31
0.0
  0
LINE
  5
9D5
  8
DETAIL
  6
CONTINUOUS
 62
     5
 10
-791.00913799999989
 20
-210.000011
 30
0.0
 11
-778.00913800000001
 21
-210.000011
 31
0.0
  0
LINE
  5
9D6
  8
DETAIL
  6
CONTINUOUS
 62
     5
 10
-790.00913800000001
 20
-205.000011
 30
0.0
 11
-777.00913799999955
 21
-205.000011
 31
0.0
  0
LINE
  5
9D7
  8
DETAIL
  6
CONTINUOUS
 62
     5
 10
-777.00913799999955
 20
-209.00001100000009
 30
0.0
 11
-778.00913800000001
 21
-210.000011
 31
0.0
  0
LINE
  5
9D8
  8
DETAIL
  6
CONTINUOUS
 62
     5
 10
-775.00913799999967
 20
-208.000011
 30
0.0
 11
-774.00913799999989
 21
-209.00001100000009
 31
0.0
  0
LINE
  5
9D9
  8
DETAIL
  6
CONTINUOUS
 62
     5
 10
-790.00913800000001
 20
-205.000011
 30
0.0
 11
-791.00913799999989
 21
-204.000011
 31
0.0
  0
LINE
  5
9DA
  8
DETAIL
  6
CONTINUOUS
 62
     5
 10
-790.00913800000001
 20
-205.000011
 30
0.0
 11
-791.00913799999989
 21
-206.000011
 31
0.0
  0
LINE
  5
9DB
  8
DETAIL
  6
CONTINUOUS
 62
     5
 10
-777.00913799999955
 20
-204.26001099999999
 30
0.0
 11
-775.00913799999967
 21
-204.26001099999999
 31
0.0
  0
LINE
  5
9DC
  8
DETAIL
  6
CONTINUOUS
 62
     5
 10
-775.00913799999967
 20
-208.000011
 30
0.0
 11
-775.00913799999967
 21
-191.000011
 31
0.0
  0
LINE
  5
9DD
  8
DETAIL
  6
CONTINUOUS
 62
     5
 10
-777.00913799999955
 20
-209.00001100000009
 30
0.0
 11
-777.00913799999955
 21
-190.000011
 31
0.0
  0
LINE
  5
9DE
  8
DETAIL
  6
CONTINUOUS
 62
     5
 10
-791.00913799999989
 20
-189.000011
 30
0.0
 11
-778.00913800000001
 21
-189.000011
 31
0.0
  0
LINE
  5
9DF
  8
DETAIL
  6
CONTINUOUS
 62
     5
 10
-791.00913799999989
 20
-210.000011
 30
0.0
 11
-791.00913799999989
 21
-189.000011
 31
0.0
  0
LINE
  5
9E0
  8
DETAIL
  6
CONTINUOUS
 62
     5
 10
-790.00913800000001
 20
-194.000011
 30
0.0
 11
-777.00913799999955
 21
-194.000011
 31
0.0
  0
LINE
  5
9E1
  8
DETAIL
  6
CONTINUOUS
 62
     5
 10
-778.00913800000001
 20
-189.000011
 30
0.0
 11
-777.00913799999955
 21
-190.000011
 31
0.0
  0
LINE
  5
9E2
  8
DETAIL
  6
CONTINUOUS
 62
     5
 10
-775.00913799999967
 20
-191.000011
 30
0.0
 11
-774.00913799999989
 21
-190.000011
 31
0.0
  0
LINE
  5
9E3
  8
DETAIL
  6
CONTINUOUS
 62
     5
 10
-790.00913800000001
 20
-194.000011
 30
0.0
 11
-791.00913799999989
 21
-193.000011
 31
0.0
  0
LINE
  5
9E4
  8
DETAIL
  6
CONTINUOUS
 62
     5
 10
-790.00913800000001
 20
-194.000011
 30
0.0
 11
-791.00913799999989
 21
-195.000011
 31
0.0
  0
LINE
  5
9E5
  8
DETAIL
  6
CONTINUOUS
 62
     5
 10
-777.00913799999955
 20
-194.74001100000001
 30
0.0
 11
-775.00913799999967
 21
-194.74001100000001
 31
0.0
  0
LINE
  5
9E6
  8
DETAIL
  6
CONTINUOUS
 62
     5
 10
-793.9999889999998
 20
-205.000011
 30
0.0
 11
-793.9999889999998
 21
-194.000011
 31
0.0
  0
LINE
  5
9E7
  8
DETAIL
  6
CONTINUOUS
 62
     5
 10
-793.9999889999998
 20
-205.000011
 30
0.0
 11
-791.00913799999989
 21
-210.000011
 31
0.0
  0
LINE
  5
9E8
  8
DETAIL
  6
CONTINUOUS
 62
     5
 10
-777.00913799999955
 20
-209.00001100000009
 30
0.0
 11
-778.00913800000001
 21
-210.000011
 31
0.0
  0
LINE
  5
9E9
  8
DETAIL
  6
CONTINUOUS
 62
     5
 10
-793.9999889999998
 20
-194.000011
 30
0.0
 11
-791.00913799999989
 21
-189.000011
 31
0.0
  0
LINE
  5
9EA
  8
DETAIL
  6
CONTINUOUS
 62
     5
 10
-801.99998899999969
 20
-252.56597089759629
 30
0.0
 11
-801.99998899999969
 21
-275.06597089759629
 31
0.0
  0
LINE
  5
9EB
  8
DETAIL
  6
CONTINUOUS
 62
     5
 10
-754.99998899999969
 20
-275.31597089759629
 30
0.0
 11
-777.00913799999955
 21
-275.31597089759629
 31
0.0
  0
LINE
  5
9EC
  8
DETAIL
  6
CONTINUOUS
 62
     5
 10
-754.99998899999969
 20
-252.31597089759629
 30
0.0
 11
-777.00913799999955
 21
-252.31597089759629
 31
0.0
  0
LINE
  5
9ED
  8
DETAIL
  6
CONTINUOUS
 62
     5
 10
-797.00913799999955
 20
-270.81597089759629
 30
0.0
 11
-799.00913799999955
 21
-272.81597089759629
 31
0.0
  0
LINE
  5
9EE
  8
DETAIL
  6
CONTINUOUS
 62
     5
 10
-797.00913799999955
 20
-270.81597089759629
 30
0.0
 11
-799.00913799999955
 21
-268.81597089759629
 31
0.0
  0
LINE
  5
9EF
  8
DETAIL
  6
CONTINUOUS
 62
     5
 10
-797.00913799999955
 20
-256.81597089759629
 30
0.0
 11
-799.00913799999955
 21
-258.81597089759629
 31
0.0
  0
LINE
  5
9F0
  8
DETAIL
  6
CONTINUOUS
 62
     5
 10
-797.00913799999955
 20
-256.81597089759629
 30
0.0
 11
-799.00913799999955
 21
-254.81597089759629
 31
0.0
  0
LINE
  5
9F1
  8
DETAIL
  6
CONTINUOUS
 62
     5
 10
-785.00913799999955
 20
-256.81597089759629
 30
0.0
 11
-783.00913799999967
 21
-254.81597089759629
 31
0.0
  0
LINE
  5
9F2
  8
DETAIL
  6
CONTINUOUS
 62
     5
 10
-785.00913799999955
 20
-256.81597089759629
 30
0.0
 11
-783.00913799999967
 21
-258.81597089759629
 31
0.0
  0
LINE
  5
9F3
  8
DETAIL
  6
CONTINUOUS
 62
     5
 10
-785.00913799999955
 20
-270.81597089759629
 30
0.0
 11
-783.00913799999967
 21
-268.81597089759629
 31
0.0
  0
LINE
  5
9F4
  8
DETAIL
  6
CONTINUOUS
 62
     5
 10
-785.00913799999955
 20
-270.81597089759629
 30
0.0
 11
-783.00913799999967
 21
-272.81597089759629
 31
0.0
  0
LINE
  5
9F5
  8
DETAIL
  6
CONTINUOUS
 62
     5
 10
-785.00913799999955
 20
-270.81597089759629
 30
0.0
 11
-797.00913799999955
 21
-270.81597089759629
 31
0.0
  0
LINE
  5
9F6
  8
DETAIL
  6
CONTINUOUS
 62
     5
 10
-785.00913799999955
 20
-256.81597089759629
 30
0.0
 11
-797.00913799999955
 21
-256.81597089759629
 31
0.0
  0
LINE
  5
9F7
  8
DETAIL
  6
CONTINUOUS
 62
     5
 10
-783.00913799999967
 20
-274.81597089759629
 30
0.0
 11
-785.00913799999955
 21
-276.81597089759629
 31
0.0
  0
LINE
  5
9F8
  8
DETAIL
  6
CONTINUOUS
 62
     5
 10
-783.00913799999967
 20
-252.81597089759629
 30
0.0
 11
-785.00913799999955
 21
-250.81597089759629
 31
0.0
  0
LINE
  5
9F9
  8
DETAIL
  6
CONTINUOUS
 62
     5
 10
-801.99998899999969
 20
-275.06597089759629
 30
0.0
 11
-799.00913799999955
 21
-276.81597089759629
 31
0.0
  0
LINE
  5
9FA
  8
DETAIL
  6
CONTINUOUS
 62
     5
 10
-799.00913799999955
 20
-250.81597089759629
 30
0.0
 11
-801.99998899999969
 21
-252.56597489759639
 31
0.0
  0
LINE
  5
9FB
  8
DETAIL
  6
CONTINUOUS
 62
     5
 10
-799.00913799999955
 20
-250.81597089759629
 30
0.0
 11
-799.00913799999955
 21
-276.81597089759629
 31
0.0
  0
LINE
  5
9FC
  8
DETAIL
  6
CONTINUOUS
 62
     5
 10
-783.00913799999967
 20
-252.81597089759629
 30
0.0
 11
-783.00913799999967
 21
-274.81597089759629
 31
0.0
  0
LINE
  5
9FD
  8
DETAIL
  6
CONTINUOUS
 62
     5
 10
-783.00913799999967
 20
-252.81597089759629
 30
0.0
 11
-783.00913799999967
 21
-274.81597089759629
 31
0.0
  0
LINE
  5
9FE
  8
DETAIL
  6
CONTINUOUS
 62
     5
 10
-785.00913799999955
 20
-276.81597089759629
 30
0.0
 11
-799.00913799999955
 21
-276.81597089759629
 31
0.0
  0
LINE
  5
9FF
  8
DETAIL
  6
CONTINUOUS
 62
     5
 10
-785.00913799999955
 20
-250.81597089759629
 30
0.0
 11
-799.00913799999955
 21
-250.81597089759629
 31
0.0
  0
LINE
  5
A00
  8
DETAIL
  6
CONTINUOUS
 62
     5
 10
-783.00913799999967
 20
-255.81597089759629
 30
0.0
 11
-783.00913799999967
 21
-271.8159708975964
 31
0.0
  0
LINE
  5
A01
  8
DETAIL
  6
CONTINUOUS
 62
     5
 10
-783.00913799999967
 20
-271.75597089759628
 30
0.0
 11
-779.00913799999967
 21
-271.75597089759628
 31
0.0
  0
LINE
  5
A02
  8
DETAIL
  6
CONTINUOUS
 62
     5
 10
-783.00913799999967
 20
-255.87597089759629
 30
0.0
 11
-779.00913799999967
 21
-255.87597089759629
 31
0.0
  0
LINE
  5
A03
  8
DETAIL
  6
CONTINUOUS
 62
     5
 10
-779.00913799999967
 20
-254.31597089759629
 30
0.0
 11
-777.00913799999955
 21
-252.31597089759629
 31
0.0
  0
LINE
  5
A04
  8
DETAIL
  6
CONTINUOUS
 62
     5
 10
-779.00913799999967
 20
-273.31597089759629
 30
0.0
 11
-777.00913799999955
 21
-275.31597089759629
 31
0.0
  0
LINE
  5
A05
  8
DETAIL
  6
CONTINUOUS
 62
     5
 10
-779.00913799999967
 20
-254.31597089759629
 30
0.0
 11
-779.00913799999967
 21
-273.31597089759629
 31
0.0
  0
POINT
  5
A06
  8
DEFPOINTS
  6
CONTINUOUS
 62
     7
 10
-793.9999889999998
 20
-199.500011
 30
0.0
  0
POINT
  5
A07
  8
DEFPOINTS
  6
CONTINUOUS
 62
     7
 10
-801.99998899999969
 20
-263.8159708975964
 30
0.0
  0
ENDSEC
  0
EOF
