  0
SECTION
  2
HEADER
  9
$ACADVER
  1
AC1009
  9
$INSBASE
 10
0.0
 20
0.0
 30
0.0
  9
$EXTMIN
 10
-1509.507875090334
 20
-415.20472044026252
 30
-0.000000000000013
  9
$EXTMAX
 10
1570.1792150563849
 20
1583.090203358322
 30
0.0000000000000023
  9
$LIMMIN
 10
-4267.1522210000003
 20
-2696.0832100000011
  9
$LIMMAX
 10
7190.7174229999991
 20
5141.1553640000002
  9
$ORTHOMODE
 70
     1
  9
$REGENMODE
 70
     1
  9
$FILLMODE
 70
     1
  9
$QTEXTMODE
 70
     0
  9
$MIRRTEXT
 70
     0
  9
$DRAGMODE
 70
     2
  9
$LTSCALE
 40
20.0
  9
$OSMODE
 70
   431
  9
$ATTMODE
 70
     1
  9
$TEXTSIZE
 40
64.0
  9
$TRACEWID
 40
0.05
  9
$TEXTSTYLE
  7
STANDARD1
  9
$CLAYER
  8
SYMBOLLINE
  9
$CELTYPE
  6
CONTINUOUS
  9
$CECOLOR
 62
     7
  9
$DIMSCALE
 40
1.0
  9
$DIMASZ
 40
20.0
  9
$DIMEXO
 40
20.0
  9
$DIMDLI
 40
80.0
  9
$DIMRND
 40
0.0
  9
$DIMDLE
 40
0.0
  9
$DIMEXE
 40
18.0
  9
$DIMTP
 40
0.0
  9
$DIMTM
 40
0.0
  9
$DIMTXT
 40
55.0
  9
$DIMCEN
 40
0.09
  9
$DIMTSZ
 40
0.0
  9
$DIMTOL
 70
     0
  9
$DIMLIM
 70
     0
  9
$DIMTIH
 70
     0
  9
$DIMTOH
 70
     0
  9
$DIMSE1
 70
     0
  9
$DIMSE2
 70
     0
  9
$DIMTAD
 70
     1
  9
$DIMZIN
 70
     8
  9
$DIMBLK
  1
ORIGIN
  9
$DIMASO
 70
     1
  9
$DIMSHO
 70
     0
  9
$DIMPOST
  1

  9
$DIMAPOST
  1

  9
$DIMALT
 70
     0
  9
$DIMALTD
 70
     2
  9
$DIMALTF
 40
25.399999999999999
  9
$DIMLFAC
 40
1.0
  9
$DIMTOFL
 70
     0
  9
$DIMTVP
 40
0.0
  9
$DIMTIX
 70
     0
  9
$DIMSOXD
 70
     0
  9
$DIMSAH
 70
     0
  9
$DIMBLK1
  1

  9
$DIMBLK2
  1

  9
$DIMSTYLE
  2
STANDARD
  9
$DIMCLRD
 70
     0
  9
$DIMCLRE
 70
     0
  9
$DIMCLRT
 70
     0
  9
$DIMTFAC
 40
1.0
  9
$DIMGAP
 40
0.09
  9
$LUNITS
 70
     2
  9
$LUPREC
 70
     4
  9
$SKETCHINC
 40
0.1
  9
$FILLETRAD
 40
0.8
  9
$AUNITS
 70
     1
  9
$AUPREC
 70
     3
  9
$MENU
  1
ACAD
  9
$ELEVATION
 40
0.0
  9
$PELEVATION
 40
0.0
  9
$THICKNESS
 40
0.0
  9
$LIMCHECK
 70
     0
  9
$BLIPMODE
 70
     0
  9
$CHAMFERA
 40
0.0
  9
$CHAMFERB
 40
0.0
  9
$SKPOLY
 70
     0
  9
$TDCREATE
 40
2450330.4399309959
  9
$TDUPDATE
 40
2456758.5933419438
  9
$TDINDWG
 40
3.7677132869999999
  9
$TDUSRTIMER
 40
3.7677065741
  9
$USRTIMER
 70
     1
  9
$ANGBASE
 50
0.0
  9
$ANGDIR
 70
     0
  9
$PDMODE
 70
     3
  9
$PDSIZE
 40
-2.0
  9
$PLINEWID
 40
0.0
  9
$COORDS
 70
     1
  9
$SPLFRAME
 70
     0
  9
$SPLINETYPE
 70
     6
  9
$SPLINESEGS
 70
     8
  9
$ATTDIA
 70
     0
  9
$ATTREQ
 70
     1
  9
$HANDLING
 70
     1
  9
$HANDSEED
  5
126D
  9
$SURFTAB1
 70
     6
  9
$SURFTAB2
 70
     6
  9
$SURFTYPE
 70
     6
  9
$SURFU
 70
     6
  9
$SURFV
 70
     6
  9
$UCSNAME
  2

  9
$UCSORG
 10
0.0
 20
0.0
 30
0.0
  9
$UCSXDIR
 10
1.0
 20
0.0
 30
0.0
  9
$UCSYDIR
 10
0.0
 20
1.0
 30
0.0
  9
$PUCSNAME
  2

  9
$PUCSORG
 10
0.0
 20
0.0
 30
0.0
  9
$PUCSXDIR
 10
1.0
 20
0.0
 30
0.0
  9
$PUCSYDIR
 10
0.0
 20
1.0
 30
0.0
  9
$USERI1
 70
     0
  9
$USERI2
 70
     0
  9
$USERI3
 70
     0
  9
$USERI4
 70
     0
  9
$USERI5
 70
     0
  9
$USERR1
 40
20.0
  9
$USERR2
 40
0.0
  9
$USERR3
 40
0.0
  9
$USERR4
 40
0.0
  9
$USERR5
 40
0.0
  9
$WORLDVIEW
 70
     1
  9
$SHADEDGE
 70
     3
  9
$SHADEDIF
 70
    70
  9
$TILEMODE
 70
     1
  9
$MAXACTVP
 70
    48
  9
$PLIMCHECK
 70
     0
  9
$PEXTMIN
 10
1.0000000000000000E+020
 20
1.0000000000000000E+020
 30
1.0000000000000000E+020
  9
$PEXTMAX
 10
-1.0000000000000000E+020
 20
-1.0000000000000000E+020
 30
-1.0000000000000000E+020
  9
$PLIMMIN
 10
0.0
 20
0.0
  9
$PLIMMAX
 10
12.0
 20
9.0
  9
$UNITMODE
 70
     0
  9
$VISRETAIN
 70
     1
  9
$PLINEGEN
 70
     0
  9
$PSLTSCALE
 70
     1
  0
ENDSEC
  0
SECTION
  2
TABLES
  0
TABLE
  2
VPORT
 70
     1
  0
VPORT
  2
*ACTIVE
 70
     0
 10
0.0
 20
0.0
 11
1.0
 21
1.0
 12
30.335669983025479
 22
583.94274145903
 13
0.0
 23
0.0
 14
50.0
 24
50.0
 15
100.0
 25
100.0
 16
0.0
 26
0.0
 36
1.0
 17
0.0
 27
0.0
 37
0.0
 40
2013.510367380808
 41
1.5540025412960601
 42
50.0
 43
0.0
 44
0.0
 50
0.0
 51
0.0
 71
     0
 72
  1000
 73
     1
 74
     0
 75
     0
 76
     0
 77
     0
 78
     0
  0
ENDTAB
  0
TABLE
  2
LTYPE
 70
     3
  0
LTYPE
  2
CONTINUOUS
 70
     0
  3
実線
 72
    65
 73
     0
 40
0.0
  0
LTYPE
  2
DASHDOT
 70
     0
  3
____ _ ____ _ ____ _ ____ _ ____ _ ____ _ ____
 72
    65
 73
     4
 40
5.5
 49
4.0
 49
-0.6
 49
0.3
 49
-0.6
  0
ENDTAB
  0
TABLE
  2
LAYER
 70
    12
  0
LAYER
  2
0
 70
     0
 62
     7
  6
CONTINUOUS
  0
LAYER
  2
SYMBOLLINE
 70
     0
 62
    15
  6
CONTINUOUS
  0
LAYER
  2
NOTE
 70
     0
 62
     4
  6
CONTINUOUS
  0
LAYER
  2
OUTLINE
 70
     0
 62
     3
  6
CONTINUOUS
  0
LAYER
  2
DETAIL
 70
     0
 62
     5
  6
CONTINUOUS
  0
LAYER
  2
BASIS
 70
     0
 62
     6
  6
DASHDOT
  0
LAYER
  2
SIZE
 70
     0
 62
    30
  6
CONTINUOUS
  0
LAYER
  2
ARRANGE
 70
     0
 62
     1
  6
CONTINUOUS
  0
LAYER
  2
FIX
 70
     0
 62
    11
  6
CONTINUOUS
  0
LAYER
  2
SERVICESPACE
 70
     0
 62
     2
  6
DASHDOT
  0
LAYER
  2
ETC
 70
     0
 62
    61
  6
CONTINUOUS
  0
LAYER
  2
DEFPOINTS
 70
     0
 62
     7
  6
CONTINUOUS
  0
ENDTAB
  0
TABLE
  2
STYLE
 70
     4
  0
STYLE
  2
STANDARD
 70
     0
 40
0.0
 41
0.9
 50
0.0
 71
     0
 42
64.0
  3
SIMPLEX
  4
BIGFONT
  0
STYLE
  2
ANNOTATIVE
 70
     0
 40
0.0
 41
1.0
 50
0.0
 71
     0
 42
0.2
  3
txt
  4

  0
STYLE
  2
STANDARD1
 70
     0
 40
0.0
 41
1.0
 50
0.0
 71
     0
 42
64.0
  3
MONOTXT
  4
BIGFONT
  0
STYLE
  2

 70
     1
 40
0.0
 41
1.0
 50
0.0
 71
     0
 42
64.0
  3
ltypeshp.shx
  4

  0
ENDTAB
  0
TABLE
  2
VIEW
 70
     1
  0
VIEW
  2
ALL
 70
     0
 40
9000.0
 10
241.50664699999999
 20
0.0
 41
12483.01
 11
0.0
 21
0.0
 31
1.0
 12
0.0
 22
0.0
 32
0.0
 42
50.0
 43
0.0
 44
0.0
 50
0.0
 71
     0
  0
ENDTAB
  0
TABLE
  2
UCS
 70
     0
  0
ENDTAB
  0
TABLE
  2
APPID
 70
     4
  0
APPID
  2
ACAD
 70
     0
  0
APPID
  2
ACADANNOTATIVE
 70
     0
  0
APPID
  2
ACAD_MLEADERVER
 70
     0
  0
APPID
  2
ACAD_EXEMPT_FROM_CAD_STANDARDS
 70
     0
  0
ENDTAB
  0
TABLE
  2
DIMSTYLE
 70
     3
  0
DIMSTYLE
  2
STANDARD
 70
     0
  3

  4

  5

  6

  7

 40
1.0
 41
0.18
 42
0.0625
 43
0.38
 44
0.18
 45
0.0
 46
0.0
 47
0.0
 48
0.0
140
0.18
141
0.09
142
0.0
143
25.399999999999999
144
1.0
145
0.0
146
1.0
147
0.09
 71
     0
 72
     0
 73
     1
 74
     1
 75
     0
 76
     0
 77
     0
 78
     0
170
     0
171
     2
172
     0
173
     0
174
     0
175
     0
176
     0
177
     0
178
     0
  0
DIMSTYLE
  2
ANNOTATIVE
 70
     0
  3

  4

  5

  6

  7

 40
1.0
 41
0.18
 42
0.0625
 43
0.38
 44
0.18
 45
0.0
 46
0.0
 47
0.0
 48
0.0
140
0.18
141
0.09
142
0.0
143
25.399999999999999
144
1.0
145
0.0
146
1.0
147
0.09
 71
     0
 72
     0
 73
     1
 74
     1
 75
     0
 76
     0
 77
     0
 78
     0
170
     0
171
     2
172
     0
173
     0
174
     0
175
     0
176
     0
177
     0
178
     0
  0
ENDTAB
  0
ENDSEC
  0
SECTION
  2
BLOCKS
  0
BLOCK
  8
0
  2
$MODEL_SPACE
 70
     0
 10
0.0
 20
0.0
 30
0.0
  3
$MODEL_SPACE
  1

  0
ENDBLK
  5
FAD
  8
0
  0
BLOCK
 67
     1
  8
0
  2
$PAPER_SPACE
 70
     0
 10
0.0
 20
0.0
 30
0.0
  3
$PAPER_SPACE
  1

  0
ENDBLK
  5
FA9
 67
     1
  8
0
  0
BLOCK
  8
0
  2
_ORIGIN
 70
     0
 10
0.0
 20
0.0
 30
0.0
  3
_ORIGIN
  1

  0
CIRCLE
  5
34
  8
0
  6
CONTINUOUS
 62
     7
 10
0.0
 20
0.0
 30
0.0
 40
0.5
  0
LINE
  5
35
  8
0
  6
CONTINUOUS
 62
     7
 10
-0.5
 20
0.0
 30
0.0
 11
-1.0
 21
0.0
 31
0.0
  0
ENDBLK
  5
36
  8
0
  0
BLOCK
  8
0
 62
     7
  2
A$C2C172287
 70
     0
 10
0.0
 20
0.0
 30
0.0
  3
A$C2C172287
  1

  0
TEXT
  5
2A1
  8
SIZE
  6
CONTINUOUS
 62
    30
 10
3427.412268
 20
103.4195791428571
 30
0.0
 40
55.0
  1
50-60
 50
90.0
 41
0.9
 72
     1
 11
3427.412268
 21
221.27672200000001
 31
0.0
  0
POLYLINE
  5
2A2
  8
SIZE
  6
CONTINUOUS
 62
    30
 66
     1
 10
0.0
 20
0.0
 30
0.0
  0
VERTEX
  5
1234
  8
SIZE
  6
CONTINUOUS
 62
    30
 10
3435.1239620000001
 20
366.23517700000002
 30
0.0
 42
0.186174
  0
VERTEX
  5
1235
  8
SIZE
  6
CONTINUOUS
 62
    30
 10
3426.2741129999999
 20
387.184665
 30
0.0
 42
0.082105
  0
VERTEX
  5
1236
  8
SIZE
  6
CONTINUOUS
 62
    30
 10
3410.5716109999998
 20
399.35922599999998
 30
0.0
 42
0.058826
  0
VERTEX
  5
1237
  8
SIZE
  6
CONTINUOUS
 62
    30
 10
3388.7855530000002
 20
408.13415400000002
 30
0.0
 42
0.067494
  0
VERTEX
  5
1238
  8
SIZE
  6
CONTINUOUS
 62
    30
 10
3351.2969929999999
 20
413.079657
 30
0.0
 42
0.067494
  0
VERTEX
  5
1239
  8
SIZE
  6
CONTINUOUS
 62
    30
 10
3313.8084330000011
 20
408.13415400000002
 30
0.0
 42
0.058826
  0
VERTEX
  5
123A
  8
SIZE
  6
CONTINUOUS
 62
    30
 10
3292.022375
 20
399.35922599999998
 30
0.0
 42
0.082105
  0
VERTEX
  5
123B
  8
SIZE
  6
CONTINUOUS
 62
    30
 10
3276.3198729999999
 20
387.184665
 30
0.0
 42
0.186174
  0
VERTEX
  5
123C
  8
SIZE
  6
CONTINUOUS
 62
    30
 10
3267.4700250000001
 20
366.23517700000002
 30
0.0
 42
0.186174
  0
SEQEND
  5
123D
  8
SIZE
  6
CONTINUOUS
 62
    30
  0
POLYLINE
  5
2AD
  8
SIZE
  6
CONTINUOUS
 62
    30
 66
     1
 10
0.0
 20
0.0
 30
0.0
  0
VERTEX
  5
123E
  8
SIZE
  6
CONTINUOUS
 62
    30
 10
3267.4700250000001
 20
46.844476
 30
0.0
 42
0.186174
  0
VERTEX
  5
123F
  8
SIZE
  6
CONTINUOUS
 62
    30
 10
3276.3198729999999
 20
25.894988000000001
 30
0.0
 42
0.082105
  0
VERTEX
  5
1240
  8
SIZE
  6
CONTINUOUS
 62
    30
 10
3292.022375
 20
13.720427000000001
 30
0.0
 42
0.058826
  0
VERTEX
  5
1241
  8
SIZE
  6
CONTINUOUS
 62
    30
 10
3313.8084330000011
 20
4.9455
 30
0.0
 42
0.067494
  0
VERTEX
  5
1242
  8
SIZE
  6
CONTINUOUS
 62
    30
 10
3351.2969929999999
 20
-0.000004
 30
0.0
 42
0.067494
  0
VERTEX
  5
1243
  8
SIZE
  6
CONTINUOUS
 62
    30
 10
3388.7855530000002
 20
4.9455
 30
0.0
 42
0.058826
  0
VERTEX
  5
1244
  8
SIZE
  6
CONTINUOUS
 62
    30
 10
3410.5716109999998
 20
13.720427000000001
 30
0.0
 42
0.082105
  0
VERTEX
  5
1245
  8
SIZE
  6
CONTINUOUS
 62
    30
 10
3426.2741129999999
 20
25.894988000000001
 30
0.0
 42
0.186174
  0
VERTEX
  5
1246
  8
SIZE
  6
CONTINUOUS
 62
    30
 10
3435.1239620000001
 20
46.844476
 30
0.0
 42
0.186174
  0
VERTEX
  5
1247
  8
SIZE
  6
CONTINUOUS
 62
    30
 10
3435.1239620000001
 20
46.844476
 30
0.0
 42
0.186174
  0
SEQEND
  5
1248
  8
SIZE
  6
CONTINUOUS
 62
    30
  0
LINE
  5
2B9
  8
NOTE
  6
CONTINUOUS
 62
     4
 10
3072.4496349999999
 20
1002.054793
 30
0.0
 11
3707.2267780000011
 21
1002.054793
 31
0.0
  0
TEXT
  5
2BA
  8
NOTE
  6
CONTINUOUS
 62
     4
 10
3096.3820009999999
 20
1019.694214
 30
0.0
 40
60.0
  1
%%C150（ノックアウト穴）
 50
0.000003
 41
0.7
  7
STANDARD1
  0
LINE
  5
2BB
  8
DETAIL
  6
CONTINUOUS
 62
     5
 10
2759.0629469999999
 20
414.78626400000002
 30
0.0
 11
1169.0629469999999
 21
414.78626400000002
 31
0.0
  0
LINE
  5
2BC
  8
OUTLINE
  6
CONTINUOUS
 62
     3
 10
2703.1514470000002
 20
461.78626399999962
 30
0.0
 11
1224.9744470000001
 21
461.78626399999962
 31
0.0
  0
LINE
  5
2BD
  8
OUTLINE
  6
CONTINUOUS
 62
     3
 10
2727.8797300000001
 20
406.78626400000002
 30
0.0
 11
1200.2461639999999
 21
406.78626400000002
 31
0.0
  0
LINE
  5
2BE
  8
OUTLINE
  6
CONTINUOUS
 62
     3
 10
1209.0629469999999
 20
554.78626399999985
 30
0.0
 11
2719.0629469999999
 21
554.78626399999985
 31
0.0
  0
LINE
  5
2BF
  8
OUTLINE
  6
CONTINUOUS
 62
     3
 10
1209.0629469999999
 20
887.78626399999985
 30
0.0
 11
2719.0629469999999
 21
887.78626399999985
 31
0.0
  0
LINE
  5
2C0
  8
NOTE
  6
CONTINUOUS
 62
     4
 10
2034.913849
 20
268.71184599999998
 30
0.0
 11
1418.032704
 21
268.71184599999998
 31
0.0
  0
TEXT
  5
2C1
  8
NOTE
  6
CONTINUOUS
 62
     4
 10
1456.970157
 20
283.50751300000002
 30
0.0
 40
60.0
  1
%%C200 吹出円形フランジ
 50
0.000003
 41
0.7
  7
STANDARD1
  0
LINE
  5
2C2
  8
SIZE
  6
CONTINUOUS
 62
    30
 10
2699.0629469999999
 20
1242.768243
 30
0.0
 11
1229.0629469999999
 21
1242.768243
 31
0.0
  0
TEXT
  5
2C3
  8
SIZE
  6
CONTINUOUS
 62
    30
 10
1611.205804142857
 20
1155.197316
 30
0.0
 40
50.0
  1
320
 41
0.9
 72
     1
 11
1669.0629469999999
 21
1155.197316
 31
0.0
  0
LINE
  5
2C4
  8
SIZE
  6
CONTINUOUS
 62
    30
 10
1809.0629469999999
 20
1137.197316
 30
0.0
 11
1529.0629469999999
 21
1137.197316
 31
0.0
  0
LINE
  5
2C5
  8
SIZE
  6
CONTINUOUS
 62
    30
 10
1213.0629469999999
 20
1484.648291
 30
0.0
 11
2715.0629469999999
 21
1484.648291
 31
0.0
  0
LINE
  5
2C6
  8
SIZE
  6
CONTINUOUS
 62
    30
 10
2692.0629469999999
 20
1354.274887
 30
0.0
 11
1236.0629469999999
 21
1354.274887
 31
0.0
  0
LINE
  5
2C7
  8
SIZE
  6
CONTINUOUS
 62
    30
 10
2719.0629469999999
 20
175.18820700000001
 30
0.0
 11
1209.0629469999999
 21
175.18820700000001
 31
0.0
  0
LINE
  5
2C8
  8
SIZE
  6
CONTINUOUS
 62
    30
 10
1189.0629469999999
 20
77.496814000000001
 30
0.0
 11
2739.0629469999999
 21
77.496814000000001
 31
0.0
  0
LINE
  5
2C9
  8
DETAIL
  6
CONTINUOUS
 62
     5
 10
1209.0629469999999
 20
887.78626399999985
 30
0.0
 11
2719.0629469999999
 21
887.78626399999985
 31
0.0
  0
LINE
  5
2CA
  8
DETAIL
  6
CONTINUOUS
 62
     5
 10
1227.0651029999999
 20
569.78805999999975
 30
0.0
 11
2701.0607909999999
 21
569.78805999999975
 31
0.0
  0
LINE
  5
2CB
  8
DETAIL
  6
CONTINUOUS
 62
     5
 10
1209.0629469999999
 20
554.78626399999985
 30
0.0
 11
2719.0629469999999
 21
554.78626399999985
 31
0.0
  0
LINE
  5
2CC
  8
DETAIL
  6
CONTINUOUS
 62
     5
 10
2677.0878560000001
 20
643.77332999999965
 30
0.0
 11
1251.0679769999999
 21
643.77332999999965
 31
0.0
  0
LINE
  5
2CD
  8
DETAIL
  6
CONTINUOUS
 62
     5
 10
2714.0623479999999
 20
582.18954499999995
 30
0.0
 11
1214.0635460000001
 21
582.18954499999995
 31
0.0
  0
LINE
  5
2CE
  8
DETAIL
  6
CONTINUOUS
 62
     5
 10
2677.0878560000001
 20
859.79919800000005
 30
0.0
 11
1251.0679769999999
 21
859.79919800000005
 31
0.0
  0
LINE
  5
2CF
  8
DETAIL
  6
CONTINUOUS
 62
     5
 10
2727.8797300000001
 20
406.78626400000002
 30
0.0
 11
1200.2461639999999
 21
406.78626400000002
 31
0.0
  0
LINE
  5
2D0
  8
DETAIL
  6
CONTINUOUS
 62
     5
 10
2703.1514470000002
 20
461.78626399999962
 30
0.0
 11
1224.9744470000001
 21
461.78626399999962
 31
0.0
  0
POLYLINE
  5
2D1
  8
NOTE
  6
CONTINUOUS
 62
     4
 66
     1
 10
0.0
 20
0.0
 30
0.0
  0
VERTEX
  5
1249
  8
NOTE
  6
CONTINUOUS
 62
     4
 10
1509.0629469999999
 20
751.78626399999985
 30
0.0
  0
VERTEX
  5
124A
  8
NOTE
  6
CONTINUOUS
 62
     4
 10
1418.032704
 20
268.71184599999998
 30
0.0
  0
SEQEND
  5
124B
  8
NOTE
  6
CONTINUOUS
 62
     4
  0
LINE
  5
2D5
  8
OUTLINE
  6
CONTINUOUS
 62
     3
 10
1169.0629469999999
 20
410.77927599999992
 30
0.0
 11
1169.0629469999999
 21
414.78626400000002
 31
0.0
  0
LINE
  5
2D6
  8
SIZE
  6
CONTINUOUS
 62
    30
 10
1209.0629469999999
 20
536.78626399999985
 30
0.0
 11
1209.0629469999999
 21
226.125111
 31
0.0
  0
LINE
  5
2D7
  8
DETAIL
  6
CONTINUOUS
 62
     5
 10
1169.0629469999999
 20
410.77927599999992
 30
0.0
 11
1169.0629469999999
 21
414.78626400000002
 31
0.0
  0
ARC
  5
2D8
  8
OUTLINE
  6
CONTINUOUS
 62
     3
 10
1199.7666240000001
 20
526.79967699999986
 30
0.0
 40
120.014371
 50
255.17703
 51
270.22893699999997
  0
CIRCLE
  5
2D9
  8
SIZE
  6
CONTINUOUS
 62
    30
 10
1189.0629469999999
 20
256.125111
 30
0.0
 40
10.0
  0
CIRCLE
  5
2DA
  8
SIZE
  6
CONTINUOUS
 62
    30
 10
1189.0629469999999
 20
175.18820700000001
 30
0.0
 40
10.0
  0
LINE
  5
2DB
  8
SIZE
  6
CONTINUOUS
 62
    30
 10
1179.0629469999999
 20
77.496814000000001
 30
0.0
 11
1189.0629469999999
 21
77.496814000000001
 31
0.0
  0
CIRCLE
  5
2DC
  8
SIZE
  6
CONTINUOUS
 62
    30
 10
1189.0629469999999
 20
175.18820700000001
 30
0.0
 40
10.0
  0
LINE
  5
2DD
  8
SIZE
  6
CONTINUOUS
 62
    30
 10
1189.0629469999999
 20
175.18820700000001
 30
0.0
 11
1169.0629469999999
 21
175.18820700000001
 31
0.0
  0
ARC
  5
2DE
  8
DETAIL
  6
CONTINUOUS
 62
     5
 10
1199.7666240000001
 20
526.79967699999986
 30
0.0
 40
120.014371
 50
255.17703
 51
270.22893699999997
  0
LINE
  5
2DF
  8
SIZE
  6
CONTINUOUS
 62
    30
 10
1169.0629469999999
 20
392.77927599999998
 30
0.0
 11
1169.0629469999999
 21
47.496814000000001
 31
0.0
  0
CIRCLE
  5
2E0
  8
SIZE
  6
CONTINUOUS
 62
    30
 10
1169.0629469999999
 20
77.496814000000001
 30
0.0
 40
10.0
  0
LINE
  5
2E1
  8
SIZE
  6
CONTINUOUS
 62
    30
 10
1169.0629469999999
 20
392.77927599999998
 30
0.0
 11
1169.0629469999999
 21
145.18820700000001
 31
0.0
  0
LINE
  5
2E2
  8
SIZE
  6
CONTINUOUS
 62
    30
 10
1169.0629469999999
 20
256.125111
 30
0.0
 11
1040.2058039999999
 21
256.125111
 31
0.0
  0
TEXT
  5
2E3
  8
SIZE
  6
CONTINUOUS
 62
    30
 10
1038.205804571428
 20
193.18820700000001
 30
0.0
 40
50.0
  1
20
 41
0.9
 72
     1
 11
1074.634376
 21
193.18820700000001
 31
0.0
  0
LINE
  5
2E4
  8
SIZE
  6
CONTINUOUS
 62
    30
 10
1149.0629469999999
 20
175.18820700000001
 30
0.0
 11
1020.2058039999999
 21
175.18820700000001
 31
0.0
  0
LINE
  5
2E5
  8
SIZE
  6
CONTINUOUS
 62
    30
 10
1179.0629469999999
 20
256.125111
 30
0.0
 11
1169.0629469999999
 21
256.125111
 31
0.0
  0
POINT
  5
2E6
  8
DEFPOINTS
  6
CONTINUOUS
 62
     7
 10
1169.0629469999999
 20
175.18820700000001
 30
0.0
  0
LINE
  5
2E7
  8
SIZE
  6
CONTINUOUS
 62
    30
 10
1159.0629469999999
 20
175.18820700000001
 30
0.0
 11
1149.0629469999999
 21
175.18820700000001
 31
0.0
  0
CIRCLE
  5
2E8
  8
SIZE
  6
CONTINUOUS
 62
    30
 10
1169.0629469999999
 20
175.18820700000001
 30
0.0
 40
10.0
  0
TEXT
  5
2E9
  8
SIZE
  6
CONTINUOUS
 62
    30
 10
1058.2058045714291
 20
274.125111
 30
0.0
 40
50.0
  1
20
 41
0.9
 72
     1
 11
1094.634376
 21
274.125111
 31
0.0
  0
POINT
  5
2EA
  8
DEFPOINTS
  6
CONTINUOUS
 62
     7
 10
1169.0629469999999
 20
410.77927599999992
 30
0.0
  0
POINT
  5
2EB
  8
DEFPOINTS
  6
CONTINUOUS
 62
     7
 10
1169.0629469999999
 20
410.77927599999992
 30
0.0
  0
CIRCLE
  5
2EC
  8
SIZE
  6
CONTINUOUS
 62
    30
 10
1209.0629469999999
 20
256.125111
 30
0.0
 40
10.0
  0
LINE
  5
2ED
  8
SIZE
  6
CONTINUOUS
 62
    30
 10
1189.0629469999999
 20
397.78626400000002
 30
0.0
 11
1189.0629469999999
 21
226.125111
 31
0.0
  0
LINE
  5
2EE
  8
SIZE
  6
CONTINUOUS
 62
    30
 10
1189.0629469999999
 20
397.78626400000002
 30
0.0
 11
1189.0629469999999
 21
145.18820700000001
 31
0.0
  0
LINE
  5
2EF
  8
SIZE
  6
CONTINUOUS
 62
    30
 10
1189.0629469999999
 20
397.78626400000002
 30
0.0
 11
1189.0629469999999
 21
145.18820700000001
 31
0.0
  0
POINT
  5
2F0
  8
DEFPOINTS
  6
CONTINUOUS
 62
     7
 10
1189.0629469999999
 20
256.125111
 30
0.0
  0
LINE
  5
2F1
  8
SIZE
  6
CONTINUOUS
 62
    30
 10
1219.0629469999999
 20
256.125111
 30
0.0
 11
1229.0629469999999
 21
256.125111
 31
0.0
  0
LINE
  5
2F2
  8
SIZE
  6
CONTINUOUS
 62
    30
 10
1209.0629469999999
 20
256.125111
 30
0.0
 11
1189.0629469999999
 21
256.125111
 31
0.0
  0
LINE
  5
2F3
  8
SIZE
  6
CONTINUOUS
 62
    30
 10
1229.0629469999999
 20
256.125111
 30
0.0
 11
1249.0629469999999
 21
256.125111
 31
0.0
  0
POINT
  5
2F4
  8
DEFPOINTS
  6
CONTINUOUS
 62
     7
 10
1189.0629469999999
 20
175.18820700000001
 30
0.0
  0
LINE
  5
2F5
  8
SIZE
  6
CONTINUOUS
 62
    30
 10
1199.0629469999999
 20
175.18820700000001
 30
0.0
 11
1209.0629469999999
 21
175.18820700000001
 31
0.0
  0
LINE
  5
2F6
  8
SIZE
  6
CONTINUOUS
 62
    30
 10
1199.0629469999999
 20
175.18820700000001
 30
0.0
 11
1209.0629469999999
 21
175.18820700000001
 31
0.0
  0
LINE
  5
2F7
  8
SIZE
  6
CONTINUOUS
 62
    30
 10
1209.0629469999999
 20
175.18820700000001
 30
0.0
 11
1229.0629469999999
 21
175.18820700000001
 31
0.0
  0
LINE
  5
2F8
  8
SIZE
  6
CONTINUOUS
 62
    30
 10
1191.0629469999999
 20
887.78626399999985
 30
0.0
 11
494.00478199999998
 21
887.78626399999985
 31
0.0
  0
LINE
  5
2F9
  8
SIZE
  6
CONTINUOUS
 62
    30
 10
1185.5629469999999
 20
582.78626399999985
 30
0.0
 11
494.00478199999998
 21
582.78626399999985
 31
0.0
  0
TEXT
  5
2FA
  8
NOTE
  6
CONTINUOUS
 62
     4
 10
665.28042500000004
 20
494.70851800000003
 30
0.0
 40
60.0
  1
D2（自然排水口）
 50
0.000003
 41
0.7
  7
STANDARD1
  0
LINE
  5
2FB
  8
NOTE
  6
CONTINUOUS
 62
     4
 10
1084.058231
 20
478.88198799999998
 30
0.0
 11
643.60515299999997
 21
478.88198799999998
 31
0.0
  0
TEXT
  5
2FC
  8
NOTE
  6
CONTINUOUS
 62
     4
 10
508.11464999999998
 20
956.30719399999998
 30
0.0
 40
60.0
  1
RG %%C15.88
 50
0.000003
 41
0.7
  7
STANDARD1
  0
LINE
  5
2FD
  8
NOTE
  6
CONTINUOUS
 62
     4
 10
868.38849200000004
 20
945.53817100000015
 30
0.0
 11
494.30762900000002
 21
945.53817100000015
 31
0.0
  0
TEXT
  5
2FE
  8
NOTE
  6
CONTINUOUS
 62
     4
 10
536.08052699999985
 20
1076.2005899999999
 30
0.0
 40
60.0
  1
RL %%C9.52
 50
0.000003
 41
0.7
  7
STANDARD1
  0
LINE
  5
2FF
  8
NOTE
  6
CONTINUOUS
 62
     4
 10
865.21289299999989
 20
1058.5611819999999
 30
0.0
 11
527.1018429999998
 21
1058.5611819999999
 31
0.0
  0
TEXT
  5
300
  8
NOTE
  6
CONTINUOUS
 62
     4
 10
539.93648700000006
 20
1214.0686450000001
 30
0.0
 40
60.0
  1
D1 VP-25
 50
0.000003
 41
0.7
  7
STANDARD1
  0
LINE
  5
301
  8
NOTE
  6
CONTINUOUS
 62
     4
 10
860.91505299999994
 20
1198.2421139999999
 30
0.0
 11
518.26121499999965
 21
1198.2421139999999
 31
0.0
  0
LINE
  5
302
  8
SIZE
  6
CONTINUOUS
 62
    30
 10
1117.4016119999999
 20
653.78626399999996
 30
0.0
 11
582.25624200000004
 21
653.78626399999996
 31
0.0
  0
LINE
  5
303
  8
SIZE
  6
CONTINUOUS
 62
    30
 10
1131.0608580000001
 20
681.78626399999985
 30
0.0
 11
582.25624200000004
 21
681.78626399999985
 31
0.0
  0
LINE
  5
304
  8
SIZE
  6
CONTINUOUS
 62
    30
 10
1131.0608580000001
 20
681.78626399999985
 30
0.0
 11
582.25624200000004
 21
681.78626399999985
 31
0.0
  0
LINE
  5
305
  8
SIZE
  6
CONTINUOUS
 62
    30
 10
1191.0629469999999
 20
887.78626399999985
 30
0.0
 11
582.25624200000004
 21
887.78626399999985
 31
0.0
  0
LINE
  5
306
  8
SIZE
  6
CONTINUOUS
 62
    30
 10
1137.3946120000001
 20
739.78626399999985
 30
0.0
 11
684.73718299999996
 21
739.78626399999985
 31
0.0
  0
LINE
  5
307
  8
SIZE
  6
CONTINUOUS
 62
    30
 10
1191.0629469999999
 20
887.78626399999985
 30
0.0
 11
684.73718299999996
 21
887.78626399999985
 31
0.0
  0
TEXT
  5
308
  8
ETC
  6
CONTINUOUS
 62
    61
 10
0.000006
 20
1565.09799
 30
0.0
 40
65.0
  1
MPD-RP112_160FA3_2
 50
0.000003
 41
0.85
  7
STANDARD1
  0
TEXT
  5
309
  8
SIZE
  6
CONTINUOUS
 62
    30
 10
506.00478199999998
 20
677.42912114285696
 30
0.0
 40
50.0
  1
305
 50
90.0
 41
0.9
 72
     1
 11
506.00478199999998
 21
735.28626399999985
 31
0.0
  0
LINE
  5
30A
  8
SIZE
  6
CONTINUOUS
 62
    30
 10
524.00478199999998
 20
602.78626399999985
 30
0.0
 11
524.00478199999998
 21
867.78626399999985
 31
0.0
  0
LINE
  5
30B
  8
SIZE
  6
CONTINUOUS
 62
    30
 10
612.25624200000004
 20
701.78626399999985
 30
0.0
 11
612.25624200000004
 21
721.78626399999985
 31
0.0
  0
LINE
  5
30C
  8
SIZE
  6
CONTINUOUS
 62
    30
 10
612.25624200000004
 20
867.78626399999985
 30
0.0
 11
612.25624200000004
 21
701.78626399999985
 31
0.0
  0
CIRCLE
  5
30D
  8
SIZE
  6
CONTINUOUS
 62
    30
 10
524.00478199999998
 20
582.78626399999985
 30
0.0
 40
10.0
  0
LINE
  5
30E
  8
SIZE
  6
CONTINUOUS
 62
    30
 10
612.25624200000004
 20
633.78626399999985
 30
0.0
 11
612.25624200000004
 21
447.55034299999988
 31
0.0
  0
TEXT
  5
30F
  8
SIZE
  6
CONTINUOUS
 62
    30
 10
594.25624200000004
 20
465.55034357142853
 30
0.0
 40
50.0
  1
28
 50
90.0
 41
0.9
 72
     1
 11
594.25624200000004
 21
501.97891499999997
 31
0.0
  0
LINE
  5
310
  8
SIZE
  6
CONTINUOUS
 62
    30
 10
524.00478199999998
 20
592.78626399999985
 30
0.0
 11
524.00478199999998
 21
602.78626399999985
 31
0.0
  0
POINT
  5
311
  8
DEFPOINTS
  6
CONTINUOUS
 62
     7
 10
612.25624200000004
 20
653.78626399999996
 30
0.0
  0
LINE
  5
312
  8
SIZE
  6
CONTINUOUS
 62
    30
 10
612.25624200000004
 20
643.78626399999985
 30
0.0
 11
612.25624200000004
 21
633.78626399999985
 31
0.0
  0
CIRCLE
  5
313
  8
SIZE
  6
CONTINUOUS
 62
    30
 10
612.25624200000004
 20
653.78626399999996
 30
0.0
 40
10.0
  0
LINE
  5
314
  8
SIZE
  6
CONTINUOUS
 62
    30
 10
612.25624200000004
 20
691.78626399999996
 30
0.0
 11
612.25624200000004
 21
701.78626399999985
 31
0.0
  0
CIRCLE
  5
315
  8
SIZE
  6
CONTINUOUS
 62
    30
 10
612.25624200000004
 20
681.78626399999985
 30
0.0
 40
10.0
  0
LINE
  5
316
  8
SIZE
  6
CONTINUOUS
 62
    30
 10
612.25624200000004
 20
681.78626399999985
 30
0.0
 11
612.25624200000004
 21
653.78626399999996
 31
0.0
  0
POINT
  5
317
  8
DEFPOINTS
  6
CONTINUOUS
 62
     7
 10
612.25624200000004
 20
681.78626399999985
 30
0.0
  0
LINE
  5
318
  8
SIZE
  6
CONTINUOUS
 62
    30
 10
612.25624200000004
 20
691.78626399999996
 30
0.0
 11
612.25624200000004
 21
701.78626399999985
 31
0.0
  0
CIRCLE
  5
319
  8
SIZE
  6
CONTINUOUS
 62
    30
 10
612.25624200000004
 20
681.78626399999985
 30
0.0
 40
10.0
  0
CIRCLE
  5
31A
  8
SIZE
  6
CONTINUOUS
 62
    30
 10
524.00478199999998
 20
887.78626399999985
 30
0.0
 40
10.0
  0
LINE
  5
31B
  8
SIZE
  6
CONTINUOUS
 62
    30
 10
524.00478199999998
 20
877.78626399999985
 30
0.0
 11
524.00478199999998
 21
867.78626399999985
 31
0.0
  0
LINE
  5
31C
  8
SIZE
  6
CONTINUOUS
 62
    30
 10
612.25624200000004
 20
877.78626399999985
 30
0.0
 11
612.25624200000004
 21
867.78626399999985
 31
0.0
  0
LINE
  5
31D
  8
SIZE
  6
CONTINUOUS
 62
    30
 10
714.73718299999985
 20
877.78626399999985
 30
0.0
 11
714.73718299999985
 21
867.78626399999985
 31
0.0
  0
TEXT
  5
31E
  8
SIZE
  6
CONTINUOUS
 62
    30
 10
594.25624200000004
 20
728.00054971428563
 30
0.0
 40
50.0
  1
206
 50
90.0
 41
0.9
 72
     1
 11
594.25624200000004
 21
784.78626399999985
 31
0.0
  0
POINT
  5
31F
  8
DEFPOINTS
  6
CONTINUOUS
 62
     7
 10
714.73718299999985
 20
739.78626399999985
 30
0.0
  0
TEXT
  5
320
  8
SIZE
  6
CONTINUOUS
 62
    30
 10
696.73718299999985
 20
760.21483542857129
 30
0.0
 40
50.0
  1
148
 50
90.0
 41
0.9
 72
     1
 11
696.73718299999985
 21
813.78626399999985
 31
0.0
  0
LINE
  5
321
  8
SIZE
  6
CONTINUOUS
 62
    30
 10
714.73718299999985
 20
749.78626399999985
 30
0.0
 11
714.73718299999985
 21
759.78626399999985
 31
0.0
  0
CIRCLE
  5
322
  8
SIZE
  6
CONTINUOUS
 62
    30
 10
714.73718299999985
 20
739.78626399999985
 30
0.0
 40
10.0
  0
LINE
  5
323
  8
SIZE
  6
CONTINUOUS
 62
    30
 10
714.73718299999985
 20
867.78626399999985
 30
0.0
 11
714.73718299999985
 21
759.78626399999985
 31
0.0
  0
POINT
  5
324
  8
DEFPOINTS
  6
CONTINUOUS
 62
     7
 10
524.00478199999998
 20
887.78626399999985
 30
0.0
  0
CIRCLE
  5
325
  8
SIZE
  6
CONTINUOUS
 62
    30
 10
612.25624200000004
 20
887.78626399999985
 30
0.0
 40
10.0
  0
CIRCLE
  5
326
  8
SIZE
  6
CONTINUOUS
 62
    30
 10
714.73718299999985
 20
887.78626399999985
 30
0.0
 40
10.0
  0
POLYLINE
  5
327
  8
NOTE
  6
CONTINUOUS
 62
     4
 66
     1
 10
0.0
 20
0.0
 30
0.0
  0
VERTEX
  5
124C
  8
NOTE
  6
CONTINUOUS
 62
     4
 10
1170.0629469999999
 20
681.78626399999985
 30
0.0
  0
VERTEX
  5
124D
  8
NOTE
  6
CONTINUOUS
 62
     4
 10
865.21289299999989
 20
1058.5611819999999
 30
0.0
  0
SEQEND
  5
124E
  8
NOTE
  6
CONTINUOUS
 62
     4
  0
POLYLINE
  5
32B
  8
NOTE
  6
CONTINUOUS
 62
     4
 66
     1
 10
0.0
 20
0.0
 30
0.0
  0
VERTEX
  5
124F
  8
NOTE
  6
CONTINUOUS
 62
     4
 10
1175.0629469999999
 20
739.78626399999985
 30
0.0
  0
VERTEX
  5
1250
  8
NOTE
  6
CONTINUOUS
 62
     4
 10
860.91505299999994
 20
1198.2421139999999
 30
0.0
  0
SEQEND
  5
1251
  8
NOTE
  6
CONTINUOUS
 62
     4
  0
LINE
  5
32F
  8
SIZE
  6
CONTINUOUS
 62
    30
 10
1209.0629469999999
 20
905.78626399999973
 30
0.0
 11
1209.0629469999999
 21
1180.7229
 31
0.0
  0
LINE
  5
330
  8
SIZE
  6
CONTINUOUS
 62
    30
 10
1162.0629469999999
 20
679.72626400000001
 30
0.0
 11
1162.0629469999999
 21
1180.7229
 31
0.0
  0
LINE
  5
331
  8
SIZE
  6
CONTINUOUS
 62
    30
 10
1209.0629469999999
 20
905.78626399999973
 30
0.0
 11
1209.0629469999999
 21
1091.75236
 31
0.0
  0
LINE
  5
332
  8
SIZE
  6
CONTINUOUS
 62
    30
 10
1170.0629469999999
 20
704.54626399999995
 30
0.0
 11
1170.0629469999999
 21
1091.75236
 31
0.0
  0
TEXT
  5
333
  8
SIZE
  6
CONTINUOUS
 62
    30
 10
1042.0629469999999
 20
992.29142999999999
 30
0.0
 40
50.0
  1
34
 41
0.9
 72
     1
 11
1079.5629469999999
 21
992.29142999999999
 31
0.0
  0
LINE
  5
334
  8
SIZE
  6
CONTINUOUS
 62
    30
 10
1193.0629469999999
 20
896.48574899999983
 30
0.0
 11
1193.0629469999999
 21
1272.768243
 31
0.0
  0
LINE
  5
335
  8
SIZE
  6
CONTINUOUS
 62
    30
 10
1209.0629469999999
 20
905.78626399999973
 30
0.0
 11
1209.0629469999999
 21
1272.768243
 31
0.0
  0
LINE
  5
336
  8
SIZE
  6
CONTINUOUS
 62
    30
 10
1209.0629469999999
 20
905.78626399999973
 30
0.0
 11
1209.0629469999999
 21
1272.768243
 31
0.0
  0
LINE
  5
337
  8
SIZE
  6
CONTINUOUS
 62
    30
 10
1509.0629469999999
 20
889.80063499999994
 30
0.0
 11
1509.0629469999999
 21
1167.197316
 31
0.0
  0
LINE
  5
338
  8
SIZE
  6
CONTINUOUS
 62
    30
 10
1193.0629469999999
 20
906.48574900000006
 30
0.0
 11
1193.0629469999999
 21
1514.648291
 31
0.0
  0
LINE
  5
339
  8
SIZE
  6
CONTINUOUS
 62
    30
 10
1193.0629469999999
 20
901.48574900000006
 30
0.0
 11
1193.0629469999999
 21
1384.274887
 31
0.0
  0
LINE
  5
33A
  8
SIZE
  6
CONTINUOUS
 62
    30
 10
1216.0629469999999
 20
930.78865899999983
 30
0.0
 11
1216.0629469999999
 21
1384.274887
 31
0.0
  0
LINE
  5
33B
  8
SIZE
  6
CONTINUOUS
 62
    30
 10
1216.0629469999999
 20
925.78865900000005
 30
0.0
 11
1216.0629469999999
 21
1384.274887
 31
0.0
  0
LINE
  5
33C
  8
NOTE
  6
CONTINUOUS
 62
     4
 10
1180.853824
 20
569.79155500000002
 30
0.0
 11
1209.0629469999999
 21
582.78626399999985
 31
0.0
  0
POLYLINE
  5
33D
  8
NOTE
  6
CONTINUOUS
 62
     4
 66
     1
 10
0.0
 20
0.0
 30
0.0
  0
VERTEX
  5
1252
  8
NOTE
  6
CONTINUOUS
 62
     4
 10
1209.0629469999999
 20
582.78626399999985
 30
0.0
  0
VERTEX
  5
1253
  8
NOTE
  6
CONTINUOUS
 62
     4
 10
1084.058231
 20
478.88198799999998
 30
0.0
  0
SEQEND
  5
1254
  8
NOTE
  6
CONTINUOUS
 62
     4
  0
LINE
  5
341
  8
OUTLINE
  6
CONTINUOUS
 62
     3
 10
1224.9744470000001
 20
414.78626400000002
 30
0.0
 11
1169.0629469999999
 21
414.78626400000002
 31
0.0
  0
LINE
  5
342
  8
SIZE
  6
CONTINUOUS
 62
    30
 10
1209.0629469999999
 20
974.29142999999999
 30
0.0
 11
1175.0629469999999
 21
974.29142999999999
 31
0.0
  0
LINE
  5
343
  8
NOTE
  6
CONTINUOUS
 62
     4
 10
1189.0629469999999
 20
415.78626400000002
 30
0.0
 11
1087.755498
 21
415.78626400000002
 31
0.0
  0
LINE
  5
344
  8
NOTE
  6
CONTINUOUS
 62
     4
 10
1189.0629469999999
 20
435.78626399999962
 30
0.0
 11
1087.755498
 21
435.78626399999962
 31
0.0
  0
LINE
  5
345
  8
DETAIL
  6
CONTINUOUS
 62
     5
 10
1162.0629469999999
 20
645.84626400000002
 30
0.0
 11
1209.0629469999999
 21
645.84626400000002
 31
0.0
  0
LINE
  5
346
  8
DETAIL
  6
CONTINUOUS
 62
     5
 10
1209.0629469999999
 20
661.72626399999979
 30
0.0
 11
1162.0629469999999
 21
661.72626399999979
 31
0.0
  0
LINE
  5
347
  8
DETAIL
  6
CONTINUOUS
 62
     5
 10
1170.0629469999999
 20
677.02626399999986
 30
0.0
 11
1209.0629469999999
 21
677.02626399999986
 31
0.0
  0
LINE
  5
348
  8
DETAIL
  6
CONTINUOUS
 62
     5
 10
1209.0629469999999
 20
686.54626399999995
 30
0.0
 11
1170.0629469999999
 21
686.54626399999995
 31
0.0
  0
LINE
  5
349
  8
DETAIL
  6
CONTINUOUS
 62
     5
 10
1175.0629469999999
 20
755.78626399999985
 30
0.0
 11
1209.0629469999999
 21
755.78626399999985
 31
0.0
  0
LINE
  5
34A
  8
DETAIL
  6
CONTINUOUS
 62
     5
 10
1175.0629469999999
 20
723.78626399999985
 30
0.0
 11
1209.0629469999999
 21
723.78626399999985
 31
0.0
  0
LINE
  5
34B
  8
NOTE
  6
CONTINUOUS
 62
     4
 10
1135.4016119999999
 20
653.78626399999996
 30
0.0
 11
1188.7242819999999
 21
653.78626399999996
 31
0.0
  0
LINE
  5
34C
  8
NOTE
  6
CONTINUOUS
 62
     4
 10
1149.0608580000001
 20
681.78626399999985
 30
0.0
 11
1191.065036
 21
681.78626399999985
 31
0.0
  0
LINE
  5
34D
  8
NOTE
  6
CONTINUOUS
 62
     4
 10
1155.3946120000001
 20
739.78626399999985
 30
0.0
 11
1194.731282
 21
739.78626399999985
 31
0.0
  0
POLYLINE
  5
34E
  8
NOTE
  6
CONTINUOUS
 62
     4
 66
     1
 10
0.0
 20
0.0
 30
0.0
  0
VERTEX
  5
1255
  8
NOTE
  6
CONTINUOUS
 62
     4
 10
1162.0629469999999
 20
653.78626399999996
 30
0.0
  0
VERTEX
  5
1256
  8
NOTE
  6
CONTINUOUS
 62
     4
 10
868.38849200000004
 20
945.53817100000015
 30
0.0
  0
SEQEND
  5
1257
  8
NOTE
  6
CONTINUOUS
 62
     4
  0
LINE
  5
352
  8
NOTE
  6
CONTINUOUS
 62
     4
 10
1148.797939
 20
415.78626400000002
 30
0.0
 11
1168.797939
 21
435.78626399999962
 31
0.0
  0
LINE
  5
353
  8
NOTE
  6
CONTINUOUS
 62
     4
 10
1143.797939
 20
415.78626400000002
 30
0.0
 11
1163.797939
 21
435.78626399999962
 31
0.0
  0
LINE
  5
354
  8
NOTE
  6
CONTINUOUS
 62
     4
 10
1138.797939
 20
415.78626400000002
 30
0.0
 11
1158.797939
 21
435.78626399999962
 31
0.0
  0
LINE
  5
355
  8
NOTE
  6
CONTINUOUS
 62
     4
 10
1108.797939
 20
415.78626400000002
 30
0.0
 11
1128.797939
 21
435.78626399999962
 31
0.0
  0
LINE
  5
356
  8
NOTE
  6
CONTINUOUS
 62
     4
 10
1103.797939
 20
415.78626400000002
 30
0.0
 11
1123.797939
 21
435.78626399999962
 31
0.0
  0
LINE
  5
357
  8
NOTE
  6
CONTINUOUS
 62
     4
 10
1098.797939
 20
415.78626400000002
 30
0.0
 11
1118.797939
 21
435.78626399999962
 31
0.0
  0
LINE
  5
358
  8
NOTE
  6
CONTINUOUS
 62
     4
 10
1162.0629469999999
 20
633.78626399999985
 30
0.0
 11
1162.0629469999999
 21
673.78626399999985
 31
0.0
  0
LINE
  5
359
  8
NOTE
  6
CONTINUOUS
 62
     4
 10
1170.0629469999999
 20
661.78626399999985
 30
0.0
 11
1170.0629469999999
 21
701.78626399999985
 31
0.0
  0
LINE
  5
35A
  8
NOTE
  6
CONTINUOUS
 62
     4
 10
1162.0629469999999
 20
653.78626399999996
 30
0.0
 11
1135.252841
 21
669.46540000000005
 31
0.0
  0
LINE
  5
35B
  8
NOTE
  6
CONTINUOUS
 62
     4
 10
1146.6842819999999
 20
680.76984700000003
 30
0.0
 11
1162.0629469999999
 21
653.78626399999996
 31
0.0
  0
LINE
  5
35C
  8
NOTE
  6
CONTINUOUS
 62
     4
 10
1170.0629469999999
 20
681.78626399999985
 30
0.0
 11
1144.774167
 21
699.81664699999999
 31
0.0
  0
LINE
  5
35D
  8
NOTE
  6
CONTINUOUS
 62
     4
 10
1157.1774129999999
 20
710.04542400000003
 30
0.0
 11
1170.0629469999999
 21
681.78626399999985
 31
0.0
  0
POINT
  5
35E
  8
DEFPOINTS
  6
CONTINUOUS
 62
     7
 10
1162.0629469999999
 20
661.72626399999979
 30
0.0
  0
POINT
  5
35F
  8
DEFPOINTS
  6
CONTINUOUS
 62
     7
 10
1170.0629469999999
 20
686.54626399999995
 30
0.0
  0
POINT
  5
360
  8
DEFPOINTS
  6
CONTINUOUS
 62
     7
 10
1135.4016119999999
 20
653.78626399999996
 30
0.0
  0
POINT
  5
361
  8
DEFPOINTS
  6
CONTINUOUS
 62
     7
 10
1149.0608580000001
 20
681.78626399999985
 30
0.0
  0
POINT
  5
362
  8
DEFPOINTS
  6
CONTINUOUS
 62
     7
 10
1149.0608580000001
 20
681.78626399999985
 30
0.0
  0
LINE
  5
363
  8
DETAIL
  6
CONTINUOUS
 62
     5
 10
1162.0629469999999
 20
661.72626399999979
 30
0.0
 11
1162.0629469999999
 21
645.84626400000002
 31
0.0
  0
LINE
  5
364
  8
DETAIL
  6
CONTINUOUS
 62
     5
 10
1170.0629469999999
 20
686.54626399999995
 30
0.0
 11
1170.0629469999999
 21
677.02626399999986
 31
0.0
  0
LINE
  5
365
  8
SIZE
  6
CONTINUOUS
 62
    30
 10
1175.0629469999999
 20
773.78626399999985
 30
0.0
 11
1175.0629469999999
 21
1004.29143
 31
0.0
  0
LINE
  5
366
  8
NOTE
  6
CONTINUOUS
 62
     4
 10
1175.0629469999999
 20
719.78626399999985
 30
0.0
 11
1175.0629469999999
 21
759.78626399999985
 31
0.0
  0
LINE
  5
367
  8
NOTE
  6
CONTINUOUS
 62
     4
 10
1175.0629469999999
 20
739.78626399999985
 30
0.0
 11
1151.8954819999999
 21
760.47166100000004
 31
0.0
  0
LINE
  5
368
  8
NOTE
  6
CONTINUOUS
 62
     4
 10
1165.342032
 20
769.28407600000003
 30
0.0
 11
1175.0629469999999
 21
739.78626399999985
 31
0.0
  0
POINT
  5
369
  8
DEFPOINTS
  6
CONTINUOUS
 62
     7
 10
1175.0629469999999
 20
755.78626399999985
 30
0.0
  0
POINT
  5
36A
  8
DEFPOINTS
  6
CONTINUOUS
 62
     7
 10
1155.3946120000001
 20
739.78626399999985
 30
0.0
  0
LINE
  5
36B
  8
DETAIL
  6
CONTINUOUS
 62
     5
 10
1175.0629469999999
 20
755.78626399999985
 30
0.0
 11
1175.0629469999999
 21
723.78626399999985
 31
0.0
  0
LINE
  5
36C
  8
SIZE
  6
CONTINUOUS
 62
    30
 10
1155.0629469999999
 20
974.29142999999999
 30
0.0
 11
1024.0629469999999
 21
974.29142999999999
 31
0.0
  0
POINT
  5
36D
  8
DEFPOINTS
  6
CONTINUOUS
 62
     7
 10
1175.0629469999999
 20
974.29142999999999
 30
0.0
  0
LINE
  5
36E
  8
SIZE
  6
CONTINUOUS
 62
    30
 10
1165.0629469999999
 20
974.29142999999999
 30
0.0
 11
1155.0629469999999
 21
974.29142999999999
 31
0.0
  0
CIRCLE
  5
36F
  8
SIZE
  6
CONTINUOUS
 62
    30
 10
1175.0629469999999
 20
974.29142999999999
 30
0.0
 40
10.0
  0
LINE
  5
370
  8
OUTLINE
  6
CONTINUOUS
 62
     3
 10
1209.0629469999999
 20
887.78626399999985
 30
0.0
 11
1209.0629469999999
 21
554.78626399999985
 31
0.0
  0
CIRCLE
  5
371
  8
DETAIL
  6
CONTINUOUS
 62
     5
 10
1509.0629469999999
 20
751.78626399999985
 30
0.0
 40
85.5
  0
CIRCLE
  5
372
  8
DETAIL
  6
CONTINUOUS
 62
     5
 10
1509.0629469999999
 20
751.78626399999985
 30
0.0
 40
100.0
  0
LINE
  5
373
  8
DETAIL
  6
CONTINUOUS
 62
     5
 10
1209.0629469999999
 20
887.78626399999985
 30
0.0
 11
1209.0629469999999
 21
554.78626399999985
 31
0.0
  0
LINE
  5
374
  8
NOTE
  6
CONTINUOUS
 62
     4
 10
1509.0629469999999
 20
871.80063499999972
 30
0.0
 11
1509.0629469999999
 21
631.77189299999975
 31
0.0
  0
LINE
  5
375
  8
DETAIL
  6
CONTINUOUS
 62
     5
 10
1241.066779
 20
653.77452800000003
 30
0.0
 11
1241.066779
 21
849.798
 31
0.0
  0
LINE
  5
376
  8
NOTE
  6
CONTINUOUS
 62
     4
 10
1209.0629469999999
 20
582.78626399999985
 30
0.0
 11
1191.130484
 21
557.42795499999988
 31
0.0
  0
LINE
  5
377
  8
DETAIL
  6
CONTINUOUS
 62
     5
 10
1224.0647429999999
 20
566.78770099999986
 30
0.0
 11
1224.0647429999999
 21
554.78626399999985
 31
0.0
  0
LINE
  5
378
  8
OUTLINE
  6
CONTINUOUS
 62
     3
 10
1224.9744470000001
 20
414.78626400000002
 30
0.0
 11
1224.9744470000001
 21
461.78626399999962
 31
0.0
  0
POINT
  5
379
  8
DEFPOINTS
  6
CONTINUOUS
 62
     7
 10
1189.0629469999999
 20
415.78626400000002
 30
0.0
  0
POINT
  5
37A
  8
DEFPOINTS
  6
CONTINUOUS
 62
     7
 10
1209.0629469999999
 20
554.78626399999985
 30
0.0
  0
POINT
  5
37B
  8
DEFPOINTS
  6
CONTINUOUS
 62
     7
 10
1189.0629469999999
 20
415.78626400000002
 30
0.0
  0
POINT
  5
37C
  8
DEFPOINTS
  6
CONTINUOUS
 62
     7
 10
1189.0629469999999
 20
415.78626400000002
 30
0.0
  0
LINE
  5
37D
  8
NOTE
  6
CONTINUOUS
 62
     4
 10
1189.0629469999999
 20
415.78626400000002
 30
0.0
 11
1189.0629469999999
 21
435.78626399999962
 31
0.0
  0
LINE
  5
37E
  8
DETAIL
  6
CONTINUOUS
 62
     5
 10
1224.9744470000001
 20
414.78626400000002
 30
0.0
 11
1224.9744470000001
 21
461.78626399999962
 31
0.0
  0
POINT
  5
37F
  8
DEFPOINTS
  6
CONTINUOUS
 62
     7
 10
1203.5629469999999
 20
582.78626399999985
 30
0.0
  0
LINE
  5
380
  8
NOTE
  6
CONTINUOUS
 62
     4
 10
1209.0629469999999
 20
588.28625599999975
 30
0.0
 11
1209.0629469999999
 21
577.28627200000005
 31
0.0
  0
LINE
  5
381
  8
NOTE
  6
CONTINUOUS
 62
     4
 10
1214.5629469999999
 20
582.78626399999985
 30
0.0
 11
1203.5629469999999
 21
582.78626399999985
 31
0.0
  0
LINE
  5
382
  8
DETAIL
  6
CONTINUOUS
 62
     5
 10
1227.0651029999999
 20
569.78805999999975
 30
0.0
 11
1224.0647429999999
 21
566.78770099999986
 31
0.0
  0
ARC
  5
383
  8
DETAIL
  6
CONTINUOUS
 62
     5
 10
1214.0635460000001
 20
587.19014400000003
 30
0.0
 40
5.0005990000000002
 50
180.0
 51
270.0
  0
ARC
  5
384
  8
DETAIL
  6
CONTINUOUS
 62
     5
 10
1251.0679769999999
 20
653.77452800000003
 30
0.0
 40
10.001198
 50
180.0
 51
270.0
  0
LINE
  5
385
  8
NOTE
  6
CONTINUOUS
 62
     4
 10
1629.0773180000001
 20
751.78626399999985
 30
0.0
 11
1389.0485759999999
 21
751.78626399999985
 31
0.0
  0
LINE
  5
386
  8
SIZE
  6
CONTINUOUS
 62
    30
 10
1350.3610679999999
 20
877.78626399999985
 30
0.0
 11
1350.3610679999999
 21
867.78626399999985
 31
0.0
  0
CIRCLE
  5
387
  8
FIX
  6
CONTINUOUS
 62
    11
 10
1216.0629469999999
 20
887.78626399999985
 30
0.0
 40
18.598564
  0
LINE
  5
388
  8
NOTE
  6
CONTINUOUS
 62
     4
 10
1216.0629469999999
 20
867.78386899999987
 30
0.0
 11
1216.0629469999999
 21
907.78865900000005
 31
0.0
  0
TEXT
  5
389
  8
SIZE
  6
CONTINUOUS
 62
    30
 10
1332.3610679999999
 20
729.56767200000002
 30
0.0
 40
55.0
  1
136
 50
90.0
 41
0.9
 72
     1
 11
1332.3610679999999
 21
787.31767200000002
 31
0.0
  0
ARC
  5
38A
  8
DETAIL
  6
CONTINUOUS
 62
     5
 10
1251.0679769999999
 20
849.798
 30
0.0
 40
10.001198
 50
90.0
 51
180.0
  0
POINT
  5
38B
  8
DEFPOINTS
  6
CONTINUOUS
 62
     7
 10
1350.3610679999999
 20
751.78626399999985
 30
0.0
  0
POINT
  5
38C
  8
DEFPOINTS
  6
CONTINUOUS
 62
     7
 10
1389.0485759999999
 20
751.78626399999985
 30
0.0
  0
LINE
  5
38D
  8
SIZE
  6
CONTINUOUS
 62
    30
 10
1350.3610679999999
 20
761.78626399999985
 30
0.0
 11
1350.3610679999999
 21
771.78626399999985
 31
0.0
  0
CIRCLE
  5
38E
  8
SIZE
  6
CONTINUOUS
 62
    30
 10
1350.3610679999999
 20
751.78626399999985
 30
0.0
 40
10.0
  0
LINE
  5
38F
  8
SIZE
  6
CONTINUOUS
 62
    30
 10
1350.3610679999999
 20
867.78626399999985
 30
0.0
 11
1350.3610679999999
 21
771.78626399999985
 31
0.0
  0
LINE
  5
390
  8
SIZE
  6
CONTINUOUS
 62
    30
 10
1369.0485759999999
 20
751.78626399999985
 30
0.0
 11
1332.3610679999999
 21
751.78626399999985
 31
0.0
  0
LINE
  5
391
  8
SIZE
  6
CONTINUOUS
 62
    30
 10
1229.0629469999999
 20
887.78626399999985
 30
0.0
 11
1368.3610679999999
 21
887.78626399999985
 31
0.0
  0
POINT
  5
392
  8
DEFPOINTS
  6
CONTINUOUS
 62
     7
 10
1209.0629469999999
 20
887.78626399999985
 30
0.0
  0
POINT
  5
393
  8
DEFPOINTS
  6
CONTINUOUS
 62
     7
 10
1209.0629469999999
 20
887.78626399999985
 30
0.0
  0
POINT
  5
394
  8
DEFPOINTS
  6
CONTINUOUS
 62
     7
 10
1209.0629469999999
 20
887.78626399999985
 30
0.0
  0
POINT
  5
395
  8
DEFPOINTS
  6
CONTINUOUS
 62
     7
 10
1209.0629469999999
 20
887.78626399999985
 30
0.0
  0
LINE
  5
396
  8
SIZE
  6
CONTINUOUS
 62
    30
 10
1219.0629469999999
 20
974.29142999999999
 30
0.0
 11
1229.0629469999999
 21
974.29142999999999
 31
0.0
  0
CIRCLE
  5
397
  8
SIZE
  6
CONTINUOUS
 62
    30
 10
1209.0629469999999
 20
974.29142999999999
 30
0.0
 40
10.0
  0
LINE
  5
398
  8
SIZE
  6
CONTINUOUS
 62
    30
 10
1229.0629469999999
 20
974.29142999999999
 30
0.0
 11
1249.0629469999999
 21
974.29142999999999
 31
0.0
  0
LINE
  5
399
  8
SIZE
  6
CONTINUOUS
 62
    30
 10
1209.0629469999999
 20
905.78626399999973
 30
0.0
 11
1209.0629469999999
 21
1004.29143
 31
0.0
  0
POINT
  5
39A
  8
DEFPOINTS
  6
CONTINUOUS
 62
     7
 10
1209.0629469999999
 20
887.78626399999985
 30
0.0
  0
POINT
  5
39B
  8
DEFPOINTS
  6
CONTINUOUS
 62
     7
 10
1209.0629469999999
 20
887.78626399999985
 30
0.0
  0
POINT
  5
39C
  8
DEFPOINTS
  6
CONTINUOUS
 62
     7
 10
1209.0629469999999
 20
887.78626399999985
 30
0.0
  0
POINT
  5
39D
  8
DEFPOINTS
  6
CONTINUOUS
 62
     7
 10
1193.0629469999999
 20
878.48574900000006
 30
0.0
  0
POINT
  5
39E
  8
DEFPOINTS
  6
CONTINUOUS
 62
     7
 10
1209.0629469999999
 20
887.78626399999985
 30
0.0
  0
POINT
  5
39F
  8
DEFPOINTS
  6
CONTINUOUS
 62
     7
 10
1209.0629469999999
 20
887.78626399999985
 30
0.0
  0
POINT
  5
3A0
  8
DEFPOINTS
  6
CONTINUOUS
 62
     7
 10
1193.0629469999999
 20
888.48574899999983
 30
0.0
  0
POINT
  5
3A1
  8
DEFPOINTS
  6
CONTINUOUS
 62
     7
 10
1193.0629469999999
 20
883.48574900000006
 30
0.0
  0
POINT
  5
3A2
  8
DEFPOINTS
  6
CONTINUOUS
 62
     7
 10
1216.0629469999999
 20
912.78865900000005
 30
0.0
  0
POINT
  5
3A3
  8
DEFPOINTS
  6
CONTINUOUS
 62
     7
 10
1216.0629469999999
 20
907.78865900000005
 30
0.0
  0
ARC
  5
3A4
  8
DETAIL
  6
CONTINUOUS
 62
     5
 10
1197.363222
 20
883.48598900000002
 30
0.0
 40
2.0
 50
90.0
 51
180.0
  0
LINE
  5
3A5
  8
NOTE
  6
CONTINUOUS
 62
     4
 10
1196.061989
 20
887.78626399999985
 30
0.0
 11
1236.063905
 21
887.78626399999985
 31
0.0
  0
LINE
  5
3A6
  8
DETAIL
  6
CONTINUOUS
 62
     5
 10
1209.0629469999999
 20
885.48598900000002
 30
0.0
 11
1197.363222
 21
885.48598900000002
 31
0.0
  0
LINE
  5
3A7
  8
DETAIL
  6
CONTINUOUS
 62
     5
 10
1209.0629469999999
 20
887.78626399999985
 30
0.0
 11
1197.363462
 21
887.78626399999985
 31
0.0
  0
LINE
  5
3A8
  8
DETAIL
  6
CONTINUOUS
 62
     5
 10
1195.363222
 20
875.78482699999984
 30
0.0
 11
1193.0629469999999
 21
875.78482699999984
 31
0.0
  0
LINE
  5
3A9
  8
DETAIL
  6
CONTINUOUS
 62
     5
 10
1195.363222
 20
883.48598900000002
 30
0.0
 11
1195.363222
 21
875.78482699999984
 31
0.0
  0
LINE
  5
3AA
  8
DETAIL
  6
CONTINUOUS
 62
     5
 10
1193.0629469999999
 20
883.48574900000006
 30
0.0
 11
1193.0629469999999
 21
875.78482699999984
 31
0.0
  0
ARC
  5
3AB
  8
DETAIL
  6
CONTINUOUS
 62
     5
 10
1197.363462
 20
883.48574900000006
 30
0.0
 40
4.3005149999999981
 50
90.0
 51
180.0
  0
CIRCLE
  5
3AC
  8
SIZE
  6
CONTINUOUS
 62
    30
 10
1350.3610679999999
 20
887.78626399999985
 30
0.0
 40
10.0
  0
LINE
  5
3AD
  8
NOTE
  6
CONTINUOUS
 62
     4
 10
1509.0629469999999
 20
751.78626399999985
 30
0.0
 11
1511.4069870000001
 21
720.81655999999998
 31
0.0
  0
LINE
  5
3AE
  8
NOTE
  6
CONTINUOUS
 62
     4
 10
1495.6080930000001
 20
723.79369399999985
 30
0.0
 11
1509.0629469999999
 21
751.78626399999985
 31
0.0
  0
POINT
  5
3AF
  8
DEFPOINTS
  6
CONTINUOUS
 62
     7
 10
1509.0629469999999
 20
871.80063499999972
 30
0.0
  0
LINE
  5
3B0
  8
SIZE
  6
CONTINUOUS
 62
    30
 10
1209.0629469999999
 20
1150.7229
 30
0.0
 11
1162.0629469999999
 21
1150.7229
 31
0.0
  0
LINE
  5
3B1
  8
SIZE
  6
CONTINUOUS
 62
    30
 10
1209.0629469999999
 20
1061.75236
 30
0.0
 11
1170.0629469999999
 21
1061.75236
 31
0.0
  0
CIRCLE
  5
3B2
  8
SIZE
  6
CONTINUOUS
 62
    30
 10
1193.0629469999999
 20
1242.768243
 30
0.0
 40
10.0
  0
CIRCLE
  5
3B3
  8
SIZE
  6
CONTINUOUS
 62
    30
 10
1193.0629469999999
 20
1484.648291
 30
0.0
 40
10.0
  0
CIRCLE
  5
3B4
  8
SIZE
  6
CONTINUOUS
 62
    30
 10
1193.0629469999999
 20
1354.274887
 30
0.0
 40
10.0
  0
TEXT
  5
3B5
  8
SIZE
  6
CONTINUOUS
 62
    30
 10
1031.205804571428
 20
1168.7229
 30
0.0
 40
50.0
  1
47
 41
0.9
 72
     1
 11
1067.634376
 21
1168.7229
 31
0.0
  0
LINE
  5
3B6
  8
SIZE
  6
CONTINUOUS
 62
    30
 10
1142.0629469999999
 20
1150.7229
 30
0.0
 11
1013.2058039999999
 21
1150.7229
 31
0.0
  0
TEXT
  5
3B7
  8
SIZE
  6
CONTINUOUS
 62
    30
 10
1041.3486611428571
 20
1079.75236
 30
0.0
 40
50.0
  1
39
 41
0.9
 72
     1
 11
1076.7058039999999
 21
1079.75236
 31
0.0
  0
LINE
  5
3B8
  8
SIZE
  6
CONTINUOUS
 62
    30
 10
1150.0629469999999
 20
1061.75236
 30
0.0
 11
1023.348661
 21
1061.75236
 31
0.0
  0
LINE
  5
3B9
  8
SIZE
  6
CONTINUOUS
 62
    30
 10
1152.0629469999999
 20
1150.7229
 30
0.0
 11
1142.0629469999999
 21
1150.7229
 31
0.0
  0
CIRCLE
  5
3BA
  8
SIZE
  6
CONTINUOUS
 62
    30
 10
1162.0629469999999
 20
1150.7229
 30
0.0
 40
10.0
  0
LINE
  5
3BB
  8
SIZE
  6
CONTINUOUS
 62
    30
 10
1160.0629469999999
 20
1061.75236
 30
0.0
 11
1150.0629469999999
 21
1061.75236
 31
0.0
  0
CIRCLE
  5
3BC
  8
SIZE
  6
CONTINUOUS
 62
    30
 10
1170.0629469999999
 20
1061.75236
 30
0.0
 40
10.0
  0
TEXT
  5
3BD
  8
SIZE
  6
CONTINUOUS
 62
    30
 10
1072.9200894285709
 20
1260.768243
 30
0.0
 40
50.0
  1
16
 41
0.9
 72
     1
 11
1103.991518
 21
1260.768243
 31
0.0
  0
LINE
  5
3BE
  8
SIZE
  6
CONTINUOUS
 62
    30
 10
1173.0629469999999
 20
1242.768243
 30
0.0
 11
1054.9200900000001
 21
1242.768243
 31
0.0
  0
LINE
  5
3BF
  8
SIZE
  6
CONTINUOUS
 62
    30
 10
1183.0629469999999
 20
1242.768243
 30
0.0
 11
1173.0629469999999
 21
1242.768243
 31
0.0
  0
TEXT
  5
3C0
  8
SIZE
  6
CONTINUOUS
 62
    30
 10
1062.205804571428
 20
1372.274887
 30
0.0
 40
50.0
  1
23
 41
0.9
 72
     1
 11
1098.634376
 21
1372.274887
 31
0.0
  0
LINE
  5
3C1
  8
SIZE
  6
CONTINUOUS
 62
    30
 10
1173.0629469999999
 20
1354.274887
 30
0.0
 11
1044.2058039999999
 21
1354.274887
 31
0.0
  0
LINE
  5
3C2
  8
SIZE
  6
CONTINUOUS
 62
    30
 10
1183.0629469999999
 20
1354.274887
 30
0.0
 11
1173.0629469999999
 21
1354.274887
 31
0.0
  0
POINT
  5
3C3
  8
DEFPOINTS
  6
CONTINUOUS
 62
     7
 10
1209.0629469999999
 20
1150.7229
 30
0.0
  0
LINE
  5
3C4
  8
SIZE
  6
CONTINUOUS
 62
    30
 10
1219.0629469999999
 20
1150.7229
 30
0.0
 11
1229.0629469999999
 21
1150.7229
 31
0.0
  0
CIRCLE
  5
3C5
  8
SIZE
  6
CONTINUOUS
 62
    30
 10
1209.0629469999999
 20
1150.7229
 30
0.0
 40
10.0
  0
LINE
  5
3C6
  8
SIZE
  6
CONTINUOUS
 62
    30
 10
1229.0629469999999
 20
1150.7229
 30
0.0
 11
1249.0629469999999
 21
1150.7229
 31
0.0
  0
POINT
  5
3C7
  8
DEFPOINTS
  6
CONTINUOUS
 62
     7
 10
1209.0629469999999
 20
1061.75236
 30
0.0
  0
LINE
  5
3C8
  8
SIZE
  6
CONTINUOUS
 62
    30
 10
1219.0629469999999
 20
1061.75236
 30
0.0
 11
1229.0629469999999
 21
1061.75236
 31
0.0
  0
CIRCLE
  5
3C9
  8
SIZE
  6
CONTINUOUS
 62
    30
 10
1209.0629469999999
 20
1061.75236
 30
0.0
 40
10.0
  0
LINE
  5
3CA
  8
SIZE
  6
CONTINUOUS
 62
    30
 10
1229.0629469999999
 20
1061.75236
 30
0.0
 11
1249.0629469999999
 21
1061.75236
 31
0.0
  0
POINT
  5
3CB
  8
DEFPOINTS
  6
CONTINUOUS
 62
     7
 10
1193.0629469999999
 20
1242.768243
 30
0.0
  0
LINE
  5
3CC
  8
SIZE
  6
CONTINUOUS
 62
    30
 10
1219.0629469999999
 20
1242.768243
 30
0.0
 11
1229.0629469999999
 21
1242.768243
 31
0.0
  0
CIRCLE
  5
3CD
  8
SIZE
  6
CONTINUOUS
 62
    30
 10
1209.0629469999999
 20
1242.768243
 30
0.0
 40
10.0
  0
LINE
  5
3CE
  8
SIZE
  6
CONTINUOUS
 62
    30
 10
1209.0629469999999
 20
1242.768243
 30
0.0
 11
1193.0629469999999
 21
1242.768243
 31
0.0
  0
LINE
  5
3CF
  8
SIZE
  6
CONTINUOUS
 62
    30
 10
1229.0629469999999
 20
1242.768243
 30
0.0
 11
1249.0629469999999
 21
1242.768243
 31
0.0
  0
POINT
  5
3D0
  8
DEFPOINTS
  6
CONTINUOUS
 62
     7
 10
1209.0629469999999
 20
1242.768243
 30
0.0
  0
LINE
  5
3D1
  8
SIZE
  6
CONTINUOUS
 62
    30
 10
1219.0629469999999
 20
1242.768243
 30
0.0
 11
1229.0629469999999
 21
1242.768243
 31
0.0
  0
CIRCLE
  5
3D2
  8
SIZE
  6
CONTINUOUS
 62
    30
 10
1209.0629469999999
 20
1242.768243
 30
0.0
 40
10.0
  0
LINE
  5
3D3
  8
SIZE
  6
CONTINUOUS
 62
    30
 10
1519.0629469999999
 20
1137.197316
 30
0.0
 11
1529.0629469999999
 21
1137.197316
 31
0.0
  0
POINT
  5
3D4
  8
DEFPOINTS
  6
CONTINUOUS
 62
     7
 10
1509.0629469999999
 20
1137.197316
 30
0.0
  0
CIRCLE
  5
3D5
  8
SIZE
  6
CONTINUOUS
 62
    30
 10
1509.0629469999999
 20
1137.197316
 30
0.0
 40
10.0
  0
POINT
  5
3D6
  8
DEFPOINTS
  6
CONTINUOUS
 62
     7
 10
1193.0629469999999
 20
1354.274887
 30
0.0
  0
LINE
  5
3D7
  8
SIZE
  6
CONTINUOUS
 62
    30
 10
1226.0629469999999
 20
1354.274887
 30
0.0
 11
1236.0629469999999
 21
1354.274887
 31
0.0
  0
CIRCLE
  5
3D8
  8
SIZE
  6
CONTINUOUS
 62
    30
 10
1216.0629469999999
 20
1354.274887
 30
0.0
 40
10.0
  0
LINE
  5
3D9
  8
SIZE
  6
CONTINUOUS
 62
    30
 10
1216.0629469999999
 20
1354.274887
 30
0.0
 11
1193.0629469999999
 21
1354.274887
 31
0.0
  0
LINE
  5
3DA
  8
SIZE
  6
CONTINUOUS
 62
    30
 10
1236.0629469999999
 20
1354.274887
 30
0.0
 11
1256.0629469999999
 21
1354.274887
 31
0.0
  0
POINT
  5
3DB
  8
DEFPOINTS
  6
CONTINUOUS
 62
     7
 10
1216.0629469999999
 20
1354.274887
 30
0.0
  0
LINE
  5
3DC
  8
SIZE
  6
CONTINUOUS
 62
    30
 10
1226.0629469999999
 20
1354.274887
 30
0.0
 11
1236.0629469999999
 21
1354.274887
 31
0.0
  0
CIRCLE
  5
3DD
  8
SIZE
  6
CONTINUOUS
 62
    30
 10
1216.0629469999999
 20
1354.274887
 30
0.0
 40
10.0
  0
LINE
  5
3DE
  8
SIZE
  6
CONTINUOUS
 62
    30
 10
1203.0629469999999
 20
1484.648291
 30
0.0
 11
1213.0629469999999
 21
1484.648291
 31
0.0
  0
LINE
  5
3DF
  8
BASIS
  6
DASHDOT
 62
     6
 10
1964.0629469999999
 20
356.78530599999999
 30
0.0
 11
1964.0629469999999
 21
944.80219199999999
 31
0.0
  0
CIRCLE
  5
3E0
  8
ARRANGE
  6
CONTINUOUS
 62
     1
 10
1964.0629469999999
 20
414.78626400000002
 30
0.0
 40
50.0
  0
LINE
  5
3E1
  8
OUTLINE
  6
CONTINUOUS
 62
     3
 10
2759.0629469999999
 20
410.77927599999992
 30
0.0
 11
2759.0629469999999
 21
414.78626400000002
 31
0.0
  0
CIRCLE
  5
3E2
  8
SIZE
  6
CONTINUOUS
 62
    30
 10
3233.6406929999998
 20
414.78626400000002
 30
0.0
 40
10.0
  0
LINE
  5
3E3
  8
SIZE
  6
CONTINUOUS
 62
    30
 10
3233.6406929999998
 20
414.78626400000002
 30
0.0
 11
3233.6406929999998
 21
67.357693000000012
 31
0.0
  0
CIRCLE
  5
3E4
  8
SIZE
  6
CONTINUOUS
 62
    30
 10
2926.9845340000011
 20
414.78626400000002
 30
0.0
 40
10.0
  0
CIRCLE
  5
3E5
  8
SIZE
  6
CONTINUOUS
 62
    30
 10
2926.9845340000011
 20
406.78626400000002
 30
0.0
 40
10.0
  0
CIRCLE
  5
3E6
  8
SIZE
  6
CONTINUOUS
 62
    30
 10
2926.9845340000011
 20
414.78626400000002
 30
0.0
 40
10.0
  0
LINE
  5
3E7
  8
SIZE
  6
CONTINUOUS
 62
    30
 10
2926.9845340000011
 20
414.78626400000002
 30
0.0
 11
2926.9845340000011
 21
406.78626400000002
 31
0.0
  0
LINE
  5
3E8
  8
SIZE
  6
CONTINUOUS
 62
    30
 10
2719.0629469999999
 20
536.78626399999985
 30
0.0
 11
2719.0629469999999
 21
238.17687000000001
 31
0.0
  0
LINE
  5
3E9
  8
ARRANGE
  6
CONTINUOUS
 62
     1
 10
1914.0255970000001
 20
365.26391100000001
 30
0.0
 11
2014.100297
 21
464.30861700000003
 31
0.0
  0
LINE
  5
3EA
  8
ARRANGE
  6
CONTINUOUS
 62
     1
 10
1914.0991839999999
 20
464.382859
 30
0.0
 11
2014.0267100000001
 21
365.18966899999998
 31
0.0
  0
LINE
  5
3EB
  8
DETAIL
  6
CONTINUOUS
 62
     5
 10
2759.0629469999999
 20
410.77927599999992
 30
0.0
 11
2759.0629469999999
 21
414.78626400000002
 31
0.0
  0
LINE
  5
3EC
  8
SIZE
  6
CONTINUOUS
 62
    30
 10
2699.0629469999999
 20
268.17687000000001
 30
0.0
 11
2366.2058040000002
 21
268.17687000000001
 31
0.0
  0
TEXT
  5
3ED
  8
SIZE
  6
CONTINUOUS
 62
    30
 10
1684.6343755714281
 20
193.18820700000001
 30
0.0
 40
50.0
  1
1550（天井開口寸法）
 41
0.9
 72
     1
 11
1964.0629469999999
 21
193.18820700000001
 31
0.0
  0
TEXT
  5
3EE
  8
SIZE
  6
CONTINUOUS
 62
    30
 10
1889.0629469999999
 20
95.496814000000001
 30
0.0
 40
50.0
  1
1590
 41
0.9
 72
     1
 11
1964.0629469999999
 21
95.496814000000001
 31
0.0
  0
TEXT
  5
3EF
  8
SIZE
  6
CONTINUOUS
 62
    30
 10
2384.2058045714289
 20
286.17687000000001
 30
0.0
 40
50.0
  1
20
 41
0.9
 72
     1
 11
2420.634376
 21
286.17687000000001
 31
0.0
  0
LINE
  5
3F0
  8
SIZE
  6
CONTINUOUS
 62
    30
 10
2759.0629469999999
 20
392.77927599999998
 30
0.0
 11
2759.0629469999999
 21
47.496814000000001
 31
0.0
  0
CIRCLE
  5
3F1
  8
SIZE
  6
CONTINUOUS
 62
    30
 10
2759.0629469999999
 20
77.496814000000001
 30
0.0
 40
10.0
  0
LINE
  5
3F2
  8
SIZE
  6
CONTINUOUS
 62
    30
 10
2749.0629469999999
 20
77.496814000000001
 30
0.0
 11
2739.0629469999999
 21
77.496814000000001
 31
0.0
  0
POINT
  5
3F3
  8
DEFPOINTS
  6
CONTINUOUS
 62
     7
 10
2759.0629469999999
 20
77.496814000000001
 30
0.0
  0
ARC
  5
3F4
  8
OUTLINE
  6
CONTINUOUS
 62
     3
 10
2728.3592699999999
 20
526.79967699999986
 30
0.0
 40
120.014371
 50
269.77106299999991
 51
284.82297
  0
LINE
  5
3F5
  8
SIZE
  6
CONTINUOUS
 62
    30
 10
2745.8797300000001
 20
406.78626400000002
 30
0.0
 11
2956.9845340000002
 21
406.78626400000002
 31
0.0
  0
LINE
  5
3F6
  8
SIZE
  6
CONTINUOUS
 62
    30
 10
2749.0629469999999
 20
268.17687000000001
 30
0.0
 11
2759.0629469999999
 21
268.17687000000001
 31
0.0
  0
CIRCLE
  5
3F7
  8
SIZE
  6
CONTINUOUS
 62
    30
 10
2759.0629469999999
 20
175.18820700000001
 30
0.0
 40
10.0
  0
LINE
  5
3F8
  8
SIZE
  6
CONTINUOUS
 62
    30
 10
2739.0629469999999
 20
175.18820700000001
 30
0.0
 11
2759.0629469999999
 21
175.18820700000001
 31
0.0
  0
ARC
  5
3F9
  8
DETAIL
  6
CONTINUOUS
 62
     5
 10
2728.3592699999999
 20
526.79967699999986
 30
0.0
 40
120.014371
 50
269.77106299999991
 51
284.82297
  0
CIRCLE
  5
3FA
  8
SIZE
  6
CONTINUOUS
 62
    30
 10
2719.0629469999999
 20
268.17687000000001
 30
0.0
 40
10.0
  0
CIRCLE
  5
3FB
  8
SIZE
  6
CONTINUOUS
 62
    30
 10
2739.0629469999999
 20
268.17687000000001
 30
0.0
 40
10.0
  0
LINE
  5
3FC
  8
SIZE
  6
CONTINUOUS
 62
    30
 10
2739.0629469999999
 20
397.78626400000002
 30
0.0
 11
2739.0629469999999
 21
238.17687000000001
 31
0.0
  0
LINE
  5
3FD
  8
SIZE
  6
CONTINUOUS
 62
    30
 10
2739.0629469999999
 20
397.78626400000002
 30
0.0
 11
2739.0629469999999
 21
145.18820700000001
 31
0.0
  0
LINE
  5
3FE
  8
SIZE
  6
CONTINUOUS
 62
    30
 10
2739.0629469999999
 20
397.78626400000002
 30
0.0
 11
2739.0629469999999
 21
145.18820700000001
 31
0.0
  0
LINE
  5
3FF
  8
SIZE
  6
CONTINUOUS
 62
    30
 10
2729.0629469999999
 20
175.18820700000001
 30
0.0
 11
2719.0629469999999
 21
175.18820700000001
 31
0.0
  0
CIRCLE
  5
400
  8
SIZE
  6
CONTINUOUS
 62
    30
 10
2739.0629469999999
 20
175.18820700000001
 30
0.0
 40
10.0
  0
LINE
  5
401
  8
SIZE
  6
CONTINUOUS
 62
    30
 10
2729.0629469999999
 20
175.18820700000001
 30
0.0
 11
2719.0629469999999
 21
175.18820700000001
 31
0.0
  0
CIRCLE
  5
402
  8
SIZE
  6
CONTINUOUS
 62
    30
 10
2739.0629469999999
 20
175.18820700000001
 30
0.0
 40
10.0
  0
LINE
  5
403
  8
SIZE
  6
CONTINUOUS
 62
    30
 10
2719.0629469999999
 20
175.18820700000001
 30
0.0
 11
2699.0629469999999
 21
175.18820700000001
 31
0.0
  0
POINT
  5
404
  8
DEFPOINTS
  6
CONTINUOUS
 62
     7
 10
2727.8797300000001
 20
406.78626400000002
 30
0.0
  0
POINT
  5
405
  8
DEFPOINTS
  6
CONTINUOUS
 62
     7
 10
2739.0629469999999
 20
268.17687000000001
 30
0.0
  0
LINE
  5
406
  8
SIZE
  6
CONTINUOUS
 62
    30
 10
2709.0629469999999
 20
268.17687000000001
 30
0.0
 11
2699.0629469999999
 21
268.17687000000001
 31
0.0
  0
LINE
  5
407
  8
SIZE
  6
CONTINUOUS
 62
    30
 10
2739.0629469999999
 20
268.17687000000001
 30
0.0
 11
2719.0629469999999
 21
268.17687000000001
 31
0.0
  0
LINE
  5
408
  8
SIZE
  6
CONTINUOUS
 62
    30
 10
2759.0629469999999
 20
392.77927599999998
 30
0.0
 11
2759.0629469999999
 21
145.18820700000001
 31
0.0
  0
TEXT
  5
409
  8
SIZE
  6
CONTINUOUS
 62
    30
 10
2817.0629465714292
 20
193.18820700000001
 30
0.0
 40
50.0
  1
20
 41
0.9
 72
     1
 11
2853.4915179999998
 21
193.18820700000001
 31
0.0
  0
LINE
  5
40A
  8
SIZE
  6
CONTINUOUS
 62
    30
 10
2779.0629469999999
 20
175.18820700000001
 30
0.0
 11
2907.9200900000001
 21
175.18820700000001
 31
0.0
  0
POINT
  5
40B
  8
DEFPOINTS
  6
CONTINUOUS
 62
     7
 10
2759.0629469999999
 20
175.18820700000001
 30
0.0
  0
LINE
  5
40C
  8
SIZE
  6
CONTINUOUS
 62
    30
 10
2769.0629469999999
 20
175.18820700000001
 30
0.0
 11
2779.0629469999999
 21
175.18820700000001
 31
0.0
  0
TEXT
  5
40D
  8
SIZE
  6
CONTINUOUS
 62
    30
 10
2908.9845340000002
 20
318.78626400000002
 30
0.0
 40
50.0
  1
8
 50
90.0
 41
0.9
 72
     1
 11
2908.9845340000002
 21
333.78626400000002
 31
0.0
  0
LINE
  5
40E
  8
SIZE
  6
CONTINUOUS
 62
    30
 10
2759.0629469999999
 20
268.17687000000001
 30
0.0
 11
2779.0629469999999
 21
268.17687000000001
 31
0.0
  0
POINT
  5
40F
  8
DEFPOINTS
  6
CONTINUOUS
 62
     7
 10
2759.0629469999999
 20
410.77927599999992
 30
0.0
  0
POINT
  5
410
  8
DEFPOINTS
  6
CONTINUOUS
 62
     7
 10
2759.0629469999999
 20
410.77927599999992
 30
0.0
  0
LINE
  5
411
  8
SIZE
  6
CONTINUOUS
 62
    30
 10
2926.9845340000011
 20
404.78626399999979
 30
0.0
 11
2926.9845340000011
 21
394.78626400000002
 31
0.0
  0
LINE
  5
412
  8
SIZE
  6
CONTINUOUS
 62
    30
 10
2926.9845340000011
 20
394.78626400000002
 30
0.0
 11
2926.9845340000011
 21
374.78626400000002
 31
0.0
  0
POINT
  5
413
  8
DEFPOINTS
  6
CONTINUOUS
 62
     7
 10
2926.9845340000011
 20
406.78626400000002
 30
0.0
  0
LINE
  5
414
  8
SIZE
  6
CONTINUOUS
 62
    30
 10
2926.9845340000011
 20
396.78626400000002
 30
0.0
 11
2926.9845340000011
 21
386.78626400000002
 31
0.0
  0
LINE
  5
415
  8
SIZE
  6
CONTINUOUS
 62
    30
 10
2926.9845340000011
 20
386.78626400000002
 30
0.0
 11
2926.9845340000011
 21
300.78626400000002
 31
0.0
  0
TEXT
  5
416
  8
SIZE
  6
CONTINUOUS
 62
    30
 10
3215.6406929999998
 20
85.357692285714251
 30
0.0
 40
50.0
  1
140-300
 50
90.0
 41
0.9
 72
     1
 11
3215.6406929999998
 21
231.071978
 31
0.0
  0
TEXT
  5
417
  8
SIZE
  6
CONTINUOUS
 62
    30
 10
3343.6624890000012
 20
47.50378499999993
 30
0.0
 40
55.0
  1
パネル直付時
 50
90.0
 41
0.9
 72
     1
 11
3343.6624890000012
 21
219.10378499999999
 31
0.0
  0
CIRCLE
  5
418
  8
DETAIL
  6
CONTINUOUS
 62
     5
 10
2469.0629469999999
 20
751.78626399999985
 30
0.0
 40
85.5
  0
CIRCLE
  5
419
  8
DETAIL
  6
CONTINUOUS
 62
     5
 10
2469.0629469999999
 20
751.78626399999985
 30
0.0
 40
100.0
  0
LINE
  5
41A
  8
SIZE
  6
CONTINUOUS
 62
    30
 10
2699.0629469999999
 20
1137.197316
 30
0.0
 11
2489.0629469999999
 21
1137.197316
 31
0.0
  0
LINE
  5
41B
  8
NOTE
  6
CONTINUOUS
 62
     4
 10
2589.0773180000001
 20
751.78626399999985
 30
0.0
 11
2349.0485760000001
 21
751.78626399999985
 31
0.0
  0
LINE
  5
41C
  8
SIZE
  6
CONTINUOUS
 62
    30
 10
1829.0629469999999
 20
889.80063499999994
 30
0.0
 11
1829.0629469999999
 21
1167.197316
 31
0.0
  0
LINE
  5
41D
  8
SIZE
  6
CONTINUOUS
 62
    30
 10
1829.0629469999999
 20
889.80063499999994
 30
0.0
 11
1829.0629469999999
 21
1167.197316
 31
0.0
  0
LINE
  5
41E
  8
SIZE
  6
CONTINUOUS
 62
    30
 10
2149.0629469999999
 20
889.80063499999994
 30
0.0
 11
2149.0629469999999
 21
1167.197316
 31
0.0
  0
LINE
  5
41F
  8
SIZE
  6
CONTINUOUS
 62
    30
 10
2149.0629469999999
 20
889.80063499999994
 30
0.0
 11
2149.0629469999999
 21
1167.197316
 31
0.0
  0
LINE
  5
420
  8
SIZE
  6
CONTINUOUS
 62
    30
 10
2469.0629469999999
 20
889.80063499999994
 30
0.0
 11
2469.0629469999999
 21
1167.197316
 31
0.0
  0
LINE
  5
421
  8
SIZE
  6
CONTINUOUS
 62
    30
 10
2469.0629469999999
 20
889.80063499999994
 30
0.0
 11
2469.0629469999999
 21
1167.197316
 31
0.0
  0
CIRCLE
  5
422
  8
DETAIL
  6
CONTINUOUS
 62
     5
 10
2149.0629469999999
 20
751.78626399999985
 30
0.0
 40
85.5
  0
CIRCLE
  5
423
  8
DETAIL
  6
CONTINUOUS
 62
     5
 10
2149.0629469999999
 20
751.78626399999985
 30
0.0
 40
100.0
  0
LINE
  5
424
  8
NOTE
  6
CONTINUOUS
 62
     4
 10
2269.0773180000001
 20
751.78626399999985
 30
0.0
 11
2029.0485759999999
 21
751.78626399999985
 31
0.0
  0
CIRCLE
  5
425
  8
DETAIL
  6
CONTINUOUS
 62
     5
 10
1829.0629469999999
 20
751.78626399999985
 30
0.0
 40
85.5
  0
CIRCLE
  5
426
  8
DETAIL
  6
CONTINUOUS
 62
     5
 10
1829.0629469999999
 20
751.78626399999985
 30
0.0
 40
100.0
  0
LINE
  5
427
  8
NOTE
  6
CONTINUOUS
 62
     4
 10
1829.0629469999999
 20
871.80063499999972
 30
0.0
 11
1829.0629469999999
 21
631.77189299999975
 31
0.0
  0
LINE
  5
428
  8
NOTE
  6
CONTINUOUS
 62
     4
 10
1949.0773180000001
 20
751.78626399999985
 30
0.0
 11
1709.0485759999999
 21
751.78626399999985
 31
0.0
  0
POINT
  5
429
  8
DEFPOINTS
  6
CONTINUOUS
 62
     7
 10
1829.0629469999999
 20
871.80063499999972
 30
0.0
  0
POINT
  5
42A
  8
DEFPOINTS
  6
CONTINUOUS
 62
     7
 10
1829.0629469999999
 20
871.80063499999972
 30
0.0
  0
LINE
  5
42B
  8
NOTE
  6
CONTINUOUS
 62
     4
 10
2469.0629469999999
 20
871.80063499999972
 30
0.0
 11
2469.0629469999999
 21
631.77189299999975
 31
0.0
  0
LINE
  5
42C
  8
NOTE
  6
CONTINUOUS
 62
     4
 10
2149.0629469999999
 20
871.80063499999972
 30
0.0
 11
2149.0629469999999
 21
631.77189299999975
 31
0.0
  0
POINT
  5
42D
  8
DEFPOINTS
  6
CONTINUOUS
 62
     7
 10
2149.0629469999999
 20
871.80063499999972
 30
0.0
  0
POINT
  5
42E
  8
DEFPOINTS
  6
CONTINUOUS
 62
     7
 10
2149.0629469999999
 20
871.80063499999972
 30
0.0
  0
POINT
  5
42F
  8
DEFPOINTS
  6
CONTINUOUS
 62
     7
 10
2469.0629469999999
 20
871.80063499999972
 30
0.0
  0
POINT
  5
430
  8
DEFPOINTS
  6
CONTINUOUS
 62
     7
 10
2469.0629469999999
 20
871.80063499999972
 30
0.0
  0
LINE
  5
431
  8
SIZE
  6
CONTINUOUS
 62
    30
 10
2129.0629469999999
 20
1137.197316
 30
0.0
 11
1849.0629469999999
 21
1137.197316
 31
0.0
  0
TEXT
  5
432
  8
SIZE
  6
CONTINUOUS
 62
    30
 10
1644.1343755714281
 20
1385.3701249999999
 30
0.0
 40
50.0
  1
1496(吊りボルトピッチ)
 41
0.9
 72
     1
 11
1964.0629469999999
 21
1385.3701249999999
 31
0.0
  0
LINE
  5
433
  8
SIZE
  6
CONTINUOUS
 62
    30
 10
1819.0629469999999
 20
1137.197316
 30
0.0
 11
1809.0629469999999
 21
1137.197316
 31
0.0
  0
CIRCLE
  5
434
  8
SIZE
  6
CONTINUOUS
 62
    30
 10
1829.0629469999999
 20
1137.197316
 30
0.0
 40
10.0
  0
POINT
  5
435
  8
DEFPOINTS
  6
CONTINUOUS
 62
     7
 10
1829.0629469999999
 20
1137.197316
 30
0.0
  0
LINE
  5
436
  8
SIZE
  6
CONTINUOUS
 62
    30
 10
1839.0629469999999
 20
1137.197316
 30
0.0
 11
1849.0629469999999
 21
1137.197316
 31
0.0
  0
CIRCLE
  5
437
  8
SIZE
  6
CONTINUOUS
 62
    30
 10
1829.0629469999999
 20
1137.197316
 30
0.0
 40
10.0
  0
TEXT
  5
438
  8
SIZE
  6
CONTINUOUS
 62
    30
 10
1931.205804142857
 20
1155.197316
 30
0.0
 40
50.0
  1
320
 41
0.9
 72
     1
 11
1989.0629469999999
 21
1155.197316
 31
0.0
  0
TEXT
  5
439
  8
SIZE
  6
CONTINUOUS
 62
    30
 10
1893.3486612857139
 20
1260.768243
 30
0.0
 40
50.0
  1
1510
 41
0.9
 72
     1
 11
1964.0629469999999
 21
1260.768243
 31
0.0
  0
TEXT
  5
43A
  8
SIZE
  6
CONTINUOUS
 62
    30
 10
1889.0629469999999
 20
1502.648291
 30
0.0
 40
50.0
  1
1542
 41
0.9
 72
     1
 11
1964.0629469999999
 21
1502.648291
 31
0.0
  0
TEXT
  5
43B
  8
SIZE
  6
CONTINUOUS
 62
    30
 10
2251.2058041428568
 20
1155.197316
 30
0.0
 40
50.0
  1
320
 41
0.9
 72
     1
 11
2309.0629469999999
 21
1155.197316
 31
0.0
  0
LINE
  5
43C
  8
SIZE
  6
CONTINUOUS
 62
    30
 10
2449.0629469999999
 20
1137.197316
 30
0.0
 11
2169.0629469999999
 21
1137.197316
 31
0.0
  0
LINE
  5
43D
  8
SIZE
  6
CONTINUOUS
 62
    30
 10
2139.0629469999999
 20
1137.197316
 30
0.0
 11
2129.0629469999999
 21
1137.197316
 31
0.0
  0
CIRCLE
  5
43E
  8
SIZE
  6
CONTINUOUS
 62
    30
 10
2149.0629469999999
 20
1137.197316
 30
0.0
 40
10.0
  0
POINT
  5
43F
  8
DEFPOINTS
  6
CONTINUOUS
 62
     7
 10
2149.0629469999999
 20
1137.197316
 30
0.0
  0
LINE
  5
440
  8
SIZE
  6
CONTINUOUS
 62
    30
 10
2159.0629469999999
 20
1137.197316
 30
0.0
 11
2169.0629469999999
 21
1137.197316
 31
0.0
  0
CIRCLE
  5
441
  8
SIZE
  6
CONTINUOUS
 62
    30
 10
2149.0629469999999
 20
1137.197316
 30
0.0
 40
10.0
  0
LINE
  5
442
  8
SIZE
  6
CONTINUOUS
 62
    30
 10
2459.0629469999999
 20
1137.197316
 30
0.0
 11
2449.0629469999999
 21
1137.197316
 31
0.0
  0
CIRCLE
  5
443
  8
SIZE
  6
CONTINUOUS
 62
    30
 10
2469.0629469999999
 20
1137.197316
 30
0.0
 40
10.0
  0
POINT
  5
444
  8
DEFPOINTS
  6
CONTINUOUS
 62
     7
 10
2469.0629469999999
 20
1137.197316
 30
0.0
  0
LINE
  5
445
  8
SIZE
  6
CONTINUOUS
 62
    30
 10
2479.0629469999999
 20
1137.197316
 30
0.0
 11
2489.0629469999999
 21
1137.197316
 31
0.0
  0
CIRCLE
  5
446
  8
SIZE
  6
CONTINUOUS
 62
    30
 10
2469.0629469999999
 20
1137.197316
 30
0.0
 40
10.0
  0
LINE
  5
447
  8
SIZE
  6
CONTINUOUS
 62
    30
 10
2719.0629469999999
 20
905.78626399999973
 30
0.0
 11
2719.0629469999999
 21
1272.768243
 31
0.0
  0
LINE
  5
448
  8
SIZE
  6
CONTINUOUS
 62
    30
 10
2719.0629469999999
 20
905.78626399999973
 30
0.0
 11
2719.0629469999999
 21
1167.197316
 31
0.0
  0
LINE
  5
449
  8
SIZE
  6
CONTINUOUS
 62
    30
 10
2735.0629469999999
 20
896.48574899999983
 30
0.0
 11
2735.0629469999999
 21
1272.768243
 31
0.0
  0
LINE
  5
44A
  8
SIZE
  6
CONTINUOUS
 62
    30
 10
2719.0629469999999
 20
905.78626399999973
 30
0.0
 11
2719.0629469999999
 21
1272.768243
 31
0.0
  0
LINE
  5
44B
  8
SIZE
  6
CONTINUOUS
 62
    30
 10
2735.0629469999999
 20
901.48574900000006
 30
0.0
 11
2735.0629469999999
 21
1514.648291
 31
0.0
  0
LINE
  5
44C
  8
SIZE
  6
CONTINUOUS
 62
    30
 10
2712.0629469999999
 20
918.48865899999987
 30
0.0
 11
2712.0629469999999
 21
1384.274887
 31
0.0
  0
LINE
  5
44D
  8
SIZE
  6
CONTINUOUS
 62
    30
 10
2712.0629469999999
 20
925.78865900000005
 30
0.0
 11
2712.0629469999999
 21
1384.274887
 31
0.0
  0
LINE
  5
44E
  8
SIZE
  6
CONTINUOUS
 62
    30
 10
2735.0629469999999
 20
901.48574900000006
 30
0.0
 11
2735.0629469999999
 21
1384.274887
 31
0.0
  0
POLYLINE
  5
44F
  8
NOTE
  6
CONTINUOUS
 62
     4
 66
     1
 10
0.0
 20
0.0
 30
0.0
  0
VERTEX
  5
1258
  8
NOTE
  6
CONTINUOUS
 62
     4
 10
2719.0629469999999
 20
751.78626399999985
 30
0.0
  0
VERTEX
  5
1259
  8
NOTE
  6
CONTINUOUS
 62
     4
 10
3072.4496349999999
 20
1002.054793
 30
0.0
  0
SEQEND
  5
125A
  8
NOTE
  6
CONTINUOUS
 62
     4
  0
LINE
  5
453
  8
SIZE
  6
CONTINUOUS
 62
    30
 10
2777.0629469999999
 20
414.78626400000002
 30
0.0
 11
3263.6406929999998
 21
414.78626400000002
 31
0.0
  0
LINE
  5
454
  8
SIZE
  6
CONTINUOUS
 62
    30
 10
2737.0629469999999
 20
554.78626399999985
 30
0.0
 11
3263.6406929999998
 21
554.78626399999985
 31
0.0
  0
LINE
  5
455
  8
SIZE
  6
CONTINUOUS
 62
    30
 10
2722.0611510000008
 20
554.78626399999985
 30
0.0
 11
3263.7002619999998
 21
554.78626399999985
 31
0.0
  0
LINE
  5
456
  8
SIZE
  6
CONTINUOUS
 62
    30
 10
2737.0629469999999
 20
887.78626399999985
 30
0.0
 11
3263.7002619999998
 21
887.78626399999985
 31
0.0
  0
TEXT
  5
457
  8
SIZE
  6
CONTINUOUS
 62
    30
 10
3023.7436969999999
 20
608.78626399999985
 30
0.0
 40
50.0
  1
136
 50
90.0
 41
0.9
 72
     1
 11
3023.7436969999999
 21
661.28626399999985
 31
0.0
  0
LINE
  5
458
  8
SIZE
  6
CONTINUOUS
 62
    30
 10
2757.1393520000001
 20
751.78626399999985
 30
0.0
 11
3071.7436969999999
 21
751.78626399999985
 31
0.0
  0
LINE
  5
459
  8
SIZE
  6
CONTINUOUS
 62
    30
 10
2737.0629469999999
 20
887.78626399999985
 30
0.0
 11
3071.7436969999999
 21
887.78626399999985
 31
0.0
  0
LINE
  5
45A
  8
OUTLINE
  6
CONTINUOUS
 62
     3
 10
2719.0629469999999
 20
887.78626399999985
 30
0.0
 11
2719.0629469999999
 21
554.78626399999985
 31
0.0
  0
LINE
  5
45B
  8
DETAIL
  6
CONTINUOUS
 62
     5
 10
2719.0629469999999
 20
887.78626399999985
 30
0.0
 11
2719.0629469999999
 21
636.57246799999984
 31
0.0
  0
LINE
  5
45C
  8
DETAIL
  6
CONTINUOUS
 62
     5
 10
2687.089054
 20
653.77452800000003
 30
0.0
 11
2687.089054
 21
849.798
 31
0.0
  0
LINE
  5
45D
  8
OUTLINE
  6
CONTINUOUS
 62
     3
 10
2759.0629469999999
 20
414.78626400000002
 30
0.0
 11
2703.1514470000002
 21
414.78626400000002
 31
0.0
  0
LINE
  5
45E
  8
SIZE
  6
CONTINUOUS
 62
    30
 10
2721.1514470000002
 20
461.78626399999962
 30
0.0
 11
2956.9845340000002
 21
461.78626399999962
 31
0.0
  0
LINE
  5
45F
  8
NOTE
  6
CONTINUOUS
 62
     4
 10
2739.0629469999999
 20
415.78626400000002
 30
0.0
 11
2840.3703959999998
 21
415.78626400000002
 31
0.0
  0
LINE
  5
460
  8
NOTE
  6
CONTINUOUS
 62
     4
 10
2739.0629469999999
 20
435.78626399999962
 30
0.0
 11
2840.3703959999998
 21
435.78626399999962
 31
0.0
  0
LINE
  5
461
  8
DETAIL
  6
CONTINUOUS
 62
     5
 10
2719.0629469999999
 20
636.57246799999984
 30
0.0
 11
2719.0629469999999
 21
554.78626399999985
 31
0.0
  0
LINE
  5
462
  8
DETAIL
  6
CONTINUOUS
 62
     5
 10
2704.0611510000008
 20
566.78770099999986
 30
0.0
 11
2704.0611510000008
 21
554.78626399999985
 31
0.0
  0
LINE
  5
463
  8
OUTLINE
  6
CONTINUOUS
 62
     3
 10
2703.1514470000002
 20
414.78626400000002
 30
0.0
 11
2703.1514470000002
 21
461.78626399999962
 31
0.0
  0
POINT
  5
464
  8
DEFPOINTS
  6
CONTINUOUS
 62
     7
 10
2719.0629469999999
 20
554.78626399999985
 30
0.0
  0
POINT
  5
465
  8
DEFPOINTS
  6
CONTINUOUS
 62
     7
 10
2704.0611510000008
 20
554.78626399999985
 30
0.0
  0
POINT
  5
466
  8
DEFPOINTS
  6
CONTINUOUS
 62
     7
 10
2703.1514470000002
 20
461.78626399999962
 30
0.0
  0
POINT
  5
467
  8
DEFPOINTS
  6
CONTINUOUS
 62
     7
 10
2739.0629469999999
 20
415.78626400000002
 30
0.0
  0
POINT
  5
468
  8
DEFPOINTS
  6
CONTINUOUS
 62
     7
 10
2719.0629469999999
 20
554.78626399999985
 30
0.0
  0
POINT
  5
469
  8
DEFPOINTS
  6
CONTINUOUS
 62
     7
 10
2739.0629469999999
 20
415.78626400000002
 30
0.0
  0
POINT
  5
46A
  8
DEFPOINTS
  6
CONTINUOUS
 62
     7
 10
2739.0629469999999
 20
415.78626400000002
 30
0.0
  0
LINE
  5
46B
  8
NOTE
  6
CONTINUOUS
 62
     4
 10
2739.0629469999999
 20
415.78626400000002
 30
0.0
 11
2739.0629469999999
 21
435.78626399999962
 31
0.0
  0
LINE
  5
46C
  8
DETAIL
  6
CONTINUOUS
 62
     5
 10
2703.1514470000002
 20
414.78626400000002
 30
0.0
 11
2703.1514470000002
 21
461.78626399999962
 31
0.0
  0
LINE
  5
46D
  8
DETAIL
  6
CONTINUOUS
 62
     5
 10
2704.0611510000008
 20
566.78770099999986
 30
0.0
 11
2701.0607909999999
 21
569.78805999999975
 31
0.0
  0
ARC
  5
46E
  8
DETAIL
  6
CONTINUOUS
 62
     5
 10
2714.0623479999999
 20
587.19014400000003
 30
0.0
 40
5.0005990000000002
 50
270.0
 51
0.0
  0
ARC
  5
46F
  8
DETAIL
  6
CONTINUOUS
 62
     5
 10
2677.0878560000001
 20
653.77452800000003
 30
0.0
 40
10.001198
 50
270.0
 51
0.0
  0
LINE
  5
470
  8
SIZE
  6
CONTINUOUS
 62
    30
 10
2926.9845340000011
 20
481.78626399999939
 30
0.0
 11
2926.9845340000011
 21
671.63666599999999
 31
0.0
  0
LINE
  5
471
  8
SIZE
  6
CONTINUOUS
 62
    30
 10
2777.0629469999999
 20
414.78626400000002
 30
0.0
 11
2956.9845340000002
 21
414.78626400000002
 31
0.0
  0
LINE
  5
472
  8
SIZE
  6
CONTINUOUS
 62
    30
 10
2777.0629469999999
 20
414.78626400000002
 30
0.0
 11
2956.9845340000002
 21
414.78626400000002
 31
0.0
  0
POINT
  5
473
  8
DEFPOINTS
  6
CONTINUOUS
 62
     7
 10
2759.0629469999999
 20
414.78626400000002
 30
0.0
  0
POINT
  5
474
  8
DEFPOINTS
  6
CONTINUOUS
 62
     7
 10
2759.0629469999999
 20
414.78626400000002
 30
0.0
  0
POINT
  5
475
  8
DEFPOINTS
  6
CONTINUOUS
 62
     7
 10
2759.0629469999999
 20
414.78626400000002
 30
0.0
  0
LINE
  5
476
  8
NOTE
  6
CONTINUOUS
 62
     4
 10
2829.3279550000002
 20
415.78626400000002
 30
0.0
 11
2809.3279550000002
 21
435.78626399999962
 31
0.0
  0
LINE
  5
477
  8
NOTE
  6
CONTINUOUS
 62
     4
 10
2824.3279550000011
 20
415.78626400000002
 30
0.0
 11
2804.3279550000002
 21
435.78626399999962
 31
0.0
  0
LINE
  5
478
  8
NOTE
  6
CONTINUOUS
 62
     4
 10
2819.3279550000002
 20
415.78626400000002
 30
0.0
 11
2799.3279550000011
 21
435.78626399999962
 31
0.0
  0
LINE
  5
479
  8
NOTE
  6
CONTINUOUS
 62
     4
 10
2789.3279550000002
 20
415.78626400000002
 30
0.0
 11
2769.3279550000002
 21
435.78626399999962
 31
0.0
  0
LINE
  5
47A
  8
NOTE
  6
CONTINUOUS
 62
     4
 10
2784.3279550000002
 20
415.78626400000002
 30
0.0
 11
2764.3279550000011
 21
435.78626399999962
 31
0.0
  0
LINE
  5
47B
  8
NOTE
  6
CONTINUOUS
 62
     4
 10
2779.3279550000002
 20
415.78626400000002
 30
0.0
 11
2759.3279550000002
 21
435.78626399999962
 31
0.0
  0
POINT
  5
47C
  8
DEFPOINTS
  6
CONTINUOUS
 62
     7
 10
2926.9845340000011
 20
461.78626399999962
 30
0.0
  0
LINE
  5
47D
  8
SIZE
  6
CONTINUOUS
 62
    30
 10
2926.9845340000011
 20
471.78626399999979
 30
0.0
 11
2926.9845340000011
 21
481.78626399999939
 31
0.0
  0
CIRCLE
  5
47E
  8
SIZE
  6
CONTINUOUS
 62
    30
 10
2926.9845340000011
 20
461.78626399999962
 30
0.0
 40
10.0
  0
LINE
  5
47F
  8
SIZE
  6
CONTINUOUS
 62
    30
 10
2926.9845340000011
 20
414.78626400000002
 30
0.0
 11
2926.9845340000011
 21
461.78626399999962
 31
0.0
  0
LINE
  5
480
  8
SIZE
  6
CONTINUOUS
 62
    30
 10
2926.9845340000011
 20
424.78626399999979
 30
0.0
 11
2926.9845340000011
 21
434.78626399999979
 31
0.0
  0
LINE
  5
481
  8
SIZE
  6
CONTINUOUS
 62
    30
 10
2926.9845340000011
 20
434.78626399999979
 30
0.0
 11
2926.9845340000011
 21
454.78626399999979
 31
0.0
  0
TEXT
  5
482
  8
SIZE
  6
CONTINUOUS
 62
    30
 10
2908.9845340000002
 20
580.7795225714284
 30
0.0
 40
50.0
  1
47
 50
90.0
 41
0.9
 72
     1
 11
2908.9845340000002
 21
617.20809399999985
 31
0.0
  0
CIRCLE
  5
483
  8
FIX
  6
CONTINUOUS
 62
    11
 10
2712.0629469999999
 20
887.78626399999985
 30
0.0
 40
18.598564
  0
LINE
  5
484
  8
NOTE
  6
CONTINUOUS
 62
     4
 10
2712.0629469999999
 20
867.78386899999987
 30
0.0
 11
2712.0629469999999
 21
907.78865900000005
 31
0.0
  0
LINE
  5
485
  8
NOTE
  6
CONTINUOUS
 62
     4
 10
2719.0629469999999
 20
751.78626399999985
 30
0.0
 11
2738.899422
 21
775.684619
 31
0.0
  0
LINE
  5
486
  8
NOTE
  6
CONTINUOUS
 62
     4
 10
2748.1910149999999
 20
762.56460900000002
 30
0.0
 11
2719.0629469999999
 21
751.78626399999985
 31
0.0
  0
LINE
  5
487
  8
NOTE
  6
CONTINUOUS
 62
     4
 10
2719.0629469999999
 20
731.78626399999985
 30
0.0
 11
2719.0629469999999
 21
771.78626399999985
 31
0.0
  0
LINE
  5
488
  8
NOTE
  6
CONTINUOUS
 62
     4
 10
2698.9865420000001
 20
751.78626399999985
 30
0.0
 11
2739.1393520000001
 21
751.78626399999985
 31
0.0
  0
POINT
  5
489
  8
DEFPOINTS
  6
CONTINUOUS
 62
     7
 10
2739.1393520000001
 20
751.78626399999985
 30
0.0
  0
ARC
  5
48A
  8
DETAIL
  6
CONTINUOUS
 62
     5
 10
2677.0878560000001
 20
849.798
 30
0.0
 40
10.001198
 50
0.0
 51
90.0
  0
POINT
  5
48B
  8
DEFPOINTS
  6
CONTINUOUS
 62
     7
 10
2719.0629469999999
 20
887.78626399999985
 30
0.0
  0
POINT
  5
48C
  8
DEFPOINTS
  6
CONTINUOUS
 62
     7
 10
2719.0629469999999
 20
887.78626399999985
 30
0.0
  0
POINT
  5
48D
  8
DEFPOINTS
  6
CONTINUOUS
 62
     7
 10
2719.0629469999999
 20
887.78626399999985
 30
0.0
  0
POINT
  5
48E
  8
DEFPOINTS
  6
CONTINUOUS
 62
     7
 10
2719.0629469999999
 20
887.78626399999985
 30
0.0
  0
POINT
  5
48F
  8
DEFPOINTS
  6
CONTINUOUS
 62
     7
 10
2735.0629469999999
 20
878.48574900000006
 30
0.0
  0
POINT
  5
490
  8
DEFPOINTS
  6
CONTINUOUS
 62
     7
 10
2719.0629469999999
 20
887.78626399999985
 30
0.0
  0
POINT
  5
491
  8
DEFPOINTS
  6
CONTINUOUS
 62
     7
 10
2735.0629469999999
 20
883.48574900000006
 30
0.0
  0
POINT
  5
492
  8
DEFPOINTS
  6
CONTINUOUS
 62
     7
 10
2712.0629469999999
 20
900.48865899999964
 30
0.0
  0
POINT
  5
493
  8
DEFPOINTS
  6
CONTINUOUS
 62
     7
 10
2712.0629469999999
 20
907.78865900000005
 30
0.0
  0
POINT
  5
494
  8
DEFPOINTS
  6
CONTINUOUS
 62
     7
 10
2735.0629469999999
 20
883.48574900000006
 30
0.0
  0
ARC
  5
495
  8
DETAIL
  6
CONTINUOUS
 62
     5
 10
2730.7626719999998
 20
883.48598900000002
 30
0.0
 40
2.0
 50
0.0
 51
90.0
  0
LINE
  5
496
  8
NOTE
  6
CONTINUOUS
 62
     4
 10
2692.0619890000012
 20
887.78626399999985
 30
0.0
 11
2732.063905
 21
887.78626399999985
 31
0.0
  0
LINE
  5
497
  8
DETAIL
  6
CONTINUOUS
 62
     5
 10
2719.0629469999999
 20
885.48598900000002
 30
0.0
 11
2730.7626719999998
 21
885.48598900000002
 31
0.0
  0
LINE
  5
498
  8
DETAIL
  6
CONTINUOUS
 62
     5
 10
2719.0629469999999
 20
887.78626399999985
 30
0.0
 11
2730.7624320000009
 21
887.78626399999985
 31
0.0
  0
LINE
  5
499
  8
DETAIL
  6
CONTINUOUS
 62
     5
 10
2732.7626719999998
 20
875.78482699999984
 30
0.0
 11
2735.0629469999999
 21
875.78482699999984
 31
0.0
  0
LINE
  5
49A
  8
DETAIL
  6
CONTINUOUS
 62
     5
 10
2732.7626719999998
 20
883.48598900000002
 30
0.0
 11
2732.7626719999998
 21
875.78482699999984
 31
0.0
  0
LINE
  5
49B
  8
DETAIL
  6
CONTINUOUS
 62
     5
 10
2735.0629469999999
 20
883.48574900000006
 30
0.0
 11
2735.0629469999999
 21
875.78482699999984
 31
0.0
  0
ARC
  5
49C
  8
DETAIL
  6
CONTINUOUS
 62
     5
 10
2730.7624320000009
 20
883.48574900000006
 30
0.0
 40
4.3005149999999981
 50
0.0
 51
90.0
  0
TEXT
  5
49D
  8
SIZE
  6
CONTINUOUS
 62
    30
 10
3215.7002619999998
 20
663.42912114285696
 30
0.0
 40
50.0
  1
333
 50
90.0
 41
0.9
 72
     1
 11
3215.7002619999998
 21
721.28626399999985
 31
0.0
  0
LINE
  5
49E
  8
SIZE
  6
CONTINUOUS
 62
    30
 10
3233.7002620000012
 20
867.78626399999985
 30
0.0
 11
3233.7002620000012
 21
574.78626399999996
 31
0.0
  0
LINE
  5
49F
  8
SIZE
  6
CONTINUOUS
 62
    30
 10
3041.7436969999999
 20
751.78626399999985
 30
0.0
 11
3041.7436969999999
 21
590.78626399999985
 31
0.0
  0
LINE
  5
4A0
  8
SIZE
  6
CONTINUOUS
 62
    30
 10
3233.7002620000012
 20
564.78626399999985
 30
0.0
 11
3233.7002620000012
 21
574.78626399999996
 31
0.0
  0
POINT
  5
4A1
  8
DEFPOINTS
  6
CONTINUOUS
 62
     7
 10
3233.6406929999998
 20
414.78626400000002
 30
0.0
  0
LINE
  5
4A2
  8
SIZE
  6
CONTINUOUS
 62
    30
 10
3233.6406929999998
 20
424.78626399999979
 30
0.0
 11
3233.6406929999998
 21
434.78626399999979
 31
0.0
  0
LINE
  5
4A3
  8
SIZE
  6
CONTINUOUS
 62
    30
 10
3233.6406929999998
 20
544.78626399999985
 30
0.0
 11
3233.6406929999998
 21
534.78626399999985
 31
0.0
  0
CIRCLE
  5
4A4
  8
SIZE
  6
CONTINUOUS
 62
    30
 10
3233.6406929999998
 20
554.78626399999985
 30
0.0
 40
10.0
  0
LINE
  5
4A5
  8
SIZE
  6
CONTINUOUS
 62
    30
 10
3233.6406929999998
 20
534.78626399999985
 30
0.0
 11
3233.6406929999998
 21
434.78626399999979
 31
0.0
  0
POINT
  5
4A6
  8
DEFPOINTS
  6
CONTINUOUS
 62
     7
 10
3233.7002620000012
 20
554.78626399999985
 30
0.0
  0
CIRCLE
  5
4A7
  8
SIZE
  6
CONTINUOUS
 62
    30
 10
3233.7002620000012
 20
554.78626399999985
 30
0.0
 40
10.0
  0
LINE
  5
4A8
  8
SIZE
  6
CONTINUOUS
 62
    30
 10
3041.7436969999999
 20
877.78626399999985
 30
0.0
 11
3041.7436969999999
 21
867.78626399999985
 31
0.0
  0
POINT
  5
4A9
  8
DEFPOINTS
  6
CONTINUOUS
 62
     7
 10
3041.7436969999999
 20
751.78626399999985
 30
0.0
  0
LINE
  5
4AA
  8
SIZE
  6
CONTINUOUS
 62
    30
 10
3041.7436969999999
 20
761.78626399999985
 30
0.0
 11
3041.7436969999999
 21
771.78626399999985
 31
0.0
  0
CIRCLE
  5
4AB
  8
SIZE
  6
CONTINUOUS
 62
    30
 10
3041.7436969999999
 20
751.78626399999985
 30
0.0
 40
10.0
  0
LINE
  5
4AC
  8
SIZE
  6
CONTINUOUS
 62
    30
 10
3041.7436969999999
 20
867.78626399999985
 30
0.0
 11
3041.7436969999999
 21
771.78626399999985
 31
0.0
  0
CIRCLE
  5
4AD
  8
SIZE
  6
CONTINUOUS
 62
    30
 10
3041.7436969999999
 20
887.78626399999985
 30
0.0
 40
10.0
  0
LINE
  5
4AE
  8
SIZE
  6
CONTINUOUS
 62
    30
 10
3233.7002620000012
 20
877.78626399999985
 30
0.0
 11
3233.7002620000012
 21
867.78626399999985
 31
0.0
  0
CIRCLE
  5
4AF
  8
SIZE
  6
CONTINUOUS
 62
    30
 10
3233.7002620000012
 20
887.78626399999985
 30
0.0
 40
10.0
  0
LINE
  5
4B0
  8
SIZE
  6
CONTINUOUS
 62
    30
 10
2745.0629469999999
 20
1242.768243
 30
0.0
 11
2755.0629469999999
 21
1242.768243
 31
0.0
  0
TEXT
  5
4B1
  8
SIZE
  6
CONTINUOUS
 62
    30
 10
2536.2058041428568
 20
1155.197316
 30
0.0
 40
50.0
  1
250
 41
0.9
 72
     1
 11
2594.0629469999999
 21
1155.197316
 31
0.0
  0
LINE
  5
4B2
  8
SIZE
  6
CONTINUOUS
 62
    30
 10
2709.0629469999999
 20
1137.197316
 30
0.0
 11
2699.0629469999999
 21
1137.197316
 31
0.0
  0
CIRCLE
  5
4B3
  8
SIZE
  6
CONTINUOUS
 62
    30
 10
2719.0629469999999
 20
1137.197316
 30
0.0
 40
10.0
  0
LINE
  5
4B4
  8
SIZE
  6
CONTINUOUS
 62
    30
 10
2709.0629469999999
 20
1242.768243
 30
0.0
 11
2699.0629469999999
 21
1242.768243
 31
0.0
  0
CIRCLE
  5
4B5
  8
SIZE
  6
CONTINUOUS
 62
    30
 10
2719.0629469999999
 20
1242.768243
 30
0.0
 40
10.0
  0
POINT
  5
4B6
  8
DEFPOINTS
  6
CONTINUOUS
 62
     7
 10
2735.0629469999999
 20
1242.768243
 30
0.0
  0
CIRCLE
  5
4B7
  8
SIZE
  6
CONTINUOUS
 62
    30
 10
2735.0629469999999
 20
1242.768243
 30
0.0
 40
10.0
  0
LINE
  5
4B8
  8
SIZE
  6
CONTINUOUS
 62
    30
 10
2709.0629469999999
 20
1242.768243
 30
0.0
 11
2699.0629469999999
 21
1242.768243
 31
0.0
  0
CIRCLE
  5
4B9
  8
SIZE
  6
CONTINUOUS
 62
    30
 10
2719.0629469999999
 20
1242.768243
 30
0.0
 40
10.0
  0
LINE
  5
4BA
  8
SIZE
  6
CONTINUOUS
 62
    30
 10
2719.0629469999999
 20
1242.768243
 30
0.0
 11
2735.0629469999999
 21
1242.768243
 31
0.0
  0
LINE
  5
4BB
  8
SIZE
  6
CONTINUOUS
 62
    30
 10
2699.0629469999999
 20
1242.768243
 30
0.0
 11
2679.0629469999999
 21
1242.768243
 31
0.0
  0
LINE
  5
4BC
  8
SIZE
  6
CONTINUOUS
 62
    30
 10
2755.0629469999999
 20
1242.768243
 30
0.0
 11
2873.2058040000002
 21
1242.768243
 31
0.0
  0
TEXT
  5
4BD
  8
SIZE
  6
CONTINUOUS
 62
    30
 10
2793.062947428572
 20
1260.768243
 30
0.0
 40
50.0
  1
16
 41
0.9
 72
     1
 11
2824.134376
 21
1260.768243
 31
0.0
  0
LINE
  5
4BE
  8
SIZE
  6
CONTINUOUS
 62
    30
 10
2745.0629469999999
 20
1354.274887
 30
0.0
 11
2755.0629469999999
 21
1354.274887
 31
0.0
  0
CIRCLE
  5
4BF
  8
SIZE
  6
CONTINUOUS
 62
    30
 10
2735.0629469999999
 20
1484.648291
 30
0.0
 40
10.0
  0
LINE
  5
4C0
  8
SIZE
  6
CONTINUOUS
 62
    30
 10
2702.0629469999999
 20
1354.274887
 30
0.0
 11
2692.0629469999999
 21
1354.274887
 31
0.0
  0
CIRCLE
  5
4C1
  8
SIZE
  6
CONTINUOUS
 62
    30
 10
2712.0629469999999
 20
1354.274887
 30
0.0
 40
10.0
  0
POINT
  5
4C2
  8
DEFPOINTS
  6
CONTINUOUS
 62
     7
 10
2712.0629469999999
 20
1354.274887
 30
0.0
  0
CIRCLE
  5
4C3
  8
SIZE
  6
CONTINUOUS
 62
    30
 10
2735.0629469999999
 20
1354.274887
 30
0.0
 40
10.0
  0
LINE
  5
4C4
  8
SIZE
  6
CONTINUOUS
 62
    30
 10
2702.0629469999999
 20
1354.274887
 30
0.0
 11
2692.0629469999999
 21
1354.274887
 31
0.0
  0
CIRCLE
  5
4C5
  8
SIZE
  6
CONTINUOUS
 62
    30
 10
2712.0629469999999
 20
1354.274887
 30
0.0
 40
10.0
  0
LINE
  5
4C6
  8
SIZE
  6
CONTINUOUS
 62
    30
 10
2712.0629469999999
 20
1354.274887
 30
0.0
 11
2735.0629469999999
 21
1354.274887
 31
0.0
  0
LINE
  5
4C7
  8
SIZE
  6
CONTINUOUS
 62
    30
 10
2692.0629469999999
 20
1354.274887
 30
0.0
 11
2672.0629469999999
 21
1354.274887
 31
0.0
  0
POINT
  5
4C8
  8
DEFPOINTS
  6
CONTINUOUS
 62
     7
 10
2735.0629469999999
 20
1484.648291
 30
0.0
  0
LINE
  5
4C9
  8
SIZE
  6
CONTINUOUS
 62
    30
 10
2725.0629469999999
 20
1484.648291
 30
0.0
 11
2715.0629469999999
 21
1484.648291
 31
0.0
  0
LINE
  5
4CA
  8
SIZE
  6
CONTINUOUS
 62
    30
 10
2755.0629469999999
 20
1354.274887
 30
0.0
 11
2883.9200900000001
 21
1354.274887
 31
0.0
  0
TEXT
  5
4CB
  8
SIZE
  6
CONTINUOUS
 62
    30
 10
2793.0629465714278
 20
1372.274887
 30
0.0
 40
50.0
  1
23
 41
0.9
 72
     1
 11
2829.4915179999998
 21
1372.274887
 31
0.0
  0
TEXT
  5
4CC
  8
NOTE
  6
CONTINUOUS
 62
     4
 10
3088.0532149999999
 20
1090.374624
 30
0.0
 40
60.0
  1
外気取入口
 50
0.000003
 41
0.7
  7
STANDARD1
  0
ENDBLK
  5
4CE
  8
0
 62
     7
  0
BLOCK
  8
0
 62
     7
  2
*D4
 70
     1
 10
0.0
 20
0.0
 30
0.0
  3
*D4
  1

  0
LINE
  5
D35
  8
SYMBOLLINE
  6
CONTINUOUS
 62
     0
 10
-828.66833499999973
 20
326.0
 30
0.0
 11
-1144.761093632678
 21
326.00000000000011
 31
0.0
  0
LINE
  5
D36
  8
SYMBOLLINE
  6
CONTINUOUS
 62
     0
 10
-775.0
 20
140.0
 30
0.0
 11
-1144.761093632678
 21
140.00000000000011
 31
0.0
  0
LINE
  5
D37
  8
SYMBOLLINE
  6
CONTINUOUS
 62
     0
 10
-1126.761093632678
 20
306.0
 30
0.0
 11
-1126.761093632678
 21
160.00000000000011
 31
0.0
  0
LINE
  5
D38
  8
SYMBOLLINE
  6
CONTINUOUS
 62
     0
 10
-1126.761093632678
 20
140.00000000000011
 30
0.0
 11
-1126.761093632678
 21
-1.68620754802726
 31
0.0
  0
INSERT
  5
D39
  8
SYMBOLLINE
  6
CONTINUOUS
 62
     0
  2
_ORIGIN
 10
-1126.761093632678
 20
326.00000000000011
 30
0.0
 41
20.0
 42
20.0
 43
20.0
 50
90.0
  0
INSERT
  5
D3A
  8
SYMBOLLINE
  6
CONTINUOUS
 62
     0
  2
_ORIGIN
 10
-1126.761093632678
 20
140.00000000000011
 30
0.0
 41
20.0
 42
20.0
 43
20.0
 50
270.0
  0
INSERT
  5
D3B
  8
SYMBOLLINE
  6
CONTINUOUS
 62
     7
  2
*U5
 10
0.0
 20
0.0
 30
0.0
  0
POINT
  5
D3C
  8
DEFPOINTS
  6
CONTINUOUS
 62
     0
 10
-808.66833499999973
 20
326.0
 30
0.0
  0
POINT
  5
D3D
  8
DEFPOINTS
  6
CONTINUOUS
 62
     0
 10
-755.0
 20
140.0
 30
0.0
  0
POINT
  5
D3E
  8
DEFPOINTS
  6
CONTINUOUS
 62
     0
 10
-1126.761093632678
 20
140.00000000000011
 30
0.0
  0
ENDBLK
  5
D21
  8
0
 62
     7
  0
BLOCK
  8
0
 62
     7
  2
*U5
 70
     1
 10
0.0
 20
0.0
 30
0.0
  3
*U5
  1

  0
TEXT
  5
E35
  8
SYMBOLLINE
  6
CONTINUOUS
 62
     0
 10
-1126.8510936326779
 20
-1.596207548027438
 30
0.0
 40
55.0
  1
186
 50
90.0
 41
0.9
  0
ENDBLK
  5
E37
  8
0
 62
     7
  0
BLOCK
  8
0
  2
_DOTBLANK
 70
     0
 10
0.0
 20
0.0
 30
0.0
  3
_DOTBLANK
  1

  0
CIRCLE
  5
FE8
  8
0
  6
CONTINUOUS
 62
     7
 10
0.0
 20
0.0
 30
0.0
 40
0.5
  0
LINE
  5
FE9
  8
0
  6
CONTINUOUS
 62
     7
 10
-0.5
 20
0.0
 30
0.0
 11
-1.0
 21
0.0
 31
0.0
  0
ENDBLK
  5
FEA
  8
0
  0
BLOCK
  8
0
 62
     7
  2
*D17
 70
     1
 10
0.0
 20
0.0
 30
0.0
  3
*D17
  1

  0
LINE
  5
11B0
  8
SIZE
  6
CONTINUOUS
 62
     0
 10
720.0
 20
462.00000000000489
 30
0.0
 11
720.0
 21
604.75711829334341
 31
0.0
  0
LINE
  5
11B1
  8
SIZE
  6
CONTINUOUS
 62
     0
 10
-720.0
 20
462.00000000000489
 30
0.0
 11
-720.0
 21
604.75711829334341
 31
0.0
  0
LINE
  5
11B2
  8
SIZE
  6
CONTINUOUS
 62
     0
 10
700.0
 20
586.75711829334341
 30
0.0
 11
-700.0
 21
586.75711829334341
 31
0.0
  0
INSERT
  5
11B3
  8
SIZE
  6
CONTINUOUS
 62
     0
  2
_ORIGIN
 10
720.0
 20
586.75711829334341
 30
0.0
 41
20.0
 42
20.0
 43
20.0
  0
INSERT
  5
11B4
  8
SIZE
  6
CONTINUOUS
 62
     0
  2
_ORIGIN
 10
-720.0
 20
586.75711829334341
 30
0.0
 41
20.0
 42
20.0
 43
20.0
 50
180.0
  0
INSERT
  5
11B5
  8
SYMBOLLINE
  6
CONTINUOUS
 62
     7
  2
*U19
 10
0.0
 20
0.0
 30
0.0
  0
POINT
  5
11B6
  8
DEFPOINTS
  6
CONTINUOUS
 62
     0
 10
720.0
 20
442.000000000005
 30
0.0
  0
POINT
  5
11B7
  8
DEFPOINTS
  6
CONTINUOUS
 62
     0
 10
-720.0
 20
442.00000000000489
 30
0.0
  0
POINT
  5
11B8
  8
DEFPOINTS
  6
CONTINUOUS
 62
     0
 10
-720.0
 20
586.75711829334341
 30
0.0
  0
ENDBLK
  5
1197
  8
0
 62
     7
  0
BLOCK
  8
0
 62
     7
  2
*U19
 70
     1
 10
0.0
 20
0.0
 30
0.0
  3
*U19
  1

  0
TEXT
  5
126A
  8
SIZE
  6
CONTINUOUS
 62
     0
 10
-82.500000000000014
 20
586.84711829334344
 30
0.0
 40
55.0
  1
1440
 41
0.9
  0
ENDBLK
  5
126C
  8
0
 62
     7
  0
ENDSEC
  0
SECTION
  2
ENTITIES
  0
TEXT
  5
4D0
  8
SIZE
  6
CONTINUOUS
 62
    30
 10
1463.3493209999999
 20
-310.42382771428572
 30
0.0
 40
55.0
  1
50～65
 50
90.0
 41
0.9
 72
     1
 11
1463.3493209999999
 21
-193.50954200000001
 31
0.0
  0
LINE
  5
4EA
  8
DETAIL
  6
CONTINUOUS
 62
     5
 10
795.0
 20
0.0
 30
0.0
 11
-795.0
 21
0.0
 31
0.0
  0
LINE
  5
4EB
  8
OUTLINE
  6
CONTINUOUS
 62
     3
 10
739.08849999999984
 20
47.0
 30
0.0
 11
-739.08849999999984
 21
47.0
 31
0.0
  0
LINE
  5
4EC
  8
OUTLINE
  6
CONTINUOUS
 62
     3
 10
763.81678299999999
 20
-8.0
 30
0.0
 11
-763.81678299999999
 21
-8.0
 31
0.0
  0
LINE
  5
4ED
  8
OUTLINE
  6
CONTINUOUS
 62
     3
 10
-755.0
 20
140.0
 30
0.0
 11
755.0
 21
140.0
 31
0.0
  0
LINE
  5
4EE
  8
OUTLINE
  6
CONTINUOUS
 62
     3
 10
-755.0
 20
475.0
 30
0.0
 11
755.0
 21
475.0
 31
0.0
  0
LINE
  5
4F1
  8
SIZE
  6
CONTINUOUS
 62
    30
 10
735.0
 20
829.98197900000002
 30
0.0
 11
-735.0
 21
829.98197900000002
 31
0.0
  0
LINE
  5
4F4
  8
SIZE
  6
CONTINUOUS
 62
    30
 10
-751.0
 20
1071.8620269999999
 30
0.0
 11
751.0
 21
1071.8620269999999
 31
0.0
  0
LINE
  5
4F5
  8
SIZE
  6
CONTINUOUS
 62
    30
 10
728.0
 20
941.48862299999985
 30
0.0
 11
-728.0
 21
941.48862299999985
 31
0.0
  0
LINE
  5
4F6
  8
SIZE
  6
CONTINUOUS
 62
    30
 10
755.0
 20
-239.59805700000001
 30
0.0
 11
-755.0
 21
-239.59805700000001
 31
0.0
  0
LINE
  5
4F7
  8
SIZE
  6
CONTINUOUS
 62
    30
 10
-775.0
 20
-337.28944999999999
 30
0.0
 11
775.0
 21
-337.28944999999999
 31
0.0
  0
LINE
  5
4F8
  8
DETAIL
  6
CONTINUOUS
 62
     5
 10
-766.69948499999998
 20
475.0
 30
0.0
 11
766.69948499999998
 21
475.0
 31
0.0
  0
LINE
  5
4F9
  8
DETAIL
  6
CONTINUOUS
 62
     5
 10
-736.99784399999965
 20
155.00179600000001
 30
0.0
 11
736.99784399999965
 21
155.00179600000001
 31
0.0
  0
LINE
  5
4FA
  8
DETAIL
  6
CONTINUOUS
 62
     5
 10
-755.0
 20
140.0
 30
0.0
 11
755.0
 21
140.0
 31
0.0
  0
LINE
  5
4FC
  8
DETAIL
  6
CONTINUOUS
 62
     5
 10
748.0
 20
169.40328099999991
 30
0.0
 11
-748.0
 21
169.40328099999999
 31
0.0
  0
LINE
  5
4FE
  8
DETAIL
  6
CONTINUOUS
 62
     5
 10
763.81678299999999
 20
-8.0
 30
0.0
 11
-763.81678299999999
 21
-8.0
 31
0.0
  0
LINE
  5
4FF
  8
DETAIL
  6
CONTINUOUS
 62
     5
 10
739.08849999999984
 20
47.0
 30
0.0
 11
-739.08849999999984
 21
47.0
 31
0.0
  0
LINE
  5
504
  8
OUTLINE
  6
CONTINUOUS
 62
     3
 10
-795.0
 20
-4.0069879999999971
 30
0.0
 11
-795.0
 21
0.0
 31
0.0
  0
LINE
  5
505
  8
SIZE
  6
CONTINUOUS
 62
    30
 10
-755.0
 20
122.0
 30
0.0
 11
-755.0
 21
-188.66115300000001
 31
0.0
  0
LINE
  5
506
  8
DETAIL
  6
CONTINUOUS
 62
     5
 10
-795.0
 20
-4.0069879999999971
 30
0.0
 11
-795.0
 21
0.0
 31
0.0
  0
ARC
  5
507
  8
OUTLINE
  6
CONTINUOUS
 62
     3
 10
-764.29632300000003
 20
112.013413
 30
0.0
 40
120.014371
 50
255.17703
 51
270.22893699999997
  0
CIRCLE
  5
508
  8
SIZE
  6
CONTINUOUS
 62
    30
 10
-775.0
 20
-158.66115300000001
 30
0.0
 40
10.0
  0
CIRCLE
  5
509
  8
SIZE
  6
CONTINUOUS
 62
    30
 10
-775.0
 20
-239.59805700000001
 30
0.0
 40
10.0
  0
LINE
  5
50A
  8
SIZE
  6
CONTINUOUS
 62
    30
 10
-785.0
 20
-337.28944999999999
 30
0.0
 11
-775.0
 21
-337.28944999999999
 31
0.0
  0
CIRCLE
  5
50B
  8
SIZE
  6
CONTINUOUS
 62
    30
 10
-775.0
 20
-239.59805700000001
 30
0.0
 40
10.0
  0
LINE
  5
50C
  8
SIZE
  6
CONTINUOUS
 62
    30
 10
-775.0
 20
-239.59805700000001
 30
0.0
 11
-795.0
 21
-239.59805700000001
 31
0.0
  0
ARC
  5
50D
  8
DETAIL
  6
CONTINUOUS
 62
     5
 10
-764.29632300000003
 20
112.013413
 30
0.0
 40
120.014371
 50
255.17703
 51
270.22893699999997
  0
LINE
  5
50E
  8
SIZE
  6
CONTINUOUS
 62
    30
 10
-795.0
 20
-22.006988
 30
0.0
 11
-795.0
 21
-367.28944999999999
 31
0.0
  0
CIRCLE
  5
50F
  8
SIZE
  6
CONTINUOUS
 62
    30
 10
-795.0
 20
-337.28944999999999
 30
0.0
 40
10.0
  0
LINE
  5
510
  8
SIZE
  6
CONTINUOUS
 62
    30
 10
-795.0
 20
-22.006988
 30
0.0
 11
-795.0
 21
-269.59805699999998
 31
0.0
  0
LINE
  5
511
  8
SIZE
  6
CONTINUOUS
 62
    30
 10
-795.0
 20
-158.66115300000001
 30
0.0
 11
-923.85714299999995
 21
-158.66115300000001
 31
0.0
  0
TEXT
  5
512
  8
SIZE
  6
CONTINUOUS
 62
    30
 10
-925.85714242857148
 20
-221.59805700000001
 30
0.0
 40
50.0
  1
20
 41
0.9
 72
     1
 11
-889.42857100000003
 21
-221.59805700000001
 31
0.0
  0
LINE
  5
513
  8
SIZE
  6
CONTINUOUS
 62
    30
 10
-815.0
 20
-239.59805700000001
 30
0.0
 11
-943.85714299999995
 21
-239.59805700000001
 31
0.0
  0
LINE
  5
514
  8
SIZE
  6
CONTINUOUS
 62
    30
 10
-785.0
 20
-158.66115300000001
 30
0.0
 11
-795.0
 21
-158.66115300000001
 31
0.0
  0
POINT
  5
515
  8
DEFPOINTS
  6
CONTINUOUS
 62
     7
 10
-795.0
 20
-239.59805700000001
 30
0.0
  0
LINE
  5
516
  8
SIZE
  6
CONTINUOUS
 62
    30
 10
-805.0
 20
-239.59805700000001
 30
0.0
 11
-815.0
 21
-239.59805700000001
 31
0.0
  0
CIRCLE
  5
517
  8
SIZE
  6
CONTINUOUS
 62
    30
 10
-795.0
 20
-239.59805700000001
 30
0.0
 40
10.0
  0
TEXT
  5
518
  8
SIZE
  6
CONTINUOUS
 62
    30
 10
-905.85714242857136
 20
-140.66115300000001
 30
0.0
 40
50.0
  1
20
 41
0.9
 72
     1
 11
-869.42857100000003
 21
-140.66115300000001
 31
0.0
  0
POINT
  5
519
  8
DEFPOINTS
  6
CONTINUOUS
 62
     7
 10
-795.0
 20
-4.0069879999999971
 30
0.0
  0
POINT
  5
51A
  8
DEFPOINTS
  6
CONTINUOUS
 62
     7
 10
-795.0
 20
-4.0069879999999971
 30
0.0
  0
CIRCLE
  5
51B
  8
SIZE
  6
CONTINUOUS
 62
    30
 10
-755.0
 20
-158.66115300000001
 30
0.0
 40
10.0
  0
LINE
  5
51C
  8
SIZE
  6
CONTINUOUS
 62
    30
 10
-775.0
 20
-17.0
 30
0.0
 11
-775.0
 21
-188.66115300000001
 31
0.0
  0
LINE
  5
51D
  8
SIZE
  6
CONTINUOUS
 62
    30
 10
-775.0
 20
-17.0
 30
0.0
 11
-775.0
 21
-269.59805699999998
 31
0.0
  0
LINE
  5
51E
  8
SIZE
  6
CONTINUOUS
 62
    30
 10
-775.0
 20
-17.0
 30
0.0
 11
-775.0
 21
-269.59805699999998
 31
0.0
  0
POINT
  5
51F
  8
DEFPOINTS
  6
CONTINUOUS
 62
     7
 10
-775.0
 20
-158.66115300000001
 30
0.0
  0
LINE
  5
520
  8
SIZE
  6
CONTINUOUS
 62
    30
 10
-745.0
 20
-158.66115300000001
 30
0.0
 11
-735.0
 21
-158.66115300000001
 31
0.0
  0
LINE
  5
521
  8
SIZE
  6
CONTINUOUS
 62
    30
 10
-755.0
 20
-158.66115300000001
 30
0.0
 11
-775.0
 21
-158.66115300000001
 31
0.0
  0
LINE
  5
522
  8
SIZE
  6
CONTINUOUS
 62
    30
 10
-735.0
 20
-158.66115300000001
 30
0.0
 11
-715.0
 21
-158.66115300000001
 31
0.0
  0
POINT
  5
523
  8
DEFPOINTS
  6
CONTINUOUS
 62
     7
 10
-775.0
 20
-239.59805700000001
 30
0.0
  0
LINE
  5
524
  8
SIZE
  6
CONTINUOUS
 62
    30
 10
-765.0
 20
-239.59805700000001
 30
0.0
 11
-755.0
 21
-239.59805700000001
 31
0.0
  0
LINE
  5
525
  8
SIZE
  6
CONTINUOUS
 62
    30
 10
-765.0
 20
-239.59805700000001
 30
0.0
 11
-755.0
 21
-239.59805700000001
 31
0.0
  0
LINE
  5
526
  8
SIZE
  6
CONTINUOUS
 62
    30
 10
-755.0
 20
-239.59805700000001
 30
0.0
 11
-735.0
 21
-239.59805700000001
 31
0.0
  0
LINE
  5
527
  8
SIZE
  6
CONTINUOUS
 62
    30
 10
-773.0
 20
475.0
 30
0.0
 11
-1470.0581649999999
 21
475.0
 31
0.0
  0
LINE
  5
528
  8
SIZE
  6
CONTINUOUS
 62
    30
 10
-778.5
 20
170.0
 30
0.0
 11
-1470.0581649999999
 21
170.0
 31
0.0
  0
TEXT
  5
529
  8
NOTE
  6
CONTINUOUS
 62
     4
 10
-1487.304157182444
 20
-106.5144146944922
 30
0.0
 40
60.0
  1
D2（自然排水口）
 50
0.000003
 41
0.7
  7
STANDARD1
  0
LINE
  5
52A
  8
NOTE
  6
CONTINUOUS
 62
     4
 10
-1068.5263511824451
 20
-122.34094469449219
 30
0.0
 11
-1508.9794291824451
 21
-122.34094469449219
 31
0.0
  0
TEXT
  5
52B
  8
NOTE
  6
CONTINUOUS
 62
     4
 10
-1460.9482969999999
 20
543.52092999999991
 30
0.0
 40
60.0
  1
RG %%C15.88
 50
0.000003
 41
0.7
  7
STANDARD1
  0
LINE
  5
52C
  8
NOTE
  6
CONTINUOUS
 62
     4
 10
-1100.6744550000001
 20
532.75190699999996
 30
0.0
 11
-1474.755318
 21
532.75190699999996
 31
0.0
  0
TEXT
  5
52D
  8
NOTE
  6
CONTINUOUS
 62
     4
 10
-1430.98242
 20
663.41432599999985
 30
0.0
 40
60.0
  1
RL %%C9.52
 50
0.000003
 41
0.7
  7
STANDARD1
  0
LINE
  5
52E
  8
NOTE
  6
CONTINUOUS
 62
     4
 10
-1101.850054
 20
645.77491799999984
 30
0.0
 11
-1439.961104
 21
645.77491799999984
 31
0.0
  0
TEXT
  5
52F
  8
NOTE
  6
CONTINUOUS
 62
     4
 10
-1424.12646
 20
801.28238099999965
 30
0.0
 40
60.0
  1
D1 VP-25
 50
0.000003
 41
0.7
  7
STANDARD1
  0
LINE
  5
530
  8
NOTE
  6
CONTINUOUS
 62
     4
 10
-1103.147894
 20
785.45585000000005
 30
0.0
 11
-1445.8017319999999
 21
785.45585000000005
 31
0.0
  0
LINE
  5
531
  8
SIZE
  6
CONTINUOUS
 62
    30
 10
-846.66133499999989
 20
241.0
 30
0.0
 11
-1381.806705
 21
241.0
 31
0.0
  0
LINE
  5
532
  8
SIZE
  6
CONTINUOUS
 62
    30
 10
-833.00208899999984
 20
269.0
 30
0.0
 11
-1381.806705
 21
269.0
 31
0.0
  0
LINE
  5
533
  8
SIZE
  6
CONTINUOUS
 62
    30
 10
-833.00208899999984
 20
269.0
 30
0.0
 11
-1381.806705
 21
269.0
 31
0.0
  0
LINE
  5
534
  8
SIZE
  6
CONTINUOUS
 62
    30
 10
-773.0
 20
475.0
 30
0.0
 11
-1381.806705
 21
475.0
 31
0.0
  0
TEXT
  5
538
  8
SIZE
  6
CONTINUOUS
 62
    30
 10
-1458.0581649999999
 20
264.64285714285722
 30
0.0
 40
50.0
  1
305
 50
90.0
 41
0.9
 72
     1
 11
-1458.0581649999999
 21
322.5
 31
0.0
  0
LINE
  5
539
  8
SIZE
  6
CONTINUOUS
 62
    30
 10
-1440.0581649999999
 20
190.0
 30
0.0
 11
-1440.0581649999999
 21
455.0
 31
0.0
  0
LINE
  5
53A
  8
SIZE
  6
CONTINUOUS
 62
    30
 10
-1351.806705
 20
289.0
 30
0.0
 11
-1351.806705
 21
309.0
 31
0.0
  0
LINE
  5
53B
  8
SIZE
  6
CONTINUOUS
 62
    30
 10
-1351.806705
 20
455.0
 30
0.0
 11
-1351.806705
 21
289.0
 31
0.0
  0
CIRCLE
  5
53C
  8
SIZE
  6
CONTINUOUS
 62
    30
 10
-1440.0581649999999
 20
170.0
 30
0.0
 40
10.0
  0
LINE
  5
53D
  8
SIZE
  6
CONTINUOUS
 62
    30
 10
-1351.806705
 20
221.0
 30
0.0
 11
-1351.806705
 21
34.76407900000001
 31
0.0
  0
TEXT
  5
53E
  8
SIZE
  6
CONTINUOUS
 62
    30
 10
-1369.806705
 20
52.76407957142856
 30
0.0
 40
50.0
  1
28
 50
90.0
 41
0.9
 72
     1
 11
-1369.806705
 21
89.192650999999984
 31
0.0
  0
LINE
  5
53F
  8
SIZE
  6
CONTINUOUS
 62
    30
 10
-1440.0581649999999
 20
180.0
 30
0.0
 11
-1440.0581649999999
 21
190.0
 31
0.0
  0
POINT
  5
540
  8
DEFPOINTS
  6
CONTINUOUS
 62
     7
 10
-1351.806705
 20
241.0
 30
0.0
  0
LINE
  5
541
  8
SIZE
  6
CONTINUOUS
 62
    30
 10
-1351.806705
 20
231.0
 30
0.0
 11
-1351.806705
 21
221.0
 31
0.0
  0
CIRCLE
  5
542
  8
SIZE
  6
CONTINUOUS
 62
    30
 10
-1351.806705
 20
241.0
 30
0.0
 40
10.0
  0
LINE
  5
543
  8
SIZE
  6
CONTINUOUS
 62
    30
 10
-1351.806705
 20
279.0
 30
0.0
 11
-1351.806705
 21
289.0
 31
0.0
  0
CIRCLE
  5
544
  8
SIZE
  6
CONTINUOUS
 62
    30
 10
-1351.806705
 20
269.0
 30
0.0
 40
10.0
  0
LINE
  5
545
  8
SIZE
  6
CONTINUOUS
 62
    30
 10
-1351.806705
 20
269.0
 30
0.0
 11
-1351.806705
 21
241.0
 31
0.0
  0
POINT
  5
546
  8
DEFPOINTS
  6
CONTINUOUS
 62
     7
 10
-1351.806705
 20
269.0
 30
0.0
  0
LINE
  5
547
  8
SIZE
  6
CONTINUOUS
 62
    30
 10
-1351.806705
 20
279.0
 30
0.0
 11
-1351.806705
 21
289.0
 31
0.0
  0
CIRCLE
  5
548
  8
SIZE
  6
CONTINUOUS
 62
    30
 10
-1351.806705
 20
269.0
 30
0.0
 40
10.0
  0
CIRCLE
  5
549
  8
SIZE
  6
CONTINUOUS
 62
    30
 10
-1440.0581649999999
 20
475.0
 30
0.0
 40
10.0
  0
LINE
  5
54A
  8
SIZE
  6
CONTINUOUS
 62
    30
 10
-1440.0581649999999
 20
465.0
 30
0.0
 11
-1440.0581649999999
 21
455.0
 31
0.0
  0
LINE
  5
54B
  8
SIZE
  6
CONTINUOUS
 62
    30
 10
-1351.806705
 20
465.0
 30
0.0
 11
-1351.806705
 21
455.0
 31
0.0
  0
TEXT
  5
54D
  8
SIZE
  6
CONTINUOUS
 62
    30
 10
-1369.806705
 20
315.21428571428572
 30
0.0
 40
50.0
  1
206
 50
90.0
 41
0.9
 72
     1
 11
-1369.806705
 21
372.0
 31
0.0
  0
POINT
  5
553
  8
DEFPOINTS
  6
CONTINUOUS
 62
     7
 10
-1440.0581649999999
 20
475.0
 30
0.0
  0
CIRCLE
  5
554
  8
SIZE
  6
CONTINUOUS
 62
    30
 10
-1351.806705
 20
475.0
 30
0.0
 40
10.0
  0
LINE
  5
55E
  8
SIZE
  6
CONTINUOUS
 62
    30
 10
-755.0
 20
493.0
 30
0.0
 11
-755.0
 21
767.93663599999934
 31
0.0
  0
LINE
  5
55F
  8
SIZE
  6
CONTINUOUS
 62
    30
 10
-807.0
 20
266.94
 30
0.0
 11
-807.0
 21
767.93663599999934
 31
0.0
  0
LINE
  5
560
  8
SIZE
  6
CONTINUOUS
 62
    30
 10
-755.0
 20
493.0
 30
0.0
 11
-755.0
 21
678.96609599999988
 31
0.0
  0
LINE
  5
561
  8
SIZE
  6
CONTINUOUS
 62
    30
 10
-797.0
 20
291.75999999999999
 30
0.0
 11
-797.0
 21
678.96609599999988
 31
0.0
  0
TEXT
  5
562
  8
SIZE
  6
CONTINUOUS
 62
    30
 10
-922.0
 20
579.50516600000003
 30
0.0
 40
50.0
  1
34
 41
0.9
 72
     1
 11
-884.5
 21
579.50516600000003
 31
0.0
  0
LINE
  5
563
  8
SIZE
  6
CONTINUOUS
 62
    30
 10
-771.0
 20
483.69948499999992
 30
0.0
 11
-771.0
 21
859.98197899999957
 31
0.0
  0
LINE
  5
564
  8
SIZE
  6
CONTINUOUS
 62
    30
 10
-755.0
 20
493.0
 30
0.0
 11
-755.0
 21
859.98197899999957
 31
0.0
  0
LINE
  5
565
  8
SIZE
  6
CONTINUOUS
 62
    30
 10
-755.0
 20
493.0
 30
0.0
 11
-755.0
 21
859.98197899999957
 31
0.0
  0
LINE
  5
567
  8
SIZE
  6
CONTINUOUS
 62
    30
 10
-771.0
 20
493.69948499999992
 30
0.0
 11
-771.0
 21
1101.8620269999999
 31
0.0
  0
LINE
  5
568
  8
SIZE
  6
CONTINUOUS
 62
    30
 10
-771.0
 20
488.69948499999992
 30
0.0
 11
-771.0
 21
971.48862299999985
 31
0.0
  0
LINE
  5
569
  8
SIZE
  6
CONTINUOUS
 62
    30
 10
-748.0
 20
518.00239499999986
 30
0.0
 11
-748.0
 21
971.48862299999985
 31
0.0
  0
LINE
  5
56A
  8
SIZE
  6
CONTINUOUS
 62
    30
 10
-748.0
 20
513.00239499999986
 30
0.0
 11
-748.0
 21
971.48862299999985
 31
0.0
  0
LINE
  5
56B
  8
NOTE
  6
CONTINUOUS
 62
     4
 10
-783.20912300000032
 20
157.005291
 30
0.0
 11
-755.0
 21
170.0
 31
0.0
  0
LINE
  5
570
  8
OUTLINE
  6
CONTINUOUS
 62
     3
 10
795.0
 20
0.0
 30
0.0
 11
-795.0
 21
0.0
 31
0.0
  0
LINE
  5
571
  8
SIZE
  6
CONTINUOUS
 62
    30
 10
-755.0
 20
561.50516600000003
 30
0.0
 11
-789.0
 21
561.50516600000003
 31
0.0
  0
LINE
  5
572
  8
NOTE
  6
CONTINUOUS
 62
     4
 10
-775.0
 20
1.0
 30
0.0
 11
-876.30744900000013
 21
1.0
 31
0.0
  0
LINE
  5
573
  8
NOTE
  6
CONTINUOUS
 62
     4
 10
-775.0
 20
21.0
 30
0.0
 11
-876.30744900000013
 21
21.0
 31
0.0
  0
LINE
  5
578
  8
DETAIL
  6
CONTINUOUS
 62
     5
 10
-789.0
 20
342.0
 30
0.0
 11
-755.0
 21
342.0
 31
0.0
  0
LINE
  5
579
  8
DETAIL
  6
CONTINUOUS
 62
     5
 10
-789.0
 20
310.0
 30
0.0
 11
-755.0
 21
310.0
 31
0.0
  0
LINE
  5
57A
  8
NOTE
  6
CONTINUOUS
 62
     4
 10
-833.66133500000001
 20
241.0
 30
0.0
 11
-780.33866499999999
 21
241.0
 31
0.0
  0
LINE
  5
57B
  8
NOTE
  6
CONTINUOUS
 62
     4
 10
-818.00208899999973
 20
269.0
 30
0.0
 11
-775.99791100000004
 21
269.0
 31
0.0
  0
LINE
  5
57C
  8
NOTE
  6
CONTINUOUS
 62
     4
 10
-808.66833499999973
 20
326.0
 30
0.0
 11
-769.33166500000004
 21
326.0
 31
0.0
  0
LINE
  5
581
  8
NOTE
  6
CONTINUOUS
 62
     4
 10
-815.26500799999985
 20
1.0
 30
0.0
 11
-795.26500799999985
 21
21.0
 31
0.0
  0
LINE
  5
582
  8
NOTE
  6
CONTINUOUS
 62
     4
 10
-820.26500799999974
 20
1.0
 30
0.0
 11
-800.26500799999985
 21
21.0
 31
0.0
  0
LINE
  5
583
  8
NOTE
  6
CONTINUOUS
 62
     4
 10
-825.26500799999985
 20
1.0
 30
0.0
 11
-805.26500799999985
 21
21.0
 31
0.0
  0
LINE
  5
584
  8
NOTE
  6
CONTINUOUS
 62
     4
 10
-855.26500799999985
 20
1.0
 30
0.0
 11
-835.26500799999985
 21
21.0
 31
0.0
  0
LINE
  5
585
  8
NOTE
  6
CONTINUOUS
 62
     4
 10
-860.26500799999985
 20
1.0
 30
0.0
 11
-840.26500799999985
 21
21.0
 31
0.0
  0
LINE
  5
586
  8
NOTE
  6
CONTINUOUS
 62
     4
 10
-865.26500799999985
 20
1.0
 30
0.0
 11
-845.26500799999974
 21
21.0
 31
0.0
  0
LINE
  5
587
  8
NOTE
  6
CONTINUOUS
 62
     4
 10
-807.0
 20
221.0
 30
0.0
 11
-807.0
 21
261.0
 31
0.0
  0
LINE
  5
588
  8
NOTE
  6
CONTINUOUS
 62
     4
 10
-797.0
 20
249.0
 30
0.0
 11
-797.0
 21
289.0
 31
0.0
  0
LINE
  5
589
  8
NOTE
  6
CONTINUOUS
 62
     4
 10
-807.0
 20
241.0
 30
0.0
 11
-833.81010599999956
 21
256.67913600000003
 31
0.0
  0
LINE
  5
58A
  8
NOTE
  6
CONTINUOUS
 62
     4
 10
-822.37866499999996
 20
267.98358300000001
 30
0.0
 11
-807.0
 21
241.0
 31
0.0
  0
LINE
  5
58B
  8
NOTE
  6
CONTINUOUS
 62
     4
 10
-797.0
 20
269.0
 30
0.0
 11
-822.28877999999963
 21
287.03038300000009
 31
0.0
  0
LINE
  5
58C
  8
NOTE
  6
CONTINUOUS
 62
     4
 10
-809.88553400000001
 20
297.25916000000001
 30
0.0
 11
-797.0
 21
269.0
 31
0.0
  0
POINT
  5
58F
  8
DEFPOINTS
  6
CONTINUOUS
 62
     7
 10
-828.66133499999989
 20
241.0
 30
0.0
  0
POINT
  5
590
  8
DEFPOINTS
  6
CONTINUOUS
 62
     7
 10
-815.00208899999984
 20
269.0
 30
0.0
  0
POINT
  5
591
  8
DEFPOINTS
  6
CONTINUOUS
 62
     7
 10
-815.00208899999984
 20
269.0
 30
0.0
  0
LINE
  5
594
  8
SIZE
  6
CONTINUOUS
 62
    30
 10
-789.0
 20
361.0
 30
0.0
 11
-789.0
 21
591.50516600000003
 31
0.0
  0
LINE
  5
595
  8
NOTE
  6
CONTINUOUS
 62
     4
 10
-789.0
 20
306.0
 30
0.0
 11
-789.0
 21
346.0
 31
0.0
  0
LINE
  5
596
  8
NOTE
  6
CONTINUOUS
 62
     4
 10
-789.0
 20
326.0
 30
0.0
 11
-812.16746499999988
 21
346.68539700000002
 31
0.0
  0
LINE
  5
597
  8
NOTE
  6
CONTINUOUS
 62
     4
 10
-798.72091499999988
 20
355.49781200000001
 30
0.0
 11
-789.0
 21
326.0
 31
0.0
  0
POINT
  5
598
  8
DEFPOINTS
  6
CONTINUOUS
 62
     7
 10
-789.0
 20
342.0
 30
0.0
  0
POINT
  5
599
  8
DEFPOINTS
  6
CONTINUOUS
 62
     7
 10
-808.66833499999973
 20
326.0
 30
0.0
  0
LINE
  5
59A
  8
DETAIL
  6
CONTINUOUS
 62
     5
 10
-789.0
 20
342.0
 30
0.0
 11
-789.0
 21
310.0
 31
0.0
  0
LINE
  5
59B
  8
SIZE
  6
CONTINUOUS
 62
    30
 10
-809.0
 20
561.50516600000003
 30
0.0
 11
-940.0
 21
561.50516600000003
 31
0.0
  0
POINT
  5
59C
  8
DEFPOINTS
  6
CONTINUOUS
 62
     7
 10
-789.0
 20
561.50516600000003
 30
0.0
  0
LINE
  5
59D
  8
SIZE
  6
CONTINUOUS
 62
    30
 10
-799.0
 20
561.50516600000003
 30
0.0
 11
-809.0
 21
561.50516600000003
 31
0.0
  0
CIRCLE
  5
59E
  8
SIZE
  6
CONTINUOUS
 62
    30
 10
-789.0
 20
561.50516600000003
 30
0.0
 40
10.0
  0
LINE
  5
59F
  8
OUTLINE
  6
CONTINUOUS
 62
     3
 10
-755.0
 20
475.0
 30
0.0
 11
-755.0
 21
140.0
 31
0.0
  0
LINE
  5
5A2
  8
DETAIL
  6
CONTINUOUS
 62
     5
 10
-755.0
 20
475.0
 30
0.0
 11
-755.0
 21
140.0
 31
0.0
  0
LINE
  5
5A5
  8
NOTE
  6
CONTINUOUS
 62
     4
 10
-755.0
 20
170.0
 30
0.0
 11
-772.93246299999964
 21
144.64169100000001
 31
0.0
  0
LINE
  5
5A6
  8
DETAIL
  6
CONTINUOUS
 62
     5
 10
-739.99820399999999
 20
152.00143700000001
 30
0.0
 11
-739.99820399999999
 21
140.0
 31
0.0
  0
LINE
  5
5A7
  8
OUTLINE
  6
CONTINUOUS
 62
     3
 10
-739.08849999999984
 20
0.0
 30
0.0
 11
-739.08849999999984
 21
47.0
 31
0.0
  0
POINT
  5
5A8
  8
DEFPOINTS
  6
CONTINUOUS
 62
     7
 10
-775.0
 20
1.0
 30
0.0
  0
POINT
  5
5A9
  8
DEFPOINTS
  6
CONTINUOUS
 62
     7
 10
-755.0
 20
140.0
 30
0.0
  0
POINT
  5
5AA
  8
DEFPOINTS
  6
CONTINUOUS
 62
     7
 10
-775.0
 20
1.0
 30
0.0
  0
POINT
  5
5AB
  8
DEFPOINTS
  6
CONTINUOUS
 62
     7
 10
-775.0
 20
1.0
 30
0.0
  0
LINE
  5
5AC
  8
NOTE
  6
CONTINUOUS
 62
     4
 10
-775.0
 20
1.0
 30
0.0
 11
-775.0
 21
21.0
 31
0.0
  0
LINE
  5
5AD
  8
DETAIL
  6
CONTINUOUS
 62
     5
 10
-739.08849999999984
 20
0.0
 30
0.0
 11
-739.08849999999984
 21
47.0
 31
0.0
  0
POINT
  5
5AE
  8
DEFPOINTS
  6
CONTINUOUS
 62
     7
 10
-760.5
 20
170.0
 30
0.0
  0
LINE
  5
5AF
  8
NOTE
  6
CONTINUOUS
 62
     4
 10
-755.0
 20
175.49999199999999
 30
0.0
 11
-755.0
 21
164.50000800000001
 31
0.0
  0
LINE
  5
5B0
  8
NOTE
  6
CONTINUOUS
 62
     4
 10
-749.5
 20
170.0
 30
0.0
 11
-760.5
 21
170.0
 31
0.0
  0
LINE
  5
5B1
  8
DETAIL
  6
CONTINUOUS
 62
     5
 10
-736.99784399999965
 20
155.00179600000001
 30
0.0
 11
-739.99820399999999
 21
152.00143700000001
 31
0.0
  0
CIRCLE
  5
5B6
  8
FIX
  6
CONTINUOUS
 62
    11
 10
-748.0
 20
475.0
 30
0.0
 40
18.598564
  0
LINE
  5
5B7
  8
NOTE
  6
CONTINUOUS
 62
     4
 10
-748.0
 20
454.99760500000002
 30
0.0
 11
-748.0
 21
495.00239499999981
 31
0.0
  0
POINT
  5
5C1
  8
DEFPOINTS
  6
CONTINUOUS
 62
     7
 10
-755.0
 20
475.0
 30
0.0
  0
POINT
  5
5C2
  8
DEFPOINTS
  6
CONTINUOUS
 62
     7
 10
-755.0
 20
475.0
 30
0.0
  0
POINT
  5
5C3
  8
DEFPOINTS
  6
CONTINUOUS
 62
     7
 10
-755.0
 20
475.0
 30
0.0
  0
POINT
  5
5C4
  8
DEFPOINTS
  6
CONTINUOUS
 62
     7
 10
-755.0
 20
475.0
 30
0.0
  0
LINE
  5
5C5
  8
SIZE
  6
CONTINUOUS
 62
    30
 10
-745.0
 20
561.50516600000003
 30
0.0
 11
-735.0
 21
561.50516600000003
 31
0.0
  0
CIRCLE
  5
5C6
  8
SIZE
  6
CONTINUOUS
 62
    30
 10
-755.0
 20
561.50516600000003
 30
0.0
 40
10.0
  0
LINE
  5
5C7
  8
SIZE
  6
CONTINUOUS
 62
    30
 10
-735.0
 20
561.50516600000003
 30
0.0
 11
-715.0
 21
561.50516600000003
 31
0.0
  0
LINE
  5
5C8
  8
SIZE
  6
CONTINUOUS
 62
    30
 10
-755.0
 20
493.0
 30
0.0
 11
-755.0
 21
591.50516600000003
 31
0.0
  0
POINT
  5
5C9
  8
DEFPOINTS
  6
CONTINUOUS
 62
     7
 10
-755.0
 20
475.0
 30
0.0
  0
POINT
  5
5CA
  8
DEFPOINTS
  6
CONTINUOUS
 62
     7
 10
-755.0
 20
475.0
 30
0.0
  0
POINT
  5
5CB
  8
DEFPOINTS
  6
CONTINUOUS
 62
     7
 10
-755.0
 20
475.0
 30
0.0
  0
POINT
  5
5CC
  8
DEFPOINTS
  6
CONTINUOUS
 62
     7
 10
-771.0
 20
465.69948499999992
 30
0.0
  0
POINT
  5
5CD
  8
DEFPOINTS
  6
CONTINUOUS
 62
     7
 10
-755.0
 20
475.0
 30
0.0
  0
POINT
  5
5CE
  8
DEFPOINTS
  6
CONTINUOUS
 62
     7
 10
-755.0
 20
475.0
 30
0.0
  0
POINT
  5
5CF
  8
DEFPOINTS
  6
CONTINUOUS
 62
     7
 10
-771.0
 20
475.69948499999981
 30
0.0
  0
POINT
  5
5D0
  8
DEFPOINTS
  6
CONTINUOUS
 62
     7
 10
-771.0
 20
470.69948499999992
 30
0.0
  0
POINT
  5
5D1
  8
DEFPOINTS
  6
CONTINUOUS
 62
     7
 10
-748.0
 20
500.00239499999992
 30
0.0
  0
POINT
  5
5D2
  8
DEFPOINTS
  6
CONTINUOUS
 62
     7
 10
-748.0
 20
495.00239499999981
 30
0.0
  0
ARC
  5
5D3
  8
DETAIL
  6
CONTINUOUS
 62
     5
 10
-766.69972499999983
 20
470.69972499999989
 30
0.0
 40
2.0
 50
90.0
 51
180.0
  0
LINE
  5
5D4
  8
NOTE
  6
CONTINUOUS
 62
     4
 10
-768.00095799999986
 20
475.0
 30
0.0
 11
-727.99904200000003
 21
475.0
 31
0.0
  0
LINE
  5
5D5
  8
DETAIL
  6
CONTINUOUS
 62
     5
 10
-755.0
 20
472.69972499999989
 30
0.0
 11
-766.69972499999983
 21
472.69972499999989
 31
0.0
  0
LINE
  5
5D7
  8
DETAIL
  6
CONTINUOUS
 62
     5
 10
-768.69972499999983
 20
462.99856299999988
 30
0.0
 11
-771.0
 21
462.99856299999988
 31
0.0
  0
LINE
  5
5D8
  8
DETAIL
  6
CONTINUOUS
 62
     5
 10
-768.69972499999983
 20
470.69972499999989
 30
0.0
 11
-768.69972499999983
 21
462.99856299999988
 31
0.0
  0
LINE
  5
5D9
  8
DETAIL
  6
CONTINUOUS
 62
     5
 10
-771.0
 20
470.69948499999992
 30
0.0
 11
-771.0
 21
462.99856299999988
 31
0.0
  0
ARC
  5
5DA
  8
DETAIL
  6
CONTINUOUS
 62
     5
 10
-766.69948499999998
 20
470.69948499999992
 30
0.0
 40
4.3005149999999981
 50
90.0
 51
180.0
  0
LINE
  5
5DF
  8
SIZE
  6
CONTINUOUS
 62
    30
 10
-755.0
 20
737.93663600000002
 30
0.0
 11
-807.0
 21
737.93663600000002
 31
0.0
  0
LINE
  5
5E0
  8
SIZE
  6
CONTINUOUS
 62
    30
 10
-755.0
 20
648.96609599999965
 30
0.0
 11
-797.0
 21
648.96609599999965
 31
0.0
  0
CIRCLE
  5
5E1
  8
SIZE
  6
CONTINUOUS
 62
    30
 10
-771.0
 20
829.98197900000002
 30
0.0
 40
10.0
  0
CIRCLE
  5
5E2
  8
SIZE
  6
CONTINUOUS
 62
    30
 10
-771.0
 20
1071.8620269999999
 30
0.0
 40
10.0
  0
CIRCLE
  5
5E3
  8
SIZE
  6
CONTINUOUS
 62
    30
 10
-771.0
 20
941.48862299999985
 30
0.0
 40
10.0
  0
TEXT
  5
5E4
  8
SIZE
  6
CONTINUOUS
 62
    30
 10
-937.85714242857136
 20
755.93663600000002
 30
0.0
 40
50.0
  1
52
 41
0.9
 72
     1
 11
-901.42857100000015
 21
755.93663600000002
 31
0.0
  0
LINE
  5
5E5
  8
SIZE
  6
CONTINUOUS
 62
    30
 10
-827.0
 20
737.93663600000002
 30
0.0
 11
-955.85714299999984
 21
737.93663600000002
 31
0.0
  0
TEXT
  5
5E6
  8
SIZE
  6
CONTINUOUS
 62
    30
 10
-926.78571442857105
 20
666.96609599999977
 30
0.0
 40
50.0
  1
42
 41
0.9
 72
     1
 11
-890.35714299999972
 21
666.96609599999977
 31
0.0
  0
LINE
  5
5E7
  8
SIZE
  6
CONTINUOUS
 62
    30
 10
-817.0
 20
648.96609599999965
 30
0.0
 11
-943.7142859999999
 21
648.96609599999965
 31
0.0
  0
LINE
  5
5E8
  8
SIZE
  6
CONTINUOUS
 62
    30
 10
-817.0
 20
737.93663600000002
 30
0.0
 11
-827.0
 21
737.93663600000002
 31
0.0
  0
CIRCLE
  5
5E9
  8
SIZE
  6
CONTINUOUS
 62
    30
 10
-807.0
 20
737.93663600000002
 30
0.0
 40
10.0
  0
LINE
  5
5EA
  8
SIZE
  6
CONTINUOUS
 62
    30
 10
-807.0
 20
648.96609599999965
 30
0.0
 11
-817.0
 21
648.96609599999965
 31
0.0
  0
CIRCLE
  5
5EB
  8
SIZE
  6
CONTINUOUS
 62
    30
 10
-797.0
 20
648.96609599999965
 30
0.0
 40
10.0
  0
TEXT
  5
5EC
  8
SIZE
  6
CONTINUOUS
 62
    30
 10
-891.14285757142841
 20
847.98197899999934
 30
0.0
 40
50.0
  1
16
 41
0.9
 72
     1
 11
-860.07142899999985
 21
847.98197899999934
 31
0.0
  0
LINE
  5
5ED
  8
SIZE
  6
CONTINUOUS
 62
    30
 10
-791.0
 20
829.98197900000002
 30
0.0
 11
-909.14285700000005
 21
829.98197900000002
 31
0.0
  0
LINE
  5
5EE
  8
SIZE
  6
CONTINUOUS
 62
    30
 10
-781.0
 20
829.98197900000002
 30
0.0
 11
-791.0
 21
829.98197900000002
 31
0.0
  0
TEXT
  5
5EF
  8
SIZE
  6
CONTINUOUS
 62
    30
 10
-901.85714242857125
 20
959.48862299999996
 30
0.0
 40
50.0
  1
23
 41
0.9
 72
     1
 11
-865.42857099999981
 21
959.48862299999996
 31
0.0
  0
LINE
  5
5F0
  8
SIZE
  6
CONTINUOUS
 62
    30
 10
-791.0
 20
941.48862299999985
 30
0.0
 11
-919.85714299999995
 21
941.48862299999985
 31
0.0
  0
LINE
  5
5F1
  8
SIZE
  6
CONTINUOUS
 62
    30
 10
-781.0
 20
941.48862299999985
 30
0.0
 11
-791.0
 21
941.48862299999985
 31
0.0
  0
POINT
  5
5F2
  8
DEFPOINTS
  6
CONTINUOUS
 62
     7
 10
-755.0
 20
737.93663600000002
 30
0.0
  0
LINE
  5
5F3
  8
SIZE
  6
CONTINUOUS
 62
    30
 10
-745.0
 20
737.93663600000002
 30
0.0
 11
-735.0
 21
737.93663600000002
 31
0.0
  0
CIRCLE
  5
5F4
  8
SIZE
  6
CONTINUOUS
 62
    30
 10
-755.0
 20
737.93663600000002
 30
0.0
 40
10.0
  0
LINE
  5
5F5
  8
SIZE
  6
CONTINUOUS
 62
    30
 10
-735.0
 20
737.93663600000002
 30
0.0
 11
-715.0
 21
737.93663600000002
 31
0.0
  0
POINT
  5
5F6
  8
DEFPOINTS
  6
CONTINUOUS
 62
     7
 10
-755.0
 20
648.96609599999965
 30
0.0
  0
LINE
  5
5F7
  8
SIZE
  6
CONTINUOUS
 62
    30
 10
-745.0
 20
648.96609599999965
 30
0.0
 11
-735.0
 21
648.96609599999965
 31
0.0
  0
CIRCLE
  5
5F8
  8
SIZE
  6
CONTINUOUS
 62
    30
 10
-755.0
 20
648.96609599999965
 30
0.0
 40
10.0
  0
LINE
  5
5F9
  8
SIZE
  6
CONTINUOUS
 62
    30
 10
-735.0
 20
648.96609599999965
 30
0.0
 11
-715.0
 21
648.96609599999965
 31
0.0
  0
POINT
  5
5FA
  8
DEFPOINTS
  6
CONTINUOUS
 62
     7
 10
-771.0
 20
829.98197900000002
 30
0.0
  0
LINE
  5
5FB
  8
SIZE
  6
CONTINUOUS
 62
    30
 10
-745.0
 20
829.98197900000002
 30
0.0
 11
-735.0
 21
829.98197900000002
 31
0.0
  0
CIRCLE
  5
5FC
  8
SIZE
  6
CONTINUOUS
 62
    30
 10
-755.0
 20
829.98197900000002
 30
0.0
 40
10.0
  0
LINE
  5
5FD
  8
SIZE
  6
CONTINUOUS
 62
    30
 10
-755.0
 20
829.98197900000002
 30
0.0
 11
-771.0
 21
829.98197900000002
 31
0.0
  0
LINE
  5
5FE
  8
SIZE
  6
CONTINUOUS
 62
    30
 10
-735.0
 20
829.98197900000002
 30
0.0
 11
-715.0
 21
829.98197900000002
 31
0.0
  0
POINT
  5
5FF
  8
DEFPOINTS
  6
CONTINUOUS
 62
     7
 10
-755.0
 20
829.98197900000002
 30
0.0
  0
LINE
  5
600
  8
SIZE
  6
CONTINUOUS
 62
    30
 10
-745.0
 20
829.98197900000002
 30
0.0
 11
-735.0
 21
829.98197900000002
 31
0.0
  0
CIRCLE
  5
601
  8
SIZE
  6
CONTINUOUS
 62
    30
 10
-755.0
 20
829.98197900000002
 30
0.0
 40
10.0
  0
POINT
  5
605
  8
DEFPOINTS
  6
CONTINUOUS
 62
     7
 10
-771.0
 20
941.48862299999985
 30
0.0
  0
LINE
  5
606
  8
SIZE
  6
CONTINUOUS
 62
    30
 10
-738.0
 20
941.48862299999985
 30
0.0
 11
-728.0
 21
941.48862299999985
 31
0.0
  0
CIRCLE
  5
607
  8
SIZE
  6
CONTINUOUS
 62
    30
 10
-748.0
 20
941.48862299999985
 30
0.0
 40
10.0
  0
LINE
  5
608
  8
SIZE
  6
CONTINUOUS
 62
    30
 10
-748.0
 20
941.48862299999985
 30
0.0
 11
-771.0
 21
941.48862299999985
 31
0.0
  0
LINE
  5
609
  8
SIZE
  6
CONTINUOUS
 62
    30
 10
-728.0
 20
941.48862299999985
 30
0.0
 11
-708.0
 21
941.48862299999985
 31
0.0
  0
POINT
  5
60A
  8
DEFPOINTS
  6
CONTINUOUS
 62
     7
 10
-748.0
 20
941.48862299999985
 30
0.0
  0
LINE
  5
60B
  8
SIZE
  6
CONTINUOUS
 62
    30
 10
-738.0
 20
941.48862299999985
 30
0.0
 11
-728.0
 21
941.48862299999985
 31
0.0
  0
CIRCLE
  5
60C
  8
SIZE
  6
CONTINUOUS
 62
    30
 10
-748.0
 20
941.48862299999985
 30
0.0
 40
10.0
  0
LINE
  5
60D
  8
SIZE
  6
CONTINUOUS
 62
    30
 10
-761.0
 20
1071.8620269999999
 30
0.0
 11
-751.0
 21
1071.8620269999999
 31
0.0
  0
LINE
  5
60E
  8
BASIS
  6
DASHDOT
 62
     6
 10
0.0
 20
-58.000957999999997
 30
0.0
 11
0.0
 21
530.01592800000003
 31
0.0
  0
CIRCLE
  5
60F
  8
ARRANGE
  6
CONTINUOUS
 62
     1
 10
0.0
 20
0.0
 30
0.0
 40
50.0
  0
LINE
  5
610
  8
OUTLINE
  6
CONTINUOUS
 62
     3
 10
795.0
 20
-4.0069879999999971
 30
0.0
 11
795.0
 21
0.0
 31
0.0
  0
CIRCLE
  5
611
  8
SIZE
  6
CONTINUOUS
 62
    30
 10
1269.5777459999999
 20
0.0
 30
0.0
 40
10.0
  0
LINE
  5
612
  8
SIZE
  6
CONTINUOUS
 62
    30
 10
1269.5777459999999
 20
0.0
 30
0.0
 11
1269.5777459999999
 21
-347.42857099999998
 31
0.0
  0
CIRCLE
  5
613
  8
SIZE
  6
CONTINUOUS
 62
    30
 10
962.92158700000005
 20
0.0
 30
0.0
 40
10.0
  0
CIRCLE
  5
614
  8
SIZE
  6
CONTINUOUS
 62
    30
 10
962.92158700000005
 20
-8.0
 30
0.0
 40
10.0
  0
CIRCLE
  5
615
  8
SIZE
  6
CONTINUOUS
 62
    30
 10
962.92158700000005
 20
0.0
 30
0.0
 40
10.0
  0
LINE
  5
616
  8
SIZE
  6
CONTINUOUS
 62
    30
 10
962.92158700000005
 20
0.0
 30
0.0
 11
962.92158700000005
 21
-8.0
 31
0.0
  0
LINE
  5
617
  8
SIZE
  6
CONTINUOUS
 62
    30
 10
755.0
 20
122.0
 30
0.0
 11
755.0
 21
-176.60939400000001
 31
0.0
  0
LINE
  5
618
  8
ARRANGE
  6
CONTINUOUS
 62
     1
 10
-50.037350000000004
 20
-49.522353000000003
 30
0.0
 11
50.037350000000004
 21
49.522353000000003
 31
0.0
  0
LINE
  5
619
  8
ARRANGE
  6
CONTINUOUS
 62
     1
 10
-49.963763
 20
49.596595000000001
 30
0.0
 11
49.963763
 21
-49.596595000000001
 31
0.0
  0
LINE
  5
61A
  8
DETAIL
  6
CONTINUOUS
 62
     5
 10
795.0
 20
-4.0069879999999971
 30
0.0
 11
795.0
 21
0.0
 31
0.0
  0
LINE
  5
61B
  8
SIZE
  6
CONTINUOUS
 62
    30
 10
735.0
 20
-146.60939400000001
 30
0.0
 11
402.14285699999999
 21
-146.60939400000001
 31
0.0
  0
TEXT
  5
61C
  8
SIZE
  6
CONTINUOUS
 62
    30
 10
-279.42857142857139
 20
-221.59805700000001
 30
0.0
 40
50.0
  1
1550（天井開口寸法）
 41
0.9
 72
     1
 11
0.0
 21
-221.59805700000001
 31
0.0
  0
TEXT
  5
61D
  8
SIZE
  6
CONTINUOUS
 62
    30
 10
-74.999999999999972
 20
-319.28944999999999
 30
0.0
 40
50.0
  1
1590
 41
0.9
 72
     1
 11
0.0
 21
-319.28944999999999
 31
0.0
  0
TEXT
  5
61E
  8
SIZE
  6
CONTINUOUS
 62
    30
 10
420.14285757142852
 20
-128.6093939999999
 30
0.0
 40
50.0
  1
20
 41
0.9
 72
     1
 11
456.57142900000002
 21
-128.6093939999999
 31
0.0
  0
LINE
  5
61F
  8
SIZE
  6
CONTINUOUS
 62
    30
 10
795.0
 20
-22.006988
 30
0.0
 11
795.0
 21
-367.28944999999999
 31
0.0
  0
CIRCLE
  5
620
  8
SIZE
  6
CONTINUOUS
 62
    30
 10
795.0
 20
-337.28944999999999
 30
0.0
 40
10.0
  0
LINE
  5
621
  8
SIZE
  6
CONTINUOUS
 62
    30
 10
785.0
 20
-337.28944999999999
 30
0.0
 11
775.0
 21
-337.28944999999999
 31
0.0
  0
POINT
  5
622
  8
DEFPOINTS
  6
CONTINUOUS
 62
     7
 10
795.0
 20
-337.28944999999999
 30
0.0
  0
ARC
  5
623
  8
OUTLINE
  6
CONTINUOUS
 62
     3
 10
764.29632300000003
 20
112.013413
 30
0.0
 40
120.014371
 50
269.77106299999991
 51
284.82297
  0
LINE
  5
624
  8
SIZE
  6
CONTINUOUS
 62
    30
 10
781.81678299999999
 20
-8.0
 30
0.0
 11
992.92158700000005
 21
-8.0
 31
0.0
  0
LINE
  5
625
  8
SIZE
  6
CONTINUOUS
 62
    30
 10
785.0
 20
-146.60939400000001
 30
0.0
 11
795.0
 21
-146.60939400000001
 31
0.0
  0
CIRCLE
  5
626
  8
SIZE
  6
CONTINUOUS
 62
    30
 10
795.0
 20
-239.59805700000001
 30
0.0
 40
10.0
  0
LINE
  5
627
  8
SIZE
  6
CONTINUOUS
 62
    30
 10
775.0
 20
-239.59805700000001
 30
0.0
 11
795.0
 21
-239.59805700000001
 31
0.0
  0
ARC
  5
628
  8
DETAIL
  6
CONTINUOUS
 62
     5
 10
764.29632300000003
 20
112.013413
 30
0.0
 40
120.014371
 50
269.77106299999991
 51
284.82297
  0
CIRCLE
  5
629
  8
SIZE
  6
CONTINUOUS
 62
    30
 10
755.0
 20
-146.60939400000001
 30
0.0
 40
10.0
  0
CIRCLE
  5
62A
  8
SIZE
  6
CONTINUOUS
 62
    30
 10
775.0
 20
-146.60939400000001
 30
0.0
 40
10.0
  0
LINE
  5
62B
  8
SIZE
  6
CONTINUOUS
 62
    30
 10
775.0
 20
-17.0
 30
0.0
 11
775.0
 21
-176.60939400000001
 31
0.0
  0
LINE
  5
62C
  8
SIZE
  6
CONTINUOUS
 62
    30
 10
775.0
 20
-17.0
 30
0.0
 11
775.0
 21
-269.59805699999998
 31
0.0
  0
LINE
  5
62D
  8
SIZE
  6
CONTINUOUS
 62
    30
 10
775.0
 20
-17.0
 30
0.0
 11
775.0
 21
-269.59805699999998
 31
0.0
  0
LINE
  5
62E
  8
SIZE
  6
CONTINUOUS
 62
    30
 10
765.0
 20
-239.59805700000001
 30
0.0
 11
755.0
 21
-239.59805700000001
 31
0.0
  0
CIRCLE
  5
62F
  8
SIZE
  6
CONTINUOUS
 62
    30
 10
775.0
 20
-239.59805700000001
 30
0.0
 40
10.0
  0
LINE
  5
630
  8
SIZE
  6
CONTINUOUS
 62
    30
 10
765.0
 20
-239.59805700000001
 30
0.0
 11
755.0
 21
-239.59805700000001
 31
0.0
  0
CIRCLE
  5
631
  8
SIZE
  6
CONTINUOUS
 62
    30
 10
775.0
 20
-239.59805700000001
 30
0.0
 40
10.0
  0
LINE
  5
632
  8
SIZE
  6
CONTINUOUS
 62
    30
 10
755.0
 20
-239.59805700000001
 30
0.0
 11
735.0
 21
-239.59805700000001
 31
0.0
  0
POINT
  5
633
  8
DEFPOINTS
  6
CONTINUOUS
 62
     7
 10
763.81678299999999
 20
-8.0
 30
0.0
  0
POINT
  5
634
  8
DEFPOINTS
  6
CONTINUOUS
 62
     7
 10
775.0
 20
-146.60939400000001
 30
0.0
  0
LINE
  5
635
  8
SIZE
  6
CONTINUOUS
 62
    30
 10
745.0
 20
-146.60939400000001
 30
0.0
 11
735.0
 21
-146.60939400000001
 31
0.0
  0
LINE
  5
636
  8
SIZE
  6
CONTINUOUS
 62
    30
 10
775.0
 20
-146.60939400000001
 30
0.0
 11
755.0
 21
-146.60939400000001
 31
0.0
  0
LINE
  5
637
  8
SIZE
  6
CONTINUOUS
 62
    30
 10
795.0
 20
-22.006988
 30
0.0
 11
795.0
 21
-269.59805699999998
 31
0.0
  0
TEXT
  5
638
  8
SIZE
  6
CONTINUOUS
 62
    30
 10
852.99999957142859
 20
-221.59805700000001
 30
0.0
 40
50.0
  1
20
 41
0.9
 72
     1
 11
889.42857100000003
 21
-221.59805700000001
 31
0.0
  0
LINE
  5
639
  8
SIZE
  6
CONTINUOUS
 62
    30
 10
815.0
 20
-239.59805700000001
 30
0.0
 11
943.85714299999995
 21
-239.59805700000001
 31
0.0
  0
POINT
  5
63A
  8
DEFPOINTS
  6
CONTINUOUS
 62
     7
 10
795.0
 20
-239.59805700000001
 30
0.0
  0
LINE
  5
63B
  8
SIZE
  6
CONTINUOUS
 62
    30
 10
805.0
 20
-239.59805700000001
 30
0.0
 11
815.0
 21
-239.59805700000001
 31
0.0
  0
TEXT
  5
63C
  8
SIZE
  6
CONTINUOUS
 62
    30
 10
944.92158700000005
 20
-96.0
 30
0.0
 40
50.0
  1
8
 50
90.0
 41
0.9
 72
     1
 11
944.92158700000005
 21
-81.0
 31
0.0
  0
LINE
  5
63D
  8
SIZE
  6
CONTINUOUS
 62
    30
 10
795.0
 20
-146.60939400000001
 30
0.0
 11
815.0
 21
-146.60939400000001
 31
0.0
  0
POINT
  5
63E
  8
DEFPOINTS
  6
CONTINUOUS
 62
     7
 10
795.0
 20
-4.0069879999999971
 30
0.0
  0
POINT
  5
63F
  8
DEFPOINTS
  6
CONTINUOUS
 62
     7
 10
795.0
 20
-4.0069879999999971
 30
0.0
  0
LINE
  5
640
  8
SIZE
  6
CONTINUOUS
 62
    30
 10
962.92158700000005
 20
-10.0
 30
0.0
 11
962.92158700000005
 21
-20.0
 31
0.0
  0
LINE
  5
641
  8
SIZE
  6
CONTINUOUS
 62
    30
 10
962.92158700000005
 20
-20.0
 30
0.0
 11
962.92158700000005
 21
-40.0
 31
0.0
  0
POINT
  5
642
  8
DEFPOINTS
  6
CONTINUOUS
 62
     7
 10
962.92158700000005
 20
-8.0
 30
0.0
  0
LINE
  5
643
  8
SIZE
  6
CONTINUOUS
 62
    30
 10
962.92158700000005
 20
-18.0
 30
0.0
 11
962.92158700000005
 21
-28.0
 31
0.0
  0
LINE
  5
644
  8
SIZE
  6
CONTINUOUS
 62
    30
 10
962.92158700000005
 20
-28.0
 30
0.0
 11
962.92158700000005
 21
-114.0
 31
0.0
  0
TEXT
  5
645
  8
SIZE
  6
CONTINUOUS
 62
    30
 10
1251.5777459999999
 20
-328.57142885714279
 30
0.0
 40
50.0
  1
140～300
 50
90.0
 41
0.9
 72
     1
 11
1251.5777459999999
 21
-183.71428599999999
 31
0.0
  0
TEXT
  5
646
  8
SIZE
  6
CONTINUOUS
 62
    30
 10
1379.5995419999999
 20
-367.28247900000008
 30
0.0
 40
55.0
  1
パネル直付時
 50
90.0
 41
0.9
 72
     1
 11
1379.5995419999999
 21
-195.682479
 31
0.0
  0
TEXT
  5
661
  8
SIZE
  6
CONTINUOUS
 62
    30
 10
-319.9285714285715
 20
972.58386099999984
 30
0.0
 40
50.0
  1
1496(吊りボルトピッチ)
 41
0.9
 72
     1
 11
0.0
 21
972.58386099999984
 31
0.0
  0
TEXT
  5
668
  8
SIZE
  6
CONTINUOUS
 62
    30
 10
-70.714285714285708
 20
847.98197899999934
 30
0.0
 40
50.0
  1
1510
 41
0.9
 72
     1
 11
0.0
 21
847.98197899999934
 31
0.0
  0
TEXT
  5
669
  8
SIZE
  6
CONTINUOUS
 62
    30
 10
-75.0
 20
1089.8620269999999
 30
0.0
 40
50.0
  1
1542
 41
0.9
 72
     1
 11
0.0
 21
1089.8620269999999
 31
0.0
  0
LINE
  5
676
  8
SIZE
  6
CONTINUOUS
 62
    30
 10
755.0
 20
493.0
 30
0.0
 11
755.0
 21
859.98197899999957
 31
0.0
  0
LINE
  5
677
  8
SIZE
  6
CONTINUOUS
 62
    30
 10
755.0
 20
493.0
 30
0.0
 11
755.0
 21
754.41105199999981
 31
0.0
  0
LINE
  5
678
  8
SIZE
  6
CONTINUOUS
 62
    30
 10
771.0
 20
483.69948499999992
 30
0.0
 11
771.0
 21
859.98197899999957
 31
0.0
  0
LINE
  5
679
  8
SIZE
  6
CONTINUOUS
 62
    30
 10
755.0
 20
493.0
 30
0.0
 11
755.0
 21
859.98197899999957
 31
0.0
  0
LINE
  5
67A
  8
SIZE
  6
CONTINUOUS
 62
    30
 10
771.0
 20
488.69948499999992
 30
0.0
 11
771.0
 21
1101.8620269999999
 31
0.0
  0
LINE
  5
67B
  8
SIZE
  6
CONTINUOUS
 62
    30
 10
748.0
 20
505.70239500000002
 30
0.0
 11
748.0
 21
971.48862299999985
 31
0.0
  0
LINE
  5
67C
  8
SIZE
  6
CONTINUOUS
 62
    30
 10
748.0
 20
513.00239499999986
 30
0.0
 11
748.0
 21
971.48862299999985
 31
0.0
  0
LINE
  5
67D
  8
SIZE
  6
CONTINUOUS
 62
    30
 10
771.0
 20
488.69948499999992
 30
0.0
 11
771.0
 21
971.48862299999985
 31
0.0
  0
LINE
  5
682
  8
SIZE
  6
CONTINUOUS
 62
    30
 10
813.0
 20
0.0
 30
0.0
 11
1299.5777459999999
 21
0.0
 31
0.0
  0
LINE
  5
683
  8
SIZE
  6
CONTINUOUS
 62
    30
 10
757.99820399999987
 20
140.0
 30
0.0
 11
1299.5777459999999
 21
140.0
 31
0.0
  0
LINE
  5
684
  8
SIZE
  6
CONTINUOUS
 62
    30
 10
757.99820399999987
 20
140.0
 30
0.0
 11
1299.6373149999999
 21
140.0
 31
0.0
  0
LINE
  5
685
  8
SIZE
  6
CONTINUOUS
 62
    30
 10
773.0
 20
475.0
 30
0.0
 11
1299.6373149999999
 21
475.0
 31
0.0
  0
LINE
  5
689
  8
OUTLINE
  6
CONTINUOUS
 62
     3
 10
755.0
 20
475.0
 30
0.0
 11
755.0
 21
140.0
 31
0.0
  0
LINE
  5
68D
  8
SIZE
  6
CONTINUOUS
 62
    30
 10
757.08849999999984
 20
47.0
 30
0.0
 11
992.92158700000005
 21
47.0
 31
0.0
  0
LINE
  5
68E
  8
NOTE
  6
CONTINUOUS
 62
     4
 10
775.0
 20
1.0
 30
0.0
 11
876.30744900000013
 21
1.0
 31
0.0
  0
LINE
  5
68F
  8
NOTE
  6
CONTINUOUS
 62
     4
 10
775.0
 20
21.0
 30
0.0
 11
876.30744900000013
 21
21.0
 31
0.0
  0
LINE
  5
690
  8
DETAIL
  6
CONTINUOUS
 62
     5
 10
755.0
 20
475.0
 30
0.0
 11
755.0
 21
140.0
 31
0.0
  0
LINE
  5
691
  8
DETAIL
  6
CONTINUOUS
 62
     5
 10
739.99820399999999
 20
152.00143700000001
 30
0.0
 11
739.99820399999999
 21
140.0
 31
0.0
  0
LINE
  5
692
  8
OUTLINE
  6
CONTINUOUS
 62
     3
 10
739.08849999999984
 20
0.0
 30
0.0
 11
739.08849999999984
 21
47.0
 31
0.0
  0
POINT
  5
693
  8
DEFPOINTS
  6
CONTINUOUS
 62
     7
 10
755.0
 20
140.0
 30
0.0
  0
POINT
  5
695
  8
DEFPOINTS
  6
CONTINUOUS
 62
     7
 10
739.08849999999984
 20
47.0
 30
0.0
  0
POINT
  5
696
  8
DEFPOINTS
  6
CONTINUOUS
 62
     7
 10
775.0
 20
1.0
 30
0.0
  0
POINT
  5
697
  8
DEFPOINTS
  6
CONTINUOUS
 62
     7
 10
755.0
 20
140.0
 30
0.0
  0
POINT
  5
698
  8
DEFPOINTS
  6
CONTINUOUS
 62
     7
 10
775.0
 20
1.0
 30
0.0
  0
POINT
  5
699
  8
DEFPOINTS
  6
CONTINUOUS
 62
     7
 10
775.0
 20
1.0
 30
0.0
  0
LINE
  5
69A
  8
NOTE
  6
CONTINUOUS
 62
     4
 10
775.0
 20
1.0
 30
0.0
 11
775.0
 21
21.0
 31
0.0
  0
LINE
  5
69B
  8
DETAIL
  6
CONTINUOUS
 62
     5
 10
739.08849999999984
 20
0.0
 30
0.0
 11
739.08849999999984
 21
47.0
 31
0.0
  0
LINE
  5
69C
  8
DETAIL
  6
CONTINUOUS
 62
     5
 10
739.99820399999999
 20
152.00143700000001
 30
0.0
 11
736.99784399999965
 21
155.00179600000001
 31
0.0
  0
LINE
  5
6A0
  8
SIZE
  6
CONTINUOUS
 62
    30
 10
813.0
 20
0.0
 30
0.0
 11
992.92158700000005
 21
0.0
 31
0.0
  0
LINE
  5
6A1
  8
SIZE
  6
CONTINUOUS
 62
    30
 10
813.0
 20
0.0
 30
0.0
 11
992.92158700000005
 21
0.0
 31
0.0
  0
POINT
  5
6A2
  8
DEFPOINTS
  6
CONTINUOUS
 62
     7
 10
795.0
 20
0.0
 30
0.0
  0
POINT
  5
6A3
  8
DEFPOINTS
  6
CONTINUOUS
 62
     7
 10
795.0
 20
0.0
 30
0.0
  0
POINT
  5
6A4
  8
DEFPOINTS
  6
CONTINUOUS
 62
     7
 10
795.0
 20
0.0
 30
0.0
  0
LINE
  5
6A5
  8
NOTE
  6
CONTINUOUS
 62
     4
 10
865.26500799999985
 20
1.0
 30
0.0
 11
845.26500799999974
 21
21.0
 31
0.0
  0
LINE
  5
6A6
  8
NOTE
  6
CONTINUOUS
 62
     4
 10
860.26500799999985
 20
1.0
 30
0.0
 11
840.26500799999985
 21
21.0
 31
0.0
  0
LINE
  5
6A7
  8
NOTE
  6
CONTINUOUS
 62
     4
 10
855.26500799999985
 20
1.0
 30
0.0
 11
835.26500799999985
 21
21.0
 31
0.0
  0
LINE
  5
6A8
  8
NOTE
  6
CONTINUOUS
 62
     4
 10
825.26500799999985
 20
1.0
 30
0.0
 11
805.26500799999985
 21
21.0
 31
0.0
  0
LINE
  5
6A9
  8
NOTE
  6
CONTINUOUS
 62
     4
 10
820.26500799999974
 20
1.0
 30
0.0
 11
800.26500799999985
 21
21.0
 31
0.0
  0
LINE
  5
6AA
  8
NOTE
  6
CONTINUOUS
 62
     4
 10
815.26500799999985
 20
1.0
 30
0.0
 11
795.26500799999985
 21
21.0
 31
0.0
  0
POINT
  5
6AB
  8
DEFPOINTS
  6
CONTINUOUS
 62
     7
 10
962.92158700000005
 20
47.0
 30
0.0
  0
LINE
  5
6AC
  8
SIZE
  6
CONTINUOUS
 62
    30
 10
962.92158700000005
 20
57.0
 30
0.0
 11
962.92158700000005
 21
67.0
 31
0.0
  0
CIRCLE
  5
6AD
  8
SIZE
  6
CONTINUOUS
 62
    30
 10
962.92158700000005
 20
47.0
 30
0.0
 40
10.0
  0
LINE
  5
6AE
  8
SIZE
  6
CONTINUOUS
 62
    30
 10
962.92158700000005
 20
0.0
 30
0.0
 11
962.92158700000005
 21
47.0
 31
0.0
  0
LINE
  5
6AF
  8
SIZE
  6
CONTINUOUS
 62
    30
 10
962.92158700000005
 20
10.0
 30
0.0
 11
962.92158700000005
 21
20.0
 31
0.0
  0
LINE
  5
6B0
  8
SIZE
  6
CONTINUOUS
 62
    30
 10
962.92158700000005
 20
20.0
 30
0.0
 11
962.92158700000005
 21
40.0
 31
0.0
  0
CIRCLE
  5
6B2
  8
FIX
  6
CONTINUOUS
 62
    11
 10
748.0
 20
475.0
 30
0.0
 40
18.598564
  0
LINE
  5
6B3
  8
NOTE
  6
CONTINUOUS
 62
     4
 10
748.0
 20
454.99760500000002
 30
0.0
 11
748.0
 21
495.00239499999981
 31
0.0
  0
POINT
  5
6BA
  8
DEFPOINTS
  6
CONTINUOUS
 62
     7
 10
755.0
 20
475.0
 30
0.0
  0
POINT
  5
6BB
  8
DEFPOINTS
  6
CONTINUOUS
 62
     7
 10
755.0
 20
475.0
 30
0.0
  0
POINT
  5
6BC
  8
DEFPOINTS
  6
CONTINUOUS
 62
     7
 10
755.0
 20
475.0
 30
0.0
  0
POINT
  5
6BD
  8
DEFPOINTS
  6
CONTINUOUS
 62
     7
 10
755.0
 20
475.0
 30
0.0
  0
POINT
  5
6BF
  8
DEFPOINTS
  6
CONTINUOUS
 62
     7
 10
755.0
 20
475.0
 30
0.0
  0
POINT
  5
6C0
  8
DEFPOINTS
  6
CONTINUOUS
 62
     7
 10
771.0
 20
470.69948499999992
 30
0.0
  0
POINT
  5
6C3
  8
DEFPOINTS
  6
CONTINUOUS
 62
     7
 10
771.0
 20
470.69948499999992
 30
0.0
  0
ARC
  5
6C4
  8
DETAIL
  6
CONTINUOUS
 62
     5
 10
766.69972499999983
 20
470.69972499999989
 30
0.0
 40
2.0
 50
0.0
 51
90.0
  0
LINE
  5
6C5
  8
NOTE
  6
CONTINUOUS
 62
     4
 10
727.99904200000003
 20
475.0
 30
0.0
 11
768.00095799999986
 21
475.0
 31
0.0
  0
LINE
  5
6C6
  8
DETAIL
  6
CONTINUOUS
 62
     5
 10
755.0
 20
472.69972499999989
 30
0.0
 11
766.69972499999983
 21
472.69972499999989
 31
0.0
  0
LINE
  5
6C8
  8
DETAIL
  6
CONTINUOUS
 62
     5
 10
768.69972499999983
 20
462.99856299999988
 30
0.0
 11
771.0
 21
462.99856299999988
 31
0.0
  0
LINE
  5
6C9
  8
DETAIL
  6
CONTINUOUS
 62
     5
 10
768.69972499999983
 20
470.69972499999989
 30
0.0
 11
768.69972499999983
 21
462.99856299999988
 31
0.0
  0
LINE
  5
6CA
  8
DETAIL
  6
CONTINUOUS
 62
     5
 10
771.0
 20
470.69948499999992
 30
0.0
 11
771.0
 21
462.99856299999988
 31
0.0
  0
ARC
  5
6CB
  8
DETAIL
  6
CONTINUOUS
 62
     5
 10
766.69948499999998
 20
470.69948499999992
 30
0.0
 40
4.3005149999999981
 50
0.0
 51
90.0
  0
TEXT
  5
6CC
  8
SIZE
  6
CONTINUOUS
 62
    30
 10
1251.6373149999999
 20
250.6428571428572
 30
0.0
 40
50.0
  1
335
 50
90.0
 41
0.9
 72
     1
 11
1251.6373149999999
 21
308.5
 31
0.0
  0
LINE
  5
6CD
  8
SIZE
  6
CONTINUOUS
 62
    30
 10
1269.6373149999999
 20
455.0
 30
0.0
 11
1269.6373149999999
 21
160.0
 31
0.0
  0
LINE
  5
6CF
  8
SIZE
  6
CONTINUOUS
 62
    30
 10
1269.6373149999999
 20
150.0
 30
0.0
 11
1269.6373149999999
 21
160.0
 31
0.0
  0
POINT
  5
6D0
  8
DEFPOINTS
  6
CONTINUOUS
 62
     7
 10
1269.5777459999999
 20
0.0
 30
0.0
  0
LINE
  5
6D1
  8
SIZE
  6
CONTINUOUS
 62
    30
 10
1269.5777459999999
 20
10.0
 30
0.0
 11
1269.5777459999999
 21
20.0
 31
0.0
  0
LINE
  5
6D2
  8
SIZE
  6
CONTINUOUS
 62
    30
 10
1269.5777459999999
 20
130.0
 30
0.0
 11
1269.5777459999999
 21
120.0
 31
0.0
  0
CIRCLE
  5
6D3
  8
SIZE
  6
CONTINUOUS
 62
    30
 10
1269.5777459999999
 20
140.0
 30
0.0
 40
10.0
  0
LINE
  5
6D4
  8
SIZE
  6
CONTINUOUS
 62
    30
 10
1269.5777459999999
 20
120.0
 30
0.0
 11
1269.5777459999999
 21
20.0
 31
0.0
  0
POINT
  5
6D5
  8
DEFPOINTS
  6
CONTINUOUS
 62
     7
 10
1269.6373149999999
 20
140.0
 30
0.0
  0
CIRCLE
  5
6D6
  8
SIZE
  6
CONTINUOUS
 62
    30
 10
1269.6373149999999
 20
140.0
 30
0.0
 40
10.0
  0
LINE
  5
6DD
  8
SIZE
  6
CONTINUOUS
 62
    30
 10
1269.6373149999999
 20
465.0
 30
0.0
 11
1269.6373149999999
 21
455.0
 31
0.0
  0
CIRCLE
  5
6DE
  8
SIZE
  6
CONTINUOUS
 62
    30
 10
1269.6373149999999
 20
475.0
 30
0.0
 40
10.0
  0
LINE
  5
6DF
  8
SIZE
  6
CONTINUOUS
 62
    30
 10
781.0
 20
829.98197900000002
 30
0.0
 11
791.0
 21
829.98197900000002
 31
0.0
  0
LINE
  5
6E3
  8
SIZE
  6
CONTINUOUS
 62
    30
 10
745.0
 20
829.98197900000002
 30
0.0
 11
735.0
 21
829.98197900000002
 31
0.0
  0
CIRCLE
  5
6E4
  8
SIZE
  6
CONTINUOUS
 62
    30
 10
755.0
 20
829.98197900000002
 30
0.0
 40
10.0
  0
POINT
  5
6E5
  8
DEFPOINTS
  6
CONTINUOUS
 62
     7
 10
771.0
 20
829.98197900000002
 30
0.0
  0
CIRCLE
  5
6E6
  8
SIZE
  6
CONTINUOUS
 62
    30
 10
771.0
 20
829.98197900000002
 30
0.0
 40
10.0
  0
LINE
  5
6E7
  8
SIZE
  6
CONTINUOUS
 62
    30
 10
745.0
 20
829.98197900000002
 30
0.0
 11
735.0
 21
829.98197900000002
 31
0.0
  0
CIRCLE
  5
6E8
  8
SIZE
  6
CONTINUOUS
 62
    30
 10
755.0
 20
829.98197900000002
 30
0.0
 40
10.0
  0
LINE
  5
6E9
  8
SIZE
  6
CONTINUOUS
 62
    30
 10
755.0
 20
829.98197900000002
 30
0.0
 11
771.0
 21
829.98197900000002
 31
0.0
  0
LINE
  5
6EA
  8
SIZE
  6
CONTINUOUS
 62
    30
 10
735.0
 20
829.98197900000002
 30
0.0
 11
715.0
 21
829.98197900000002
 31
0.0
  0
LINE
  5
6EB
  8
SIZE
  6
CONTINUOUS
 62
    30
 10
791.0
 20
829.98197900000002
 30
0.0
 11
909.14285700000005
 21
829.98197900000002
 31
0.0
  0
TEXT
  5
6EC
  8
SIZE
  6
CONTINUOUS
 62
    30
 10
829.00000042857118
 20
847.98197899999934
 30
0.0
 40
50.0
  1
16
 41
0.9
 72
     1
 11
860.07142899999985
 21
847.98197899999934
 31
0.0
  0
LINE
  5
6ED
  8
SIZE
  6
CONTINUOUS
 62
    30
 10
781.0
 20
941.48862299999985
 30
0.0
 11
791.0
 21
941.48862299999985
 31
0.0
  0
CIRCLE
  5
6EE
  8
SIZE
  6
CONTINUOUS
 62
    30
 10
771.0
 20
1071.8620269999999
 30
0.0
 40
10.0
  0
LINE
  5
6EF
  8
SIZE
  6
CONTINUOUS
 62
    30
 10
738.0
 20
941.48862299999985
 30
0.0
 11
728.0
 21
941.48862299999985
 31
0.0
  0
CIRCLE
  5
6F0
  8
SIZE
  6
CONTINUOUS
 62
    30
 10
748.0
 20
941.48862299999985
 30
0.0
 40
10.0
  0
POINT
  5
6F1
  8
DEFPOINTS
  6
CONTINUOUS
 62
     7
 10
748.0
 20
941.48862299999985
 30
0.0
  0
CIRCLE
  5
6F2
  8
SIZE
  6
CONTINUOUS
 62
    30
 10
771.0
 20
941.48862299999985
 30
0.0
 40
10.0
  0
LINE
  5
6F3
  8
SIZE
  6
CONTINUOUS
 62
    30
 10
738.0
 20
941.48862299999985
 30
0.0
 11
728.0
 21
941.48862299999985
 31
0.0
  0
CIRCLE
  5
6F4
  8
SIZE
  6
CONTINUOUS
 62
    30
 10
748.0
 20
941.48862299999985
 30
0.0
 40
10.0
  0
LINE
  5
6F5
  8
SIZE
  6
CONTINUOUS
 62
    30
 10
748.0
 20
941.48862299999985
 30
0.0
 11
771.0
 21
941.48862299999985
 31
0.0
  0
LINE
  5
6F6
  8
SIZE
  6
CONTINUOUS
 62
    30
 10
728.0
 20
941.48862299999985
 30
0.0
 11
708.0
 21
941.48862299999985
 31
0.0
  0
POINT
  5
6F7
  8
DEFPOINTS
  6
CONTINUOUS
 62
     7
 10
771.0
 20
1071.8620269999999
 30
0.0
  0
LINE
  5
6F8
  8
SIZE
  6
CONTINUOUS
 62
    30
 10
761.0
 20
1071.8620269999999
 30
0.0
 11
751.0
 21
1071.8620269999999
 31
0.0
  0
LINE
  5
6F9
  8
SIZE
  6
CONTINUOUS
 62
    30
 10
791.0
 20
941.48862299999985
 30
0.0
 11
919.85714299999995
 21
941.48862299999985
 31
0.0
  0
TEXT
  5
6FA
  8
SIZE
  6
CONTINUOUS
 62
    30
 10
828.99999957142836
 20
959.48862299999996
 30
0.0
 40
50.0
  1
23
 41
0.9
 72
     1
 11
865.42857099999981
 21
959.48862299999996
 31
0.0
  0
POINT
  5
7E4
  8
DEFPOINTS
  6
CONTINUOUS
 62
     7
 10
-807.0
 20
252.25
 30
0.0
  0
LINE
  5
7E5
  8
DETAIL
  6
CONTINUOUS
 62
     5
 10
-778.00914899999964
 20
263.5
 30
0.0
 11
-755.0
 21
263.5
 31
0.0
  0
LINE
  5
7E6
  8
DETAIL
  6
CONTINUOUS
 62
     5
 10
-777.00914899999975
 20
259.49999999999989
 30
0.0
 11
-754.99999999999966
 21
259.49999999999972
 31
0.0
  0
LINE
  5
7E7
  8
DETAIL
  6
CONTINUOUS
 62
     5
 10
-777.00914899999975
 20
278.5
 30
0.0
 11
-754.99999999999966
 21
278.5
 31
0.0
  0
LINE
  5
7E8
  8
DETAIL
  6
CONTINUOUS
 62
     5
 10
-778.00914899999964
 20
274.5
 30
0.0
 11
-755.0
 21
274.5
 31
0.0
  0
LINE
  5
7E9
  8
DETAIL
  6
CONTINUOUS
 62
     5
 10
-794.00914899999998
 20
258.5
 30
0.0
 11
-781.00914899999975
 21
258.5
 31
0.0
  0
LINE
  5
7EA
  8
DETAIL
  6
CONTINUOUS
 62
     5
 10
-793.00914899999975
 20
263.5
 30
0.0
 11
-780.00914899999952
 21
263.5
 31
0.0
  0
LINE
  5
7EB
  8
DETAIL
  6
CONTINUOUS
 62
     5
 10
-780.00914899999952
 20
259.49999999999989
 30
0.0
 11
-781.00914899999975
 21
258.5
 31
0.0
  0
LINE
  5
7EC
  8
DETAIL
  6
CONTINUOUS
 62
     5
 10
-778.00914899999964
 20
260.5
 30
0.0
 11
-777.00914899999975
 21
259.49999999999989
 31
0.0
  0
LINE
  5
7ED
  8
DETAIL
  6
CONTINUOUS
 62
     5
 10
-793.00914899999975
 20
263.5
 30
0.0
 11
-794.00914899999998
 21
264.5
 31
0.0
  0
LINE
  5
7EE
  8
DETAIL
  6
CONTINUOUS
 62
     5
 10
-793.00914899999975
 20
263.5
 30
0.0
 11
-794.00914899999998
 21
262.5
 31
0.0
  0
LINE
  5
7EF
  8
DETAIL
  6
CONTINUOUS
 62
     5
 10
-780.00914899999952
 20
264.24000000000001
 30
0.0
 11
-778.00914899999964
 21
264.24000000000001
 31
0.0
  0
LINE
  5
7F0
  8
DETAIL
  6
CONTINUOUS
 62
     5
 10
-778.00914899999964
 20
260.5
 30
0.0
 11
-778.00914899999964
 21
277.5
 31
0.0
  0
LINE
  5
7F1
  8
DETAIL
  6
CONTINUOUS
 62
     5
 10
-780.00914899999952
 20
259.49999999999989
 30
0.0
 11
-780.00914899999952
 21
278.5
 31
0.0
  0
LINE
  5
7F2
  8
DETAIL
  6
CONTINUOUS
 62
     5
 10
-794.00914899999998
 20
279.5
 30
0.0
 11
-781.00914899999975
 21
279.5
 31
0.0
  0
LINE
  5
7F3
  8
DETAIL
  6
CONTINUOUS
 62
     5
 10
-794.00914899999998
 20
258.5
 30
0.0
 11
-794.00914899999998
 21
279.5
 31
0.0
  0
LINE
  5
7F4
  8
DETAIL
  6
CONTINUOUS
 62
     5
 10
-793.00914899999975
 20
274.5
 30
0.0
 11
-780.00914899999952
 21
274.5
 31
0.0
  0
LINE
  5
7F5
  8
DETAIL
  6
CONTINUOUS
 62
     5
 10
-781.00914899999975
 20
279.5
 30
0.0
 11
-780.00914899999952
 21
278.5
 31
0.0
  0
LINE
  5
7F6
  8
DETAIL
  6
CONTINUOUS
 62
     5
 10
-778.00914899999964
 20
277.5
 30
0.0
 11
-777.00914899999975
 21
278.5
 31
0.0
  0
LINE
  5
7F7
  8
DETAIL
  6
CONTINUOUS
 62
     5
 10
-793.00914899999975
 20
274.5
 30
0.0
 11
-794.00914899999998
 21
275.5
 31
0.0
  0
LINE
  5
7F8
  8
DETAIL
  6
CONTINUOUS
 62
     5
 10
-793.00914899999975
 20
274.5
 30
0.0
 11
-794.00914899999998
 21
273.5
 31
0.0
  0
LINE
  5
7F9
  8
DETAIL
  6
CONTINUOUS
 62
     5
 10
-780.00914899999952
 20
273.75999999999999
 30
0.0
 11
-778.00914899999964
 21
273.75999999999999
 31
0.0
  0
LINE
  5
7FA
  8
DETAIL
  6
CONTINUOUS
 62
     5
 10
-797.0
 20
263.5
 30
0.0
 11
-797.0
 21
274.5
 31
0.0
  0
LINE
  5
7FB
  8
DETAIL
  6
CONTINUOUS
 62
     5
 10
-797.0
 20
263.5
 30
0.0
 11
-794.00914899999998
 21
258.5
 31
0.0
  0
LINE
  5
7FC
  8
DETAIL
  6
CONTINUOUS
 62
     5
 10
-780.00914899999952
 20
259.49999999999989
 30
0.0
 11
-781.00914899999975
 21
258.5
 31
0.0
  0
LINE
  5
7FD
  8
DETAIL
  6
CONTINUOUS
 62
     5
 10
-797.0
 20
274.5
 30
0.0
 11
-794.00914899999998
 21
279.5
 31
0.0
  0
LINE
  5
7FE
  8
DETAIL
  6
CONTINUOUS
 62
     5
 10
-807.0
 20
252.25
 30
0.0
 11
-807.0
 21
229.75
 31
0.0
  0
LINE
  5
7FF
  8
DETAIL
  6
CONTINUOUS
 62
     5
 10
-755.0
 20
229.5
 30
0.0
 11
-782.00914899999964
 21
229.5
 31
0.0
  0
LINE
  5
800
  8
DETAIL
  6
CONTINUOUS
 62
     5
 10
-755.0
 20
252.5
 30
0.0
 11
-782.00914899999964
 21
252.5
 31
0.0
  0
LINE
  5
801
  8
DETAIL
  6
CONTINUOUS
 62
     5
 10
-802.00914899999964
 20
234.0
 30
0.0
 11
-804.00914899999941
 21
232.0
 31
0.0
  0
LINE
  5
802
  8
DETAIL
  6
CONTINUOUS
 62
     5
 10
-802.00914899999964
 20
234.0
 30
0.0
 11
-804.00914899999941
 21
236.0
 31
0.0
  0
LINE
  5
803
  8
DETAIL
  6
CONTINUOUS
 62
     5
 10
-802.00914899999964
 20
248.0
 30
0.0
 11
-804.00914899999941
 21
246.0
 31
0.0
  0
LINE
  5
804
  8
DETAIL
  6
CONTINUOUS
 62
     5
 10
-802.00914899999964
 20
248.0
 30
0.0
 11
-804.00914899999941
 21
250.0
 31
0.0
  0
LINE
  5
805
  8
DETAIL
  6
CONTINUOUS
 62
     5
 10
-790.00914899999964
 20
248.0
 30
0.0
 11
-788.00914899999975
 21
250.0
 31
0.0
  0
LINE
  5
806
  8
DETAIL
  6
CONTINUOUS
 62
     5
 10
-790.00914899999964
 20
248.0
 30
0.0
 11
-788.00914899999975
 21
246.0
 31
0.0
  0
LINE
  5
807
  8
DETAIL
  6
CONTINUOUS
 62
     5
 10
-790.00914899999964
 20
234.0
 30
0.0
 11
-788.00914899999975
 21
236.0
 31
0.0
  0
LINE
  5
808
  8
DETAIL
  6
CONTINUOUS
 62
     5
 10
-790.00914899999964
 20
234.0
 30
0.0
 11
-788.00914899999975
 21
232.0
 31
0.0
  0
LINE
  5
809
  8
DETAIL
  6
CONTINUOUS
 62
     5
 10
-790.00914899999964
 20
234.0
 30
0.0
 11
-802.00914899999964
 21
234.0
 31
0.0
  0
LINE
  5
80A
  8
DETAIL
  6
CONTINUOUS
 62
     5
 10
-790.00914899999964
 20
248.0
 30
0.0
 11
-802.00914899999964
 21
248.0
 31
0.0
  0
LINE
  5
80B
  8
DETAIL
  6
CONTINUOUS
 62
     5
 10
-788.00914899999975
 20
230.0
 30
0.0
 11
-790.00914899999964
 21
228.0
 31
0.0
  0
LINE
  5
80C
  8
DETAIL
  6
CONTINUOUS
 62
     5
 10
-788.00914899999975
 20
252.0
 30
0.0
 11
-790.00914899999964
 21
254.0
 31
0.0
  0
LINE
  5
80D
  8
DETAIL
  6
CONTINUOUS
 62
     5
 10
-807.0
 20
229.75
 30
0.0
 11
-804.00914899999941
 21
228.0
 31
0.0
  0
LINE
  5
80E
  8
DETAIL
  6
CONTINUOUS
 62
     5
 10
-804.00914899999941
 20
254.0
 30
0.0
 11
-807.0
 21
252.24999600000001
 31
0.0
  0
LINE
  5
80F
  8
DETAIL
  6
CONTINUOUS
 62
     5
 10
-804.00914899999941
 20
254.0
 30
0.0
 11
-804.00914899999941
 21
228.0
 31
0.0
  0
LINE
  5
810
  8
DETAIL
  6
CONTINUOUS
 62
     5
 10
-788.00914899999975
 20
252.0
 30
0.0
 11
-788.00914899999975
 21
230.0
 31
0.0
  0
LINE
  5
811
  8
DETAIL
  6
CONTINUOUS
 62
     5
 10
-788.00914899999975
 20
252.0
 30
0.0
 11
-788.00914899999975
 21
230.0
 31
0.0
  0
LINE
  5
812
  8
DETAIL
  6
CONTINUOUS
 62
     5
 10
-790.00914899999964
 20
228.0
 30
0.0
 11
-804.00914899999941
 21
228.0
 31
0.0
  0
LINE
  5
813
  8
DETAIL
  6
CONTINUOUS
 62
     5
 10
-790.00914899999964
 20
254.0
 30
0.0
 11
-804.00914899999941
 21
254.0
 31
0.0
  0
LINE
  5
814
  8
DETAIL
  6
CONTINUOUS
 62
     5
 10
-788.00914899999975
 20
249.0
 30
0.0
 11
-788.00914899999975
 21
233.0
 31
0.0
  0
LINE
  5
815
  8
DETAIL
  6
CONTINUOUS
 62
     5
 10
-788.00914899999975
 20
233.06
 30
0.0
 11
-784.00914899999975
 21
233.06
 31
0.0
  0
LINE
  5
816
  8
DETAIL
  6
CONTINUOUS
 62
     5
 10
-788.00914899999975
 20
248.94
 30
0.0
 11
-784.00914899999975
 21
248.94
 31
0.0
  0
LINE
  5
817
  8
DETAIL
  6
CONTINUOUS
 62
     5
 10
-784.00914899999975
 20
250.5
 30
0.0
 11
-782.00914899999964
 21
252.5
 31
0.0
  0
LINE
  5
818
  8
DETAIL
  6
CONTINUOUS
 62
     5
 10
-784.00914899999975
 20
231.5
 30
0.0
 11
-782.00914899999964
 21
229.5
 31
0.0
  0
LINE
  5
819
  8
DETAIL
  6
CONTINUOUS
 62
     5
 10
-784.00914899999975
 20
250.5
 30
0.0
 11
-784.00914899999975
 21
231.5
 31
0.0
  0
POINT
  5
81A
  8
DEFPOINTS
  6
CONTINUOUS
 62
     7
 10
-797.0
 20
269.0
 30
0.0
  0
POINT
  5
81B
  8
DEFPOINTS
  6
CONTINUOUS
 62
     7
 10
-807.0
 20
241.0
 30
0.0
  0
LINE
  5
825
  8
NOTE
  6
CONTINUOUS
 62
     4
 10
-807.0
 20
241.0
 30
0.0
 11
-1100.6744550000001
 21
532.75190699999996
 31
0.0
  0
LINE
  5
828
  8
NOTE
  6
CONTINUOUS
 62
     4
 10
-755.0
 20
170.0
 30
0.0
 11
-1068.5263511824451
 21
-122.34094469449219
 31
0.0
  0
LINE
  5
829
  8
NOTE
  6
CONTINUOUS
 62
     4
 10
-788.99999999999966
 20
326.0
 30
0.0
 11
-1103.147894
 21
785.45585000000005
 31
0.0
  0
LINE
  5
82A
  8
NOTE
  6
CONTINUOUS
 62
     4
 10
-797.0
 20
269.0
 30
0.0
 11
-1101.850054
 21
645.77491799999984
 31
0.0
  0
ARC
  5
82C
  8
SIZE
  6
CONTINUOUS
 62
    30
 10
1334.9885368282071
 20
-366.94459505164423
 30
0.0
 40
31.597198222215269
 50
181.80852857887999
 51
223.99350352523689
  0
ARC
  5
82D
  8
SIZE
  6
CONTINUOUS
 62
    30
 10
1356.928375135531
 20
-347.48861128854099
 30
0.0
 40
60.90746270431729
 50
222.82515804894271
 51
241.60012473519581
  0
ARC
  5
82E
  8
SIZE
  6
CONTINUOUS
 62
    30
 10
1376.0152820273879
 20
-313.18683931000618
 30
0.0
 40
100.16028824489059
 50
241.3283455528055
 51
254.7947524710853
  0
ARC
  5
82F
  8
SIZE
  6
CONTINUOUS
 62
    30
 10
1386.7246278139401
 20
-274.08721768872789
 30
0.0
 40
140.69997251379331
 50
254.76238472147489
 51
270.20744549779181
  0
ARC
  5
830
  8
SIZE
  6
CONTINUOUS
 62
    30
 10
1387.7434641860591
 20
-274.08721768872789
 30
0.0
 40
140.6999725137932
 50
269.7925545022083
 51
285.2376152785252
  0
ARC
  5
831
  8
SIZE
  6
CONTINUOUS
 62
    30
 10
1398.4528099726119
 20
-313.18683931000709
 30
0.0
 40
100.1602882448897
 50
285.20524752891481
 51
298.67165444719473
  0
ARC
  5
832
  8
SIZE
  6
CONTINUOUS
 62
    30
 10
1417.539716864469
 20
-347.48861128854043
 30
0.0
 40
60.90746270431778
 50
298.39987526480371
 51
317.17484195105681
  0
ARC
  5
833
  8
SIZE
  6
CONTINUOUS
 62
    30
 10
1439.479555671792
 20
-366.94459375535803
 30
0.0
 40
31.5971987628762
 50
316.00649415396788
 51
358.19146910032492
  0
LINE
  5
834
  8
SIZE
  6
CONTINUOUS
 62
    30
 10
1471.061015
 20
-367.94178799999997
 30
0.0
 11
1471.061015
 21
-367.94178799999997
 31
0.0
  0
ARC
  5
835
  8
SIZE
  6
CONTINUOUS
 62
    30
 10
1439.479555671792
 20
-49.548281244641892
 30
0.0
 40
31.59719876287614
 50
1.8085308996749261
 51
43.993505846031972
  0
ARC
  5
836
  8
SIZE
  6
CONTINUOUS
 62
    30
 10
1417.539716864469
 20
-69.004263711459615
 30
0.0
 40
60.907462704317929
 50
42.825158048943052
 51
61.600124735196069
  0
ARC
  5
837
  8
SIZE
  6
CONTINUOUS
 62
    30
 10
1398.4528057374971
 20
-103.3060351899928
 30
0.0
 40
100.1602898381614
 50
61.32834328997464
 51
74.794750208254513
  0
ARC
  5
838
  8
SIZE
  6
CONTINUOUS
 62
    30
 10
1387.7434678732191
 20
-142.40565681127211
 30
0.0
 40
140.6999720271464
 50
74.762386223685581
 51
90.207447000002389
  0
ARC
  5
839
  8
SIZE
  6
CONTINUOUS
 62
    30
 10
1386.7246241267801
 20
-142.40565681127211
 30
0.0
 40
140.6999720271462
 50
89.792552999997554
 51
105.2376137763144
  0
ARC
  5
83A
  8
SIZE
  6
CONTINUOUS
 62
    30
 10
1376.015286262503
 20
-103.30603518999381
 30
0.0
 40
100.1602898381624
 50
105.2052497917453
 51
118.6716567100252
  0
ARC
  5
83B
  8
SIZE
  6
CONTINUOUS
 62
    30
 10
1356.928375135531
 20
-69.004263711458947
 30
0.0
 40
60.90746270431741
 50
118.39987526480439
 51
137.1748419510574
  0
ARC
  5
83C
  8
SIZE
  6
CONTINUOUS
 62
    30
 10
1334.9885368282071
 20
-49.54827994835572
 30
0.0
 40
31.597198222215209
 50
136.00649647476311
 51
178.1914714211199
  0
LINE
  5
D3F
  8
SIZE
  6
CONTINUOUS
 62
    30
 10
-828.66833499999973
 20
326.0
 30
0.0
 11
-1144.761093632678
 21
326.00000000000011
 31
0.0
  0
LINE
  5
D40
  8
SIZE
  6
CONTINUOUS
 62
    30
 10
-775.0
 20
140.0
 30
0.0
 11
-1144.761093632678
 21
140.00000000000011
 31
0.0
  0
LINE
  5
D41
  8
SIZE
  6
CONTINUOUS
 62
    30
 10
-1126.761093632678
 20
306.0
 30
0.0
 11
-1126.761093632678
 21
160.00000000000011
 31
0.0
  0
LINE
  5
D42
  8
SIZE
  6
CONTINUOUS
 62
    30
 10
-1126.761093632678
 20
140.00000000000011
 30
0.0
 11
-1126.761093632678
 21
-1.68620754802726
 31
0.0
  0
TEXT
  5
D48
  8
SIZE
  6
CONTINUOUS
 62
    30
 10
-1135.7465809316491
 20
11.40689622598644
 30
0.0
 40
55.0
  1
186
 50
90.0
 41
0.9
 72
     1
 11
-1135.7465809316491
 21
69.156896225986429
 31
0.0
  0
CIRCLE
  5
D49
  8
SIZE
  6
CONTINUOUS
 62
    30
 10
-1126.761093632678
 20
140.00000000000011
 30
0.0
 40
10.0
  0
LINE
  5
D4A
  8
SIZE
  6
CONTINUOUS
 62
    30
 10
-1126.761093632678
 20
150.00000000000011
 30
0.0
 11
-1126.761093632678
 21
160.00000000000011
 31
0.0
  0
CIRCLE
  5
D4B
  8
SIZE
  6
CONTINUOUS
 62
    30
 10
-1126.761093632678
 20
326.00000000000011
 30
0.0
 40
10.0
  0
LINE
  5
D4C
  8
SIZE
  6
CONTINUOUS
 62
    30
 10
-1126.761093632678
 20
316.00000000000011
 30
0.0
 11
-1126.761093632678
 21
306.0
 31
0.0
  0
TEXT
  5
ED8
  8
ETC
  6
CONTINUOUS
 62
    61
 10
523.63471476272662
 20
1385.9769597779109
 30
0.0
 40
80.0
  1
PD-RP112_160FA8_2
 50
0.000003
 41
0.8
  0
TEXT
  5
ED9
  8
ETC
  6
CONTINUOUS
 62
    61
 10
520.47626239635156
 20
1502.7868962197231
 30
0.0
 40
80.0
  1
PD-RP112_160FA7_2
 50
0.000003
 41
0.8
  0
TEXT
  5
EDA
  8
ETC
  6
CONTINUOUS
 62
    61
 10
523.63471034548002
 20
1269.1670249858571
 30
0.0
 40
80.0
  1
PD-RP112_160FA9_2
 50
0.000003
 41
0.8
  0
LINE
  5
FD9
  8
DETAIL
  6
CONTINUOUS
 62
     5
 10
748.0
 20
475.0
 30
0.0
 11
748.00000000000011
 21
169.40328099999999
 31
0.0
  0
LINE
  5
FDF
  8
DETAIL
  6
CONTINUOUS
 62
     5
 10
-748.0
 20
475.00000009815642
 30
0.0
 11
-748.0
 21
169.40328109815641
 31
0.0
  0
TEXT
  5
FF0
  8
ETC
  6
CONTINUOUS
 62
    61
 10
1044.5956138811271
 20
1132.7692665409959
 30
0.0
 40
80.0
  1
(角ダクト組込)
 50
0.000003
 41
0.8
  0
LINE
  5
1025
  8
DETAIL
  6
CONTINUOUS
 62
     5
 10
720.0
 20
442.000000000005
 30
0.0
 11
-720.0
 21
442.000000000005
 31
0.0
  0
LINE
  5
1026
  8
DETAIL
  6
CONTINUOUS
 62
     5
 10
720.0
 20
228.000000000005
 30
0.0
 11
-720.0
 21
228.000000000005
 31
0.0
  0
LINE
  5
1027
  8
DETAIL
  6
CONTINUOUS
 62
     5
 10
-720.0
 20
228.000000000005
 30
0.0
 11
-720.0
 21
442.000000000005
 31
0.0
  0
LINE
  5
1028
  8
DETAIL
  6
CONTINUOUS
 62
     5
 10
720.0
 20
228.000000000005
 30
0.0
 11
720.0
 21
442.000000000005
 31
0.0
  0
TEXT
  5
1029
  8
SIZE
  6
CONTINUOUS
 62
    30
 10
1043.833611676785
 20
206.3302910172703
 30
0.0
 40
55.0
  1
（ダクト
 50
90.0
 41
0.9
 72
     1
 11
1043.833611676785
 21
325.13029101727028
 31
0.0
  0
TEXT
  5
102A
  8
SIZE
  6
CONTINUOUS
 62
    30
 10
1115.2513843782581
 20
305.1618128933394
 30
0.0
 40
55.0
  1
外寸）
 50
90.0
 41
0.9
 72
     1
 11
1115.2513843782581
 21
374.46181289333941
 31
0.0
  0
LINE
  5
102B
  8
SIZE
  6
CONTINUOUS
 62
    30
 10
740.0
 20
442.000000000005
 30
0.0
 11
982.57881717210967
 21
442.000000000005
 31
0.0
  0
LINE
  5
102C
  8
SIZE
  6
CONTINUOUS
 62
    30
 10
740.0
 20
228.000000000005
 30
0.0
 11
982.57881717210967
 21
228.000000000005
 31
0.0
  0
LINE
  5
102D
  8
SIZE
  6
CONTINUOUS
 62
    30
 10
952.57881717210955
 20
432.000000000005
 30
0.0
 11
952.57881717210955
 21
238.000000000005
 31
0.0
  0
TEXT
  5
102E
  8
SIZE
  6
CONTINUOUS
 62
    30
 10
937.63569512940353
 20
274.89285714286223
 30
0.0
 40
55.0
  1
214
 50
90.0
 41
0.9
 72
     1
 11
937.63569512940353
 21
335.000000000005
 31
0.0
  0
CIRCLE
  5
102F
  8
SIZE
  6
CONTINUOUS
 62
    30
 10
952.57881717210955
 20
228.000000000005
 30
0.0
 40
5.0
  0
LINE
  5
1030
  8
SIZE
  6
CONTINUOUS
 62
    30
 10
952.57881717210955
 20
233.000000000005
 30
0.0
 11
952.57881717210955
 21
238.000000000005
 31
0.0
  0
CIRCLE
  5
1031
  8
SIZE
  6
CONTINUOUS
 62
    30
 10
952.57881717210955
 20
442.000000000005
 30
0.0
 40
5.0
  0
LINE
  5
1032
  8
SIZE
  6
CONTINUOUS
 62
    30
 10
952.57881717210955
 20
437.00000000000489
 30
0.0
 11
952.57881717210955
 21
432.000000000005
 31
0.0
  0
LINE
  5
1043
  8
NOTE
  6
CONTINUOUS
 62
     4
 10
720.0
 20
326.00000023678598
 30
0.0
 11
720.0
 21
343.99999976324489
 31
0.0
  0
LINE
  5
1044
  8
NOTE
  6
CONTINUOUS
 62
     4
 10
728.99999976322022
 20
335.00000000000517
 30
0.0
 11
711.00000023676876
 21
335.00000000000517
 31
0.0
  0
LINE
  5
1045
  8
NOTE
  6
CONTINUOUS
 62
     4
 10
720.0
 20
261.00000023678598
 30
0.0
 11
720.0
 21
278.99999976324489
 31
0.0
  0
LINE
  5
1046
  8
NOTE
  6
CONTINUOUS
 62
     4
 10
728.99999976322022
 20
270.00000000000517
 30
0.0
 11
711.00000023676876
 21
270.00000000000517
 31
0.0
  0
LINE
  5
1047
  8
NOTE
  6
CONTINUOUS
 62
     4
 10
720.0
 20
391.00000023678598
 30
0.0
 11
720.0
 21
408.99999976324489
 31
0.0
  0
LINE
  5
1048
  8
NOTE
  6
CONTINUOUS
 62
     4
 10
728.99999976322056
 20
400.00000000000489
 30
0.0
 11
711.00000023676898
 21
400.00000000000489
 31
0.0
  0
LINE
  5
1049
  8
NOTE
  6
CONTINUOUS
 62
     4
 10
-720.0
 20
326.00000023678598
 30
0.0
 11
-720.0
 21
343.99999976324489
 31
0.0
  0
LINE
  5
104A
  8
NOTE
  6
CONTINUOUS
 62
     4
 10
-711.00000023677967
 20
335.00000000000517
 30
0.0
 11
-728.99999976323124
 21
335.00000000000517
 31
0.0
  0
LINE
  5
104B
  8
NOTE
  6
CONTINUOUS
 62
     4
 10
-720.0
 20
261.00000023678598
 30
0.0
 11
-720.0
 21
278.99999976324489
 31
0.0
  0
LINE
  5
104C
  8
NOTE
  6
CONTINUOUS
 62
     4
 10
-711.00000023677967
 20
270.00000000000517
 30
0.0
 11
-728.99999976323124
 21
270.00000000000517
 31
0.0
  0
LINE
  5
104D
  8
NOTE
  6
CONTINUOUS
 62
     4
 10
-720.0
 20
391.00000023678598
 30
0.0
 11
-720.0
 21
408.99999976324489
 31
0.0
  0
LINE
  5
104E
  8
NOTE
  6
CONTINUOUS
 62
     4
 10
-711.00000023677944
 20
400.00000000000489
 30
0.0
 11
-728.9999997632309
 21
400.00000000000489
 31
0.0
  0
LINE
  5
109D
  8
NOTE
  6
CONTINUOUS
 62
     4
 10
658.99999976321942
 20
442.000000000005
 30
0.0
 11
641.00000023676046
 21
442.000000000005
 31
0.0
  0
LINE
  5
109E
  8
NOTE
  6
CONTINUOUS
 62
     4
 10
650.0
 20
450.99999976322579
 30
0.0
 11
650.0
 21
433.00000023677421
 31
0.0
  0
LINE
  5
10A1
  8
NOTE
  6
CONTINUOUS
 62
     4
 10
658.99999976321942
 20
442.000000000005
 30
0.0
 11
641.00000023676046
 21
442.000000000005
 31
0.0
  0
LINE
  5
10A2
  8
NOTE
  6
CONTINUOUS
 62
     4
 10
650.0
 20
450.99999976322579
 30
0.0
 11
650.0
 21
433.00000023677421
 31
0.0
  0
LINE
  5
1132
  8
NOTE
  6
CONTINUOUS
 62
     4
 10
650.0
 20
450.99999976322579
 30
0.0
 11
650.0
 21
433.00000023677421
 31
0.0
  0
LINE
  5
1133
  8
NOTE
  6
CONTINUOUS
 62
     4
 10
593.99999976321953
 20
442.000000000005
 30
0.0
 11
576.00000023676046
 21
442.000000000005
 31
0.0
  0
LINE
  5
1134
  8
NOTE
  6
CONTINUOUS
 62
     4
 10
585.0
 20
450.99999976322579
 30
0.0
 11
585.0
 21
433.00000023677421
 31
0.0
  0
LINE
  5
1136
  8
NOTE
  6
CONTINUOUS
 62
     4
 10
528.99999976321942
 20
442.000000000005
 30
0.0
 11
511.00000023676051
 21
442.000000000005
 31
0.0
  0
LINE
  5
1137
  8
NOTE
  6
CONTINUOUS
 62
     4
 10
520.00000000000034
 20
450.99999976322579
 30
0.0
 11
520.00000000000034
 21
433.00000023677421
 31
0.0
  0
LINE
  5
1138
  8
NOTE
  6
CONTINUOUS
 62
     4
 10
463.99999976321942
 20
442.000000000005
 30
0.0
 11
446.0000002367604
 21
442.000000000005
 31
0.0
  0
LINE
  5
1139
  8
NOTE
  6
CONTINUOUS
 62
     4
 10
455.0
 20
450.99999976322579
 30
0.0
 11
455.0
 21
433.00000023677421
 31
0.0
  0
LINE
  5
113A
  8
NOTE
  6
CONTINUOUS
 62
     4
 10
463.99999976321942
 20
442.000000000005
 30
0.0
 11
446.0000002367604
 21
442.000000000005
 31
0.0
  0
LINE
  5
113B
  8
NOTE
  6
CONTINUOUS
 62
     4
 10
455.0
 20
450.99999976322579
 30
0.0
 11
455.0
 21
433.00000023677421
 31
0.0
  0
LINE
  5
113C
  8
NOTE
  6
CONTINUOUS
 62
     4
 10
398.99999976321942
 20
442.000000000005
 30
0.0
 11
381.00000023676063
 21
442.000000000005
 31
0.0
  0
LINE
  5
113D
  8
NOTE
  6
CONTINUOUS
 62
     4
 10
390.0
 20
450.99999976322579
 30
0.0
 11
390.0
 21
433.00000023677421
 31
0.0
  0
LINE
  5
113E
  8
NOTE
  6
CONTINUOUS
 62
     4
 10
398.99999976321942
 20
442.000000000005
 30
0.0
 11
381.00000023676063
 21
442.000000000005
 31
0.0
  0
LINE
  5
113F
  8
NOTE
  6
CONTINUOUS
 62
     4
 10
390.0
 20
450.99999976322579
 30
0.0
 11
390.0
 21
433.00000023677421
 31
0.0
  0
LINE
  5
1140
  8
NOTE
  6
CONTINUOUS
 62
     4
 10
333.99999976321942
 20
442.000000000005
 30
0.0
 11
316.00000023676063
 21
442.000000000005
 31
0.0
  0
LINE
  5
1141
  8
NOTE
  6
CONTINUOUS
 62
     4
 10
325.00000000000051
 20
450.99999976322579
 30
0.0
 11
325.00000000000051
 21
433.00000023677421
 31
0.0
  0
LINE
  5
1142
  8
NOTE
  6
CONTINUOUS
 62
     4
 10
333.99999976321942
 20
442.000000000005
 30
0.0
 11
316.00000023676063
 21
442.000000000005
 31
0.0
  0
LINE
  5
1143
  8
NOTE
  6
CONTINUOUS
 62
     4
 10
325.00000000000051
 20
450.99999976322579
 30
0.0
 11
325.00000000000051
 21
433.00000023677421
 31
0.0
  0
LINE
  5
1144
  8
NOTE
  6
CONTINUOUS
 62
     4
 10
268.99999976321942
 20
442.000000000005
 30
0.0
 11
251.0000002367606
 21
442.000000000005
 31
0.0
  0
LINE
  5
1145
  8
NOTE
  6
CONTINUOUS
 62
     4
 10
260.0
 20
450.99999976322579
 30
0.0
 11
260.0
 21
433.00000023677421
 31
0.0
  0
LINE
  5
1146
  8
NOTE
  6
CONTINUOUS
 62
     4
 10
268.99999976321942
 20
442.000000000005
 30
0.0
 11
251.0000002367606
 21
442.000000000005
 31
0.0
  0
LINE
  5
1147
  8
NOTE
  6
CONTINUOUS
 62
     4
 10
260.0
 20
450.99999976322579
 30
0.0
 11
260.0
 21
433.00000023677421
 31
0.0
  0
LINE
  5
1148
  8
NOTE
  6
CONTINUOUS
 62
     4
 10
203.99999976321939
 20
442.000000000005
 30
0.0
 11
186.00000023676051
 21
442.000000000005
 31
0.0
  0
LINE
  5
1149
  8
NOTE
  6
CONTINUOUS
 62
     4
 10
195.0000000000004
 20
450.99999976322579
 30
0.0
 11
195.0000000000004
 21
433.00000023677421
 31
0.0
  0
LINE
  5
114A
  8
NOTE
  6
CONTINUOUS
 62
     4
 10
203.99999976321939
 20
442.000000000005
 30
0.0
 11
186.00000023676051
 21
442.000000000005
 31
0.0
  0
LINE
  5
114B
  8
NOTE
  6
CONTINUOUS
 62
     4
 10
195.0000000000004
 20
450.99999976322579
 30
0.0
 11
195.0000000000004
 21
433.00000023677421
 31
0.0
  0
LINE
  5
114C
  8
NOTE
  6
CONTINUOUS
 62
     4
 10
138.99999976321939
 20
442.000000000005
 30
0.0
 11
121.0000002367604
 21
442.000000000005
 31
0.0
  0
LINE
  5
114D
  8
NOTE
  6
CONTINUOUS
 62
     4
 10
130.0000000000004
 20
450.99999976322579
 30
0.0
 11
130.0000000000004
 21
433.00000023677421
 31
0.0
  0
LINE
  5
114E
  8
NOTE
  6
CONTINUOUS
 62
     4
 10
138.99999976321939
 20
442.000000000005
 30
0.0
 11
121.0000002367604
 21
442.000000000005
 31
0.0
  0
LINE
  5
114F
  8
NOTE
  6
CONTINUOUS
 62
     4
 10
130.0000000000004
 20
450.99999976322579
 30
0.0
 11
130.0000000000004
 21
433.00000023677421
 31
0.0
  0
LINE
  5
1150
  8
NOTE
  6
CONTINUOUS
 62
     4
 10
73.999999763219421
 20
442.000000000005
 30
0.0
 11
56.00000023676057
 21
442.000000000005
 31
0.0
  0
LINE
  5
1151
  8
NOTE
  6
CONTINUOUS
 62
     4
 10
65.000000000000455
 20
450.99999976322579
 30
0.0
 11
65.000000000000455
 21
433.00000023677421
 31
0.0
  0
LINE
  5
1152
  8
NOTE
  6
CONTINUOUS
 62
     4
 10
73.999999763219421
 20
442.000000000005
 30
0.0
 11
56.00000023676057
 21
442.000000000005
 31
0.0
  0
LINE
  5
1153
  8
NOTE
  6
CONTINUOUS
 62
     4
 10
65.000000000000455
 20
450.99999976322579
 30
0.0
 11
65.000000000000455
 21
433.00000023677421
 31
0.0
  0
LINE
  5
1154
  8
NOTE
  6
CONTINUOUS
 62
     4
 10
8.9999997632194209
 20
442.000000000005
 30
0.0
 11
-8.9999997632394297
 21
442.000000000005
 31
0.0
  0
LINE
  5
1155
  8
NOTE
  6
CONTINUOUS
 62
     4
 10
0.0
 20
450.99999976322579
 30
0.0
 11
0.0
 21
433.00000023677421
 31
0.0
  0
LINE
  5
1156
  8
NOTE
  6
CONTINUOUS
 62
     4
 10
8.9999997632194209
 20
442.000000000005
 30
0.0
 11
-8.9999997632394297
 21
442.000000000005
 31
0.0
  0
LINE
  5
1157
  8
NOTE
  6
CONTINUOUS
 62
     4
 10
0.0
 20
450.99999976322579
 30
0.0
 11
0.0
 21
433.00000023677421
 31
0.0
  0
LINE
  5
1158
  8
NOTE
  6
CONTINUOUS
 62
     4
 10
-56.000000236780579
 20
442.000000000005
 30
0.0
 11
-73.99999976323943
 21
442.000000000005
 31
0.0
  0
LINE
  5
1159
  8
NOTE
  6
CONTINUOUS
 62
     4
 10
-64.999999999999545
 20
450.99999976322579
 30
0.0
 11
-64.999999999999545
 21
433.00000023677421
 31
0.0
  0
LINE
  5
115A
  8
NOTE
  6
CONTINUOUS
 62
     4
 10
-56.000000236780579
 20
442.000000000005
 30
0.0
 11
-73.99999976323943
 21
442.000000000005
 31
0.0
  0
LINE
  5
115B
  8
NOTE
  6
CONTINUOUS
 62
     4
 10
-64.999999999999545
 20
450.99999976322579
 30
0.0
 11
-64.999999999999545
 21
433.00000023677421
 31
0.0
  0
LINE
  5
115C
  8
NOTE
  6
CONTINUOUS
 62
     4
 10
-121.00000023678039
 20
442.000000000005
 30
0.0
 11
-138.9999997632394
 21
442.000000000005
 31
0.0
  0
LINE
  5
115D
  8
NOTE
  6
CONTINUOUS
 62
     4
 10
-129.99999999999949
 20
450.99999976322579
 30
0.0
 11
-129.99999999999949
 21
433.00000023677421
 31
0.0
  0
LINE
  5
115E
  8
NOTE
  6
CONTINUOUS
 62
     4
 10
-186.00000023678041
 20
442.000000000005
 30
0.0
 11
-203.9999997632394
 21
442.000000000005
 31
0.0
  0
LINE
  5
115F
  8
NOTE
  6
CONTINUOUS
 62
     4
 10
-194.99999999999949
 20
450.99999976322579
 30
0.0
 11
-194.99999999999949
 21
433.00000023677421
 31
0.0
  0
LINE
  5
1160
  8
NOTE
  6
CONTINUOUS
 62
     4
 10
-186.00000023678041
 20
442.000000000005
 30
0.0
 11
-203.9999997632394
 21
442.000000000005
 31
0.0
  0
LINE
  5
1161
  8
NOTE
  6
CONTINUOUS
 62
     4
 10
-194.99999999999949
 20
450.99999976322579
 30
0.0
 11
-194.99999999999949
 21
433.00000023677421
 31
0.0
  0
LINE
  5
1162
  8
NOTE
  6
CONTINUOUS
 62
     4
 10
-251.00000023678029
 20
442.000000000005
 30
0.0
 11
-268.99999976323937
 21
442.000000000005
 31
0.0
  0
LINE
  5
1163
  8
NOTE
  6
CONTINUOUS
 62
     4
 10
-259.9999999999996
 20
450.99999976322579
 30
0.0
 11
-259.9999999999996
 21
433.00000023677421
 31
0.0
  0
LINE
  5
1164
  8
NOTE
  6
CONTINUOUS
 62
     4
 10
-251.00000023678029
 20
442.000000000005
 30
0.0
 11
-268.99999976323937
 21
442.000000000005
 31
0.0
  0
LINE
  5
1165
  8
NOTE
  6
CONTINUOUS
 62
     4
 10
-259.9999999999996
 20
450.99999976322579
 30
0.0
 11
-259.9999999999996
 21
433.00000023677421
 31
0.0
  0
LINE
  5
1166
  8
NOTE
  6
CONTINUOUS
 62
     4
 10
-316.00000023678058
 20
442.000000000005
 30
0.0
 11
-333.99999976323937
 21
442.000000000005
 31
0.0
  0
LINE
  5
1167
  8
NOTE
  6
CONTINUOUS
 62
     4
 10
-324.9999999999996
 20
450.99999976322579
 30
0.0
 11
-324.9999999999996
 21
433.00000023677421
 31
0.0
  0
LINE
  5
1168
  8
NOTE
  6
CONTINUOUS
 62
     4
 10
-316.00000023678058
 20
442.000000000005
 30
0.0
 11
-333.99999976323937
 21
442.000000000005
 31
0.0
  0
LINE
  5
1169
  8
NOTE
  6
CONTINUOUS
 62
     4
 10
-324.9999999999996
 20
450.99999976322579
 30
0.0
 11
-324.9999999999996
 21
433.00000023677421
 31
0.0
  0
LINE
  5
116A
  8
NOTE
  6
CONTINUOUS
 62
     4
 10
-381.00000023678058
 20
442.000000000005
 30
0.0
 11
-398.99999976323949
 21
442.000000000005
 31
0.0
  0
LINE
  5
116B
  8
NOTE
  6
CONTINUOUS
 62
     4
 10
-381.00000023678058
 20
442.000000000005
 30
0.0
 11
-398.99999976323949
 21
442.000000000005
 31
0.0
  0
LINE
  5
116C
  8
NOTE
  6
CONTINUOUS
 62
     4
 10
-389.99999999999949
 20
450.99999976322579
 30
0.0
 11
-389.99999999999949
 21
433.00000023677421
 31
0.0
  0
LINE
  5
116D
  8
NOTE
  6
CONTINUOUS
 62
     4
 10
-446.00000023678041
 20
442.000000000005
 30
0.0
 11
-463.99999976323937
 21
442.000000000005
 31
0.0
  0
LINE
  5
116E
  8
NOTE
  6
CONTINUOUS
 62
     4
 10
-446.00000023678041
 20
442.000000000005
 30
0.0
 11
-463.99999976323937
 21
442.000000000005
 31
0.0
  0
LINE
  5
116F
  8
NOTE
  6
CONTINUOUS
 62
     4
 10
-454.99999999999949
 20
450.99999976322579
 30
0.0
 11
-454.99999999999949
 21
433.00000023677421
 31
0.0
  0
LINE
  5
1170
  8
NOTE
  6
CONTINUOUS
 62
     4
 10
-511.00000023678041
 20
442.000000000005
 30
0.0
 11
-528.99999976323943
 21
442.000000000005
 31
0.0
  0
LINE
  5
1171
  8
NOTE
  6
CONTINUOUS
 62
     4
 10
-511.00000023678041
 20
442.000000000005
 30
0.0
 11
-528.99999976323943
 21
442.000000000005
 31
0.0
  0
LINE
  5
1172
  8
NOTE
  6
CONTINUOUS
 62
     4
 10
-519.99999999999955
 20
450.99999976322579
 30
0.0
 11
-519.99999999999955
 21
433.00000023677421
 31
0.0
  0
LINE
  5
1173
  8
NOTE
  6
CONTINUOUS
 62
     4
 10
-576.00000023678035
 20
442.000000000005
 30
0.0
 11
-593.99999976323954
 21
442.000000000005
 31
0.0
  0
LINE
  5
1174
  8
NOTE
  6
CONTINUOUS
 62
     4
 10
-576.00000023678035
 20
442.000000000005
 30
0.0
 11
-593.99999976323954
 21
442.000000000005
 31
0.0
  0
LINE
  5
1175
  8
NOTE
  6
CONTINUOUS
 62
     4
 10
-584.99999999999955
 20
450.99999976322579
 30
0.0
 11
-584.99999999999955
 21
433.00000023677421
 31
0.0
  0
LINE
  5
1176
  8
NOTE
  6
CONTINUOUS
 62
     4
 10
-641.00000023678047
 20
442.000000000005
 30
0.0
 11
-658.99999976323943
 21
442.000000000005
 31
0.0
  0
LINE
  5
1177
  8
NOTE
  6
CONTINUOUS
 62
     4
 10
-641.00000023678047
 20
442.000000000005
 30
0.0
 11
-658.99999976323943
 21
442.000000000005
 31
0.0
  0
LINE
  5
1178
  8
NOTE
  6
CONTINUOUS
 62
     4
 10
-649.99999999999955
 20
450.99999976322579
 30
0.0
 11
-649.99999999999955
 21
433.00000023677421
 31
0.0
  0
LINE
  5
117F
  8
NOTE
  6
CONTINUOUS
 62
     4
 10
658.99999976322943
 20
442.0
 30
0.0
 11
641.00000023677035
 21
442.0
 31
0.0
  0
LINE
  5
1191
  8
SIZE
  6
CONTINUOUS
 62
    30
 10
962.92158700000005
 20
23.5
 30
0.0
 11
1063.944849
 21
-17.519043000000011
 31
0.0
  0
TEXT
  5
1192
  8
SIZE
  6
CONTINUOUS
 62
    30
 10
1045.944849
 20
-115.6619005714285
 30
0.0
 40
55.0
  1
47
 50
90.0
 41
0.9
 72
     1
 11
1045.944849
 21
-75.590471999999977
 31
0.0
  0
LINE
  5
1193
  8
SIZE
  6
CONTINUOUS
 62
    30
 10
1063.944849
 20
-17.519043000000011
 30
0.0
 11
1063.944849
 21
-133.6619
 31
0.0
  0
TEXT
  5
11A6
  8
SIZE
  6
CONTINUOUS
 62
    30
 10
-277.67142857142869
 20
603.76436429984915
 30
0.0
 40
55.0
  1
1440（ダクト外寸）
 41
0.9
 72
     1
 11
0.0
 21
603.76436429984915
 31
0.0
  0
LINE
  5
11B9
  8
SIZE
  6
CONTINUOUS
 62
    30
 10
720.0
 20
462.00000000000489
 30
0.0
 11
720.0
 21
604.75711829334341
 31
0.0
  0
LINE
  5
11BA
  8
SIZE
  6
CONTINUOUS
 62
    30
 10
-720.0
 20
462.00000000000489
 30
0.0
 11
-720.0
 21
604.75711829334341
 31
0.0
  0
LINE
  5
11BB
  8
SIZE
  6
CONTINUOUS
 62
    30
 10
700.0
 20
586.75711829334341
 30
0.0
 11
-700.0
 21
586.75711829334341
 31
0.0
  0
CIRCLE
  5
11C1
  8
SIZE
  6
CONTINUOUS
 62
    30
 10
-720.0
 20
586.75711829334341
 30
0.0
 40
10.0
  0
LINE
  5
11C2
  8
SIZE
  6
CONTINUOUS
 62
    30
 10
-710.0
 20
586.75711829334341
 30
0.0
 11
-700.0
 21
586.75711829334341
 31
0.0
  0
CIRCLE
  5
11C4
  8
SIZE
  6
CONTINUOUS
 62
    30
 10
720.0
 20
586.75711829334341
 30
0.0
 40
10.0
  0
LINE
  5
11C5
  8
SIZE
  6
CONTINUOUS
 62
    30
 10
710.0
 20
586.75711829334341
 30
0.0
 11
700.0
 21
586.75711829334341
 31
0.0
  0
LINE
  5
11C6
  8
NOTE
  6
CONTINUOUS
 62
     4
 10
658.99999976321942
 20
228.00000000001
 30
0.0
 11
641.00000023676046
 21
228.00000000001
 31
0.0
  0
LINE
  5
11C7
  8
NOTE
  6
CONTINUOUS
 62
     4
 10
650.0
 20
236.99999976323079
 30
0.0
 11
650.0
 21
219.00000023677919
 31
0.0
  0
LINE
  5
11C8
  8
NOTE
  6
CONTINUOUS
 62
     4
 10
658.99999976321942
 20
228.00000000001
 30
0.0
 11
641.00000023676046
 21
228.00000000001
 31
0.0
  0
LINE
  5
11C9
  8
NOTE
  6
CONTINUOUS
 62
     4
 10
650.0
 20
236.99999976323079
 30
0.0
 11
650.0
 21
219.00000023677919
 31
0.0
  0
LINE
  5
11CA
  8
NOTE
  6
CONTINUOUS
 62
     4
 10
650.0
 20
236.99999976323079
 30
0.0
 11
650.0
 21
219.00000023677919
 31
0.0
  0
LINE
  5
11CB
  8
NOTE
  6
CONTINUOUS
 62
     4
 10
593.99999976321953
 20
228.00000000001
 30
0.0
 11
576.00000023676046
 21
228.00000000001
 31
0.0
  0
LINE
  5
11CC
  8
NOTE
  6
CONTINUOUS
 62
     4
 10
585.0
 20
236.99999976323079
 30
0.0
 11
585.0
 21
219.00000023677919
 31
0.0
  0
LINE
  5
11CD
  8
NOTE
  6
CONTINUOUS
 62
     4
 10
528.99999976321942
 20
228.00000000001
 30
0.0
 11
511.00000023676051
 21
228.00000000001
 31
0.0
  0
LINE
  5
11CE
  8
NOTE
  6
CONTINUOUS
 62
     4
 10
520.00000000000034
 20
236.99999976323079
 30
0.0
 11
520.00000000000034
 21
219.00000023677919
 31
0.0
  0
LINE
  5
11CF
  8
NOTE
  6
CONTINUOUS
 62
     4
 10
463.99999976321942
 20
228.00000000001
 30
0.0
 11
446.0000002367604
 21
228.00000000001
 31
0.0
  0
LINE
  5
11D0
  8
NOTE
  6
CONTINUOUS
 62
     4
 10
455.0
 20
236.99999976323079
 30
0.0
 11
455.0
 21
219.00000023677919
 31
0.0
  0
LINE
  5
11D1
  8
NOTE
  6
CONTINUOUS
 62
     4
 10
463.99999976321942
 20
228.00000000001
 30
0.0
 11
446.0000002367604
 21
228.00000000001
 31
0.0
  0
LINE
  5
11D2
  8
NOTE
  6
CONTINUOUS
 62
     4
 10
455.0
 20
236.99999976323079
 30
0.0
 11
455.0
 21
219.00000023677919
 31
0.0
  0
LINE
  5
11D3
  8
NOTE
  6
CONTINUOUS
 62
     4
 10
398.99999976321942
 20
228.00000000001
 30
0.0
 11
381.00000023676063
 21
228.00000000001
 31
0.0
  0
LINE
  5
11D4
  8
NOTE
  6
CONTINUOUS
 62
     4
 10
390.0
 20
236.99999976323079
 30
0.0
 11
390.0
 21
219.00000023677919
 31
0.0
  0
LINE
  5
11D5
  8
NOTE
  6
CONTINUOUS
 62
     4
 10
398.99999976321942
 20
228.00000000001
 30
0.0
 11
381.00000023676063
 21
228.00000000001
 31
0.0
  0
LINE
  5
11D6
  8
NOTE
  6
CONTINUOUS
 62
     4
 10
390.0
 20
236.99999976323079
 30
0.0
 11
390.0
 21
219.00000023677919
 31
0.0
  0
LINE
  5
11D7
  8
NOTE
  6
CONTINUOUS
 62
     4
 10
333.99999976321942
 20
228.00000000001
 30
0.0
 11
316.00000023676063
 21
228.00000000001
 31
0.0
  0
LINE
  5
11D8
  8
NOTE
  6
CONTINUOUS
 62
     4
 10
325.00000000000051
 20
236.99999976323079
 30
0.0
 11
325.00000000000051
 21
219.00000023677919
 31
0.0
  0
LINE
  5
11D9
  8
NOTE
  6
CONTINUOUS
 62
     4
 10
333.99999976321942
 20
228.00000000001
 30
0.0
 11
316.00000023676063
 21
228.00000000001
 31
0.0
  0
LINE
  5
11DA
  8
NOTE
  6
CONTINUOUS
 62
     4
 10
325.00000000000051
 20
236.99999976323079
 30
0.0
 11
325.00000000000051
 21
219.00000023677919
 31
0.0
  0
LINE
  5
11DB
  8
NOTE
  6
CONTINUOUS
 62
     4
 10
268.99999976321942
 20
228.00000000001
 30
0.0
 11
251.0000002367606
 21
228.00000000001
 31
0.0
  0
LINE
  5
11DC
  8
NOTE
  6
CONTINUOUS
 62
     4
 10
260.0
 20
236.99999976323079
 30
0.0
 11
260.0
 21
219.00000023677919
 31
0.0
  0
LINE
  5
11DD
  8
NOTE
  6
CONTINUOUS
 62
     4
 10
268.99999976321942
 20
228.00000000001
 30
0.0
 11
251.0000002367606
 21
228.00000000001
 31
0.0
  0
LINE
  5
11DE
  8
NOTE
  6
CONTINUOUS
 62
     4
 10
260.0
 20
236.99999976323079
 30
0.0
 11
260.0
 21
219.00000023677919
 31
0.0
  0
LINE
  5
11DF
  8
NOTE
  6
CONTINUOUS
 62
     4
 10
203.99999976321939
 20
228.00000000001
 30
0.0
 11
186.00000023676051
 21
228.00000000001
 31
0.0
  0
LINE
  5
11E0
  8
NOTE
  6
CONTINUOUS
 62
     4
 10
195.0000000000004
 20
236.99999976323079
 30
0.0
 11
195.0000000000004
 21
219.00000023677919
 31
0.0
  0
LINE
  5
11E1
  8
NOTE
  6
CONTINUOUS
 62
     4
 10
203.99999976321939
 20
228.00000000001
 30
0.0
 11
186.00000023676051
 21
228.00000000001
 31
0.0
  0
LINE
  5
11E2
  8
NOTE
  6
CONTINUOUS
 62
     4
 10
195.0000000000004
 20
236.99999976323079
 30
0.0
 11
195.0000000000004
 21
219.00000023677919
 31
0.0
  0
LINE
  5
11E3
  8
NOTE
  6
CONTINUOUS
 62
     4
 10
138.99999976321939
 20
228.00000000001
 30
0.0
 11
121.0000002367604
 21
228.00000000001
 31
0.0
  0
LINE
  5
11E4
  8
NOTE
  6
CONTINUOUS
 62
     4
 10
130.0000000000004
 20
236.99999976323079
 30
0.0
 11
130.0000000000004
 21
219.00000023677919
 31
0.0
  0
LINE
  5
11E5
  8
NOTE
  6
CONTINUOUS
 62
     4
 10
138.99999976321939
 20
228.00000000001
 30
0.0
 11
121.0000002367604
 21
228.00000000001
 31
0.0
  0
LINE
  5
11E6
  8
NOTE
  6
CONTINUOUS
 62
     4
 10
130.0000000000004
 20
236.99999976323079
 30
0.0
 11
130.0000000000004
 21
219.00000023677919
 31
0.0
  0
LINE
  5
11E7
  8
NOTE
  6
CONTINUOUS
 62
     4
 10
73.999999763219421
 20
228.00000000001
 30
0.0
 11
56.00000023676057
 21
228.00000000001
 31
0.0
  0
LINE
  5
11E8
  8
NOTE
  6
CONTINUOUS
 62
     4
 10
65.000000000000455
 20
236.99999976323079
 30
0.0
 11
65.000000000000455
 21
219.00000023677919
 31
0.0
  0
LINE
  5
11E9
  8
NOTE
  6
CONTINUOUS
 62
     4
 10
73.999999763219421
 20
228.00000000001
 30
0.0
 11
56.00000023676057
 21
228.00000000001
 31
0.0
  0
LINE
  5
11EA
  8
NOTE
  6
CONTINUOUS
 62
     4
 10
65.000000000000455
 20
236.99999976323079
 30
0.0
 11
65.000000000000455
 21
219.00000023677919
 31
0.0
  0
LINE
  5
11EB
  8
NOTE
  6
CONTINUOUS
 62
     4
 10
8.9999997632194209
 20
228.00000000001
 30
0.0
 11
-8.9999997632394297
 21
228.00000000001
 31
0.0
  0
LINE
  5
11EC
  8
NOTE
  6
CONTINUOUS
 62
     4
 10
0.0
 20
236.99999976323079
 30
0.0
 11
0.0
 21
219.00000023677919
 31
0.0
  0
LINE
  5
11ED
  8
NOTE
  6
CONTINUOUS
 62
     4
 10
8.9999997632194209
 20
228.00000000001
 30
0.0
 11
-8.9999997632394297
 21
228.00000000001
 31
0.0
  0
LINE
  5
11EE
  8
NOTE
  6
CONTINUOUS
 62
     4
 10
0.0
 20
236.99999976323079
 30
0.0
 11
0.0
 21
219.00000023677919
 31
0.0
  0
LINE
  5
11EF
  8
NOTE
  6
CONTINUOUS
 62
     4
 10
-56.000000236780579
 20
228.00000000001
 30
0.0
 11
-73.99999976323943
 21
228.00000000001
 31
0.0
  0
LINE
  5
11F0
  8
NOTE
  6
CONTINUOUS
 62
     4
 10
-64.999999999999545
 20
236.99999976323079
 30
0.0
 11
-64.999999999999545
 21
219.00000023677919
 31
0.0
  0
LINE
  5
11F1
  8
NOTE
  6
CONTINUOUS
 62
     4
 10
-56.000000236780579
 20
228.00000000001
 30
0.0
 11
-73.99999976323943
 21
228.00000000001
 31
0.0
  0
LINE
  5
11F2
  8
NOTE
  6
CONTINUOUS
 62
     4
 10
-64.999999999999545
 20
236.99999976323079
 30
0.0
 11
-64.999999999999545
 21
219.00000023677919
 31
0.0
  0
LINE
  5
11F3
  8
NOTE
  6
CONTINUOUS
 62
     4
 10
-121.00000023678039
 20
228.00000000001
 30
0.0
 11
-138.9999997632394
 21
228.00000000001
 31
0.0
  0
LINE
  5
11F4
  8
NOTE
  6
CONTINUOUS
 62
     4
 10
-129.99999999999949
 20
236.99999976323079
 30
0.0
 11
-129.99999999999949
 21
219.00000023677919
 31
0.0
  0
LINE
  5
11F5
  8
NOTE
  6
CONTINUOUS
 62
     4
 10
-186.00000023678041
 20
228.00000000001
 30
0.0
 11
-203.9999997632394
 21
228.00000000001
 31
0.0
  0
LINE
  5
11F6
  8
NOTE
  6
CONTINUOUS
 62
     4
 10
-194.99999999999949
 20
236.99999976323079
 30
0.0
 11
-194.99999999999949
 21
219.00000023677919
 31
0.0
  0
LINE
  5
11F7
  8
NOTE
  6
CONTINUOUS
 62
     4
 10
-186.00000023678041
 20
228.00000000001
 30
0.0
 11
-203.9999997632394
 21
228.00000000001
 31
0.0
  0
LINE
  5
11F8
  8
NOTE
  6
CONTINUOUS
 62
     4
 10
-194.99999999999949
 20
236.99999976323079
 30
0.0
 11
-194.99999999999949
 21
219.00000023677919
 31
0.0
  0
LINE
  5
11F9
  8
NOTE
  6
CONTINUOUS
 62
     4
 10
-251.00000023678029
 20
228.00000000001
 30
0.0
 11
-268.99999976323937
 21
228.00000000001
 31
0.0
  0
LINE
  5
11FA
  8
NOTE
  6
CONTINUOUS
 62
     4
 10
-259.9999999999996
 20
236.99999976323079
 30
0.0
 11
-259.9999999999996
 21
219.00000023677919
 31
0.0
  0
LINE
  5
11FB
  8
NOTE
  6
CONTINUOUS
 62
     4
 10
-251.00000023678029
 20
228.00000000001
 30
0.0
 11
-268.99999976323937
 21
228.00000000001
 31
0.0
  0
LINE
  5
11FC
  8
NOTE
  6
CONTINUOUS
 62
     4
 10
-259.9999999999996
 20
236.99999976323079
 30
0.0
 11
-259.9999999999996
 21
219.00000023677919
 31
0.0
  0
LINE
  5
11FD
  8
NOTE
  6
CONTINUOUS
 62
     4
 10
-316.00000023678058
 20
228.00000000001
 30
0.0
 11
-333.99999976323937
 21
228.00000000001
 31
0.0
  0
LINE
  5
11FE
  8
NOTE
  6
CONTINUOUS
 62
     4
 10
-324.9999999999996
 20
236.99999976323079
 30
0.0
 11
-324.9999999999996
 21
219.00000023677919
 31
0.0
  0
LINE
  5
11FF
  8
NOTE
  6
CONTINUOUS
 62
     4
 10
-316.00000023678058
 20
228.00000000001
 30
0.0
 11
-333.99999976323937
 21
228.00000000001
 31
0.0
  0
LINE
  5
1200
  8
NOTE
  6
CONTINUOUS
 62
     4
 10
-324.9999999999996
 20
236.99999976323079
 30
0.0
 11
-324.9999999999996
 21
219.00000023677919
 31
0.0
  0
LINE
  5
1201
  8
NOTE
  6
CONTINUOUS
 62
     4
 10
-381.00000023678058
 20
228.00000000001
 30
0.0
 11
-398.99999976323949
 21
228.00000000001
 31
0.0
  0
LINE
  5
1202
  8
NOTE
  6
CONTINUOUS
 62
     4
 10
-381.00000023678058
 20
228.00000000001
 30
0.0
 11
-398.99999976323949
 21
228.00000000001
 31
0.0
  0
LINE
  5
1203
  8
NOTE
  6
CONTINUOUS
 62
     4
 10
-389.99999999999949
 20
236.99999976323079
 30
0.0
 11
-389.99999999999949
 21
219.00000023677919
 31
0.0
  0
LINE
  5
1204
  8
NOTE
  6
CONTINUOUS
 62
     4
 10
-446.00000023678041
 20
228.00000000001
 30
0.0
 11
-463.99999976323937
 21
228.00000000001
 31
0.0
  0
LINE
  5
1205
  8
NOTE
  6
CONTINUOUS
 62
     4
 10
-446.00000023678041
 20
228.00000000001
 30
0.0
 11
-463.99999976323937
 21
228.00000000001
 31
0.0
  0
LINE
  5
1206
  8
NOTE
  6
CONTINUOUS
 62
     4
 10
-454.99999999999949
 20
236.99999976323079
 30
0.0
 11
-454.99999999999949
 21
219.00000023677919
 31
0.0
  0
LINE
  5
1207
  8
NOTE
  6
CONTINUOUS
 62
     4
 10
-511.00000023678041
 20
228.00000000001
 30
0.0
 11
-528.99999976323943
 21
228.00000000001
 31
0.0
  0
LINE
  5
1208
  8
NOTE
  6
CONTINUOUS
 62
     4
 10
-511.00000023678041
 20
228.00000000001
 30
0.0
 11
-528.99999976323943
 21
228.00000000001
 31
0.0
  0
LINE
  5
1209
  8
NOTE
  6
CONTINUOUS
 62
     4
 10
-519.99999999999955
 20
236.99999976323079
 30
0.0
 11
-519.99999999999955
 21
219.00000023677919
 31
0.0
  0
LINE
  5
120A
  8
NOTE
  6
CONTINUOUS
 62
     4
 10
-576.00000023678035
 20
228.00000000001
 30
0.0
 11
-593.99999976323954
 21
228.00000000001
 31
0.0
  0
LINE
  5
120B
  8
NOTE
  6
CONTINUOUS
 62
     4
 10
-576.00000023678035
 20
228.00000000001
 30
0.0
 11
-593.99999976323954
 21
228.00000000001
 31
0.0
  0
LINE
  5
120C
  8
NOTE
  6
CONTINUOUS
 62
     4
 10
-584.99999999999955
 20
236.99999976323079
 30
0.0
 11
-584.99999999999955
 21
219.00000023677919
 31
0.0
  0
LINE
  5
120D
  8
NOTE
  6
CONTINUOUS
 62
     4
 10
-641.00000023678047
 20
228.00000000001
 30
0.0
 11
-658.99999976323943
 21
228.00000000001
 31
0.0
  0
LINE
  5
120E
  8
NOTE
  6
CONTINUOUS
 62
     4
 10
-641.00000023678047
 20
228.00000000001
 30
0.0
 11
-658.99999976323943
 21
228.00000000001
 31
0.0
  0
LINE
  5
120F
  8
NOTE
  6
CONTINUOUS
 62
     4
 10
-649.99999999999955
 20
236.99999976323079
 30
0.0
 11
-649.99999999999955
 21
219.00000023677919
 31
0.0
  0
LINE
  5
1210
  8
NOTE
  6
CONTINUOUS
 62
     4
 10
658.99999976322943
 20
228.000000000005
 30
0.0
 11
641.00000023677035
 21
228.000000000005
 31
0.0
  0
ENDSEC
  0
EOF
