  0
SECTION
  2
HEADER
  9
$ACADVER
  1
AC1009
  9
$INSBASE
 10
0.0
 20
0.0
 30
0.0
  9
$EXTMIN
 10
-1299.7080156419941
 20
-446.89521458894149
 30
-0.000000000000013
  9
$EXTMAX
 10
1109.4936903510679
 20
1383.3802968364621
 30
0.0000000000000023
  9
$LIMMIN
 10
-4267.1522210000003
 20
-2696.0832100000011
  9
$LIMMAX
 10
7190.7174229999991
 20
5141.1553640000002
  9
$ORTHOMODE
 70
     1
  9
$REGENMODE
 70
     1
  9
$FILLMODE
 70
     1
  9
$QTEXTMODE
 70
     0
  9
$MIRRTEXT
 70
     0
  9
$DRAGMODE
 70
     2
  9
$LTSCALE
 40
20.0
  9
$OSMODE
 70
   431
  9
$ATTMODE
 70
     1
  9
$TEXTSIZE
 40
64.0
  9
$TRACEWID
 40
0.05
  9
$TEXTSTYLE
  7
STANDARD1
  9
$CLAYER
  8
SYMBOLLINE
  9
$CELTYPE
  6
CONTINUOUS
  9
$CECOLOR
 62
     7
  9
$DIMSCALE
 40
1.0
  9
$DIMASZ
 40
20.0
  9
$DIMEXO
 40
20.0
  9
$DIMDLI
 40
80.0
  9
$DIMRND
 40
0.0
  9
$DIMDLE
 40
0.0
  9
$DIMEXE
 40
18.0
  9
$DIMTP
 40
0.0
  9
$DIMTM
 40
0.0
  9
$DIMTXT
 40
50.0
  9
$DIMCEN
 40
0.09
  9
$DIMTSZ
 40
0.0
  9
$DIMTOL
 70
     0
  9
$DIMLIM
 70
     0
  9
$DIMTIH
 70
     0
  9
$DIMTOH
 70
     0
  9
$DIMSE1
 70
     0
  9
$DIMSE2
 70
     0
  9
$DIMTAD
 70
     1
  9
$DIMZIN
 70
     8
  9
$DIMBLK
  1
ORIGIN
  9
$DIMASO
 70
     1
  9
$DIMSHO
 70
     0
  9
$DIMPOST
  1

  9
$DIMAPOST
  1

  9
$DIMALT
 70
     0
  9
$DIMALTD
 70
     2
  9
$DIMALTF
 40
25.399999999999999
  9
$DIMLFAC
 40
1.0
  9
$DIMTOFL
 70
     0
  9
$DIMTVP
 40
0.0
  9
$DIMTIX
 70
     0
  9
$DIMSOXD
 70
     0
  9
$DIMSAH
 70
     0
  9
$DIMBLK1
  1

  9
$DIMBLK2
  1

  9
$DIMSTYLE
  2
STANDARD
  9
$DIMCLRD
 70
     0
  9
$DIMCLRE
 70
     0
  9
$DIMCLRT
 70
     0
  9
$DIMTFAC
 40
1.0
  9
$DIMGAP
 40
0.09
  9
$LUNITS
 70
     2
  9
$LUPREC
 70
     4
  9
$SKETCHINC
 40
0.1
  9
$FILLETRAD
 40
0.8
  9
$AUNITS
 70
     1
  9
$AUPREC
 70
     3
  9
$MENU
  1
ACAD
  9
$ELEVATION
 40
0.0
  9
$PELEVATION
 40
0.0
  9
$THICKNESS
 40
0.0
  9
$LIMCHECK
 70
     0
  9
$BLIPMODE
 70
     0
  9
$CHAMFERA
 40
0.0
  9
$CHAMFERB
 40
0.0
  9
$SKPOLY
 70
     0
  9
$TDCREATE
 40
2450330.4399309959
  9
$TDUPDATE
 40
2456776.5817312389
  9
$TDINDWG
 40
3.7238583796000002
  9
$TDUSRTIMER
 40
3.7238507638999998
  9
$USRTIMER
 70
     1
  9
$ANGBASE
 50
0.0
  9
$ANGDIR
 70
     0
  9
$PDMODE
 70
     3
  9
$PDSIZE
 40
-2.0
  9
$PLINEWID
 40
0.0
  9
$COORDS
 70
     1
  9
$SPLFRAME
 70
     0
  9
$SPLINETYPE
 70
     6
  9
$SPLINESEGS
 70
     8
  9
$ATTDIA
 70
     0
  9
$ATTREQ
 70
     1
  9
$HANDLING
 70
     1
  9
$HANDSEED
  5
16AF
  9
$SURFTAB1
 70
     6
  9
$SURFTAB2
 70
     6
  9
$SURFTYPE
 70
     6
  9
$SURFU
 70
     6
  9
$SURFV
 70
     6
  9
$UCSNAME
  2

  9
$UCSORG
 10
0.0
 20
0.0
 30
0.0
  9
$UCSXDIR
 10
1.0
 20
0.0
 30
0.0
  9
$UCSYDIR
 10
0.0
 20
1.0
 30
0.0
  9
$PUCSNAME
  2

  9
$PUCSORG
 10
0.0
 20
0.0
 30
0.0
  9
$PUCSXDIR
 10
1.0
 20
0.0
 30
0.0
  9
$PUCSYDIR
 10
0.0
 20
1.0
 30
0.0
  9
$USERI1
 70
     0
  9
$USERI2
 70
     0
  9
$USERI3
 70
     0
  9
$USERI4
 70
     0
  9
$USERI5
 70
     0
  9
$USERR1
 40
20.0
  9
$USERR2
 40
0.0
  9
$USERR3
 40
0.0
  9
$USERR4
 40
0.0
  9
$USERR5
 40
0.0
  9
$WORLDVIEW
 70
     1
  9
$SHADEDGE
 70
     3
  9
$SHADEDIF
 70
    70
  9
$TILEMODE
 70
     1
  9
$MAXACTVP
 70
    48
  9
$PLIMCHECK
 70
     0
  9
$PEXTMIN
 10
1.0000000000000000E+020
 20
1.0000000000000000E+020
 30
1.0000000000000000E+020
  9
$PEXTMAX
 10
-1.0000000000000000E+020
 20
-1.0000000000000000E+020
 30
-1.0000000000000000E+020
  9
$PLIMMIN
 10
0.0
 20
0.0
  9
$PLIMMAX
 10
12.0
 20
9.0
  9
$UNITMODE
 70
     0
  9
$VISRETAIN
 70
     1
  9
$PLINEGEN
 70
     0
  9
$PSLTSCALE
 70
     1
  0
ENDSEC
  0
SECTION
  2
TABLES
  0
TABLE
  2
VPORT
 70
     1
  0
VPORT
  2
*ACTIVE
 70
     0
 10
0.0
 20
0.0
 11
1.0
 21
1.0
 12
-95.107162645463177
 22
468.24254112376002
 13
0.0
 23
0.0
 14
50.0
 24
50.0
 15
100.0
 25
100.0
 16
0.0
 26
0.0
 36
1.0
 17
0.0
 27
0.0
 37
0.0
 40
1844.2116193804191
 41
1.5540025412960601
 42
50.0
 43
0.0
 44
0.0
 50
0.0
 51
0.0
 71
     0
 72
  1000
 73
     1
 74
     0
 75
     0
 76
     0
 77
     0
 78
     0
  0
ENDTAB
  0
TABLE
  2
LTYPE
 70
     3
  0
LTYPE
  2
CONTINUOUS
 70
     0
  3
実線
 72
    65
 73
     0
 40
0.0
  0
LTYPE
  2
DASHDOT
 70
     0
  3
____ _ ____ _ ____ _ ____ _ ____ _ ____ _ ____
 72
    65
 73
     4
 40
5.5
 49
4.0
 49
-0.6
 49
0.3
 49
-0.6
  0
ENDTAB
  0
TABLE
  2
LAYER
 70
    12
  0
LAYER
  2
0
 70
     0
 62
     7
  6
CONTINUOUS
  0
LAYER
  2
SYMBOLLINE
 70
     0
 62
    15
  6
CONTINUOUS
  0
LAYER
  2
NOTE
 70
     0
 62
     4
  6
CONTINUOUS
  0
LAYER
  2
OUTLINE
 70
     0
 62
     3
  6
CONTINUOUS
  0
LAYER
  2
DETAIL
 70
     0
 62
     5
  6
CONTINUOUS
  0
LAYER
  2
BASIS
 70
     0
 62
     6
  6
DASHDOT
  0
LAYER
  2
SIZE
 70
     0
 62
    30
  6
CONTINUOUS
  0
LAYER
  2
ARRANGE
 70
     0
 62
     1
  6
CONTINUOUS
  0
LAYER
  2
FIX
 70
     0
 62
    11
  6
CONTINUOUS
  0
LAYER
  2
SERVICESPACE
 70
     0
 62
     2
  6
DASHDOT
  0
LAYER
  2
ETC
 70
     0
 62
    61
  6
CONTINUOUS
  0
LAYER
  2
DEFPOINTS
 70
     0
 62
     7
  6
CONTINUOUS
  0
ENDTAB
  0
TABLE
  2
STYLE
 70
     5
  0
STYLE
  2
STANDARD
 70
     0
 40
0.0
 41
0.9
 50
0.0
 71
     0
 42
64.0
  3
SIMPLEX
  4
BIGFONT
  0
STYLE
  2
ANNOTATIVE
 70
     0
 40
0.0
 41
1.0
 50
0.0
 71
     0
 42
0.2
  3
txt
  4

  0
STYLE
  2
STANDARD1
 70
     0
 40
0.0
 41
1.0
 50
0.0
 71
     0
 42
64.0
  3
MONOTXT
  4
BIGFONT
  0
STYLE
  2

 70
     1
 40
0.0
 41
1.0
 50
0.0
 71
     0
 42
64.0
  3
ltypeshp.shx
  4

  0
STYLE
  2
NOTE
 70
     0
 40
0.0
 41
0.7
 50
0.0
 71
     0
 42
64.0
  3
SIMPLEX.shx
  4
BIGFONT.shx
  0
ENDTAB
  0
TABLE
  2
VIEW
 70
     1
  0
VIEW
  2
ALL
 70
     0
 40
9000.0
 10
241.50664699999999
 20
0.0
 41
12483.01
 11
0.0
 21
0.0
 31
1.0
 12
0.0
 22
0.0
 32
0.0
 42
50.0
 43
0.0
 44
0.0
 50
0.0
 71
     0
  0
ENDTAB
  0
TABLE
  2
UCS
 70
     0
  0
ENDTAB
  0
TABLE
  2
APPID
 70
     6
  0
APPID
  2
ACAD
 70
     0
  0
APPID
  2
ACADANNOTATIVE
 70
     0
  0
APPID
  2
ACAD_MLEADERVER
 70
     0
  0
APPID
  2
ACAD_EXEMPT_FROM_CAD_STANDARDS
 70
     0
  0
APPID
  2
ACAD_DSTYLE_DIMJAG
 70
     0
  0
APPID
  2
ACAD_DSTYLE_DIMTALN
 70
     0
  0
ENDTAB
  0
TABLE
  2
DIMSTYLE
 70
     3
  0
DIMSTYLE
  2
STANDARD
 70
     0
  3

  4

  5

  6

  7

 40
1.0
 41
0.18
 42
0.0625
 43
0.38
 44
0.18
 45
0.0
 46
0.0
 47
0.0
 48
0.0
140
0.18
141
0.09
142
0.0
143
25.399999999999999
144
1.0
145
0.0
146
1.0
147
0.09
 71
     0
 72
     0
 73
     1
 74
     1
 75
     0
 76
     0
 77
     0
 78
     0
170
     0
171
     2
172
     0
173
     0
174
     0
175
     0
176
     0
177
     0
178
     0
  0
DIMSTYLE
  2
ANNOTATIVE
 70
     0
  3

  4

  5

  6

  7

 40
1.0
 41
0.18
 42
0.0625
 43
0.38
 44
0.18
 45
0.0
 46
0.0
 47
0.0
 48
0.0
140
0.18
141
0.09
142
0.0
143
25.399999999999999
144
1.0
145
0.0
146
1.0
147
0.09
 71
     0
 72
     0
 73
     1
 74
     1
 75
     0
 76
     0
 77
     0
 78
     0
170
     0
171
     2
172
     0
173
     0
174
     0
175
     0
176
     0
177
     0
178
     0
  0
ENDTAB
  0
ENDSEC
  0
SECTION
  2
BLOCKS
  0
BLOCK
  8
0
  2
$MODEL_SPACE
 70
     0
 10
0.0
 20
0.0
 30
0.0
  3
$MODEL_SPACE
  1

  0
ENDBLK
  5
1304
  8
0
  0
BLOCK
 67
     1
  8
0
  2
$PAPER_SPACE
 70
     0
 10
0.0
 20
0.0
 30
0.0
  3
$PAPER_SPACE
  1

  0
ENDBLK
  5
1300
 67
     1
  8
0
  0
BLOCK
  8
0
  2
_ORIGIN
 70
     0
 10
0.0
 20
0.0
 30
0.0
  3
_ORIGIN
  1

  0
CIRCLE
  5
34
  8
0
  6
CONTINUOUS
 62
     7
 10
0.0
 20
0.0
 30
0.0
 40
0.5
  0
LINE
  5
35
  8
0
  6
CONTINUOUS
 62
     7
 10
-0.5
 20
0.0
 30
0.0
 11
-1.0
 21
0.0
 31
0.0
  0
ENDBLK
  5
36
  8
0
  0
BLOCK
  8
0
 62
     7
  2
A$C00DF4D9E
 70
     0
 10
0.0
 20
0.0
 30
0.0
  3
A$C00DF4D9E
  1

  0
LINE
  5
2B3
  8
OUTLINE
  6
CONTINUOUS
 62
     3
 10
802.96840699999984
 20
745.11201799999981
 30
0.0
 11
1402.9684070000001
 21
745.11201799999981
 31
0.0
  0
LINE
  5
2B4
  8
SIZE
  6
CONTINUOUS
 62
    30
 10
897.96840699999996
 20
1772.670918
 30
0.0
 11
1632.9684070000001
 21
1772.670918
 31
0.0
  0
POLYLINE
  5
2B5
  8
NOTE
  6
CONTINUOUS
 62
     4
 66
     1
 10
0.0
 20
0.0
 30
0.0
  0
VERTEX
  5
1651
  8
NOTE
  6
CONTINUOUS
 62
     4
 10
1379.9684070000001
 20
1070.112018
 30
0.0
  0
VERTEX
  5
1652
  8
NOTE
  6
CONTINUOUS
 62
     4
 10
733.41832599999964
 20
1534.1490060000001
 30
0.0
  0
SEQEND
  5
1653
  8
NOTE
  6
CONTINUOUS
 62
     4
  0
POLYLINE
  5
2B9
  8
NOTE
  6
CONTINUOUS
 62
     4
 66
     1
 10
0.0
 20
0.0
 30
0.0
  0
VERTEX
  5
1654
  8
NOTE
  6
CONTINUOUS
 62
     4
 10
1386.3442219999999
 20
989.882068
 30
0.0
  0
VERTEX
  5
1655
  8
NOTE
  6
CONTINUOUS
 62
     4
 10
723.35881700000004
 20
1431.7533550000001
 30
0.0
  0
SEQEND
  5
1656
  8
NOTE
  6
CONTINUOUS
 62
     4
  0
LINE
  5
2BD
  8
DETAIL
  6
CONTINUOUS
 62
     5
 10
1652.1684069999999
 20
885.11201799999981
 30
0.0
 11
878.76840700000002
 21
885.11201799999981
 31
0.0
  0
LINE
  5
2BE
  8
OUTLINE
  6
CONTINUOUS
 62
     3
 10
1371.4346310000001
 20
792.11201799999981
 30
0.0
 11
834.50218299999983
 21
792.11201799999981
 31
0.0
  0
LINE
  5
2BF
  8
OUTLINE
  6
CONTINUOUS
 62
     3
 10
1371.7851900000001
 20
737.11201799999981
 30
0.0
 11
834.15162399999986
 21
737.11201799999981
 31
0.0
  0
LINE
  5
2C0
  8
OUTLINE
  6
CONTINUOUS
 62
     3
 10
878.76843099999985
 20
1218.112018
 30
0.0
 11
1652.1684069999999
 21
1218.112018
 31
0.0
  0
LINE
  5
2C1
  8
OUTLINE
  6
CONTINUOUS
 62
     3
 10
1652.1684069999999
 20
885.11201799999981
 30
0.0
 11
878.76840700000002
 21
885.11201799999981
 31
0.0
  0
LINE
  5
2C2
  8
SIZE
  6
CONTINUOUS
 62
    30
 10
822.96840699999996
 20
29.99999600000001
 30
0.0
 11
1382.9684070000001
 21
29.99999600000001
 31
0.0
  0
LINE
  5
2C3
  8
SIZE
  6
CONTINUOUS
 62
    30
 10
928.96840699999996
 20
1652.2506699999999
 30
0.0
 11
948.96840699999996
 21
1652.2506699999999
 31
0.0
  0
TEXT
  5
2C4
  8
SIZE
  6
CONTINUOUS
 62
    30
 10
859.43555071428568
 20
156.249135
 30
0.0
 40
50.0
  1
566（天井開口寸法）
 41
0.9
 72
     1
 11
1121.7212649999999
 21
156.249135
 31
0.0
  0
LINE
  5
2C5
  8
SIZE
  6
CONTINUOUS
 62
    30
 10
839.96840699999996
 20
138.249135
 30
0.0
 11
1365.9684070000001
 21
138.249135
 31
0.0
  0
LINE
  5
2C6
  8
SIZE
  6
CONTINUOUS
 62
    30
 10
1341.074237
 20
1070.112018
 30
0.0
 11
735.15788399999985
 21
1070.112018
 31
0.0
  0
LINE
  5
2C7
  8
SIZE
  6
CONTINUOUS
 62
    30
 10
928.96840699999996
 20
1652.2506699999999
 30
0.0
 11
1598.9684070000001
 21
1652.2506699999999
 31
0.0
  0
LINE
  5
2C8
  8
NOTE
  6
CONTINUOUS
 62
     4
 10
947.75594600000011
 20
613.57191399999988
 30
0.0
 11
853.25958599999979
 21
613.57191399999988
 31
0.0
  0
TEXT
  5
2C9
  8
NOTE
  6
CONTINUOUS
 62
     4
 10
874.93485799999985
 20
629.39844500000004
 30
0.0
 40
60.0
  1
EL
 50
0.000003
 41
0.7
  7
STANDARD1
  0
LINE
  5
2CA
  8
NOTE
  6
CONTINUOUS
 62
     4
 10
946.28415700000005
 20
955.08052199999986
 30
0.0
 11
900.2786480000002
 21
955.08052199999986
 31
0.0
  0
LINE
  5
2CB
  8
DETAIL
  6
CONTINUOUS
 62
     5
 10
879.76840700000002
 20
1218.112018
 30
0.0
 11
938.168407
 21
1218.112018
 31
0.0
  0
ARC
  5
2CC
  8
DETAIL
  6
CONTINUOUS
 62
     5
 10
935.168048
 20
1209.11094
 30
0.0
 40
3.0003589999999991
 50
270.0
 51
0.0
  0
ARC
  5
2CD
  8
DETAIL
  6
CONTINUOUS
 62
     5
 10
935.168048
 20
1201.1105809999999
 30
0.0
 40
3.0003589999999991
 50
270.0
 51
0.0
  0
LINE
  5
2CE
  8
DETAIL
  6
CONTINUOUS
 62
     5
 10
878.76843099999985
 20
1218.112018
 30
0.0
 11
1652.1684069999999
 21
1218.112018
 31
0.0
  0
LINE
  5
2CF
  8
DETAIL
  6
CONTINUOUS
 62
     5
 10
802.96840699999984
 20
745.11201799999981
 30
0.0
 11
1402.9684070000001
 21
745.11201799999981
 31
0.0
  0
LINE
  5
2D0
  8
DETAIL
  6
CONTINUOUS
 62
     5
 10
1371.7851900000001
 20
737.11201799999981
 30
0.0
 11
834.15162399999986
 21
737.11201799999981
 31
0.0
  0
LINE
  5
2D1
  8
DETAIL
  6
CONTINUOUS
 62
     5
 10
1371.4346310000001
 20
792.11201799999981
 30
0.0
 11
834.50218299999983
 21
792.11201799999981
 31
0.0
  0
LINE
  5
2D2
  8
OUTLINE
  6
CONTINUOUS
 62
     3
 10
802.96840699999984
 20
741.10502999999983
 30
0.0
 11
802.96840699999984
 21
745.11201799999981
 31
0.0
  0
LINE
  5
2D3
  8
DETAIL
  6
CONTINUOUS
 62
     5
 10
802.96840699999984
 20
741.10502999999983
 30
0.0
 11
802.96840699999984
 21
745.11201799999981
 31
0.0
  0
LINE
  5
2D4
  8
SIZE
  6
CONTINUOUS
 62
    30
 10
802.96840699999984
 20
723.10502999999983
 30
0.0
 11
802.96840699999984
 21
-0.000004
 31
0.0
  0
CIRCLE
  5
2D5
  8
SIZE
  6
CONTINUOUS
 62
    30
 10
819.96840699999984
 20
138.249135
 30
0.0
 40
10.0
  0
LINE
  5
2D6
  8
SIZE
  6
CONTINUOUS
 62
    30
 10
819.96840699999984
 20
728.11201799999981
 30
0.0
 11
819.96840699999984
 21
108.249135
 31
0.0
  0
CIRCLE
  5
2D7
  8
SIZE
  6
CONTINUOUS
 62
    30
 10
802.96840699999984
 20
138.249135
 30
0.0
 40
10.0
  0
CIRCLE
  5
2D8
  8
SIZE
  6
CONTINUOUS
 62
    30
 10
819.96840699999984
 20
138.249135
 30
0.0
 40
10.0
  0
LINE
  5
2D9
  8
SIZE
  6
CONTINUOUS
 62
    30
 10
802.96840699999984
 20
723.10502999999983
 30
0.0
 11
802.96840699999984
 21
108.249135
 31
0.0
  0
LINE
  5
2DA
  8
SIZE
  6
CONTINUOUS
 62
    30
 10
819.96840699999984
 20
728.11201799999981
 30
0.0
 11
819.96840699999984
 21
108.249135
 31
0.0
  0
LINE
  5
2DB
  8
SIZE
  6
CONTINUOUS
 62
    30
 10
812.96840699999973
 20
29.99999600000001
 30
0.0
 11
822.96840699999996
 21
29.99999600000001
 31
0.0
  0
CIRCLE
  5
2DC
  8
SIZE
  6
CONTINUOUS
 62
    30
 10
802.96840699999984
 20
29.99999600000001
 30
0.0
 40
10.0
  0
TEXT
  5
2DD
  8
SIZE
  6
CONTINUOUS
 62
    30
 10
680.68269285714291
 20
156.249135
 30
0.0
 40
50.0
  1
17
 41
0.9
 72
     1
 11
712.82555000000002
 21
156.249135
 31
0.0
  0
LINE
  5
2DE
  8
SIZE
  6
CONTINUOUS
 62
    30
 10
782.96840699999984
 20
138.249135
 30
0.0
 11
662.68269299999997
 21
138.249135
 31
0.0
  0
POINT
  5
2DF
  8
DEFPOINTS
  6
CONTINUOUS
 62
     7
 10
802.96840699999984
 20
138.249135
 30
0.0
  0
LINE
  5
2E0
  8
SIZE
  6
CONTINUOUS
 62
    30
 10
792.96840699999984
 20
138.249135
 30
0.0
 11
782.96840699999984
 21
138.249135
 31
0.0
  0
LINE
  5
2E1
  8
SIZE
  6
CONTINUOUS
 62
    30
 10
819.96840699999984
 20
138.249135
 30
0.0
 11
802.96840699999984
 21
138.249135
 31
0.0
  0
LINE
  5
2E2
  8
SIZE
  6
CONTINUOUS
 62
    30
 10
829.96840699999973
 20
138.249135
 30
0.0
 11
839.96840699999996
 21
138.249135
 31
0.0
  0
LINE
  5
2E3
  8
SIZE
  6
CONTINUOUS
 62
    30
 10
829.96840699999973
 20
138.249135
 30
0.0
 11
839.96840699999996
 21
138.249135
 31
0.0
  0
LINE
  5
2E4
  8
SIZE
  6
CONTINUOUS
 62
    30
 10
839.96840699999996
 20
138.249135
 30
0.0
 11
859.96840699999984
 21
138.249135
 31
0.0
  0
ARC
  5
2E5
  8
OUTLINE
  6
CONTINUOUS
 62
     3
 10
833.67208399999981
 20
857.12543100000005
 30
0.0
 40
120.014371
 50
255.17703
 51
270.22893699999997
  0
ARC
  5
2E6
  8
DETAIL
  6
CONTINUOUS
 62
     5
 10
833.67208399999981
 20
857.12543100000005
 30
0.0
 40
120.014371
 50
255.17703
 51
270.22893699999997
  0
POINT
  5
2E7
  8
DEFPOINTS
  6
CONTINUOUS
 62
     7
 10
802.96840699999984
 20
741.10502999999983
 30
0.0
  0
POINT
  5
2E8
  8
DEFPOINTS
  6
CONTINUOUS
 62
     7
 10
802.96840699999984
 20
741.10502999999983
 30
0.0
  0
LINE
  5
2E9
  8
NOTE
  6
CONTINUOUS
 62
     4
 10
729.10063699999989
 20
1315.0378310000001
 30
0.0
 11
0.000009
 21
1315.0378310000001
 31
0.0
  0
TEXT
  5
2EA
  8
NOTE
  6
CONTINUOUS
 62
     4
 10
21.675280999999998
 20
1330.864362
 30
0.0
 40
60.0
  1
AH 4-14×30長穴(M10)
 50
0.000003
 41
0.7
  7
STANDARD1
  0
LINE
  5
2EB
  8
SIZE
  6
CONTINUOUS
 62
    30
 10
877.96840699999984
 20
1237.3120180000001
 30
0.0
 11
877.96840699999984
 21
1790.670918
 31
0.0
  0
LINE
  5
2EC
  8
SIZE
  6
CONTINUOUS
 62
    30
 10
877.96840699999984
 20
1237.3120180000001
 30
0.0
 11
877.96840699999984
 21
1790.670918
 31
0.0
  0
LINE
  5
2ED
  8
SIZE
  6
CONTINUOUS
 62
    30
 10
819.96840699999984
 20
786.11201799999981
 30
0.0
 11
819.96840699999984
 21
1790.670918
 31
0.0
  0
LINE
  5
2EE
  8
SIZE
  6
CONTINUOUS
 62
    30
 10
877.96840699999984
 20
1235.3120180000001
 30
0.0
 11
877.96840699999984
 21
1682.2506699999999
 31
0.0
  0
LINE
  5
2EF
  8
SIZE
  6
CONTINUOUS
 62
    30
 10
908.96840699999996
 20
1256.114413
 30
0.0
 11
908.96840699999996
 21
1682.2506699999999
 31
0.0
  0
LINE
  5
2F0
  8
SIZE
  6
CONTINUOUS
 62
    30
 10
908.96840699999996
 20
1256.114413
 30
0.0
 11
908.96840699999996
 21
1682.2506699999999
 31
0.0
  0
POLYLINE
  5
2F1
  8
NOTE
  6
CONTINUOUS
 62
     4
 66
     1
 10
0.0
 20
0.0
 30
0.0
  0
VERTEX
  5
1657
  8
NOTE
  6
CONTINUOUS
 62
     4
 10
923.28140299999995
 20
955.08052199999986
 30
0.0
  0
VERTEX
  5
1658
  8
NOTE
  6
CONTINUOUS
 62
     4
 10
659.90111200000001
 20
1051.0852789999999
 30
0.0
  0
SEQEND
  5
1659
  8
NOTE
  6
CONTINUOUS
 62
     4
  0
LINE
  5
2F5
  8
OUTLINE
  6
CONTINUOUS
 62
     3
 10
877.96840699999984
 20
1217.3120180000001
 30
0.0
 11
877.96840699999984
 21
885.91201799999988
 31
0.0
  0
LINE
  5
2F6
  8
DETAIL
  6
CONTINUOUS
 62
     5
 10
877.96840699999984
 20
1217.3120180000001
 30
0.0
 11
877.96840699999984
 21
885.91201799999988
 31
0.0
  0
POINT
  5
2F7
  8
DEFPOINTS
  6
CONTINUOUS
 62
     7
 10
819.96840699999984
 20
766.11201799999981
 30
0.0
  0
POINT
  5
2F8
  8
DEFPOINTS
  6
CONTINUOUS
 62
     7
 10
819.96840699999984
 20
746.11201799999981
 30
0.0
  0
POINT
  5
2F9
  8
DEFPOINTS
  6
CONTINUOUS
 62
     7
 10
819.96840699999984
 20
746.11201799999981
 30
0.0
  0
LINE
  5
2FA
  8
NOTE
  6
CONTINUOUS
 62
     4
 10
779.70339899999999
 20
746.11201799999981
 30
0.0
 11
799.70339899999999
 21
766.11201799999981
 31
0.0
  0
LINE
  5
2FB
  8
NOTE
  6
CONTINUOUS
 62
     4
 10
774.70339899999999
 20
746.11201799999981
 30
0.0
 11
794.70339899999999
 21
766.11201799999981
 31
0.0
  0
LINE
  5
2FC
  8
NOTE
  6
CONTINUOUS
 62
     4
 10
769.70339899999999
 20
746.11201799999981
 30
0.0
 11
789.70339899999988
 21
766.11201799999981
 31
0.0
  0
LINE
  5
2FD
  8
NOTE
  6
CONTINUOUS
 62
     4
 10
819.96840699999984
 20
746.11201799999981
 30
0.0
 11
819.96840699999984
 21
766.11201799999981
 31
0.0
  0
LINE
  5
2FE
  8
NOTE
  6
CONTINUOUS
 62
     4
 10
739.70339899999988
 20
746.11201799999981
 30
0.0
 11
759.70339899999988
 21
766.11201799999981
 31
0.0
  0
LINE
  5
2FF
  8
NOTE
  6
CONTINUOUS
 62
     4
 10
734.70339899999988
 20
746.11201799999981
 30
0.0
 11
754.70339899999999
 21
766.11201799999981
 31
0.0
  0
LINE
  5
300
  8
NOTE
  6
CONTINUOUS
 62
     4
 10
729.70339899999999
 20
746.11201799999981
 30
0.0
 11
749.70339899999999
 21
766.11201799999981
 31
0.0
  0
LINE
  5
301
  8
NOTE
  6
CONTINUOUS
 62
     4
 10
819.96840699999984
 20
766.11201799999981
 30
0.0
 11
718.66095800000005
 21
766.11201799999981
 31
0.0
  0
LINE
  5
302
  8
NOTE
  6
CONTINUOUS
 62
     4
 10
819.96840699999984
 20
746.11201799999981
 30
0.0
 11
718.66095800000005
 21
746.11201799999981
 31
0.0
  0
ARC
  5
303
  8
OUTLINE
  6
CONTINUOUS
 62
     3
 10
878.76840700000002
 20
885.91201799999988
 30
0.0
 40
0.8
 50
180.0
 51
270.0
  0
ARC
  5
304
  8
DETAIL
  6
CONTINUOUS
 62
     5
 10
878.76840700000002
 20
885.91201799999988
 30
0.0
 40
0.8
 50
180.0
 51
270.0
  0
LINE
  5
305
  8
OUTLINE
  6
CONTINUOUS
 62
     3
 10
834.50218299999983
 20
745.11201799999981
 30
0.0
 11
834.50218299999983
 21
792.11201799999981
 31
0.0
  0
LINE
  5
306
  8
DETAIL
  6
CONTINUOUS
 62
     5
 10
834.50218299999983
 20
745.11201799999981
 30
0.0
 11
834.50218299999983
 21
792.11201799999981
 31
0.0
  0
LINE
  5
307
  8
NOTE
  6
CONTINUOUS
 62
     4
 10
923.28140299999995
 20
955.08052199999986
 30
0.0
 11
892.3159710000001
 21
957.48034199999995
 31
0.0
  0
LINE
  5
308
  8
NOTE
  6
CONTINUOUS
 62
     4
 10
897.66446199999984
 20
972.64154299999996
 30
0.0
 11
923.28140299999995
 21
955.08052199999986
 31
0.0
  0
CIRCLE
  5
309
  8
DETAIL
  6
CONTINUOUS
 62
     5
 10
923.28140299999995
 20
955.08052199999986
 30
0.0
 40
13.001557
  0
LINE
  5
30A
  8
NOTE
  6
CONTINUOUS
 62
     4
 10
923.28140299999995
 20
978.08327599999996
 30
0.0
 11
923.28140299999995
 21
932.07776799999999
 31
0.0
  0
TEXT
  5
30B
  8
SIZE
  6
CONTINUOUS
 62
    30
 10
747.15788399999985
 20
1090.5405894285709
 30
0.0
 40
50.0
  1
148
 50
90.0
 41
0.9
 72
     1
 11
747.15788399999985
 21
1144.112018
 31
0.0
  0
LINE
  5
30C
  8
NOTE
  6
CONTINUOUS
 62
     4
 10
659.90111200000001
 20
1051.0852789999999
 30
0.0
 11
526.98821399999986
 21
1051.0852789999999
 31
0.0
  0
TEXT
  5
30D
  8
NOTE
  6
CONTINUOUS
 62
     4
 10
548.66348600000003
 20
1066.9118100000001
 30
0.0
 40
60.0
  1
CL
 50
0.000003
 41
0.7
  7
STANDARD1
  0
LINE
  5
30E
  8
SIZE
  6
CONTINUOUS
 62
    30
 10
765.15788399999985
 20
1208.112018
 30
0.0
 11
765.15788399999985
 21
1198.112018
 31
0.0
  0
CIRCLE
  5
30F
  8
FIX
  6
CONTINUOUS
 62
    11
 10
908.96840699999996
 20
1218.112018
 30
0.0
 40
18.598564
  0
LINE
  5
310
  8
DETAIL
  6
CONTINUOUS
 62
     5
 10
879.76840700000002
 20
1203.719294
 30
0.0
 11
879.76840700000002
 21
1178.107827
 31
0.0
  0
LINE
  5
311
  8
NOTE
  6
CONTINUOUS
 62
     4
 10
908.96840699999996
 20
1238.114413
 30
0.0
 11
908.96840699999996
 21
1198.1096230000001
 31
0.0
  0
LINE
  5
312
  8
SIZE
  6
CONTINUOUS
 62
    30
 10
765.15788399999985
 20
1080.112018
 30
0.0
 11
765.15788399999985
 21
1090.112018
 31
0.0
  0
CIRCLE
  5
313
  8
SIZE
  6
CONTINUOUS
 62
    30
 10
765.15788399999985
 20
1070.112018
 30
0.0
 40
10.0
  0
LINE
  5
314
  8
SIZE
  6
CONTINUOUS
 62
    30
 10
765.15788399999985
 20
1090.112018
 30
0.0
 11
765.15788399999985
 21
1198.112018
 31
0.0
  0
LINE
  5
315
  8
DETAIL
  6
CONTINUOUS
 62
     5
 10
924.77379599999995
 20
1198.110222
 30
0.0
 11
924.77379599999995
 21
1178.107827
 31
0.0
  0
LINE
  5
316
  8
DETAIL
  6
CONTINUOUS
 62
     5
 10
935.168048
 20
1198.110222
 30
0.0
 11
924.77379599999995
 21
1198.110222
 31
0.0
  0
LINE
  5
317
  8
DETAIL
  6
CONTINUOUS
 62
     5
 10
921.77343699999994
 20
1175.107467
 30
0.0
 11
882.76876600000003
 21
1175.107467
 31
0.0
  0
ARC
  5
318
  8
DETAIL
  6
CONTINUOUS
 62
     5
 10
882.76876600000003
 20
1178.107827
 30
0.0
 40
3.0003589999999991
 50
180.0
 51
270.0
  0
ARC
  5
319
  8
DETAIL
  6
CONTINUOUS
 62
     5
 10
921.77343699999994
 20
1178.107827
 30
0.0
 40
3.0003589999999991
 50
270.0
 51
0.0
  0
POLYLINE
  5
31A
  8
NOTE
  6
CONTINUOUS
 62
     4
 66
     1
 10
0.0
 20
0.0
 30
0.0
  0
VERTEX
  5
165A
  8
NOTE
  6
CONTINUOUS
 62
     4
 10
908.96840699999996
 20
1218.112018
 30
0.0
  0
VERTEX
  5
165B
  8
NOTE
  6
CONTINUOUS
 62
     4
 10
729.10063699999989
 20
1315.0378310000001
 30
0.0
  0
SEQEND
  5
165C
  8
NOTE
  6
CONTINUOUS
 62
     4
  0
LINE
  5
31E
  8
SIZE
  6
CONTINUOUS
 62
    30
 10
860.76843099999985
 20
1218.112018
 30
0.0
 11
735.15788399999985
 21
1218.112018
 31
0.0
  0
POINT
  5
31F
  8
DEFPOINTS
  6
CONTINUOUS
 62
     7
 10
765.15788399999985
 20
1218.112018
 30
0.0
  0
CIRCLE
  5
320
  8
SIZE
  6
CONTINUOUS
 62
    30
 10
765.15788399999985
 20
1218.112018
 30
0.0
 40
10.0
  0
POINT
  5
321
  8
DEFPOINTS
  6
CONTINUOUS
 62
     7
 10
877.96840699999984
 20
1217.3120180000001
 30
0.0
  0
POINT
  5
322
  8
DEFPOINTS
  6
CONTINUOUS
 62
     7
 10
877.96840699999984
 20
1217.3120180000001
 30
0.0
  0
LINE
  5
323
  8
NOTE
  6
CONTINUOUS
 62
     4
 10
908.96840699999996
 20
1218.112018
 30
0.0
 11
881.45223599999974
 21
1224.29538
 31
0.0
  0
LINE
  5
324
  8
NOTE
  6
CONTINUOUS
 62
     4
 10
890.814798
 20
1237.3648410000001
 30
0.0
 11
908.96840699999996
 21
1218.112018
 31
0.0
  0
ARC
  5
325
  8
OUTLINE
  6
CONTINUOUS
 62
     3
 10
878.76840700000002
 20
1217.3120180000001
 30
0.0
 40
0.8
 50
89.998260999999985
 51
180.0
  0
POINT
  5
326
  8
DEFPOINTS
  6
CONTINUOUS
 62
     7
 10
877.96840699999984
 20
1217.3120180000001
 30
0.0
  0
POINT
  5
327
  8
DEFPOINTS
  6
CONTINUOUS
 62
     7
 10
908.96840699999996
 20
1238.114413
 30
0.0
  0
POINT
  5
328
  8
DEFPOINTS
  6
CONTINUOUS
 62
     7
 10
878.76843099999985
 20
1218.112018
 30
0.0
  0
POINT
  5
329
  8
DEFPOINTS
  6
CONTINUOUS
 62
     7
 10
908.96840699999996
 20
1238.114413
 30
0.0
  0
LINE
  5
32A
  8
NOTE
  6
CONTINUOUS
 62
     4
 10
888.96744899999999
 20
1218.112018
 30
0.0
 11
928.96936500000004
 21
1218.112018
 31
0.0
  0
ARC
  5
32B
  8
DETAIL
  6
CONTINUOUS
 62
     5
 10
878.76840700000002
 20
1217.3120180000001
 30
0.0
 40
0.8
 50
89.998260999999985
 51
180.0
  0
LINE
  5
32C
  8
DETAIL
  6
CONTINUOUS
 62
     5
 10
879.76840700000002
 20
1218.112018
 30
0.0
 11
879.76840700000002
 21
1204.11094
 31
0.0
  0
LINE
  5
32D
  8
DETAIL
  6
CONTINUOUS
 62
     5
 10
902.96840699999996
 20
1218.112018
 30
0.0
 11
914.96840699999996
 21
1218.112018
 31
0.0
  0
LINE
  5
32E
  8
DETAIL
  6
CONTINUOUS
 62
     5
 10
917.96876599999985
 20
1206.1105809999999
 30
0.0
 11
935.168048
 21
1206.1105809999999
 31
0.0
  0
LINE
  5
32F
  8
DETAIL
  6
CONTINUOUS
 62
     5
 10
914.96840699999996
 20
1218.112018
 30
0.0
 11
914.96840699999996
 21
1209.11094
 31
0.0
  0
ARC
  5
330
  8
DETAIL
  6
CONTINUOUS
 62
     5
 10
917.96876599999985
 20
1209.11094
 30
0.0
 40
3.0003589999999991
 50
180.0
 51
270.0
  0
ARC
  5
331
  8
DETAIL
  6
CONTINUOUS
 62
     5
 10
899.96804799999984
 20
1209.11094
 30
0.0
 40
3.0003589999999991
 50
270.0
 51
0.0
  0
ARC
  5
332
  8
DETAIL
  6
CONTINUOUS
 62
     5
 10
882.76876600000003
 20
1209.11094
 30
0.0
 40
3.0003589999999991
 50
180.0
 51
270.0
  0
LINE
  5
333
  8
DETAIL
  6
CONTINUOUS
 62
     5
 10
902.96840699999996
 20
1218.112018
 30
0.0
 11
902.96840699999996
 21
1209.11094
 31
0.0
  0
LINE
  5
334
  8
DETAIL
  6
CONTINUOUS
 62
     5
 10
899.96804799999984
 20
1206.1105809999999
 30
0.0
 11
882.76876600000003
 21
1206.1105809999999
 31
0.0
  0
LINE
  5
335
  8
NOTE
  6
CONTINUOUS
 62
     4
 10
723.35881700000004
 20
1431.7533550000001
 30
0.0
 11
151.864892
 21
1431.7533550000001
 31
0.0
  0
TEXT
  5
336
  8
NOTE
  6
CONTINUOUS
 62
     4
 10
160.89446000000001
 20
1440.4894549999999
 30
0.0
 40
60.0
  1
ドレン排水確認用給水口
 50
0.000003
 41
0.7
  7
STANDARD1
  0
LINE
  5
337
  8
NOTE
  6
CONTINUOUS
 62
     4
 10
733.41832599999964
 20
1534.1490060000001
 30
0.0
 11
390.76448900000003
 21
1534.1490060000001
 31
0.0
  0
TEXT
  5
338
  8
NOTE
  6
CONTINUOUS
 62
     4
 10
412.43976099999992
 20
1549.9755359999999
 30
0.0
 40
60.0
  1
D1 VP-25
 50
0.000003
 41
0.7
  7
STANDARD1
  0
CIRCLE
  5
339
  8
SIZE
  6
CONTINUOUS
 62
    30
 10
877.96840699999984
 20
1652.2506699999999
 30
0.0
 40
10.0
  0
CIRCLE
  5
33A
  8
SIZE
  6
CONTINUOUS
 62
    30
 10
908.96840699999996
 20
1652.2506699999999
 30
0.0
 40
10.0
  0
CIRCLE
  5
33B
  8
SIZE
  6
CONTINUOUS
 62
    30
 10
908.96840699999996
 20
1652.2506699999999
 30
0.0
 40
10.0
  0
LINE
  5
33C
  8
SIZE
  6
CONTINUOUS
 62
    30
 10
857.96840699999984
 20
1652.2506699999999
 30
0.0
 11
704.50412100000005
 21
1652.2506699999999
 31
0.0
  0
POINT
  5
33D
  8
DEFPOINTS
  6
CONTINUOUS
 62
     7
 10
877.96840699999984
 20
1652.2506699999999
 30
0.0
  0
LINE
  5
33E
  8
SIZE
  6
CONTINUOUS
 62
    30
 10
867.96840699999984
 20
1652.2506699999999
 30
0.0
 11
857.96840699999984
 21
1652.2506699999999
 31
0.0
  0
LINE
  5
33F
  8
SIZE
  6
CONTINUOUS
 62
    30
 10
918.96840699999996
 20
1652.2506699999999
 30
0.0
 11
928.96840699999996
 21
1652.2506699999999
 31
0.0
  0
LINE
  5
340
  8
SIZE
  6
CONTINUOUS
 62
    30
 10
908.96840699999996
 20
1652.2506699999999
 30
0.0
 11
877.96840699999984
 21
1652.2506699999999
 31
0.0
  0
LINE
  5
341
  8
SIZE
  6
CONTINUOUS
 62
    30
 10
918.96840699999996
 20
1652.2506699999999
 30
0.0
 11
928.96840699999996
 21
1652.2506699999999
 31
0.0
  0
TEXT
  5
342
  8
SIZE
  6
CONTINUOUS
 62
    30
 10
681.82554942857143
 20
1790.670918
 30
0.0
 40
55.0
  1
58
 41
0.9
 72
     1
 11
721.89697799999999
 21
1790.670918
 31
0.0
  0
LINE
  5
343
  8
SIZE
  6
CONTINUOUS
 62
    30
 10
799.96840699999984
 20
1772.670918
 30
0.0
 11
663.82555000000002
 21
1772.670918
 31
0.0
  0
CIRCLE
  5
344
  8
SIZE
  6
CONTINUOUS
 62
    30
 10
819.96840699999984
 20
1772.670918
 30
0.0
 40
10.0
  0
LINE
  5
345
  8
SIZE
  6
CONTINUOUS
 62
    30
 10
877.96840699999984
 20
1772.670918
 30
0.0
 11
819.96840699999984
 21
1772.670918
 31
0.0
  0
LINE
  5
346
  8
SIZE
  6
CONTINUOUS
 62
    30
 10
809.96840699999984
 20
1772.670918
 30
0.0
 11
799.96840699999984
 21
1772.670918
 31
0.0
  0
TEXT
  5
347
  8
SIZE
  6
CONTINUOUS
 62
    30
 10
722.5041217142857
 20
1670.2506699999999
 30
0.0
 40
50.0
  1
31
 41
0.9
 72
     1
 11
749.28983600000004
 21
1670.2506699999999
 31
0.0
  0
LINE
  5
348
  8
SIZE
  6
CONTINUOUS
 62
    30
 10
887.96840699999973
 20
1772.670918
 30
0.0
 11
897.96840699999996
 21
1772.670918
 31
0.0
  0
CIRCLE
  5
349
  8
SIZE
  6
CONTINUOUS
 62
    30
 10
877.96840699999984
 20
1772.670918
 30
0.0
 40
10.0
  0
POINT
  5
34A
  8
DEFPOINTS
  6
CONTINUOUS
 62
     7
 10
877.96840699999984
 20
1772.670918
 30
0.0
  0
LINE
  5
34B
  8
SIZE
  6
CONTINUOUS
 62
    30
 10
887.96840699999973
 20
1772.670918
 30
0.0
 11
897.96840699999996
 21
1772.670918
 31
0.0
  0
CIRCLE
  5
34C
  8
SIZE
  6
CONTINUOUS
 62
    30
 10
877.96840699999984
 20
1772.670918
 30
0.0
 40
10.0
  0
LINE
  5
34D
  8
SIZE
  6
CONTINUOUS
 62
    30
 10
897.96840699999996
 20
1772.670918
 30
0.0
 11
917.96840699999996
 21
1772.670918
 31
0.0
  0
LINE
  5
34E
  8
BASIS
  6
DASHDOT
 62
     6
 10
1265.4684070000001
 20
687.11105999999995
 30
0.0
 11
1265.4684070000001
 21
1268.112018
 31
0.0
  0
CIRCLE
  5
34F
  8
ARRANGE
  6
CONTINUOUS
 62
     1
 10
1265.4684070000001
 20
745.11201799999981
 30
0.0
 40
50.0
  0
LINE
  5
350
  8
SIZE
  6
CONTINUOUS
 62
    30
 10
1652.9684070000001
 20
865.91201799999999
 30
0.0
 11
1652.9684070000001
 21
343.64666899999997
 31
0.0
  0
LINE
  5
351
  8
SIZE
  6
CONTINUOUS
 62
    30
 10
1460.9684070000001
 20
863.528413
 30
0.0
 11
1460.9684070000001
 21
343.64666899999997
 31
0.0
  0
LINE
  5
352
  8
SIZE
  6
CONTINUOUS
 62
    30
 10
1652.9684070000001
 20
865.91201799999999
 30
0.0
 11
1652.9684070000001
 21
11.999995999999999
 31
0.0
  0
LINE
  5
353
  8
SIZE
  6
CONTINUOUS
 62
    30
 10
1652.9684070000001
 20
865.91201799999999
 30
0.0
 11
1652.9684070000001
 21
230.94564
 31
0.0
  0
CIRCLE
  5
354
  8
SIZE
  6
CONTINUOUS
 62
    30
 10
2348.110201
 20
745.11201799999981
 30
0.0
 40
10.0
  0
LINE
  5
355
  8
SIZE
  6
CONTINUOUS
 62
    30
 10
2348.110201
 20
745.11201799999981
 30
0.0
 11
2348.110201
 21
368.54058900000001
 31
0.0
  0
POLYLINE
  5
356
  8
NOTE
  6
CONTINUOUS
 62
     4
 66
     1
 10
0.0
 20
0.0
 30
0.0
  0
VERTEX
  5
165D
  8
NOTE
  6
CONTINUOUS
 62
     4
 10
1528.9684070000001
 20
984.11201799999981
 30
0.0
  0
VERTEX
  5
165E
  8
NOTE
  6
CONTINUOUS
 62
     4
 10
1733.6161830000001
 20
526.66100800000004
 30
0.0
  0
SEQEND
  5
165F
  8
NOTE
  6
CONTINUOUS
 62
     4
  0
POLYLINE
  5
35A
  8
NOTE
  6
CONTINUOUS
 62
     4
 66
     1
 10
0.0
 20
0.0
 30
0.0
  0
VERTEX
  5
1660
  8
NOTE
  6
CONTINUOUS
 62
     4
 10
1460.9684070000001
 20
913.11201799999992
 30
0.0
  0
VERTEX
  5
1661
  8
NOTE
  6
CONTINUOUS
 62
     4
 10
1744.7227869999999
 20
391.65948200000003
 30
0.0
  0
SEQEND
  5
1662
  8
NOTE
  6
CONTINUOUS
 62
     4
  0
POLYLINE
  5
35E
  8
NOTE
  6
CONTINUOUS
 62
     4
 66
     1
 10
0.0
 20
0.0
 30
0.0
  0
VERTEX
  5
1663
  8
NOTE
  6
CONTINUOUS
 62
     4
 10
1103.3029590000001
 20
955.08052199999986
 30
0.0
  0
VERTEX
  5
1664
  8
NOTE
  6
CONTINUOUS
 62
     4
 10
947.75594600000011
 20
613.57191399999988
 30
0.0
  0
SEQEND
  5
1665
  8
NOTE
  6
CONTINUOUS
 62
     4
  0
LINE
  5
362
  8
OUTLINE
  6
CONTINUOUS
 62
     3
 10
1402.9684070000001
 20
741.10502999999983
 30
0.0
 11
1402.9684070000001
 21
745.11201799999981
 31
0.0
  0
CIRCLE
  5
363
  8
SIZE
  6
CONTINUOUS
 62
    30
 10
1829.801964
 20
745.11201799999981
 30
0.0
 40
10.0
  0
CIRCLE
  5
364
  8
SIZE
  6
CONTINUOUS
 62
    30
 10
1829.801964
 20
737.11201799999981
 30
0.0
 40
10.0
  0
CIRCLE
  5
365
  8
SIZE
  6
CONTINUOUS
 62
    30
 10
1829.801964
 20
745.11201799999981
 30
0.0
 40
10.0
  0
LINE
  5
366
  8
SIZE
  6
CONTINUOUS
 62
    30
 10
1829.801964
 20
745.11201799999981
 30
0.0
 11
1829.801964
 21
737.11201799999981
 31
0.0
  0
LINE
  5
367
  8
ARRANGE
  6
CONTINUOUS
 62
     1
 10
1215.431057
 20
695.58966499999985
 30
0.0
 11
1315.5057569999999
 21
794.63437099999965
 31
0.0
  0
LINE
  5
368
  8
ARRANGE
  6
CONTINUOUS
 62
     1
 10
1215.5046440000001
 20
794.70861300000001
 30
0.0
 11
1315.43217
 21
695.51542300000006
 31
0.0
  0
POLYLINE
  5
369
  8
SIZE
  6
CONTINUOUS
 62
    30
 66
     1
 10
0.0
 20
0.0
 30
0.0
  0
VERTEX
  5
1666
  8
SIZE
  6
CONTINUOUS
 62
    30
 10
2548.2240040000001
 20
714.02411900000004
 30
0.0
 42
0.186174
  0
VERTEX
  5
1667
  8
SIZE
  6
CONTINUOUS
 62
    30
 10
2539.374155
 20
734.97360700000002
 30
0.0
 42
0.082105
  0
VERTEX
  5
1668
  8
SIZE
  6
CONTINUOUS
 62
    30
 10
2523.6716529999999
 20
747.14816799999983
 30
0.0
 42
0.058826
  0
VERTEX
  5
1669
  8
SIZE
  6
CONTINUOUS
 62
    30
 10
2501.8855950000002
 20
755.92309499999988
 30
0.0
 42
0.067494
  0
VERTEX
  5
166A
  8
SIZE
  6
CONTINUOUS
 62
    30
 10
2464.3970359999998
 20
760.86859800000002
 30
0.0
 42
0.067494
  0
VERTEX
  5
166B
  8
SIZE
  6
CONTINUOUS
 62
    30
 10
2426.9084760000001
 20
755.92309499999988
 30
0.0
 42
0.058826
  0
VERTEX
  5
166C
  8
SIZE
  6
CONTINUOUS
 62
    30
 10
2405.1224179999999
 20
747.14816799999983
 30
0.0
 42
0.082105
  0
VERTEX
  5
166D
  8
SIZE
  6
CONTINUOUS
 62
    30
 10
2389.4199159999998
 20
734.97360700000002
 30
0.0
 42
0.186174
  0
VERTEX
  5
166E
  8
SIZE
  6
CONTINUOUS
 62
    30
 10
2380.5700670000001
 20
714.02411900000004
 30
0.0
 42
0.186174
  0
SEQEND
  5
166F
  8
SIZE
  6
CONTINUOUS
 62
    30
  0
LINE
  5
374
  8
DETAIL
  6
CONTINUOUS
 62
     5
 10
1402.9684070000001
 20
741.10502999999983
 30
0.0
 11
1402.9684070000001
 21
745.11201799999981
 31
0.0
  0
LINE
  5
375
  8
SIZE
  6
CONTINUOUS
 62
    30
 10
1389.7851900000001
 20
737.11201799999981
 30
0.0
 11
1859.801964
 21
737.11201799999981
 31
0.0
  0
LINE
  5
376
  8
NOTE
  6
CONTINUOUS
 62
     4
 10
2179.6535869999998
 20
391.65948200000003
 30
0.0
 11
1744.7227869999999
 21
391.65948200000003
 31
0.0
  0
TEXT
  5
377
  8
NOTE
  6
CONTINUOUS
 62
     4
 10
1766.3980590000001
 20
407.48601300000001
 30
0.0
 40
60.0
  1
D2（自然排水口）
 50
0.000003
 41
0.7
  7
STANDARD1
  0
LINE
  5
378
  8
NOTE
  6
CONTINUOUS
 62
     4
 10
2113.6516620000002
 20
526.66100800000004
 30
0.0
 11
1733.6161830000001
 21
526.66100800000004
 31
0.0
  0
TEXT
  5
379
  8
NOTE
  6
CONTINUOUS
 62
     4
 10
1747.4232030000001
 20
537.43003099999964
 30
0.0
 40
60.0
  1
RG %%C15.88
 50
0.000003
 41
0.7
  7
STANDARD1
  0
LINE
  5
37A
  8
SIZE
  6
CONTINUOUS
 62
    30
 10
1402.9684070000001
 20
721.10502999999983
 30
0.0
 11
1402.9684070000001
 21
11.999995999999999
 31
0.0
  0
LINE
  5
37B
  8
SIZE
  6
CONTINUOUS
 62
    30
 10
1402.9684070000001
 20
723.10502999999983
 30
0.0
 11
1402.9684070000001
 21
-0.000004
 31
0.0
  0
CIRCLE
  5
37C
  8
SIZE
  6
CONTINUOUS
 62
    30
 10
1402.9684070000001
 20
138.249135
 30
0.0
 40
10.0
  0
CIRCLE
  5
37D
  8
SIZE
  6
CONTINUOUS
 62
    30
 10
1385.9684070000001
 20
138.249135
 30
0.0
 40
10.0
  0
LINE
  5
37E
  8
SIZE
  6
CONTINUOUS
 62
    30
 10
1402.9684070000001
 20
723.10502999999983
 30
0.0
 11
1402.9684070000001
 21
108.249135
 31
0.0
  0
LINE
  5
37F
  8
SIZE
  6
CONTINUOUS
 62
    30
 10
1385.9684070000001
 20
728.11201799999981
 30
0.0
 11
1385.9684070000001
 21
108.249135
 31
0.0
  0
CIRCLE
  5
380
  8
SIZE
  6
CONTINUOUS
 62
    30
 10
1385.9684070000001
 20
138.249135
 30
0.0
 40
10.0
  0
LINE
  5
381
  8
SIZE
  6
CONTINUOUS
 62
    30
 10
1385.9684070000001
 20
728.11201799999981
 30
0.0
 11
1385.9684070000001
 21
108.249135
 31
0.0
  0
LINE
  5
382
  8
SIZE
  6
CONTINUOUS
 62
    30
 10
1392.9684070000001
 20
29.99999600000001
 30
0.0
 11
1382.9684070000001
 21
29.99999600000001
 31
0.0
  0
TEXT
  5
383
  8
SIZE
  6
CONTINUOUS
 62
    30
 10
1045.111264142857
 20
47.999996000000003
 30
0.0
 40
50.0
  1
600
 41
0.9
 72
     1
 11
1102.9684070000001
 21
47.999996000000003
 31
0.0
  0
LINE
  5
384
  8
SIZE
  6
CONTINUOUS
 62
    30
 10
1632.9684070000001
 20
29.99999600000001
 30
0.0
 11
1422.9684070000001
 21
29.99999600000001
 31
0.0
  0
TEXT
  5
385
  8
SIZE
  6
CONTINUOUS
 62
    30
 10
1464.325549857143
 20
47.999996000000003
 30
0.0
 40
55.0
  1
250
 41
0.9
 72
     1
 11
1527.9684070000001
 21
47.999996000000003
 31
0.0
  0
POINT
  5
386
  8
DEFPOINTS
  6
CONTINUOUS
 62
     7
 10
1402.9684070000001
 20
29.99999600000001
 30
0.0
  0
LINE
  5
387
  8
SIZE
  6
CONTINUOUS
 62
    30
 10
1412.9684070000001
 20
29.99999600000001
 30
0.0
 11
1422.9684070000001
 21
29.99999600000001
 31
0.0
  0
CIRCLE
  5
388
  8
SIZE
  6
CONTINUOUS
 62
    30
 10
1402.9684070000001
 20
29.99999600000001
 30
0.0
 40
10.0
  0
POINT
  5
389
  8
DEFPOINTS
  6
CONTINUOUS
 62
     7
 10
1402.9684070000001
 20
29.99999600000001
 30
0.0
  0
CIRCLE
  5
38A
  8
SIZE
  6
CONTINUOUS
 62
    30
 10
1402.9684070000001
 20
29.99999600000001
 30
0.0
 40
10.0
  0
LINE
  5
38B
  8
SIZE
  6
CONTINUOUS
 62
    30
 10
1642.9684070000001
 20
29.99999600000001
 30
0.0
 11
1632.9684070000001
 21
29.99999600000001
 31
0.0
  0
CIRCLE
  5
38C
  8
SIZE
  6
CONTINUOUS
 62
    30
 10
1652.9684070000001
 20
29.99999600000001
 30
0.0
 40
10.0
  0
CIRCLE
  5
38D
  8
SIZE
  6
CONTINUOUS
 62
    30
 10
1385.9684070000001
 20
248.94564
 30
0.0
 40
10.0
  0
ARC
  5
38E
  8
OUTLINE
  6
CONTINUOUS
 62
     3
 10
1372.2647300000001
 20
857.12543100000005
 30
0.0
 40
120.014371
 50
269.77106299999991
 51
284.82297
  0
ARC
  5
38F
  8
DETAIL
  6
CONTINUOUS
 62
     5
 10
1372.2647300000001
 20
857.12543100000005
 30
0.0
 40
120.014371
 50
269.77106299999991
 51
284.82297
  0
LINE
  5
390
  8
SIZE
  6
CONTINUOUS
 62
    30
 10
1375.9684070000001
 20
138.249135
 30
0.0
 11
1365.9684070000001
 21
138.249135
 31
0.0
  0
LINE
  5
391
  8
SIZE
  6
CONTINUOUS
 62
    30
 10
1365.9684070000001
 20
138.249135
 30
0.0
 11
1345.9684070000001
 21
138.249135
 31
0.0
  0
LINE
  5
392
  8
SIZE
  6
CONTINUOUS
 62
    30
 10
1375.9684070000001
 20
138.249135
 30
0.0
 11
1365.9684070000001
 21
138.249135
 31
0.0
  0
POINT
  5
393
  8
DEFPOINTS
  6
CONTINUOUS
 62
     7
 10
1371.7851900000001
 20
737.11201799999981
 30
0.0
  0
LINE
  5
394
  8
SIZE
  6
CONTINUOUS
 62
    30
 10
1385.9684070000001
 20
726.11201799999981
 30
0.0
 11
1385.9684070000001
 21
230.94564
 31
0.0
  0
TEXT
  5
395
  8
SIZE
  6
CONTINUOUS
 62
    30
 10
1498.039835571429
 20
379.64666899999997
 30
0.0
 40
55.0
  1
192
 41
0.9
 72
     1
 11
1556.9684070000001
 21
379.64666899999997
 31
0.0
  0
LINE
  5
396
  8
SIZE
  6
CONTINUOUS
 62
    30
 10
1480.9684070000001
 20
361.64666899999997
 30
0.0
 11
1632.9684070000001
 21
361.64666899999997
 31
0.0
  0
LINE
  5
397
  8
SIZE
  6
CONTINUOUS
 62
    30
 10
1405.9684070000001
 20
248.94564
 30
0.0
 11
1632.9684070000001
 21
248.94564
 31
0.0
  0
TEXT
  5
398
  8
SIZE
  6
CONTINUOUS
 62
    30
 10
1455.825549857143
 20
266.94564000000003
 30
0.0
 40
55.0
  1
267
 41
0.9
 72
     1
 11
1519.4684070000001
 21
266.94564000000003
 31
0.0
  0
TEXT
  5
399
  8
SIZE
  6
CONTINUOUS
 62
    30
 10
1460.968406857143
 20
156.249135
 30
0.0
 40
50.0
  1
17
 41
0.9
 72
     1
 11
1493.1112639999999
 21
156.249135
 31
0.0
  0
LINE
  5
39A
  8
SIZE
  6
CONTINUOUS
 62
    30
 10
1422.9684070000001
 20
138.249135
 30
0.0
 11
1543.2541209999999
 21
138.249135
 31
0.0
  0
LINE
  5
39B
  8
SIZE
  6
CONTINUOUS
 62
    30
 10
1395.9684070000001
 20
248.94564
 30
0.0
 11
1405.9684070000001
 21
248.94564
 31
0.0
  0
POINT
  5
39C
  8
DEFPOINTS
  6
CONTINUOUS
 62
     7
 10
1402.9684070000001
 20
138.249135
 30
0.0
  0
LINE
  5
39D
  8
SIZE
  6
CONTINUOUS
 62
    30
 10
1412.9684070000001
 20
138.249135
 30
0.0
 11
1422.9684070000001
 21
138.249135
 31
0.0
  0
LINE
  5
39E
  8
SIZE
  6
CONTINUOUS
 62
    30
 10
1385.9684070000001
 20
138.249135
 30
0.0
 11
1402.9684070000001
 21
138.249135
 31
0.0
  0
POINT
  5
39F
  8
DEFPOINTS
  6
CONTINUOUS
 62
     7
 10
1385.9684070000001
 20
138.249135
 30
0.0
  0
LINE
  5
3A0
  8
SIZE
  6
CONTINUOUS
 62
    30
 10
1470.9684070000001
 20
361.64666899999997
 30
0.0
 11
1480.9684070000001
 21
361.64666899999997
 31
0.0
  0
CIRCLE
  5
3A1
  8
SIZE
  6
CONTINUOUS
 62
    30
 10
1460.9684070000001
 20
361.64666899999997
 30
0.0
 40
10.0
  0
POINT
  5
3A2
  8
DEFPOINTS
  6
CONTINUOUS
 62
     7
 10
1652.9684070000001
 20
248.94564
 30
0.0
  0
LINE
  5
3A3
  8
SIZE
  6
CONTINUOUS
 62
    30
 10
1642.9684070000001
 20
248.94564
 30
0.0
 11
1632.9684070000001
 21
248.94564
 31
0.0
  0
CIRCLE
  5
3A4
  8
SIZE
  6
CONTINUOUS
 62
    30
 10
1652.9684070000001
 20
248.94564
 30
0.0
 40
10.0
  0
POINT
  5
3A5
  8
DEFPOINTS
  6
CONTINUOUS
 62
     7
 10
1652.9684070000001
 20
361.64666899999997
 30
0.0
  0
LINE
  5
3A6
  8
SIZE
  6
CONTINUOUS
 62
    30
 10
1642.9684070000001
 20
361.64666899999997
 30
0.0
 11
1632.9684070000001
 21
361.64666899999997
 31
0.0
  0
CIRCLE
  5
3A7
  8
SIZE
  6
CONTINUOUS
 62
    30
 10
1652.9684070000001
 20
361.64666899999997
 30
0.0
 40
10.0
  0
POINT
  5
3A8
  8
DEFPOINTS
  6
CONTINUOUS
 62
     7
 10
1402.9684070000001
 20
741.10502999999983
 30
0.0
  0
POINT
  5
3A9
  8
DEFPOINTS
  6
CONTINUOUS
 62
     7
 10
1402.9684070000001
 20
741.10502999999983
 30
0.0
  0
POINT
  5
3AA
  8
DEFPOINTS
  6
CONTINUOUS
 62
     7
 10
1402.9684070000001
 20
741.10502999999983
 30
0.0
  0
LINE
  5
3AB
  8
SIZE
  6
CONTINUOUS
 62
    30
 10
1829.801964
 20
735.11201799999969
 30
0.0
 11
1829.801964
 21
725.11201799999981
 31
0.0
  0
LINE
  5
3AC
  8
SIZE
  6
CONTINUOUS
 62
    30
 10
1829.801964
 20
725.11201799999981
 30
0.0
 11
1829.801964
 21
705.11201799999981
 31
0.0
  0
POINT
  5
3AD
  8
DEFPOINTS
  6
CONTINUOUS
 62
     7
 10
1829.801964
 20
737.11201799999981
 30
0.0
  0
TEXT
  5
3AE
  8
SIZE
  6
CONTINUOUS
 62
    30
 10
1811.801964
 20
649.11201799999947
 30
0.0
 40
50.0
  1
8
 50
90.0
 41
0.9
 72
     1
 11
1811.801964
 21
664.11201799999958
 31
0.0
  0
LINE
  5
3AF
  8
SIZE
  6
CONTINUOUS
 62
    30
 10
1829.801964
 20
727.11201799999969
 30
0.0
 11
1829.801964
 21
717.11201799999981
 31
0.0
  0
LINE
  5
3B0
  8
SIZE
  6
CONTINUOUS
 62
    30
 10
1829.801964
 20
717.11201799999981
 30
0.0
 11
1829.801964
 21
631.11201799999958
 31
0.0
  0
TEXT
  5
3B1
  8
SIZE
  6
CONTINUOUS
 62
    30
 10
2330.110201
 20
386.54058971428577
 30
0.0
 40
55.0
  1
140-300
 50
90.0
 41
0.9
 72
     1
 11
2330.110201
 21
546.82630400000005
 31
0.0
  0
TEXT
  5
3B2
  8
SIZE
  6
CONTINUOUS
 62
    30
 10
2540.512311
 20
435.6329811428572
 30
0.0
 40
55.0
  1
50-60
 50
90.0
 41
0.9
 72
     1
 11
2540.512311
 21
553.49012400000004
 31
0.0
  0
TEXT
  5
3B3
  8
SIZE
  6
CONTINUOUS
 62
    30
 10
2456.7625320000002
 20
379.71718699999968
 30
0.0
 40
55.0
  1
パネル直付時
 50
90.0
 41
0.9
 72
     1
 11
2456.7625320000002
 21
551.31718699999976
 31
0.0
  0
POLYLINE
  5
3B4
  8
SIZE
  6
CONTINUOUS
 62
    30
 66
     1
 10
0.0
 20
0.0
 30
0.0
  0
VERTEX
  5
1670
  8
SIZE
  6
CONTINUOUS
 62
    30
 10
2380.5700670000001
 20
386.27849300000008
 30
0.0
 42
0.186174
  0
VERTEX
  5
1671
  8
SIZE
  6
CONTINUOUS
 62
    30
 10
2389.4199159999998
 20
365.329005
 30
0.0
 42
0.082105
  0
VERTEX
  5
1672
  8
SIZE
  6
CONTINUOUS
 62
    30
 10
2405.1224179999999
 20
353.15444400000001
 30
0.0
 42
0.058826
  0
VERTEX
  5
1673
  8
SIZE
  6
CONTINUOUS
 62
    30
 10
2426.9084760000001
 20
344.37951700000002
 30
0.0
 42
0.067494
  0
VERTEX
  5
1674
  8
SIZE
  6
CONTINUOUS
 62
    30
 10
2464.3970359999998
 20
339.43401399999999
 30
0.0
 42
0.067494
  0
VERTEX
  5
1675
  8
SIZE
  6
CONTINUOUS
 62
    30
 10
2501.8855950000002
 20
344.37951700000002
 30
0.0
 42
0.058826
  0
VERTEX
  5
1676
  8
SIZE
  6
CONTINUOUS
 62
    30
 10
2523.6716529999999
 20
353.15444400000001
 30
0.0
 42
0.082105
  0
VERTEX
  5
1677
  8
SIZE
  6
CONTINUOUS
 62
    30
 10
2539.374155
 20
365.329005
 30
0.0
 42
0.186174
  0
VERTEX
  5
1678
  8
SIZE
  6
CONTINUOUS
 62
    30
 10
2548.2240040000001
 20
386.27849300000008
 30
0.0
 42
0.186174
  0
VERTEX
  5
1679
  8
SIZE
  6
CONTINUOUS
 62
    30
 10
2548.2240040000001
 20
386.27849300000008
 30
0.0
 42
0.186174
  0
SEQEND
  5
167A
  8
SIZE
  6
CONTINUOUS
 62
    30
  0
LINE
  5
3C0
  8
SIZE
  6
CONTINUOUS
 62
    30
 10
1672.1684069999999
 20
1218.112018
 30
0.0
 11
2366.110201
 21
1218.112018
 31
0.0
  0
LINE
  5
3C1
  8
SIZE
  6
CONTINUOUS
 62
    30
 10
1672.1684069999999
 20
885.11201799999981
 30
0.0
 11
2366.110201
 21
885.11201799999981
 31
0.0
  0
LINE
  5
3C2
  8
SIZE
  6
CONTINUOUS
 62
    30
 10
1422.9684070000001
 20
745.11201799999981
 30
0.0
 11
2366.110201
 21
745.11201799999981
 31
0.0
  0
LINE
  5
3C3
  8
SIZE
  6
CONTINUOUS
 62
    30
 10
1672.1684069999999
 20
885.11201799999981
 30
0.0
 11
2366.110201
 21
885.11201799999981
 31
0.0
  0
POLYLINE
  5
3C4
  8
NOTE
  6
CONTINUOUS
 62
     4
 66
     1
 10
0.0
 20
0.0
 30
0.0
  0
VERTEX
  5
167B
  8
NOTE
  6
CONTINUOUS
 62
     4
 10
1464.9684070000001
 20
1012.112018
 30
0.0
  0
VERTEX
  5
167C
  8
NOTE
  6
CONTINUOUS
 62
     4
 10
2015.314085
 20
1454.84968
 30
0.0
  0
SEQEND
  5
167D
  8
NOTE
  6
CONTINUOUS
 62
     4
  0
POLYLINE
  5
3C8
  8
NOTE
  6
CONTINUOUS
 62
     4
 66
     1
 10
0.0
 20
0.0
 30
0.0
  0
VERTEX
  5
167E
  8
NOTE
  6
CONTINUOUS
 62
     4
 10
1722.9684070000001
 20
1082.112018
 30
0.0
  0
VERTEX
  5
167F
  8
NOTE
  6
CONTINUOUS
 62
     4
 10
2016.8996510000011
 20
1336.9094110000001
 30
0.0
  0
SEQEND
  5
1680
  8
NOTE
  6
CONTINUOUS
 62
     4
  0
LINE
  5
3CC
  8
SIZE
  6
CONTINUOUS
 62
    30
 10
1670.1684069999999
 20
1218.112018
 30
0.0
 11
2262.8857200000002
 21
1218.112018
 31
0.0
  0
LINE
  5
3CD
  8
SIZE
  6
CONTINUOUS
 62
    30
 10
1508.972
 20
913.11201799999992
 30
0.0
 11
2262.8857200000002
 21
913.11201799999992
 31
0.0
  0
LINE
  5
3CE
  8
SIZE
  6
CONTINUOUS
 62
    30
 10
1576.972
 20
984.11201799999981
 30
0.0
 11
2149.9507749999998
 21
984.11201799999981
 31
0.0
  0
LINE
  5
3CF
  8
SIZE
  6
CONTINUOUS
 62
    30
 10
1511.0531880000001
 20
1012.112018
 30
0.0
 11
2149.9507749999998
 21
1012.112018
 31
0.0
  0
LINE
  5
3D0
  8
SIZE
  6
CONTINUOUS
 62
    30
 10
1670.1684069999999
 20
1218.112018
 30
0.0
 11
2149.9507749999998
 21
1218.112018
 31
0.0
  0
LINE
  5
3D1
  8
SIZE
  6
CONTINUOUS
 62
    30
 10
1511.0531880000001
 20
1012.112018
 30
0.0
 11
2149.9507749999998
 21
1012.112018
 31
0.0
  0
CIRCLE
  5
3D2
  8
SIZE
  6
CONTINUOUS
 62
    30
 10
1829.801964
 20
792.11201799999981
 30
0.0
 40
10.0
  0
LINE
  5
3D3
  8
SIZE
  6
CONTINUOUS
 62
    30
 10
1829.801964
 20
768.61201799999969
 30
0.0
 11
1956.973526
 21
768.78991199999984
 31
0.0
  0
LINE
  5
3D4
  8
SIZE
  6
CONTINUOUS
 62
    30
 10
1389.4346310000001
 20
792.11201799999981
 30
0.0
 11
1859.801964
 21
792.11201799999981
 31
0.0
  0
LINE
  5
3D5
  8
SIZE
  6
CONTINUOUS
 62
    30
 10
1420.9684070000001
 20
745.11201799999981
 30
0.0
 11
1859.801964
 21
745.11201799999981
 31
0.0
  0
LINE
  5
3D6
  8
SIZE
  6
CONTINUOUS
 62
    30
 10
1420.9684070000001
 20
745.11201799999981
 30
0.0
 11
1859.801964
 21
745.11201799999981
 31
0.0
  0
LINE
  5
3D7
  8
SIZE
  6
CONTINUOUS
 62
    30
 10
1754.4700239999991
 20
1082.112018
 30
0.0
 11
2043.361077
 21
1082.112018
 31
0.0
  0
LINE
  5
3D8
  8
SIZE
  6
CONTINUOUS
 62
    30
 10
1670.1684069999999
 20
1218.112018
 30
0.0
 11
2043.361077
 21
1218.112018
 31
0.0
  0
LINE
  5
3D9
  8
SIZE
  6
CONTINUOUS
 62
    30
 10
1652.9684070000001
 20
1236.7524530000001
 30
0.0
 11
1652.9684070000001
 21
1546.950795
 31
0.0
  0
LINE
  5
3DA
  8
SIZE
  6
CONTINUOUS
 62
    30
 10
1379.9684070000001
 20
1112.6147129999999
 30
0.0
 11
1379.9684070000001
 21
1546.950795
 31
0.0
  0
LINE
  5
3DB
  8
SIZE
  6
CONTINUOUS
 62
    30
 10
1652.9684070000001
 20
1236.7524530000001
 30
0.0
 11
1652.9684070000001
 21
1443.16489
 31
0.0
  0
LINE
  5
3DC
  8
SIZE
  6
CONTINUOUS
 62
    30
 10
1528.9684070000001
 20
1034.1156109999999
 30
0.0
 11
1528.9684070000001
 21
1443.16489
 31
0.0
  0
LINE
  5
3DD
  8
SIZE
  6
CONTINUOUS
 62
    30
 10
1652.9684070000001
 20
1236.7524530000001
 30
0.0
 11
1652.9684070000001
 21
1790.670918
 31
0.0
  0
LINE
  5
3DE
  8
SIZE
  6
CONTINUOUS
 62
    30
 10
1652.9684070000001
 20
1236.7524530000001
 30
0.0
 11
1652.9684070000001
 21
1670.2506699999999
 31
0.0
  0
LINE
  5
3DF
  8
SIZE
  6
CONTINUOUS
 62
    30
 10
1618.9684070000001
 20
1258.114413
 30
0.0
 11
1618.9684070000001
 21
1670.2506699999999
 31
0.0
  0
LINE
  5
3E0
  8
SIZE
  6
CONTINUOUS
 62
    30
 10
1464.9684070000001
 20
1060.1156109999999
 30
0.0
 11
1464.9684070000001
 21
1455.16489
 31
0.0
  0
LINE
  5
3E1
  8
SIZE
  6
CONTINUOUS
 62
    30
 10
1528.9684070000001
 20
1032.1156109999999
 30
0.0
 11
1528.9684070000001
 21
1455.16489
 31
0.0
  0
LINE
  5
3E2
  8
SIZE
  6
CONTINUOUS
 62
    30
 10
1618.9684070000001
 20
1256.114413
 30
0.0
 11
1618.9684070000001
 21
1682.2506699999999
 31
0.0
  0
LINE
  5
3E3
  8
NOTE
  6
CONTINUOUS
 62
     4
 10
1386.3442219999999
 20
989.882068
 30
0.0
 11
1356.7737
 21
999.37950699999999
 31
0.0
  0
LINE
  5
3E4
  8
NOTE
  6
CONTINUOUS
 62
     4
 10
1365.4841180000001
 20
1012.892352
 30
0.0
 11
1386.3442219999999
 21
989.882068
 31
0.0
  0
CIRCLE
  5
3E5
  8
DETAIL
  6
CONTINUOUS
 62
     5
 10
1379.9684070000001
 20
1070.112018
 30
0.0
 40
16.0
  0
ARC
  5
3E6
  8
DETAIL
  6
CONTINUOUS
 62
     5
 10
1379.9684070000001
 20
1070.112018
 30
0.0
 40
17.502095999999991
 50
180.0
 51
0.0
  0
CIRCLE
  5
3E7
  8
DETAIL
  6
CONTINUOUS
 62
     5
 10
1386.3442219999999
 20
989.882068
 30
0.0
 40
20.002395
  0
LINE
  5
3E8
  8
DETAIL
  6
CONTINUOUS
 62
     5
 10
1289.3328140000001
 20
924.07418799999994
 30
0.0
 11
1416.3478150000001
 21
924.07418799999994
 31
0.0
  0
LINE
  5
3E9
  8
NOTE
  6
CONTINUOUS
 62
     4
 10
1400.8625770000001
 20
1070.112018
 30
0.0
 11
1359.074237
 21
1070.112018
 31
0.0
  0
LINE
  5
3EA
  8
NOTE
  6
CONTINUOUS
 62
     4
 10
1417.459059
 20
989.882068
 30
0.0
 11
1355.2293850000001
 21
989.882068
 31
0.0
  0
LINE
  5
3EB
  8
NOTE
  6
CONTINUOUS
 62
     4
 10
1379.9684070000001
 20
1092.6147129999999
 30
0.0
 11
1379.9684070000001
 21
1047.6093229999999
 31
0.0
  0
LINE
  5
3EC
  8
DETAIL
  6
CONTINUOUS
 62
     5
 10
1279.3316170000001
 20
934.07538599999987
 30
0.0
 11
1279.3316170000001
 21
1072.093709
 31
0.0
  0
LINE
  5
3ED
  8
DETAIL
  6
CONTINUOUS
 62
     5
 10
1083.302768
 20
1164.1068869999999
 30
0.0
 11
1083.302768
 21
915.07706999999982
 31
0.0
  0
LINE
  5
3EE
  8
DETAIL
  6
CONTINUOUS
 62
     5
 10
943.28600200000005
 20
915.07706999999982
 30
0.0
 11
943.28600200000005
 21
1164.1068869999999
 31
0.0
  0
LINE
  5
3EF
  8
DETAIL
  6
CONTINUOUS
 62
     5
 10
1083.302768
 20
915.07706999999982
 30
0.0
 11
943.28600200000005
 21
915.07706999999982
 31
0.0
  0
LINE
  5
3F0
  8
DETAIL
  6
CONTINUOUS
 62
     5
 10
1067.298648
 20
903.07563300000004
 30
0.0
 11
984.29621699999996
 21
903.07563300000004
 31
0.0
  0
ARC
  5
3F1
  8
DETAIL
  6
CONTINUOUS
 62
     5
 10
984.29621699999996
 20
906.07599200000004
 30
0.0
 40
3.0003589999999991
 50
180.0
 51
270.0
  0
LINE
  5
3F2
  8
DETAIL
  6
CONTINUOUS
 62
     5
 10
981.29585799999995
 20
906.07599200000004
 30
0.0
 11
981.29585799999995
 21
915.07706999999982
 31
0.0
  0
LINE
  5
3F3
  8
NOTE
  6
CONTINUOUS
 62
     4
 10
1103.3029590000001
 20
955.08052199999986
 30
0.0
 11
1097.9613670000001
 21
924.48502399999995
 31
0.0
  0
LINE
  5
3F4
  8
NOTE
  6
CONTINUOUS
 62
     4
 10
1083.3792559999999
 20
931.25483899999995
 30
0.0
 11
1103.3029590000001
 21
955.08052199999986
 31
0.0
  0
CIRCLE
  5
3F5
  8
DETAIL
  6
CONTINUOUS
 62
     5
 10
1103.3029590000001
 20
955.08052199999986
 30
0.0
 40
13.001557
  0
CIRCLE
  5
3F6
  8
DETAIL
  6
CONTINUOUS
 62
     5
 10
1103.3029590000001
 20
1005.08651
 30
0.0
 40
13.001557
  0
LINE
  5
3F7
  8
NOTE
  6
CONTINUOUS
 62
     4
 10
1103.3029590000001
 20
978.08327599999996
 30
0.0
 11
1103.3029590000001
 21
932.07776799999999
 31
0.0
  0
LINE
  5
3F8
  8
NOTE
  6
CONTINUOUS
 62
     4
 10
1126.305713
 20
955.08052199999986
 30
0.0
 11
1080.300205
 21
955.08052199999986
 31
0.0
  0
LINE
  5
3F9
  8
NOTE
  6
CONTINUOUS
 62
     4
 10
1103.3029590000001
 20
1028.089264
 30
0.0
 11
1103.3029590000001
 21
982.08375599999988
 31
0.0
  0
LINE
  5
3FA
  8
NOTE
  6
CONTINUOUS
 62
     4
 10
1126.305713
 20
1005.08651
 30
0.0
 11
1080.300205
 21
1005.08651
 31
0.0
  0
LINE
  5
3FB
  8
DETAIL
  6
CONTINUOUS
 62
     5
 10
1070.2990070000001
 20
915.07706999999982
 30
0.0
 11
1070.2990070000001
 21
906.07599200000004
 31
0.0
  0
ARC
  5
3FC
  8
DETAIL
  6
CONTINUOUS
 62
     5
 10
1067.298648
 20
906.07599200000004
 30
0.0
 40
3.0003589999999991
 50
270.0
 51
0.0
  0
LINE
  5
3FD
  8
OUTLINE
  6
CONTINUOUS
 62
     3
 10
1371.4346310000001
 20
745.11201799999981
 30
0.0
 11
1371.4346310000001
 21
792.11201799999981
 31
0.0
  0
POINT
  5
3FE
  8
DEFPOINTS
  6
CONTINUOUS
 62
     7
 10
1371.4346310000001
 20
792.11201799999981
 30
0.0
  0
LINE
  5
3FF
  8
DETAIL
  6
CONTINUOUS
 62
     5
 10
1371.4346310000001
 20
745.11201799999981
 30
0.0
 11
1371.4346310000001
 21
792.11201799999981
 31
0.0
  0
ARC
  5
400
  8
DETAIL
  6
CONTINUOUS
 62
     5
 10
1289.3328140000001
 20
934.07538599999987
 30
0.0
 40
10.001198
 50
180.0
 51
270.0
  0
LINE
  5
401
  8
DETAIL
  6
CONTINUOUS
 62
     5
 10
938.168407
 20
1218.112018
 30
0.0
 11
938.168407
 21
1201.1105809999999
 31
0.0
  0
LINE
  5
402
  8
DETAIL
  6
CONTINUOUS
 62
     5
 10
1083.302768
 20
1164.1068869999999
 30
0.0
 11
943.28600200000005
 21
1164.1068869999999
 31
0.0
  0
POINT
  5
403
  8
DEFPOINTS
  6
CONTINUOUS
 62
     7
 10
1379.9684070000001
 20
1092.6147129999999
 30
0.0
  0
LINE
  5
404
  8
NOTE
  6
CONTINUOUS
 62
     4
 10
1379.9684070000001
 20
1070.112018
 30
0.0
 11
1351.1511820000001
 21
1081.695827
 31
0.0
  0
LINE
  5
405
  8
NOTE
  6
CONTINUOUS
 62
     4
 10
1360.803862
 20
1094.5525029999999
 30
0.0
 11
1379.9684070000001
 21
1070.112018
 31
0.0
  0
POINT
  5
406
  8
DEFPOINTS
  6
CONTINUOUS
 62
     7
 10
1359.074237
 20
1070.112018
 30
0.0
  0
ARC
  5
407
  8
DETAIL
  6
CONTINUOUS
 62
     5
 10
1289.3328140000001
 20
1072.093709
 30
0.0
 40
10.001198
 50
90.0
 51
180.0
  0
LINE
  5
408
  8
DETAIL
  6
CONTINUOUS
 62
     5
 10
1362.4663109999999
 20
1082.0949069999999
 30
0.0
 11
1289.3328140000001
 21
1082.0949069999999
 31
0.0
  0
LINE
  5
409
  8
DETAIL
  6
CONTINUOUS
 62
     5
 10
1362.4663109999999
 20
1070.112018
 30
0.0
 11
1362.4663109999999
 21
1082.0949069999999
 31
0.0
  0
LINE
  5
40A
  8
OUTLINE
  6
CONTINUOUS
 62
     3
 10
1652.9684070000001
 20
1217.3120180000001
 30
0.0
 11
1652.9684070000001
 21
885.91201799999988
 31
0.0
  0
LINE
  5
40B
  8
DETAIL
  6
CONTINUOUS
 62
     5
 10
1652.9684070000001
 20
1217.3120180000001
 30
0.0
 11
1652.9684070000001
 21
885.91201799999988
 31
0.0
  0
LINE
  5
40C
  8
DETAIL
  6
CONTINUOUS
 62
     5
 10
1435.3444
 20
1156.109111
 30
0.0
 11
1435.3444
 21
1001.0899439999999
 31
0.0
  0
LINE
  5
40D
  8
DETAIL
  6
CONTINUOUS
 62
     5
 10
1607.366358
 20
973.08139400000005
 30
0.0
 11
1607.366358
 21
1156.109111
 31
0.0
  0
LINE
  5
40E
  8
DETAIL
  6
CONTINUOUS
 62
     5
 10
1426.3490119999999
 20
934.07538599999987
 30
0.0
 11
1426.3490119999999
 21
1072.093709
 31
0.0
  0
LINE
  5
40F
  8
DETAIL
  6
CONTINUOUS
 62
     5
 10
1667.982962
 20
1186.118485
 30
0.0
 11
1667.982962
 21
978.117527
 31
0.0
  0
LINE
  5
410
  8
DETAIL
  6
CONTINUOUS
 62
     5
 10
1687.985357
 20
982.11800600000015
 30
0.0
 11
1687.985357
 21
1182.1180059999999
 31
0.0
  0
LINE
  5
411
  8
DETAIL
  6
CONTINUOUS
 62
     5
 10
1722.9684070000001
 20
984.61800600000004
 30
0.0
 11
1722.9684070000001
 21
1179.6060299999999
 31
0.0
  0
ARC
  5
412
  8
DETAIL
  6
CONTINUOUS
 62
     5
 10
1602.365759
 20
973.08139400000005
 30
0.0
 40
5.0005990000000002
 50
270.0
 51
0.0
  0
LINE
  5
413
  8
NOTE
  6
CONTINUOUS
 62
     4
 10
1460.9684070000001
 20
913.11201799999992
 30
0.0
 11
1482.3684800000001
 21
890.60304299999984
 31
0.0
  0
LINE
  5
414
  8
NOTE
  6
CONTINUOUS
 62
     4
 10
1468.246926
 20
882.91863699999965
 30
0.0
 11
1460.9684070000001
 21
913.11201799999992
 31
0.0
  0
LINE
  5
415
  8
NOTE
  6
CONTINUOUS
 62
     4
 10
1460.9684070000001
 20
942.69562299999996
 30
0.0
 11
1460.9684070000001
 21
883.52841300000011
 31
0.0
  0
LINE
  5
416
  8
DETAIL
  6
CONTINUOUS
 62
     5
 10
1481.970922
 20
885.91211399999986
 30
0.0
 11
1481.970922
 21
913.11201799999992
 31
0.0
  0
LINE
  5
417
  8
DETAIL
  6
CONTINUOUS
 62
     5
 10
1439.9658919999999
 20
885.91211399999986
 30
0.0
 11
1439.9658919999999
 21
913.11201799999992
 31
0.0
  0
POINT
  5
418
  8
DEFPOINTS
  6
CONTINUOUS
 62
     7
 10
1460.9684070000001
 20
883.52841300000011
 30
0.0
  0
POINT
  5
419
  8
DEFPOINTS
  6
CONTINUOUS
 62
     7
 10
1385.9684070000001
 20
746.11201799999981
 30
0.0
  0
POINT
  5
41A
  8
DEFPOINTS
  6
CONTINUOUS
 62
     7
 10
1402.9684070000001
 20
745.11201799999981
 30
0.0
  0
POINT
  5
41B
  8
DEFPOINTS
  6
CONTINUOUS
 62
     7
 10
1402.9684070000001
 20
745.11201799999981
 30
0.0
  0
POINT
  5
41C
  8
DEFPOINTS
  6
CONTINUOUS
 62
     7
 10
1402.9684070000001
 20
745.11201799999981
 30
0.0
  0
POINT
  5
41D
  8
DEFPOINTS
  6
CONTINUOUS
 62
     7
 10
1385.9684070000001
 20
746.11201799999981
 30
0.0
  0
POINT
  5
41E
  8
DEFPOINTS
  6
CONTINUOUS
 62
     7
 10
1385.9684070000001
 20
746.11201799999981
 30
0.0
  0
LINE
  5
41F
  8
NOTE
  6
CONTINUOUS
 62
     4
 10
1385.9684070000001
 20
746.11201799999981
 30
0.0
 11
1487.275856
 21
746.11201799999981
 31
0.0
  0
LINE
  5
420
  8
NOTE
  6
CONTINUOUS
 62
     4
 10
1385.9684070000001
 20
766.11201799999981
 30
0.0
 11
1487.275856
 21
766.11201799999981
 31
0.0
  0
LINE
  5
421
  8
NOTE
  6
CONTINUOUS
 62
     4
 10
1476.2334149999999
 20
746.11201799999981
 30
0.0
 11
1456.2334149999999
 21
766.11201799999981
 31
0.0
  0
LINE
  5
422
  8
NOTE
  6
CONTINUOUS
 62
     4
 10
1471.2334149999999
 20
746.11201799999981
 30
0.0
 11
1451.2334149999999
 21
766.11201799999981
 31
0.0
  0
LINE
  5
423
  8
NOTE
  6
CONTINUOUS
 62
     4
 10
1466.2334149999999
 20
746.11201799999981
 30
0.0
 11
1446.2334149999999
 21
766.11201799999981
 31
0.0
  0
LINE
  5
424
  8
NOTE
  6
CONTINUOUS
 62
     4
 10
1385.9684070000001
 20
746.11201799999981
 30
0.0
 11
1385.9684070000001
 21
766.11201799999981
 31
0.0
  0
LINE
  5
425
  8
NOTE
  6
CONTINUOUS
 62
     4
 10
1436.2334149999999
 20
746.11201799999981
 30
0.0
 11
1416.2334149999999
 21
766.11201799999981
 31
0.0
  0
LINE
  5
426
  8
NOTE
  6
CONTINUOUS
 62
     4
 10
1431.2334149999999
 20
746.11201799999981
 30
0.0
 11
1411.2334149999999
 21
766.11201799999981
 31
0.0
  0
LINE
  5
427
  8
NOTE
  6
CONTINUOUS
 62
     4
 10
1426.2334149999999
 20
746.11201799999981
 30
0.0
 11
1406.2334149999999
 21
766.11201799999981
 31
0.0
  0
LINE
  5
428
  8
DETAIL
  6
CONTINUOUS
 62
     5
 10
1484.9702030000001
 20
973.08139400000005
 30
0.0
 11
1505.9662510000001
 21
973.08139400000005
 31
0.0
  0
LINE
  5
429
  8
NOTE
  6
CONTINUOUS
 62
     4
 10
1464.9684070000001
 20
1012.112018
 30
0.0
 11
1483.3047369999999
 21
1037.179848
 31
0.0
  0
LINE
  5
42A
  8
NOTE
  6
CONTINUOUS
 62
     4
 10
1493.3820499999999
 20
1024.6532299999999
 30
0.0
 11
1464.9684070000001
 21
1012.112018
 31
0.0
  0
POINT
  5
42B
  8
DEFPOINTS
  6
CONTINUOUS
 62
     7
 10
1490.972
 20
913.11201799999992
 30
0.0
  0
POINT
  5
42C
  8
DEFPOINTS
  6
CONTINUOUS
 62
     7
 10
1493.0531880000001
 20
1012.112018
 30
0.0
  0
POINT
  5
42D
  8
DEFPOINTS
  6
CONTINUOUS
 62
     7
 10
1493.0531880000001
 20
1012.112018
 30
0.0
  0
POINT
  5
42E
  8
DEFPOINTS
  6
CONTINUOUS
 62
     7
 10
1464.9684070000001
 20
1042.1156109999999
 30
0.0
  0
ARC
  5
42F
  8
DETAIL
  6
CONTINUOUS
 62
     5
 10
1484.9702030000001
 20
978.08139399999993
 30
0.0
 40
5.0
 50
180.0
 51
270.0
  0
ARC
  5
430
  8
DETAIL
  6
CONTINUOUS
 62
     5
 10
1444.9666110000001
 20
1001.089345
 30
0.0
 40
5.0
 50
270.0
 51
0.0
  0
LINE
  5
431
  8
NOTE
  6
CONTINUOUS
 62
     4
 10
1464.9684070000001
 20
1042.1156109999999
 30
0.0
 11
1464.9684070000001
 21
982.10842500000001
 31
0.0
  0
LINE
  5
432
  8
NOTE
  6
CONTINUOUS
 62
     4
 10
1493.0531880000001
 20
1012.112018
 30
0.0
 11
1436.883626
 21
1012.112018
 31
0.0
  0
LINE
  5
433
  8
NOTE
  6
CONTINUOUS
 62
     4
 10
1490.972
 20
913.11201799999992
 30
0.0
 11
1430.9648139999999
 21
913.11201799999992
 31
0.0
  0
ARC
  5
434
  8
DETAIL
  6
CONTINUOUS
 62
     5
 10
1460.9684070000001
 20
913.11201799999992
 30
0.0
 40
21.002514999999999
 50
0.0
 51
180.0
  0
CIRCLE
  5
435
  8
DETAIL
  6
CONTINUOUS
 62
     5
 10
1464.9684070000001
 20
1012.112018
 30
0.0
 40
15.001796000000001
  0
CIRCLE
  5
436
  8
DETAIL
  6
CONTINUOUS
 62
     5
 10
1464.9684070000001
 20
1012.112018
 30
0.0
 40
4.759999999999998
  0
CIRCLE
  5
437
  8
DETAIL
  6
CONTINUOUS
 62
     5
 10
1460.9684070000001
 20
913.11201799999992
 30
0.0
 40
13.751647
  0
LINE
  5
438
  8
DETAIL
  6
CONTINUOUS
 62
     5
 10
1479.9702030000001
 20
978.08139399999993
 30
0.0
 11
1479.9702030000001
 21
1012.112018
 31
0.0
  0
LINE
  5
439
  8
DETAIL
  6
CONTINUOUS
 62
     5
 10
1449.9666109999989
 20
1001.089345
 30
0.0
 11
1449.9666109999989
 21
1012.112018
 31
0.0
  0
ARC
  5
43A
  8
DETAIL
  6
CONTINUOUS
 62
     5
 10
1440.3449989999999
 20
1001.0899439999999
 30
0.0
 40
5.0005990000000002
 50
180.0
 51
270.0
  0
LINE
  5
43B
  8
DETAIL
  6
CONTINUOUS
 62
     5
 10
1440.3449989999999
 20
996.08934499999998
 30
0.0
 11
1444.9666110000001
 21
996.08934499999998
 31
0.0
  0
ARC
  5
43C
  8
DETAIL
  6
CONTINUOUS
 62
     5
 10
1416.3478150000001
 20
934.07538599999987
 30
0.0
 40
10.001198
 50
270.0
 51
0.0
  0
LINE
  5
43D
  8
NOTE
  6
CONTINUOUS
 62
     4
 10
1386.3442219999999
 20
1020.996905
 30
0.0
 11
1386.3442219999999
 21
958.76723100000004
 31
0.0
  0
POINT
  5
43E
  8
DEFPOINTS
  6
CONTINUOUS
 62
     7
 10
1528.9684070000001
 20
1014.1156109999999
 30
0.0
  0
LINE
  5
43F
  8
NOTE
  6
CONTINUOUS
 62
     4
 10
1528.9684070000001
 20
984.11201799999981
 30
0.0
 11
1548.556996
 21
960.01006299999995
 31
0.0
  0
LINE
  5
440
  8
NOTE
  6
CONTINUOUS
 62
     4
 10
1533.8816449999999
 20
953.44481800000005
 30
0.0
 11
1528.9684070000001
 21
984.11201799999981
 31
0.0
  0
POINT
  5
441
  8
DEFPOINTS
  6
CONTINUOUS
 62
     7
 10
1558.972
 20
984.11201799999981
 30
0.0
  0
POINT
  5
442
  8
DEFPOINTS
  6
CONTINUOUS
 62
     7
 10
1528.9684070000001
 20
1014.1156109999999
 30
0.0
  0
ARC
  5
443
  8
DETAIL
  6
CONTINUOUS
 62
     5
 10
1551.9705630000001
 20
973.08079499999985
 30
0.0
 40
5.0
 50
180.0
 51
270.0
  0
ARC
  5
444
  8
DETAIL
  6
CONTINUOUS
 62
     5
 10
1505.9662510000001
 20
978.08139399999993
 30
0.0
 40
5.0
 50
270.0
 51
0.0
  0
LINE
  5
445
  8
DETAIL
  6
CONTINUOUS
 62
     5
 10
1546.9705630000001
 20
984.11201799999981
 30
0.0
 11
1546.9705630000001
 21
973.08079499999985
 31
0.0
  0
LINE
  5
446
  8
DETAIL
  6
CONTINUOUS
 62
     5
 10
1510.9662510000001
 20
984.11201799999981
 30
0.0
 11
1510.9662510000001
 21
978.08139399999993
 31
0.0
  0
LINE
  5
447
  8
NOTE
  6
CONTINUOUS
 62
     4
 10
1528.9684070000001
 20
1014.1156109999999
 30
0.0
 11
1528.9684070000001
 21
954.10842500000001
 31
0.0
  0
LINE
  5
448
  8
NOTE
  6
CONTINUOUS
 62
     4
 10
1558.972
 20
984.11201799999981
 30
0.0
 11
1498.9648139999999
 21
984.11201799999981
 31
0.0
  0
CIRCLE
  5
449
  8
DETAIL
  6
CONTINUOUS
 62
     5
 10
1528.9684070000001
 20
984.11201799999981
 30
0.0
 40
7.9400000000000004
  0
CIRCLE
  5
44A
  8
DETAIL
  6
CONTINUOUS
 62
     5
 10
1528.9684070000001
 20
984.11201799999981
 30
0.0
 40
18.002155999999999
  0
LINE
  5
44B
  8
DETAIL
  6
CONTINUOUS
 62
     5
 10
1551.9705630000001
 20
968.08079499999997
 30
0.0
 11
1602.365759
 21
968.08079499999997
 31
0.0
  0
POINT
  5
44C
  8
DEFPOINTS
  6
CONTINUOUS
 62
     7
 10
1652.9684070000001
 20
885.91201799999988
 30
0.0
  0
POINT
  5
44D
  8
DEFPOINTS
  6
CONTINUOUS
 62
     7
 10
1652.9684070000001
 20
885.91201799999988
 30
0.0
  0
POINT
  5
44E
  8
DEFPOINTS
  6
CONTINUOUS
 62
     7
 10
1652.9684070000001
 20
885.91201799999988
 30
0.0
  0
POINT
  5
44F
  8
DEFPOINTS
  6
CONTINUOUS
 62
     7
 10
1652.1684069999999
 20
885.11201799999981
 30
0.0
  0
POINT
  5
450
  8
DEFPOINTS
  6
CONTINUOUS
 62
     7
 10
1652.1684069999999
 20
885.11201799999981
 30
0.0
  0
ARC
  5
451
  8
DETAIL
  6
CONTINUOUS
 62
     5
 10
1652.1684069999999
 20
885.91201799999988
 30
0.0
 40
0.8
 50
270.0
 51
0.0
  0
ARC
  5
452
  8
OUTLINE
  6
CONTINUOUS
 62
     3
 10
1652.1684069999999
 20
885.91201799999988
 30
0.0
 40
0.8
 50
270.0
 51
0.0
  0
POINT
  5
453
  8
DEFPOINTS
  6
CONTINUOUS
 62
     7
 10
1829.801964
 20
792.11201799999981
 30
0.0
  0
LINE
  5
454
  8
SIZE
  6
CONTINUOUS
 62
    30
 10
1829.801964
 20
802.11201799999981
 30
0.0
 11
1829.801964
 21
812.11201800000003
 31
0.0
  0
LINE
  5
455
  8
SIZE
  6
CONTINUOUS
 62
    30
 10
1829.801964
 20
745.11201799999981
 30
0.0
 11
1829.801964
 21
792.11201799999981
 31
0.0
  0
LINE
  5
456
  8
SIZE
  6
CONTINUOUS
 62
    30
 10
1829.801964
 20
745.11201799999981
 30
0.0
 11
1829.801964
 21
792.11201799999981
 31
0.0
  0
LINE
  5
457
  8
SIZE
  6
CONTINUOUS
 62
    30
 10
1829.801964
 20
812.11201800000003
 30
0.0
 11
1829.801964
 21
832.11201799999969
 31
0.0
  0
LINE
  5
458
  8
SIZE
  6
CONTINUOUS
 62
    30
 10
1829.801964
 20
755.11201799999981
 30
0.0
 11
1829.801964
 21
765.11201799999981
 31
0.0
  0
LINE
  5
459
  8
SIZE
  6
CONTINUOUS
 62
    30
 10
1829.801964
 20
765.11201799999981
 30
0.0
 11
1829.801964
 21
785.11201799999969
 31
0.0
  0
LINE
  5
45A
  8
DETAIL
  6
CONTINUOUS
 62
     5
 10
1687.985357
 20
982.11800600000015
 30
0.0
 11
1722.9684070000001
 21
984.61800600000004
 31
0.0
  0
LINE
  5
45B
  8
DETAIL
  6
CONTINUOUS
 62
     5
 10
1654.981405
 20
972.11680799999988
 30
0.0
 11
1654.981405
 21
951.680115
 31
0.0
  0
ARC
  5
45C
  8
DETAIL
  6
CONTINUOUS
 62
     5
 10
1656.9816450000001
 20
972.11680799999988
 30
0.0
 40
2.000239999999998
 50
90.0
 51
180.0
  0
LINE
  5
45D
  8
DETAIL
  6
CONTINUOUS
 62
     5
 10
1654.981405
 20
951.68610299999989
 30
0.0
 11
1652.981166
 21
951.68610299999989
 31
0.0
  0
ARC
  5
45E
  8
DETAIL
  6
CONTINUOUS
 62
     5
 10
1663.982483
 20
978.117527
 30
0.0
 40
4.0004790000000003
 50
270.0
 51
0.0
  0
LINE
  5
45F
  8
DETAIL
  6
CONTINUOUS
 62
     5
 10
1663.982483
 20
974.11704799999995
 30
0.0
 11
1656.9816450000001
 21
974.11704799999995
 31
0.0
  0
LINE
  5
460
  8
DETAIL
  6
CONTINUOUS
 62
     5
 10
1687.985357
 20
982.11800600000015
 30
0.0
 11
1669.9832019999999
 21
982.11800600000015
 31
0.0
  0
ARC
  5
461
  8
DETAIL
  6
CONTINUOUS
 62
     5
 10
1669.9832019999999
 20
980.11776599999996
 30
0.0
 40
2.000239999999998
 50
90.0
 51
180.0
  0
LINE
  5
462
  8
NOTE
  6
CONTINUOUS
 62
     4
 10
1598.967449
 20
1218.112018
 30
0.0
 11
1638.9693649999999
 21
1218.112018
 31
0.0
  0
CIRCLE
  5
463
  8
FIX
  6
CONTINUOUS
 62
    11
 10
1618.9684070000001
 20
1218.112018
 30
0.0
 40
18.598564
  0
LINE
  5
464
  8
DETAIL
  6
CONTINUOUS
 62
     5
 10
1589.464874
 20
1218.112018
 30
0.0
 11
1648.471687
 21
1218.112018
 31
0.0
  0
LINE
  5
465
  8
DETAIL
  6
CONTINUOUS
 62
     5
 10
1609.9673290000001
 20
1206.1105809999999
 30
0.0
 11
1592.4652329999999
 21
1206.1105809999999
 31
0.0
  0
LINE
  5
466
  8
DETAIL
  6
CONTINUOUS
 62
     5
 10
1645.47165
 20
1175.107467
 30
0.0
 11
1606.4669100000001
 21
1175.107467
 31
0.0
  0
ARC
  5
467
  8
DETAIL
  6
CONTINUOUS
 62
     5
 10
1602.365759
 20
1156.109111
 30
0.0
 40
5.0005990000000002
 50
0.0
 51
90.0
  0
LINE
  5
468
  8
DETAIL
  6
CONTINUOUS
 62
     5
 10
1589.464874
 20
1218.112018
 30
0.0
 11
1589.501667
 21
1201.1105809999999
 31
0.0
  0
LINE
  5
469
  8
DETAIL
  6
CONTINUOUS
 62
     5
 10
1602.365759
 20
1161.10971
 30
0.0
 11
1440.3449989999999
 21
1161.10971
 31
0.0
  0
ARC
  5
46A
  8
DETAIL
  6
CONTINUOUS
 62
     5
 10
1440.3449989999999
 20
1156.109111
 30
0.0
 40
5.0005990000000002
 50
90.0
 51
180.0
  0
LINE
  5
46B
  8
DETAIL
  6
CONTINUOUS
 62
     5
 10
1397.470503
 20
1070.112018
 30
0.0
 11
1397.470503
 21
1082.0949069999999
 31
0.0
  0
ARC
  5
46C
  8
DETAIL
  6
CONTINUOUS
 62
     5
 10
1416.3478150000001
 20
1072.093709
 30
0.0
 40
10.001198
 50
0.0
 51
90.0
  0
LINE
  5
46D
  8
DETAIL
  6
CONTINUOUS
 62
     5
 10
1416.3478150000001
 20
1082.0949069999999
 30
0.0
 11
1397.470503
 21
1082.0949069999999
 31
0.0
  0
LINE
  5
46E
  8
DETAIL
  6
CONTINUOUS
 62
     5
 10
1592.5020259999999
 20
1198.110222
 30
0.0
 11
1603.503344
 21
1198.110222
 31
0.0
  0
ARC
  5
46F
  8
DETAIL
  6
CONTINUOUS
 62
     5
 10
1592.5020259999999
 20
1201.1105809999999
 30
0.0
 40
3.0003589999999991
 50
180.0
 51
270.0
  0
LINE
  5
470
  8
DETAIL
  6
CONTINUOUS
 62
     5
 10
1603.503344
 20
1198.110222
 30
0.0
 11
1603.503344
 21
1178.107827
 31
0.0
  0
ARC
  5
471
  8
DETAIL
  6
CONTINUOUS
 62
     5
 10
1606.5037030000001
 20
1178.107827
 30
0.0
 40
3.0003589999999991
 50
180.0
 51
270.0
  0
CIRCLE
  5
472
  8
DETAIL
  6
CONTINUOUS
 62
     5
 10
1521.356059
 20
1153.108751
 30
0.0
 40
3.0003589999999991
  0
ARC
  5
473
  8
DETAIL
  6
CONTINUOUS
 62
     5
 10
1592.4652329999999
 20
1209.11094
 30
0.0
 40
3.0003589999999991
 50
180.0
 51
270.0
  0
LINE
  5
474
  8
DETAIL
  6
CONTINUOUS
 62
     5
 10
1648.5088029999999
 20
1178.1078540000001
 30
0.0
 11
1648.471687
 21
1218.112018
 31
0.0
  0
LINE
  5
475
  8
NOTE
  6
CONTINUOUS
 62
     4
 10
1618.9684070000001
 20
1238.114413
 30
0.0
 11
1618.9684070000001
 21
1198.1096230000001
 31
0.0
  0
LINE
  5
476
  8
DETAIL
  6
CONTINUOUS
 62
     5
 10
1654.981405
 20
1211.7112520000001
 30
0.0
 11
1654.981405
 21
1192.119203
 31
0.0
  0
LINE
  5
477
  8
NOTE
  6
CONTINUOUS
 62
     4
 10
1736.470024
 20
1082.112018
 30
0.0
 11
1709.4667899999999
 21
1082.112018
 31
0.0
  0
LINE
  5
478
  8
DETAIL
  6
CONTINUOUS
 62
     5
 10
1687.985357
 20
1182.1180059999999
 30
0.0
 11
1722.9684070000001
 21
1179.6060299999999
 31
0.0
  0
ARC
  5
479
  8
DETAIL
  6
CONTINUOUS
 62
     5
 10
1645.5084429999999
 20
1178.107827
 30
0.0
 40
3.0003589999999991
 50
270.0
 51
0.000528
  0
ARC
  5
47A
  8
DETAIL
  6
CONTINUOUS
 62
     5
 10
1656.9816450000001
 20
1192.119203
 30
0.0
 40
2.000239999999998
 50
180.0
 51
270.0
  0
ARC
  5
47B
  8
DETAIL
  6
CONTINUOUS
 62
     5
 10
1663.982483
 20
1186.118485
 30
0.0
 40
4.0004790000000003
 50
0.0
 51
90.0
  0
LINE
  5
47C
  8
DETAIL
  6
CONTINUOUS
 62
     5
 10
1663.982483
 20
1190.118964
 30
0.0
 11
1656.9816450000001
 21
1190.118964
 31
0.0
  0
LINE
  5
47D
  8
DETAIL
  6
CONTINUOUS
 62
     5
 10
1687.985357
 20
1182.1180059999999
 30
0.0
 11
1669.9832019999999
 21
1182.1180059999999
 31
0.0
  0
ARC
  5
47E
  8
DETAIL
  6
CONTINUOUS
 62
     5
 10
1669.9832019999999
 20
1184.1182449999999
 30
0.0
 40
2.000239999999998
 50
180.0
 51
270.0
  0
LINE
  5
47F
  8
NOTE
  6
CONTINUOUS
 62
     4
 10
1722.9684070000001
 20
1082.112018
 30
0.0
 11
1740.3715890000001
 21
1107.8364489999999
 31
0.0
  0
LINE
  5
480
  8
NOTE
  6
CONTINUOUS
 62
     4
 10
1750.9022199999999
 20
1095.6884379999999
 30
0.0
 11
1722.9684070000001
 21
1082.112018
 31
0.0
  0
POINT
  5
481
  8
DEFPOINTS
  6
CONTINUOUS
 62
     7
 10
1736.470024
 20
1082.112018
 30
0.0
  0
LINE
  5
482
  8
NOTE
  6
CONTINUOUS
 62
     4
 10
1722.9684070000001
 20
1095.6136349999999
 30
0.0
 11
1722.9684070000001
 21
1068.6104009999999
 31
0.0
  0
POINT
  5
483
  8
DEFPOINTS
  6
CONTINUOUS
 62
     7
 10
1652.9684070000001
 20
1216.7524530000001
 30
0.0
  0
POINT
  5
484
  8
DEFPOINTS
  6
CONTINUOUS
 62
     7
 10
1652.9684070000001
 20
1216.7524530000001
 30
0.0
  0
POINT
  5
485
  8
DEFPOINTS
  6
CONTINUOUS
 62
     7
 10
1652.9684070000001
 20
1216.7524530000001
 30
0.0
  0
POINT
  5
486
  8
DEFPOINTS
  6
CONTINUOUS
 62
     7
 10
1652.1684069999999
 20
1218.112018
 30
0.0
  0
POINT
  5
487
  8
DEFPOINTS
  6
CONTINUOUS
 62
     7
 10
1652.9684070000001
 20
1216.7524530000001
 30
0.0
  0
POINT
  5
488
  8
DEFPOINTS
  6
CONTINUOUS
 62
     7
 10
1618.9684070000001
 20
1238.114413
 30
0.0
  0
ARC
  5
489
  8
DETAIL
  6
CONTINUOUS
 62
     5
 10
1652.1684069999999
 20
1217.3120180000001
 30
0.0
 40
0.8
 50
0.0
 51
90.0
  0
ARC
  5
48A
  8
OUTLINE
  6
CONTINUOUS
 62
     3
 10
1652.1684069999999
 20
1217.3120180000001
 30
0.0
 40
0.8
 50
0.0
 51
90.0
  0
POINT
  5
48B
  8
DEFPOINTS
  6
CONTINUOUS
 62
     7
 10
1652.1684069999999
 20
1218.112018
 30
0.0
  0
POINT
  5
48C
  8
DEFPOINTS
  6
CONTINUOUS
 62
     7
 10
1652.1684069999999
 20
1218.112018
 30
0.0
  0
POINT
  5
48D
  8
DEFPOINTS
  6
CONTINUOUS
 62
     7
 10
1652.1684069999999
 20
1218.112018
 30
0.0
  0
POINT
  5
48E
  8
DEFPOINTS
  6
CONTINUOUS
 62
     7
 10
1618.9684070000001
 20
1238.114413
 30
0.0
  0
LINE
  5
48F
  8
DETAIL
  6
CONTINUOUS
 62
     5
 10
1624.969126
 20
1215.8120180000001
 30
0.0
 11
1612.967688
 21
1215.8120180000001
 31
0.0
  0
LINE
  5
490
  8
DETAIL
  6
CONTINUOUS
 62
     5
 10
1612.967688
 20
1218.112018
 30
0.0
 11
1612.967688
 21
1209.11094
 31
0.0
  0
ARC
  5
491
  8
DETAIL
  6
CONTINUOUS
 62
     5
 10
1609.9673290000001
 20
1209.11094
 30
0.0
 40
3.0003589999999991
 50
270.0
 51
0.0
  0
ARC
  5
492
  8
DETAIL
  6
CONTINUOUS
 62
     5
 10
1627.9694850000001
 20
1209.11094
 30
0.0
 40
3.0003589999999991
 50
180.0
 51
270.0
  0
ARC
  5
493
  8
DETAIL
  6
CONTINUOUS
 62
     5
 10
1645.471581
 20
1209.11094
 30
0.0
 40
3.0003589999999991
 50
270.0
 51
0.0
  0
LINE
  5
494
  8
DETAIL
  6
CONTINUOUS
 62
     5
 10
1624.969126
 20
1218.112018
 30
0.0
 11
1624.969126
 21
1209.11094
 31
0.0
  0
LINE
  5
495
  8
DETAIL
  6
CONTINUOUS
 62
     5
 10
1627.9694850000001
 20
1206.1105809999999
 30
0.0
 11
1645.471581
 21
1206.1105809999999
 31
0.0
  0
LINE
  5
496
  8
DETAIL
  6
CONTINUOUS
 62
     5
 10
1654.981405
 20
1211.7112520000001
 30
0.0
 11
1652.981166
 21
1211.7112520000001
 31
0.0
  0
CIRCLE
  5
497
  8
SIZE
  6
CONTINUOUS
 62
    30
 10
1379.9684070000001
 20
1528.950795
 30
0.0
 40
10.0
  0
LINE
  5
498
  8
SIZE
  6
CONTINUOUS
 62
    30
 10
1444.9684070000001
 20
1425.16489
 30
0.0
 11
1271.10157
 21
1425.16489
 31
0.0
  0
TEXT
  5
499
  8
SIZE
  6
CONTINUOUS
 62
    30
 10
965.46840699999996
 20
1683.3459079999991
 30
0.0
 40
50.0
  1
710(吊りボルトピッチ)
 41
0.9
 72
     1
 11
1263.9684070000001
 21
1683.3459079999991
 31
0.0
  0
TEXT
  5
49A
  8
SIZE
  6
CONTINUOUS
 62
    30
 10
1289.10157
 20
1443.16489
 30
0.0
 40
50.0
  1
64
 41
0.9
 72
     1
 11
1326.60157
 21
1443.16489
 31
0.0
  0
TEXT
  5
49B
  8
SIZE
  6
CONTINUOUS
 62
    30
 10
1201.825549857143
 20
1790.670918
 30
0.0
 40
55.0
  1
775
 41
0.9
 72
     1
 11
1265.4684070000001
 21
1790.670918
 31
0.0
  0
CIRCLE
  5
49C
  8
SIZE
  6
CONTINUOUS
 62
    30
 10
1652.9684070000001
 20
1652.2506699999999
 30
0.0
 40
10.0
  0
CIRCLE
  5
49D
  8
SIZE
  6
CONTINUOUS
 62
    30
 10
1618.9684070000001
 20
1652.2506699999999
 30
0.0
 40
10.0
  0
CIRCLE
  5
49E
  8
SIZE
  6
CONTINUOUS
 62
    30
 10
1618.9684070000001
 20
1652.2506699999999
 30
0.0
 40
10.0
  0
LINE
  5
49F
  8
SIZE
  6
CONTINUOUS
 62
    30
 10
1399.9684070000001
 20
1528.950795
 30
0.0
 11
1632.9684070000001
 21
1528.950795
 31
0.0
  0
LINE
  5
4A0
  8
SIZE
  6
CONTINUOUS
 62
    30
 10
1548.9684070000001
 20
1425.16489
 30
0.0
 11
1632.9684070000001
 21
1425.16489
 31
0.0
  0
LINE
  5
4A1
  8
SIZE
  6
CONTINUOUS
 62
    30
 10
1608.9684070000001
 20
1652.2506699999999
 30
0.0
 11
1598.9684070000001
 21
1652.2506699999999
 31
0.0
  0
LINE
  5
4A2
  8
SIZE
  6
CONTINUOUS
 62
    30
 10
1608.9684070000001
 20
1652.2506699999999
 30
0.0
 11
1598.9684070000001
 21
1652.2506699999999
 31
0.0
  0
LINE
  5
4A3
  8
SIZE
  6
CONTINUOUS
 62
    30
 10
1528.9684070000001
 20
1425.16489
 30
0.0
 11
1464.9684070000001
 21
1425.16489
 31
0.0
  0
POINT
  5
4A4
  8
DEFPOINTS
  6
CONTINUOUS
 62
     7
 10
1464.9684070000001
 20
1425.16489
 30
0.0
  0
LINE
  5
4A5
  8
SIZE
  6
CONTINUOUS
 62
    30
 10
1454.9684070000001
 20
1425.16489
 30
0.0
 11
1444.9684070000001
 21
1425.16489
 31
0.0
  0
CIRCLE
  5
4A6
  8
SIZE
  6
CONTINUOUS
 62
    30
 10
1464.9684070000001
 20
1425.16489
 30
0.0
 40
10.0
  0
LINE
  5
4A7
  8
SIZE
  6
CONTINUOUS
 62
    30
 10
1538.9684070000001
 20
1425.16489
 30
0.0
 11
1548.9684070000001
 21
1425.16489
 31
0.0
  0
CIRCLE
  5
4A8
  8
SIZE
  6
CONTINUOUS
 62
    30
 10
1528.9684070000001
 20
1425.16489
 30
0.0
 40
10.0
  0
LINE
  5
4A9
  8
SIZE
  6
CONTINUOUS
 62
    30
 10
1538.9684070000001
 20
1425.16489
 30
0.0
 11
1548.9684070000001
 21
1425.16489
 31
0.0
  0
CIRCLE
  5
4AA
  8
SIZE
  6
CONTINUOUS
 62
    30
 10
1528.9684070000001
 20
1425.16489
 30
0.0
 40
10.0
  0
LINE
  5
4AB
  8
SIZE
  6
CONTINUOUS
 62
    30
 10
1548.9684070000001
 20
1425.16489
 30
0.0
 11
1568.9684070000001
 21
1425.16489
 31
0.0
  0
TEXT
  5
4AC
  8
SIZE
  6
CONTINUOUS
 62
    30
 10
1452.825549857143
 20
1546.950795
 30
0.0
 40
55.0
  1
273
 41
0.9
 72
     1
 11
1516.4684070000001
 21
1546.950795
 31
0.0
  0
LINE
  5
4AD
  8
SIZE
  6
CONTINUOUS
 62
    30
 10
1389.9684070000001
 20
1528.950795
 30
0.0
 11
1399.9684070000001
 21
1528.950795
 31
0.0
  0
LINE
  5
4AE
  8
SIZE
  6
CONTINUOUS
 62
    30
 10
1598.9684070000001
 20
1652.2506699999999
 30
0.0
 11
1578.9684070000001
 21
1652.2506699999999
 31
0.0
  0
TEXT
  5
4AF
  8
SIZE
  6
CONTINUOUS
 62
    30
 10
1690.9684071428569
 20
1443.16489
 30
0.0
 40
55.0
  1
124
 41
0.9
 72
     1
 11
1751.07555
 21
1443.16489
 31
0.0
  0
LINE
  5
4B0
  8
SIZE
  6
CONTINUOUS
 62
    30
 10
1652.9684070000001
 20
1425.16489
 30
0.0
 11
1829.182693
 21
1425.16489
 31
0.0
  0
POINT
  5
4B1
  8
DEFPOINTS
  6
CONTINUOUS
 62
     7
 10
1652.9684070000001
 20
1425.16489
 30
0.0
  0
LINE
  5
4B2
  8
SIZE
  6
CONTINUOUS
 62
    30
 10
1642.9684070000001
 20
1425.16489
 30
0.0
 11
1632.9684070000001
 21
1425.16489
 31
0.0
  0
CIRCLE
  5
4B3
  8
SIZE
  6
CONTINUOUS
 62
    30
 10
1652.9684070000001
 20
1425.16489
 30
0.0
 40
10.0
  0
LINE
  5
4B4
  8
SIZE
  6
CONTINUOUS
 62
    30
 10
1672.9684070000001
 20
1652.2506699999999
 30
0.0
 11
1811.4684070000001
 21
1652.2506699999999
 31
0.0
  0
POINT
  5
4B5
  8
DEFPOINTS
  6
CONTINUOUS
 62
     7
 10
1652.9684070000001
 20
1528.950795
 30
0.0
  0
LINE
  5
4B6
  8
SIZE
  6
CONTINUOUS
 62
    30
 10
1642.9684070000001
 20
1528.950795
 30
0.0
 11
1632.9684070000001
 21
1528.950795
 31
0.0
  0
CIRCLE
  5
4B7
  8
SIZE
  6
CONTINUOUS
 62
    30
 10
1652.9684070000001
 20
1528.950795
 30
0.0
 40
10.0
  0
POINT
  5
4B8
  8
DEFPOINTS
  6
CONTINUOUS
 62
     7
 10
1652.9684070000001
 20
1652.2506699999999
 30
0.0
  0
LINE
  5
4B9
  8
SIZE
  6
CONTINUOUS
 62
    30
 10
1662.9684070000001
 20
1652.2506699999999
 30
0.0
 11
1672.9684070000001
 21
1652.2506699999999
 31
0.0
  0
LINE
  5
4BA
  8
SIZE
  6
CONTINUOUS
 62
    30
 10
1618.9684070000001
 20
1652.2506699999999
 30
0.0
 11
1652.9684070000001
 21
1652.2506699999999
 31
0.0
  0
POINT
  5
4BB
  8
DEFPOINTS
  6
CONTINUOUS
 62
     7
 10
1618.9684070000001
 20
1652.2506699999999
 30
0.0
  0
TEXT
  5
4BC
  8
SIZE
  6
CONTINUOUS
 62
    30
 10
1710.9684070000001
 20
1670.2506699999999
 30
0.0
 40
55.0
  1
34
 41
0.9
 72
     1
 11
1752.2184070000001
 21
1670.2506699999999
 31
0.0
  0
POINT
  5
4BD
  8
DEFPOINTS
  6
CONTINUOUS
 62
     7
 10
1652.9684070000001
 20
1772.670918
 30
0.0
  0
LINE
  5
4BE
  8
SIZE
  6
CONTINUOUS
 62
    30
 10
1642.9684070000001
 20
1772.670918
 30
0.0
 11
1632.9684070000001
 21
1772.670918
 31
0.0
  0
CIRCLE
  5
4BF
  8
SIZE
  6
CONTINUOUS
 62
    30
 10
1652.9684070000001
 20
1772.670918
 30
0.0
 40
10.0
  0
TEXT
  5
4C0
  8
NOTE
  6
CONTINUOUS
 62
     4
 10
2021.9334779999999
 20
1351.705078
 30
0.0
 40
60.0
  1
%%C200 吹出円形フランジ
 50
0.000003
 41
0.7
  7
STANDARD1
  0
TEXT
  5
4C1
  8
SIZE
  6
CONTINUOUS
 62
    30
 10
2330.110201
 20
987.96916085714292
 30
0.0
 40
55.0
  1
333
 50
90.0
 41
0.9
 72
     1
 11
2330.110201
 21
1051.612018
 31
0.0
  0
LINE
  5
4C2
  8
NOTE
  6
CONTINUOUS
 62
     4
 10
2599.8771690000008
 20
1336.9094110000001
 30
0.0
 11
2016.8996510000011
 21
1336.9094110000001
 31
0.0
  0
TEXT
  5
4C3
  8
SIZE
  6
CONTINUOUS
 62
    30
 10
2214.8857200000002
 20
1007.754875142857
 30
0.0
 40
50.0
  1
305
 50
90.0
 41
0.9
 72
     1
 11
2214.8857200000002
 21
1065.612018
 31
0.0
  0
LINE
  5
4C4
  8
SIZE
  6
CONTINUOUS
 62
    30
 10
2232.8857200000002
 20
933.11201800000003
 30
0.0
 11
2232.8857200000002
 21
1198.112018
 31
0.0
  0
LINE
  5
4C5
  8
SIZE
  6
CONTINUOUS
 62
    30
 10
2119.9507749999998
 20
1032.112018
 30
0.0
 11
2119.9507749999998
 21
1052.112018
 31
0.0
  0
LINE
  5
4C6
  8
SIZE
  6
CONTINUOUS
 62
    30
 10
2119.9507749999998
 20
1032.112018
 30
0.0
 11
2119.9507749999998
 21
1198.112018
 31
0.0
  0
TEXT
  5
4C7
  8
SIZE
  6
CONTINUOUS
 62
    30
 10
2101.9507749999998
 20
804.0020455714282
 30
0.0
 40
50.0
  1
28
 50
90.0
 41
0.9
 72
     1
 11
2101.9507749999998
 21
840.43061699999964
 31
0.0
  0
TEXT
  5
4C8
  8
SIZE
  6
CONTINUOUS
 62
    30
 10
1938.973526
 20
786.78991157142855
 30
0.0
 40
50.0
  1
47
 50
90.0
 41
0.9
 72
     1
 11
1938.973526
 21
823.21848299999988
 31
0.0
  0
LINE
  5
4C9
  8
SIZE
  6
CONTINUOUS
 62
    30
 10
1956.973526
 20
768.78991199999984
 30
0.0
 11
1956.973526
 21
877.64705500000002
 31
0.0
  0
LINE
  5
4CA
  8
SIZE
  6
CONTINUOUS
 62
    30
 10
2119.9507749999998
 20
964.11201799999992
 30
0.0
 11
2119.9507749999998
 21
786.00204599999984
 31
0.0
  0
POINT
  5
4CB
  8
DEFPOINTS
  6
CONTINUOUS
 62
     7
 10
2119.9507749999998
 20
984.11201799999981
 30
0.0
  0
LINE
  5
4CC
  8
SIZE
  6
CONTINUOUS
 62
    30
 10
2119.9507749999998
 20
974.11201800000015
 30
0.0
 11
2119.9507749999998
 21
964.11201799999992
 31
0.0
  0
CIRCLE
  5
4CD
  8
SIZE
  6
CONTINUOUS
 62
    30
 10
2119.9507749999998
 20
984.11201799999981
 30
0.0
 40
10.0
  0
LINE
  5
4CE
  8
SIZE
  6
CONTINUOUS
 62
    30
 10
2119.9507749999998
 20
1022.112018
 30
0.0
 11
2119.9507749999998
 21
1032.112018
 31
0.0
  0
CIRCLE
  5
4CF
  8
SIZE
  6
CONTINUOUS
 62
    30
 10
2119.9507749999998
 20
1012.112018
 30
0.0
 40
10.0
  0
LINE
  5
4D0
  8
SIZE
  6
CONTINUOUS
 62
    30
 10
2119.9507749999998
 20
1012.112018
 30
0.0
 11
2119.9507749999998
 21
984.11201799999981
 31
0.0
  0
LINE
  5
4D1
  8
SIZE
  6
CONTINUOUS
 62
    30
 10
2119.9507749999998
 20
1022.112018
 30
0.0
 11
2119.9507749999998
 21
1032.112018
 31
0.0
  0
CIRCLE
  5
4D2
  8
SIZE
  6
CONTINUOUS
 62
    30
 10
2119.9507749999998
 20
1012.112018
 30
0.0
 40
10.0
  0
LINE
  5
4D3
  8
SIZE
  6
CONTINUOUS
 62
    30
 10
2232.8857200000002
 20
923.11201800000015
 30
0.0
 11
2232.8857200000002
 21
933.11201800000003
 31
0.0
  0
CIRCLE
  5
4D4
  8
SIZE
  6
CONTINUOUS
 62
    30
 10
2232.8857200000002
 20
913.11201799999992
 30
0.0
 40
10.0
  0
TEXT
  5
4D5
  8
SIZE
  6
CONTINUOUS
 62
    30
 10
2101.9507749999998
 20
1058.326303714286
 30
0.0
 40
50.0
  1
206
 50
90.0
 41
0.9
 72
     1
 11
2101.9507749999998
 21
1115.112018
 31
0.0
  0
LINE
  5
4D6
  8
SIZE
  6
CONTINUOUS
 62
    30
 10
2013.361077
 20
1208.112018
 30
0.0
 11
2013.361077
 21
1198.112018
 31
0.0
  0
POINT
  5
4D7
  8
DEFPOINTS
  6
CONTINUOUS
 62
     7
 10
2013.361077
 20
1082.112018
 30
0.0
  0
TEXT
  5
4D8
  8
SIZE
  6
CONTINUOUS
 62
    30
 10
1995.361077
 20
1092.2316119999989
 30
0.0
 40
50.0
  1
136
 50
90.0
 41
0.9
 72
     1
 11
1995.361077
 21
1144.731612
 31
0.0
  0
LINE
  5
4D9
  8
SIZE
  6
CONTINUOUS
 62
    30
 10
2013.361077
 20
1092.112018
 30
0.0
 11
2013.361077
 21
1102.112018
 31
0.0
  0
CIRCLE
  5
4DA
  8
SIZE
  6
CONTINUOUS
 62
    30
 10
2013.361077
 20
1082.112018
 30
0.0
 40
10.0
  0
LINE
  5
4DB
  8
SIZE
  6
CONTINUOUS
 62
    30
 10
2013.361077
 20
1198.112018
 30
0.0
 11
2013.361077
 21
1102.112018
 31
0.0
  0
CIRCLE
  5
4DC
  8
SIZE
  6
CONTINUOUS
 62
    30
 10
2013.361077
 20
1218.112018
 30
0.0
 40
10.0
  0
LINE
  5
4DD
  8
SIZE
  6
CONTINUOUS
 62
    30
 10
2232.8857200000002
 20
1208.112018
 30
0.0
 11
2232.8857200000002
 21
1198.112018
 31
0.0
  0
LINE
  5
4DE
  8
SIZE
  6
CONTINUOUS
 62
    30
 10
2119.9507749999998
 20
1208.112018
 30
0.0
 11
2119.9507749999998
 21
1198.112018
 31
0.0
  0
POINT
  5
4DF
  8
DEFPOINTS
  6
CONTINUOUS
 62
     7
 10
2119.9507749999998
 20
1218.112018
 30
0.0
  0
CIRCLE
  5
4E0
  8
SIZE
  6
CONTINUOUS
 62
    30
 10
2119.9507749999998
 20
1218.112018
 30
0.0
 40
10.0
  0
POINT
  5
4E1
  8
DEFPOINTS
  6
CONTINUOUS
 62
     7
 10
2232.8857200000002
 20
1218.112018
 30
0.0
  0
CIRCLE
  5
4E2
  8
SIZE
  6
CONTINUOUS
 62
    30
 10
2232.8857200000002
 20
1218.112018
 30
0.0
 40
10.0
  0
LINE
  5
4E3
  8
SIZE
  6
CONTINUOUS
 62
    30
 10
2348.110201
 20
905.11201799999992
 30
0.0
 11
2348.110201
 21
1198.112018
 31
0.0
  0
LINE
  5
4E4
  8
SIZE
  6
CONTINUOUS
 62
    30
 10
2348.110201
 20
895.11201800000003
 30
0.0
 11
2348.110201
 21
905.11201799999992
 31
0.0
  0
CIRCLE
  5
4E5
  8
SIZE
  6
CONTINUOUS
 62
    30
 10
2348.110201
 20
885.11201799999981
 30
0.0
 40
10.0
  0
POINT
  5
4E6
  8
DEFPOINTS
  6
CONTINUOUS
 62
     7
 10
2348.110201
 20
745.11201799999981
 30
0.0
  0
LINE
  5
4E7
  8
SIZE
  6
CONTINUOUS
 62
    30
 10
2348.110201
 20
755.11201799999981
 30
0.0
 11
2348.110201
 21
765.11201799999981
 31
0.0
  0
LINE
  5
4E8
  8
SIZE
  6
CONTINUOUS
 62
    30
 10
2348.110201
 20
875.11201799999992
 30
0.0
 11
2348.110201
 21
865.11201799999969
 31
0.0
  0
CIRCLE
  5
4E9
  8
SIZE
  6
CONTINUOUS
 62
    30
 10
2348.110201
 20
885.11201799999981
 30
0.0
 40
10.0
  0
LINE
  5
4EA
  8
SIZE
  6
CONTINUOUS
 62
    30
 10
2348.110201
 20
865.11201799999969
 30
0.0
 11
2348.110201
 21
765.11201799999981
 31
0.0
  0
LINE
  5
4EB
  8
SIZE
  6
CONTINUOUS
 62
    30
 10
2348.110201
 20
1208.112018
 30
0.0
 11
2348.110201
 21
1198.112018
 31
0.0
  0
POINT
  5
4EC
  8
DEFPOINTS
  6
CONTINUOUS
 62
     7
 10
2348.110201
 20
1218.112018
 30
0.0
  0
CIRCLE
  5
4ED
  8
SIZE
  6
CONTINUOUS
 62
    30
 10
2348.110201
 20
1218.112018
 30
0.0
 40
10.0
  0
LINE
  5
4EE
  8
NOTE
  6
CONTINUOUS
 62
     4
 10
2353.4251359999998
 20
1454.84968
 30
0.0
 11
2015.314085
 21
1454.84968
 31
0.0
  0
TEXT
  5
4EF
  8
NOTE
  6
CONTINUOUS
 62
     4
 10
2024.29277
 20
1472.489088
 30
0.0
 40
60.0
  1
RL %%C9.52
 50
0.000003
 41
0.7
  7
STANDARD1
  0
TEXT
  5
4F0
  8
ETC
  6
CONTINUOUS
 62
    61
 10
56.410196999999997
 20
1980.0237279999999
 30
0.0
 40
65.0
  1
MPD-RP112_160FA3_5
 50
0.000003
 41
0.85
  7
STANDARD1
  0
ENDBLK
  5
4F2
  8
0
 62
     7
  0
BLOCK
  8
0
 62
     7
  2
*D4
 70
     1
 10
0.0
 20
0.0
 30
0.0
  3
*D4
  1

  0
LINE
  5
D0D
  8
SIZE
  6
CONTINUOUS
 62
     0
 10
73.605818000000014
 20
326.0
 30
0.0
 11
-50.142568482249729
 21
326.0
 31
0.0
  0
LINE
  5
D0E
  8
SIZE
  6
CONTINUOUS
 62
     0
 10
366.69999999999999
 20
140.0
 30
0.0
 11
-50.142568482249779
 21
140.00000000000011
 31
0.0
  0
LINE
  5
D0F
  8
SIZE
  6
CONTINUOUS
 62
     0
 10
-32.142568482249743
 20
306.0
 30
0.0
 11
-32.142568482249771
 21
160.00000000000011
 31
0.0
  0
INSERT
  5
D10
  8
SIZE
  6
CONTINUOUS
 62
     0
  2
_ORIGIN
 10
-32.142568482249743
 20
326.0
 30
0.0
 41
20.0
 42
20.0
 43
20.0
 50
90.0
  0
INSERT
  5
D11
  8
SIZE
  6
CONTINUOUS
 62
     0
  2
_ORIGIN
 10
-32.142568482249771
 20
140.00000000000011
 30
0.0
 41
20.0
 42
20.0
 43
20.0
 50
270.0
  0
INSERT
  5
D12
  8
SYMBOLLINE
  6
CONTINUOUS
 62
     7
  2
*U5
 10
0.0
 20
0.0
 30
0.0
  0
POINT
  5
D13
  8
DEFPOINTS
  6
CONTINUOUS
 62
     0
 10
93.605817999999999
 20
326.0
 30
0.0
  0
POINT
  5
D14
  8
DEFPOINTS
  6
CONTINUOUS
 62
     0
 10
386.69999999999999
 20
140.0
 30
0.0
  0
POINT
  5
D15
  8
DEFPOINTS
  6
CONTINUOUS
 62
     0
 10
-32.142568482249771
 20
140.00000000000011
 30
0.0
  0
ENDBLK
  5
CFA
  8
0
 62
     7
  0
BLOCK
  8
0
 62
     7
  2
*U5
 70
     1
 10
0.0
 20
0.0
 30
0.0
  3
*U5
  1

  0
TEXT
  5
D88
  8
SIZE
  6
CONTINUOUS
 62
     0
 10
-32.23256848224981
 20
175.25
 30
0.0
 40
55.0
  1
186
 50
90.0
 41
0.9
  0
ENDBLK
  5
D8A
  8
0
 62
     7
  0
BLOCK
  8
0
  2
_DOTBLANK
 70
     0
 10
0.0
 20
0.0
 30
0.0
  3
_DOTBLANK
  1

  0
CIRCLE
  5
103A
  8
0
  6
CONTINUOUS
 62
     7
 10
0.0
 20
0.0
 30
0.0
 40
0.5
  0
LINE
  5
103B
  8
0
  6
CONTINUOUS
 62
     7
 10
-0.5
 20
0.0
 30
0.0
 11
-1.0
 21
0.0
 31
0.0
  0
ENDBLK
  5
103C
  8
0
  0
BLOCK
  8
0
 62
     7
  2
*D7
 70
     1
 10
0.0
 20
0.0
 30
0.0
  3
*D7
  1

  0
LINE
  5
1059
  8
SYMBOLLINE
  6
CONTINUOUS
 62
     0
 10
417.49999999999989
 20
462.00000000000477
 30
0.0
 11
417.49999999999989
 21
1121.615847014923
 31
0.0
  0
LINE
  5
105A
  8
SYMBOLLINE
  6
CONTINUOUS
 62
     0
 10
387.49998799999997
 20
494.19999999999987
 30
0.0
 11
387.49998799999997
 21
1121.615847014923
 31
0.0
  0
LINE
  5
105B
  8
SYMBOLLINE
  6
CONTINUOUS
 62
     0
 10
437.5
 20
1103.615847014923
 30
0.0
 11
457.50000000000011
 21
1103.615847014923
 31
0.0
  0
LINE
  5
105C
  8
SYMBOLLINE
  6
CONTINUOUS
 62
     0
 10
367.49998799999997
 20
1103.615847014923
 30
0.0
 11
267.1771308571428
 21
1103.615847014923
 31
0.0
  0
INSERT
  5
105D
  8
SYMBOLLINE
  6
CONTINUOUS
 62
     0
  2
_ORIGIN
 10
417.49999999999989
 20
1103.615847014923
 30
0.0
 41
20.0
 42
20.0
 43
20.0
 50
180.0
  0
INSERT
  5
105E
  8
SYMBOLLINE
  6
CONTINUOUS
 62
     0
  2
_ORIGIN
 10
387.49998799999997
 20
1103.615847014923
 30
0.0
 41
20.0
 42
20.0
 43
20.0
  0
INSERT
  5
105F
  8
SYMBOLLINE
  6
CONTINUOUS
 62
     7
  2
*U8
 10
0.0
 20
0.0
 30
0.0
  0
POINT
  5
1060
  8
DEFPOINTS
  6
CONTINUOUS
 62
     0
 10
417.49999999999989
 20
442.000000000005
 30
0.0
  0
POINT
  5
1061
  8
DEFPOINTS
  6
CONTINUOUS
 62
     0
 10
387.49998799999997
 20
474.19999999999987
 30
0.0
  0
POINT
  5
1062
  8
DEFPOINTS
  6
CONTINUOUS
 62
     0
 10
387.49998799999997
 20
1103.615847014923
 30
0.0
  0
ENDBLK
  5
1058
  8
0
 62
     7
  0
BLOCK
  8
0
 62
     7
  2
*U8
 70
     1
 10
0.0
 20
0.0
 30
0.0
  3
*U8
  1

  0
TEXT
  5
1150
  8
SYMBOLLINE
  6
CONTINUOUS
 62
     0
 10
267.26713085714289
 20
1103.7058470149229
 30
0.0
 40
55.0
  1
30
 41
0.9
  0
ENDBLK
  5
1152
  8
0
 62
     7
  0
BLOCK
  8
0
 62
     7
  2
*D9
 70
     1
 10
0.0
 20
0.0
 30
0.0
  3
*D9
  1

  0
LINE
  5
1153
  8
SYMBOLLINE
  6
CONTINUOUS
 62
     0
 10
437.5
 20
441.99999999989188
 30
0.0
 11
795.89265799999964
 21
441.99999999989188
 31
0.0
  0
LINE
  5
1154
  8
SYMBOLLINE
  6
CONTINUOUS
 62
     0
 10
437.5
 20
475.0
 30
0.0
 11
795.89265799999964
 21
475.0
 31
0.0
  0
LINE
  5
1155
  8
SYMBOLLINE
  6
CONTINUOUS
 62
     0
 10
777.89265799999964
 20
421.99999999989188
 30
0.0
 11
777.89265799999964
 21
401.99999999989188
 31
0.0
  0
LINE
  5
1156
  8
SYMBOLLINE
  6
CONTINUOUS
 62
     0
 10
777.89265799999964
 20
495.0
 30
0.0
 11
777.89265799999964
 21
595.32285714285695
 31
0.0
  0
INSERT
  5
1157
  8
SYMBOLLINE
  6
CONTINUOUS
 62
     0
  2
_ORIGIN
 10
777.89265799999964
 20
441.99999999989188
 30
0.0
 41
20.0
 42
20.0
 43
20.0
 50
90.0
  0
INSERT
  5
1158
  8
SYMBOLLINE
  6
CONTINUOUS
 62
     0
  2
_ORIGIN
 10
777.89265799999964
 20
475.0
 30
0.0
 41
20.0
 42
20.0
 43
20.0
 50
270.0
  0
TEXT
  5
1184
  8
SYMBOLLINE
 62
     0
 10
640.303
 20
457.81099999999992
 30
0.0
 40
55.0
  1
33
  0
POINT
  5
115A
  8
DEFPOINTS
  6
CONTINUOUS
 62
     0
 10
417.49999999999989
 20
441.99999999989188
 30
0.0
  0
POINT
  5
115B
  8
DEFPOINTS
  6
CONTINUOUS
 62
     0
 10
417.49999999999989
 20
475.0
 30
0.0
  0
POINT
  5
115C
  8
DEFPOINTS
  6
CONTINUOUS
 62
     0
 10
777.89265799999964
 20
475.0
 30
0.0
  0
ENDBLK
  5
10CA
  8
0
 62
     7
  0
BLOCK
  8
0
 62
     7
  2
*D10
 70
     1
 10
0.0
 20
0.0
 30
0.0
  3
*D10
  1

  0
LINE
  5
115D
  8
SYMBOLLINE
  6
CONTINUOUS
 62
     0
 10
437.5
 20
442.000000000005
 30
0.0
 11
615.99296849999985
 21
442.000000000005
 31
0.0
  0
LINE
  5
115E
  8
SYMBOLLINE
  6
CONTINUOUS
 62
     0
 10
437.5
 20
228.000000000005
 30
0.0
 11
615.99296849999985
 21
228.00000000000489
 31
0.0
  0
LINE
  5
115F
  8
SYMBOLLINE
  6
CONTINUOUS
 62
     0
 10
597.99296849999996
 20
422.000000000005
 30
0.0
 11
597.99296849999985
 21
248.000000000005
 31
0.0
  0
INSERT
  5
1160
  8
SYMBOLLINE
  6
CONTINUOUS
 62
     0
  2
_ORIGIN
 10
597.99296849999996
 20
442.000000000005
 30
0.0
 41
20.0
 42
20.0
 43
20.0
 50
90.0
  0
INSERT
  5
1161
  8
SYMBOLLINE
  6
CONTINUOUS
 62
     0
  2
_ORIGIN
 10
597.99296849999985
 20
228.00000000000489
 30
0.0
 41
20.0
 42
20.0
 43
20.0
 50
270.0
  0
TEXT
  5
1185
  8
SYMBOLLINE
 62
     0
 10
460.40300000000002
 20
237.65000000000001
 30
0.0
 40
55.0
  1
214
  0
POINT
  5
1163
  8
DEFPOINTS
  6
CONTINUOUS
 62
     0
 10
417.49999999999989
 20
442.000000000005
 30
0.0
  0
POINT
  5
1164
  8
DEFPOINTS
  6
CONTINUOUS
 62
     0
 10
417.49999999999989
 20
228.000000000005
 30
0.0
  0
POINT
  5
1165
  8
DEFPOINTS
  6
CONTINUOUS
 62
     0
 10
597.99296849999985
 20
228.00000000000489
 30
0.0
  0
ENDBLK
  5
10D8
  8
0
 62
     7
  0
BLOCK
  8
0
 62
     7
  2
*D11
 70
     1
 10
0.0
 20
0.0
 30
0.0
  3
*D11
  1

  0
LINE
  5
1166
  8
SYMBOLLINE
  6
CONTINUOUS
 62
     0
 10
436.49999976323079
 20
400.00000000000472
 30
0.0
 11
455.49999999999989
 21
400.00000000000472
 31
0.0
  0
LINE
  5
1167
  8
SYMBOLLINE
  6
CONTINUOUS
 62
     0
 10
437.5
 20
441.99999999989188
 30
0.0
 11
455.49999999999989
 21
441.99999999989188
 31
0.0
  0
LINE
  5
1168
  8
SYMBOLLINE
  6
CONTINUOUS
 62
     0
 10
437.5
 20
420.00000000000477
 30
0.0
 11
437.5
 21
421.99999999989188
 31
0.0
  0
LINE
  5
1169
  8
SYMBOLLINE
  6
CONTINUOUS
 62
     0
 10
437.5
 20
441.99999999989188
 30
0.0
 11
437.5
 21
542.32285714274906
 31
0.0
  0
INSERT
  5
116A
  8
SYMBOLLINE
  6
CONTINUOUS
 62
     0
  2
_ORIGIN
 10
437.5
 20
400.00000000000472
 30
0.0
 41
20.0
 42
20.0
 43
20.0
 50
270.0
  0
INSERT
  5
116B
  8
SYMBOLLINE
  6
CONTINUOUS
 62
     0
  2
_ORIGIN
 10
437.5
 20
441.99999999989188
 30
0.0
 41
20.0
 42
20.0
 43
20.0
 50
90.0
  0
TEXT
  5
1186
  8
SYMBOLLINE
 62
     0
 10
299.91000000000008
 20
404.81099999999992
 30
0.0
 40
55.0
  1
42
  0
POINT
  5
116D
  8
DEFPOINTS
  6
CONTINUOUS
 62
     0
 10
416.49999976323079
 20
400.00000000000472
 30
0.0
  0
POINT
  5
116E
  8
DEFPOINTS
  6
CONTINUOUS
 62
     0
 10
417.49999999999989
 20
441.99999999989188
 30
0.0
  0
POINT
  5
116F
  8
DEFPOINTS
  6
CONTINUOUS
 62
     0
 10
437.5
 20
441.99999999989188
 30
0.0
  0
ENDBLK
  5
10E5
  8
0
 62
     7
  0
BLOCK
  8
0
 62
     7
  2
*D12
 70
     1
 10
0.0
 20
0.0
 30
0.0
  3
*D12
  1

  0
LINE
  5
1170
  8
SYMBOLLINE
  6
CONTINUOUS
 62
     0
 10
437.5
 20
335.000000000005
 30
0.0
 11
531.82132483266832
 21
335.000000000005
 31
0.0
  0
LINE
  5
1171
  8
SYMBOLLINE
  6
CONTINUOUS
 62
     0
 10
475.49999999999989
 20
400.00000000000472
 30
0.0
 11
531.82132483266832
 21
400.00000000000472
 31
0.0
  0
LINE
  5
1172
  8
SYMBOLLINE
  6
CONTINUOUS
 62
     0
 10
513.82132483266832
 20
355.000000000005
 30
0.0
 11
513.82132483266832
 21
380.00000000000477
 31
0.0
  0
LINE
  5
1173
  8
SYMBOLLINE
  6
CONTINUOUS
 62
     0
 10
513.82132483266832
 20
400.00000000000472
 30
0.0
 11
513.82132483266832
 21
500.32285714286178
 31
0.0
  0
INSERT
  5
1174
  8
SYMBOLLINE
  6
CONTINUOUS
 62
     0
  2
_ORIGIN
 10
513.82132483266832
 20
335.000000000005
 30
0.0
 41
20.0
 42
20.0
 43
20.0
 50
270.0
  0
INSERT
  5
1175
  8
SYMBOLLINE
  6
CONTINUOUS
 62
     0
  2
_ORIGIN
 10
513.82132483266832
 20
400.00000000000472
 30
0.0
 41
20.0
 42
20.0
 43
20.0
 50
90.0
  0
TEXT
  5
1187
  8
SYMBOLLINE
 62
     0
 10
376.23099999999999
 20
362.81099999999998
 30
0.0
 40
55.0
  1
65
  0
POINT
  5
1177
  8
DEFPOINTS
  6
CONTINUOUS
 62
     0
 10
417.49999999999989
 20
335.000000000005
 30
0.0
  0
POINT
  5
1178
  8
DEFPOINTS
  6
CONTINUOUS
 62
     0
 10
455.49999999999989
 20
400.00000000000472
 30
0.0
  0
POINT
  5
1179
  8
DEFPOINTS
  6
CONTINUOUS
 62
     0
 10
513.82132483266832
 20
400.00000000000472
 30
0.0
  0
ENDBLK
  5
10F3
  8
0
 62
     7
  0
BLOCK
  8
0
 62
     7
  2
*D13
 70
     1
 10
0.0
 20
0.0
 30
0.0
  3
*D13
  1

  0
LINE
  5
117A
  8
SYMBOLLINE
  6
CONTINUOUS
 62
     0
 10
437.5
 20
228.000000000005
 30
0.0
 11
487.70160438759189
 21
228.000000000005
 31
0.0
  0
LINE
  5
117B
  8
SYMBOLLINE
  6
CONTINUOUS
 62
     0
 10
436.49999976323107
 20
270.00000000000517
 30
0.0
 11
487.70160438759189
 21
270.00000000000517
 31
0.0
  0
LINE
  5
117C
  8
SYMBOLLINE
  6
CONTINUOUS
 62
     0
 10
469.70160438759189
 20
248.000000000005
 30
0.0
 11
469.70160438759189
 21
250.0000000000052
 31
0.0
  0
LINE
  5
117D
  8
SYMBOLLINE
  6
CONTINUOUS
 62
     0
 10
469.70160438759189
 20
270.00000000000517
 30
0.0
 11
469.70160438759189
 21
370.3228571428624
 31
0.0
  0
INSERT
  5
117E
  8
SYMBOLLINE
  6
CONTINUOUS
 62
     0
  2
_ORIGIN
 10
469.70160438759189
 20
228.000000000005
 30
0.0
 41
20.0
 42
20.0
 43
20.0
 50
270.0
  0
INSERT
  5
117F
  8
SYMBOLLINE
  6
CONTINUOUS
 62
     0
  2
_ORIGIN
 10
469.70160438759189
 20
270.00000000000517
 30
0.0
 41
20.0
 42
20.0
 43
20.0
 50
90.0
  0
TEXT
  5
1188
  8
SYMBOLLINE
 62
     0
 10
332.11200000000002
 20
232.81100000000001
 30
0.0
 40
55.0
  1
42
  0
POINT
  5
1181
  8
DEFPOINTS
  6
CONTINUOUS
 62
     0
 10
417.49999999999989
 20
228.000000000005
 30
0.0
  0
POINT
  5
1182
  8
DEFPOINTS
  6
CONTINUOUS
 62
     0
 10
416.49999976323107
 20
270.00000000000517
 30
0.0
  0
POINT
  5
1183
  8
DEFPOINTS
  6
CONTINUOUS
 62
     0
 10
469.70160438759189
 20
270.00000000000517
 30
0.0
  0
ENDBLK
  5
1101
  8
0
 62
     7
  0
BLOCK
  8
0
  2
_SMALL
 70
     0
 10
0.0
 20
0.0
 30
0.0
  3
_SMALL
  1

  0
CIRCLE
  5
133D
  8
0
  6
CONTINUOUS
 62
     7
 10
0.0
 20
0.0
 30
0.0
 40
0.25
  0
ENDBLK
  5
133E
  8
0
  0
BLOCK
  8
0
 62
     7
  2
*D21
 70
     1
 10
0.0
 20
0.0
 30
0.0
  3
*D21
  1

  0
LINE
  5
14BF
  8
SYMBOLLINE
  6
CONTINUOUS
 62
     0
 10
-359.50000000000171
 20
287.99999750072152
 30
0.0
 11
-359.50000000000159
 21
958.29844332480116
 31
0.0
  0
LINE
  5
14C0
  8
SYMBOLLINE
  6
CONTINUOUS
 62
     0
 10
-129.5000000000031
 20
442.00000002631521
 30
0.0
 11
-129.50000000000301
 21
958.29844332480116
 31
0.0
  0
LINE
  5
14C1
  8
SYMBOLLINE
  6
CONTINUOUS
 62
     0
 10
-339.50000000000159
 20
940.29844332480116
 30
0.0
 11
-149.50000000000301
 21
940.29844332480116
 31
0.0
  0
INSERT
  5
14C2
  8
SYMBOLLINE
  6
CONTINUOUS
 62
     0
  2
_ORIGIN
 10
-359.50000000000159
 20
940.29844332480116
 30
0.0
 41
20.0
 42
20.0
 43
20.0
 50
180.0
  0
INSERT
  5
14C3
  8
SYMBOLLINE
  6
CONTINUOUS
 62
     0
  2
_ORIGIN
 10
-129.50000000000301
 20
940.29844332480116
 30
0.0
 41
20.0
 42
20.0
 43
20.0
  0
INSERT
  5
14C4
  8
SYMBOLLINE
  6
CONTINUOUS
 62
     7
  2
*U32
 10
0.0
 20
0.0
 30
0.0
  0
POINT
  5
14C5
  8
DEFPOINTS
  6
CONTINUOUS
 62
     0
 10
-359.50000000000171
 20
267.99999750072152
 30
0.0
  0
POINT
  5
14C6
  8
DEFPOINTS
  6
CONTINUOUS
 62
     0
 10
-129.5000000000031
 20
422.00000002631532
 30
0.0
  0
POINT
  5
14C7
  8
DEFPOINTS
  6
CONTINUOUS
 62
     0
 10
-129.50000000000301
 20
940.29844332480116
 30
0.0
  0
ENDBLK
  5
149B
  8
0
 62
     7
  0
BLOCK
  8
0
 62
     7
  2
A$C468E0EA4
 70
     0
 10
0.0
 20
0.0
 30
0.0
  3
A$C468E0EA4
  1

  0
LINE
  5
14AF
  8
DETAIL
  6
CONTINUOUS
 62
     5
 10
41.53772690467531
 20
103.26598330508691
 30
0.0
 11
44.537726825756238
 21
106.2659832261664
 31
0.0
  0
POINT
  5
14B0
  8
DEFPOINTS
  6
CONTINUOUS
 62
     7
 10
44.537726825756238
 20
106.2659832261664
 30
0.0
  0
POINT
  5
14B1
  8
DEFPOINTS
  6
CONTINUOUS
 62
     7
 10
44.537726825756238
 20
106.2659832261664
 30
0.0
  0
TEXT
  5
14B2
  8
SIZE
  6
CONTINUOUS
 62
    30
 10
-356.96977594663082
 20
-282.35183092572368
 30
0.0
 40
50.0
  1
58
 50
90.0
 41
0.9
 72
     1
 11
-356.96977594663082
 21
-245.92325949715229
 31
0.0
  0
ENDBLK
  5
14B4
  8
0
 62
     7
  0
BLOCK
  8
0
 62
     7
  2
*D24
 70
     1
 10
0.0
 20
0.0
 30
0.0
  3
*D24
  1

  0
LINE
  5
14CC
  8
SYMBOLLINE
  6
CONTINUOUS
 62
     0
 10
-339.50246921560017
 20
422.00000002631532
 30
0.0
 11
-575.61117951532287
 21
422.00000002631532
 31
0.0
  0
LINE
  5
14CD
  8
SYMBOLLINE
  6
CONTINUOUS
 62
     0
 10
-406.69997599999988
 20
475.0
 30
0.0
 11
-575.61117951532287
 21
475.0
 31
0.0
  0
LINE
  5
14CE
  8
SYMBOLLINE
  6
CONTINUOUS
 62
     0
 10
-557.61117951532276
 20
442.00000002631532
 30
0.0
 11
-557.61117951532276
 21
455.0
 31
0.0
  0
LINE
  5
14CF
  8
SYMBOLLINE
  6
CONTINUOUS
 62
     0
 10
-557.61117951532276
 20
475.0
 30
0.0
 11
-557.61117951532276
 21
575.32285714285717
 31
0.0
  0
INSERT
  5
14D0
  8
SYMBOLLINE
  6
CONTINUOUS
 62
     0
  2
_ORIGIN
 10
-557.61117951532276
 20
422.00000002631532
 30
0.0
 41
20.0
 42
20.0
 43
20.0
 50
270.0
  0
INSERT
  5
14D1
  8
SYMBOLLINE
  6
CONTINUOUS
 62
     0
  2
_ORIGIN
 10
-557.61117951532276
 20
475.0
 30
0.0
 41
20.0
 42
20.0
 43
20.0
 50
90.0
  0
INSERT
  5
14D2
  8
SYMBOLLINE
  6
CONTINUOUS
 62
     7
  2
*U33
 10
0.0
 20
0.0
 30
0.0
  0
POINT
  5
14D3
  8
DEFPOINTS
  6
CONTINUOUS
 62
     0
 10
-319.50246921560017
 20
422.00000002631532
 30
0.0
  0
POINT
  5
14D4
  8
DEFPOINTS
  6
CONTINUOUS
 62
     0
 10
-386.69997599999999
 20
475.0
 30
0.0
  0
POINT
  5
14D5
  8
DEFPOINTS
  6
CONTINUOUS
 62
     0
 10
-557.61117951532276
 20
475.0
 30
0.0
  0
ENDBLK
  5
14CB
  8
0
 62
     7
  0
BLOCK
  8
0
 62
     7
  2
*D25
 70
     1
 10
0.0
 20
0.0
 30
0.0
  3
*D25
  1

  0
LINE
  5
15AA
  8
SIZE
  6
CONTINUOUS
 62
     0
 10
-129.5000000000031
 20
442.00000002631521
 30
0.0
 11
-129.50000000000301
 21
955.43111822918945
 31
0.0
  0
LINE
  5
15AB
  8
SIZE
  6
CONTINUOUS
 62
     0
 10
-359.50000000000171
 20
287.99999750072152
 30
0.0
 11
-359.50000000000159
 21
955.43111822918945
 31
0.0
  0
LINE
  5
15AC
  8
SIZE
  6
CONTINUOUS
 62
     0
 10
-149.50000000000301
 20
937.43111822918945
 30
0.0
 11
-339.50000000000159
 21
937.43111822918945
 31
0.0
  0
INSERT
  5
15AD
  8
SIZE
  6
CONTINUOUS
 62
     0
  2
_ORIGIN
 10
-129.50000000000301
 20
937.43111822918945
 30
0.0
 41
20.0
 42
20.0
 43
20.0
  0
INSERT
  5
15AE
  8
SIZE
  6
CONTINUOUS
 62
     0
  2
_ORIGIN
 10
-359.50000000000159
 20
937.43111822918945
 30
0.0
 41
20.0
 42
20.0
 43
20.0
 50
180.0
  0
INSERT
  5
15AF
  8
SYMBOLLINE
  6
CONTINUOUS
 62
     7
  2
*U37
 10
0.0
 20
0.0
 30
0.0
  0
POINT
  5
15B0
  8
DEFPOINTS
  6
CONTINUOUS
 62
     0
 10
-129.5000000000031
 20
422.00000002631532
 30
0.0
  0
POINT
  5
15B1
  8
DEFPOINTS
  6
CONTINUOUS
 62
     0
 10
-359.50000000000171
 20
267.99999750072152
 30
0.0
  0
POINT
  5
15B2
  8
DEFPOINTS
  6
CONTINUOUS
 62
     0
 10
-359.50000000000159
 20
937.43111822918945
 30
0.0
  0
ENDBLK
  5
14DB
  8
0
 62
     7
  0
BLOCK
  8
0
 62
     7
  2
*D26
 70
     1
 10
0.0
 20
0.0
 30
0.0
  3
*D26
  1

  0
LINE
  5
15B3
  8
SIZE
  6
CONTINUOUS
 62
     0
 10
-129.5000000000031
 20
442.00000002631521
 30
0.0
 11
-129.50000000000301
 21
955.43111822918945
 31
0.0
  0
LINE
  5
15B4
  8
SIZE
  6
CONTINUOUS
 62
     0
 10
387.49998799999997
 20
493.64043499999991
 30
0.0
 11
387.49998799999997
 21
955.43111822918945
 31
0.0
  0
LINE
  5
15B5
  8
SIZE
  6
CONTINUOUS
 62
     0
 10
-109.500000000003
 20
937.43111822918945
 30
0.0
 11
367.49998799999997
 21
937.43111822918945
 31
0.0
  0
INSERT
  5
15B6
  8
SIZE
  6
CONTINUOUS
 62
     0
  2
_ORIGIN
 10
-129.50000000000301
 20
937.43111822918945
 30
0.0
 41
20.0
 42
20.0
 43
20.0
 50
180.0
  0
INSERT
  5
15B7
  8
SIZE
  6
CONTINUOUS
 62
     0
  2
_ORIGIN
 10
387.49998799999997
 20
937.43111822918945
 30
0.0
 41
20.0
 42
20.0
 43
20.0
  0
INSERT
  5
15B8
  8
SYMBOLLINE
  6
CONTINUOUS
 62
     7
  2
*U38
 10
0.0
 20
0.0
 30
0.0
  0
POINT
  5
15B9
  8
DEFPOINTS
  6
CONTINUOUS
 62
     0
 10
-129.5000000000031
 20
422.00000002631532
 30
0.0
  0
POINT
  5
15BA
  8
DEFPOINTS
  6
CONTINUOUS
 62
     0
 10
387.49998799999997
 20
473.64043499999991
 30
0.0
  0
POINT
  5
15BB
  8
DEFPOINTS
  6
CONTINUOUS
 62
     0
 10
387.49998799999997
 20
937.43111822918945
 30
0.0
  0
ENDBLK
  5
14E8
  8
0
 62
     7
  0
BLOCK
  8
0
 62
     7
  2
*D27
 70
     1
 10
0.0
 20
0.0
 30
0.0
  3
*D27
  1

  0
LINE
  5
1596
  8
SIZE
  6
CONTINUOUS
 62
     0
 10
-339.50246716538322
 20
422.00000170340661
 30
0.0
 11
-642.3476379384947
 21
422.00000170340678
 31
0.0
  0
LINE
  5
1597
  8
SIZE
  6
CONTINUOUS
 62
     0
 10
-405.70001200000002
 20
475.0
 30
0.0
 11
-642.3476379384947
 21
475.0
 31
0.0
  0
LINE
  5
1598
  8
SIZE
  6
CONTINUOUS
 62
     0
 10
-624.34763793849459
 20
442.00000170340672
 30
0.0
 11
-624.34763793849459
 21
455.0
 31
0.0
  0
LINE
  5
1599
  8
SIZE
  6
CONTINUOUS
 62
     0
 10
-624.34763793849459
 20
475.0
 30
0.0
 11
-624.34763793849459
 21
568.03714285714295
 31
0.0
  0
INSERT
  5
159A
  8
SIZE
  6
CONTINUOUS
 62
     0
  2
_ORIGIN
 10
-624.34763793849459
 20
422.00000170340672
 30
0.0
 41
20.0
 42
20.0
 43
20.0
 50
270.0
  0
INSERT
  5
159B
  8
SIZE
  6
CONTINUOUS
 62
     0
  2
_ORIGIN
 10
-624.34763793849459
 20
475.0
 30
0.0
 41
20.0
 42
20.0
 43
20.0
 50
90.0
  0
INSERT
  5
159C
  8
SYMBOLLINE
  6
CONTINUOUS
 62
     7
  2
*U35
 10
0.0
 20
0.0
 30
0.0
  0
POINT
  5
159D
  8
DEFPOINTS
  6
CONTINUOUS
 62
     0
 10
-319.50246716538322
 20
422.00000170340661
 30
0.0
  0
POINT
  5
159E
  8
DEFPOINTS
  6
CONTINUOUS
 62
     0
 10
-385.70001200000002
 20
475.0
 30
0.0
  0
POINT
  5
159F
  8
DEFPOINTS
  6
CONTINUOUS
 62
     0
 10
-624.34763793849459
 20
475.0
 30
0.0
  0
ENDBLK
  5
14F5
  8
0
 62
     7
  0
BLOCK
  8
0
 62
     7
  2
*D28
 70
     1
 10
0.0
 20
0.0
 30
0.0
  3
*D28
  1

  0
LINE
  5
158D
  8
SIZE
  6
CONTINUOUS
 62
     0
 10
-339.50246921560017
 20
422.00000002631532
 30
0.0
 11
-642.3476379384947
 21
422.00000002631538
 31
0.0
  0
LINE
  5
158E
  8
SIZE
  6
CONTINUOUS
 62
     0
 10
-378.90000001578619
 20
172.00000002631899
 30
0.0
 11
-642.34763793849481
 21
172.00000002631899
 31
0.0
  0
LINE
  5
158F
  8
SIZE
  6
CONTINUOUS
 62
     0
 10
-624.34763793849459
 20
402.00000002631532
 30
0.0
 11
-624.34763793849481
 21
192.00000002631899
 31
0.0
  0
INSERT
  5
1590
  8
SIZE
  6
CONTINUOUS
 62
     0
  2
_ORIGIN
 10
-624.34763793849459
 20
422.00000002631532
 30
0.0
 41
20.0
 42
20.0
 43
20.0
 50
90.0
  0
INSERT
  5
1591
  8
SIZE
  6
CONTINUOUS
 62
     0
  2
_ORIGIN
 10
-624.34763793849481
 20
172.00000002631899
 30
0.0
 41
20.0
 42
20.0
 43
20.0
 50
270.0
  0
INSERT
  5
1592
  8
SYMBOLLINE
  6
CONTINUOUS
 62
     7
  2
*U34
 10
0.0
 20
0.0
 30
0.0
  0
POINT
  5
1593
  8
DEFPOINTS
  6
CONTINUOUS
 62
     0
 10
-319.50246921560017
 20
422.00000002631532
 30
0.0
  0
POINT
  5
1594
  8
DEFPOINTS
  6
CONTINUOUS
 62
     0
 10
-358.90000001578619
 20
172.00000002631899
 30
0.0
  0
POINT
  5
1595
  8
DEFPOINTS
  6
CONTINUOUS
 62
     0
 10
-624.34763793849481
 20
172.00000002631899
 30
0.0
  0
ENDBLK
  5
1503
  8
0
 62
     7
  0
BLOCK
  8
0
 62
     7
  2
*D29
 70
     1
 10
0.0
 20
0.0
 30
0.0
  3
*D29
  1

  0
LINE
  5
15A0
  8
SIZE
  6
CONTINUOUS
 62
     0
 10
-387.50001200000003
 20
494.19999997120573
 30
0.0
 11
-387.50001200000003
 21
1047.5589
 31
0.0
  0
LINE
  5
15A1
  8
SIZE
  6
CONTINUOUS
 62
     0
 10
-408.49999999999989
 20
487.18832950771338
 30
0.0
 11
-408.49999999999989
 21
1047.5589
 31
0.0
  0
LINE
  5
15A2
  8
SIZE
  6
CONTINUOUS
 62
     0
 10
-367.50001200000003
 20
1029.5589
 30
0.0
 11
-347.50001200000003
 21
1029.5589
 31
0.0
  0
LINE
  5
15A3
  8
SIZE
  6
CONTINUOUS
 62
     0
 10
-428.49999999999989
 20
1029.5589
 30
0.0
 11
-502.25142857142839
 21
1029.5589
 31
0.0
  0
INSERT
  5
15A4
  8
SIZE
  6
CONTINUOUS
 62
     0
  2
_ORIGIN
 10
-387.50001200000003
 20
1029.5589
 30
0.0
 41
20.0
 42
20.0
 43
20.0
 50
180.0
  0
INSERT
  5
15A5
  8
SIZE
  6
CONTINUOUS
 62
     0
  2
_ORIGIN
 10
-408.49999999999989
 20
1029.5589
 30
0.0
 41
20.0
 42
20.0
 43
20.0
  0
INSERT
  5
15A6
  8
SYMBOLLINE
  6
CONTINUOUS
 62
     7
  2
*U36
 10
0.0
 20
0.0
 30
0.0
  0
POINT
  5
15A7
  8
DEFPOINTS
  6
CONTINUOUS
 62
     0
 10
-387.50001200000003
 20
474.19999997120561
 30
0.0
  0
POINT
  5
15A8
  8
DEFPOINTS
  6
CONTINUOUS
 62
     0
 10
-408.49999999999989
 20
467.18832950771338
 30
0.0
  0
POINT
  5
15A9
  8
DEFPOINTS
  6
CONTINUOUS
 62
     0
 10
-408.49999999999989
 20
1029.5589
 30
0.0
  0
ENDBLK
  5
1510
  8
0
 62
     7
  0
BLOCK
  8
0
 62
     7
  2
*D30
 70
     1
 10
0.0
 20
0.0
 30
0.0
  3
*D30
  1

  0
LINE
  5
15BC
  8
SIZE
  6
CONTINUOUS
 62
     0
 10
387.49998799999997
 20
493.64043499999991
 30
0.0
 11
387.49998799999997
 21
1047.5589
 31
0.0
  0
LINE
  5
15BD
  8
SIZE
  6
CONTINUOUS
 62
     0
 10
417.49999999999989
 20
461.99999999989188
 30
0.0
 11
417.49999999999989
 21
1047.5589
 31
0.0
  0
LINE
  5
15BE
  8
SIZE
  6
CONTINUOUS
 62
     0
 10
367.49998799999997
 20
1029.5589
 30
0.0
 11
347.49998799999997
 21
1029.5589
 31
0.0
  0
LINE
  5
15BF
  8
SIZE
  6
CONTINUOUS
 62
     0
 10
437.5
 20
1029.5589
 30
0.0
 11
530.53714285714284
 21
1029.5589
 31
0.0
  0
INSERT
  5
15C0
  8
SIZE
  6
CONTINUOUS
 62
     0
  2
_ORIGIN
 10
387.49998799999997
 20
1029.5589
 30
0.0
 41
20.0
 42
20.0
 43
20.0
  0
INSERT
  5
15C1
  8
SIZE
  6
CONTINUOUS
 62
     0
  2
_ORIGIN
 10
417.49999999999989
 20
1029.5589
 30
0.0
 41
20.0
 42
20.0
 43
20.0
 50
180.0
  0
INSERT
  5
15C2
  8
SYMBOLLINE
  6
CONTINUOUS
 62
     7
  2
*U39
 10
0.0
 20
0.0
 30
0.0
  0
POINT
  5
15C3
  8
DEFPOINTS
  6
CONTINUOUS
 62
     0
 10
387.49998799999997
 20
473.64043499999991
 30
0.0
  0
POINT
  5
15C4
  8
DEFPOINTS
  6
CONTINUOUS
 62
     0
 10
417.49999999999989
 20
441.99999999989188
 30
0.0
  0
POINT
  5
15C5
  8
DEFPOINTS
  6
CONTINUOUS
 62
     0
 10
417.49999999999989
 20
1029.5589
 30
0.0
  0
ENDBLK
  5
151E
  8
0
 62
     7
  0
BLOCK
  8
0
 62
     7
  2
*U32
 70
     1
 10
0.0
 20
0.0
 30
0.0
  3
*U32
  1

  0
TEXT
  5
1690
  8
SYMBOLLINE
  6
CONTINUOUS
 62
     0
 10
-308.1428571428595
 20
940.38844332480107
 30
0.0
 40
55.0
  1
230
 41
0.9
  0
ENDBLK
  5
1692
  8
0
 62
     7
  0
BLOCK
  8
0
 62
     7
  2
*U33
 70
     1
 10
0.0
 20
0.0
 30
0.0
  3
*U33
  1

  0
TEXT
  5
1694
  8
SYMBOLLINE
  6
CONTINUOUS
 62
     0
 10
-557.70117951532302
 20
495.0899999999998
 30
0.0
 40
55.0
  1
53
 50
90.0
 41
0.9
  0
ENDBLK
  5
1696
  8
0
 62
     7
  0
BLOCK
  8
0
 62
     7
  2
*U34
 70
     1
 10
0.0
 20
0.0
 30
0.0
  3
*U34
  1

  0
TEXT
  5
1698
  8
SIZE
  6
CONTINUOUS
 62
     0
 10
-624.43763793849485
 20
239.14285716917431
 30
0.0
 40
50.0
  1
250
 50
90.0
 41
0.9
  0
ENDBLK
  5
169A
  8
0
 62
     7
  0
BLOCK
  8
0
 62
     7
  2
*U35
 70
     1
 10
0.0
 20
0.0
 30
0.0
  3
*U35
  1

  0
TEXT
  5
169C
  8
SIZE
  6
CONTINUOUS
 62
     0
 10
-624.43763793849485
 20
495.0899999999998
 30
0.0
 40
50.0
  1
53
 50
90.0
 41
0.9
  0
ENDBLK
  5
169E
  8
0
 62
     7
  0
BLOCK
  8
0
 62
     7
  2
*U36
 70
     1
 10
0.0
 20
0.0
 30
0.0
  3
*U36
  1

  0
TEXT
  5
16A0
  8
SIZE
  6
CONTINUOUS
 62
     0
 10
-502.16142857142842
 20
1029.6488999999999
 30
0.0
 40
50.0
  1
21
 41
0.9
  0
ENDBLK
  5
16A2
  8
0
 62
     7
  0
BLOCK
  8
0
 62
     7
  2
*U37
 70
     1
 10
0.0
 20
0.0
 30
0.0
  3
*U37
  1

  0
TEXT
  5
16A4
  8
SIZE
  6
CONTINUOUS
 62
     0
 10
-302.35714285714522
 20
937.52111822918948
 30
0.0
 40
50.0
  1
230
 41
0.9
  0
ENDBLK
  5
16A6
  8
0
 62
     7
  0
BLOCK
  8
0
 62
     7
  2
*U38
 70
     1
 10
0.0
 20
0.0
 30
0.0
  3
*U38
  1

  0
TEXT
  5
16A8
  8
SIZE
  6
CONTINUOUS
 62
     0
 10
75.428565428569911
 20
937.52111822918948
 30
0.0
 40
50.0
  1
517
 41
0.9
  0
ENDBLK
  5
16AA
  8
0
 62
     7
  0
BLOCK
  8
0
 62
     7
  2
*U39
 70
     1
 10
0.0
 20
0.0
 30
0.0
  3
*U39
  1

  0
TEXT
  5
16AC
  8
SIZE
  6
CONTINUOUS
 62
     0
 10
457.58999999999992
 20
1029.6488999999999
 30
0.0
 40
50.0
  1
30
 41
0.9
  0
ENDBLK
  5
16AE
  8
0
 62
     7
  0
ENDSEC
  0
SECTION
  2
ENTITIES
  0
LINE
  5
4F5
  8
SIZE
  6
CONTINUOUS
 62
    30
 10
-367.50001200000003
 20
1029.5589
 30
0.0
 11
367.49998799999997
 21
1029.5589
 31
0.0
  0
LINE
  5
4FE
  8
DETAIL
  6
CONTINUOUS
 62
     5
 10
386.69999999999999
 20
140.0
 30
0.0
 11
-386.69999999999999
 21
140.0
 31
0.0
  0
LINE
  5
501
  8
OUTLINE
  6
CONTINUOUS
 62
     3
 10
-386.69998800000002
 20
475.0
 30
0.0
 11
386.69998800000002
 21
475.0
 31
0.0
  0
LINE
  5
502
  8
OUTLINE
  6
CONTINUOUS
 62
     3
 10
386.69999999999999
 20
140.0
 30
0.0
 11
-386.69999999999999
 21
140.0
 31
0.0
  0
LINE
  5
50C
  8
DETAIL
  6
CONTINUOUS
 62
     5
 10
-385.70001200000002
 20
475.0
 30
0.0
 11
-327.30001199999998
 21
475.0
 31
0.0
  0
ARC
  5
50D
  8
DETAIL
  6
CONTINUOUS
 62
     5
 10
-330.30037099999993
 20
465.99892199999988
 30
0.0
 40
3.0003589999999991
 50
270.0
 51
0.0
  0
ARC
  5
50E
  8
DETAIL
  6
CONTINUOUS
 62
     5
 10
-330.30037099999993
 20
457.99856299999988
 30
0.0
 40
3.0003589999999991
 50
270.0
 51
0.0
  0
LINE
  5
50F
  8
DETAIL
  6
CONTINUOUS
 62
     5
 10
-386.69997599999999
 20
475.0
 30
0.0
 11
386.69999999999999
 21
475.0
 31
0.0
  0
LINE
  5
52A
  8
NOTE
  6
CONTINUOUS
 62
     4
 10
-569.94755091171442
 20
625.06971925963001
 30
0.0
 11
-1299.0481789117141
 21
625.06971925963001
 31
0.0
  0
TEXT
  5
52B
  8
NOTE
  6
CONTINUOUS
 62
     4
 10
-1277.3729069117139
 20
640.89625025963005
 30
0.0
 40
60.0
  1
AH 4-14×30長穴(M10)
 50
0.000003
 41
0.7
  7
STANDARD1
  0
LINE
  5
52C
  8
SIZE
  6
CONTINUOUS
 62
    30
 10
-387.50001200000003
 20
494.19999999999987
 30
0.0
 11
-387.50001200000003
 21
1047.5589
 31
0.0
  0
LINE
  5
52D
  8
SIZE
  6
CONTINUOUS
 62
    30
 10
-387.50001200000003
 20
494.19999999999987
 30
0.0
 11
-387.50001200000003
 21
1047.5589
 31
0.0
  0
LINE
  5
536
  8
OUTLINE
  6
CONTINUOUS
 62
     3
 10
-387.50001200000003
 20
474.19999999999987
 30
0.0
 11
-387.5
 21
140.80000000000001
 31
0.0
  0
LINE
  5
537
  8
DETAIL
  6
CONTINUOUS
 62
     5
 10
-387.50001200000003
 20
474.19999999999987
 30
0.0
 11
-387.5
 21
140.80000000000001
 31
0.0
  0
ARC
  5
544
  8
OUTLINE
  6
CONTINUOUS
 62
     3
 10
-386.69999999999999
 20
140.80000000000001
 30
0.0
 40
0.8
 50
180.0
 51
270.0
  0
ARC
  5
545
  8
DETAIL
  6
CONTINUOUS
 62
     5
 10
-386.69999999999999
 20
140.80000000000001
 30
0.0
 40
0.8
 50
180.0
 51
270.0
  0
CIRCLE
  5
550
  8
FIX
  6
CONTINUOUS
 62
    11
 10
-356.50001200000008
 20
475.0
 30
0.0
 40
18.598564
  0
LINE
  5
551
  8
DETAIL
  6
CONTINUOUS
 62
     5
 10
-385.70001200000002
 20
475.0
 30
0.0
 11
-385.70001200000002
 21
434.99580899999989
 31
0.0
  0
LINE
  5
552
  8
NOTE
  6
CONTINUOUS
 62
     4
 10
-356.50001200000008
 20
495.00239499999981
 30
0.0
 11
-356.50001200000008
 21
454.99760500000002
 31
0.0
  0
LINE
  5
556
  8
DETAIL
  6
CONTINUOUS
 62
     5
 10
-340.69462299999998
 20
454.99820399999987
 30
0.0
 11
-340.69462299999998
 21
434.99580899999989
 31
0.0
  0
LINE
  5
557
  8
DETAIL
  6
CONTINUOUS
 62
     5
 10
-330.30037099999993
 20
454.99820399999987
 30
0.0
 11
-340.69462299999998
 21
454.99820399999987
 31
0.0
  0
LINE
  5
558
  8
DETAIL
  6
CONTINUOUS
 62
     5
 10
-343.69498199999998
 20
431.99544899999989
 30
0.0
 11
-382.69965300000001
 21
431.99544899999989
 31
0.0
  0
ARC
  5
559
  8
DETAIL
  6
CONTINUOUS
 62
     5
 10
-382.69965300000001
 20
434.99580899999989
 30
0.0
 40
3.0003589999999991
 50
180.0
 51
270.0
  0
ARC
  5
55A
  8
DETAIL
  6
CONTINUOUS
 62
     5
 10
-343.69498199999998
 20
434.99580899999989
 30
0.0
 40
3.0003589999999991
 50
270.0
 51
0.0
  0
POINT
  5
562
  8
DEFPOINTS
  6
CONTINUOUS
 62
     7
 10
-387.50001200000003
 20
474.19999999999987
 30
0.0
  0
POINT
  5
563
  8
DEFPOINTS
  6
CONTINUOUS
 62
     7
 10
-387.50001200000003
 20
474.19999999999987
 30
0.0
  0
LINE
  5
564
  8
NOTE
  6
CONTINUOUS
 62
     4
 10
-356.50001200000008
 20
475.0
 30
0.0
 11
-384.0161829999999
 21
481.18336199999987
 31
0.0
  0
LINE
  5
565
  8
NOTE
  6
CONTINUOUS
 62
     4
 10
-374.65362099999999
 20
494.25282299999992
 30
0.0
 11
-356.50001200000008
 21
475.0
 31
0.0
  0
ARC
  5
566
  8
OUTLINE
  6
CONTINUOUS
 62
     3
 10
-386.70001200000002
 20
474.19999999999987
 30
0.0
 40
0.8
 50
89.998260999999985
 51
180.0
  0
POINT
  5
567
  8
DEFPOINTS
  6
CONTINUOUS
 62
     7
 10
-387.50001200000003
 20
474.19999999999987
 30
0.0
  0
POINT
  5
568
  8
DEFPOINTS
  6
CONTINUOUS
 62
     7
 10
-356.50001200000008
 20
495.00239499999981
 30
0.0
  0
POINT
  5
569
  8
DEFPOINTS
  6
CONTINUOUS
 62
     7
 10
-386.69998800000002
 20
475.0
 30
0.0
  0
POINT
  5
56A
  8
DEFPOINTS
  6
CONTINUOUS
 62
     7
 10
-356.50001200000008
 20
495.00239499999981
 30
0.0
  0
LINE
  5
56B
  8
NOTE
  6
CONTINUOUS
 62
     4
 10
-376.50097000000011
 20
475.0
 30
0.0
 11
-336.499054
 21
475.0
 31
0.0
  0
ARC
  5
56C
  8
DETAIL
  6
CONTINUOUS
 62
     5
 10
-386.70001200000002
 20
474.19999999999987
 30
0.0
 40
0.8
 50
89.998260999999985
 51
180.0
  0
LINE
  5
56E
  8
DETAIL
  6
CONTINUOUS
 62
     5
 10
-362.50001200000003
 20
475.0
 30
0.0
 11
-350.50001200000008
 21
475.0
 31
0.0
  0
LINE
  5
56F
  8
DETAIL
  6
CONTINUOUS
 62
     5
 10
-347.49965300000002
 20
462.99856299999988
 30
0.0
 11
-330.30037099999993
 21
462.99856299999988
 31
0.0
  0
LINE
  5
570
  8
DETAIL
  6
CONTINUOUS
 62
     5
 10
-350.50001200000008
 20
475.0
 30
0.0
 11
-350.50001200000008
 21
465.99892199999988
 31
0.0
  0
ARC
  5
571
  8
DETAIL
  6
CONTINUOUS
 62
     5
 10
-347.49965300000002
 20
465.99892199999988
 30
0.0
 40
3.0003589999999991
 50
180.0
 51
270.0
  0
ARC
  5
572
  8
DETAIL
  6
CONTINUOUS
 62
     5
 10
-365.50037099999997
 20
465.99892199999988
 30
0.0
 40
3.0003589999999991
 50
270.0
 51
0.0
  0
ARC
  5
573
  8
DETAIL
  6
CONTINUOUS
 62
     5
 10
-382.69965300000001
 20
465.99892199999988
 30
0.0
 40
3.0003589999999991
 50
180.0
 51
270.0
  0
LINE
  5
574
  8
DETAIL
  6
CONTINUOUS
 62
     5
 10
-362.50001200000003
 20
475.0
 30
0.0
 11
-362.50001200000003
 21
465.99892199999988
 31
0.0
  0
LINE
  5
575
  8
DETAIL
  6
CONTINUOUS
 62
     5
 10
-365.50037099999997
 20
462.99856299999988
 30
0.0
 11
-382.69965300000001
 21
462.99856299999988
 31
0.0
  0
LINE
  5
578
  8
NOTE
  6
CONTINUOUS
 62
     4
 10
-532.05009299999995
 20
791.03698799999984
 30
0.0
 11
-874.70392999999967
 21
791.03698799999984
 31
0.0
  0
TEXT
  5
579
  8
NOTE
  6
CONTINUOUS
 62
     4
 10
-853.02865800000029
 20
806.86351799999989
 30
0.0
 40
60.0
  1
D1 VP-25
 50
0.000003
 41
0.7
  7
STANDARD1
  0
LINE
  5
589
  8
SIZE
  6
CONTINUOUS
 62
    30
 10
-377.50001200000003
 20
1029.5589
 30
0.0
 11
-367.50001200000003
 21
1029.5589
 31
0.0
  0
CIRCLE
  5
58A
  8
SIZE
  6
CONTINUOUS
 62
    30
 10
-387.50001200000003
 20
1029.5589
 30
0.0
 40
10.0
  0
POINT
  5
58B
  8
DEFPOINTS
  6
CONTINUOUS
 62
     7
 10
-387.50001200000003
 20
1029.5589
 30
0.0
  0
LINE
  5
58C
  8
SIZE
  6
CONTINUOUS
 62
    30
 10
-377.50001200000003
 20
1029.5589
 30
0.0
 11
-367.50001200000003
 21
1029.5589
 31
0.0
  0
CIRCLE
  5
58D
  8
SIZE
  6
CONTINUOUS
 62
    30
 10
-387.50001200000003
 20
1029.5589
 30
0.0
 40
10.0
  0
LINE
  5
58E
  8
SIZE
  6
CONTINUOUS
 62
    30
 10
-367.50001200000003
 20
1029.5589
 30
0.0
 11
-347.50001200000008
 21
1029.5589
 31
0.0
  0
LINE
  5
58F
  8
BASIS
  6
DASHDOT
 62
     6
 10
0.0
 20
-58.000957999999997
 30
0.0
 11
0.0
 21
523.0
 31
0.0
  0
CIRCLE
  5
590
  8
ARRANGE
  6
CONTINUOUS
 62
     1
 10
0.0
 20
0.0
 30
0.0
 40
50.0
  0
CIRCLE
  5
595
  8
SIZE
  6
CONTINUOUS
 62
    30
 10
1082.6417939999999
 20
0.0
 30
0.0
 40
10.0
  0
LINE
  5
596
  8
SIZE
  6
CONTINUOUS
 62
    30
 10
1082.6417939999999
 20
0.0
 30
0.0
 11
1082.6417939999999
 21
-376.57142900000002
 31
0.0
  0
LINE
  5
5A8
  8
ARRANGE
  6
CONTINUOUS
 62
     1
 10
-50.037350000000004
 20
-49.522353000000003
 30
0.0
 11
50.037350000000004
 21
49.522353000000003
 31
0.0
  0
LINE
  5
5A9
  8
ARRANGE
  6
CONTINUOUS
 62
     1
 10
-49.963763
 20
49.596595000000001
 30
0.0
 11
49.963763
 21
-49.596595000000001
 31
0.0
  0
LINE
  5
5B7
  8
NOTE
  6
CONTINUOUS
 62
     4
 10
906.58884374621755
 20
-446.36357405119452
 30
0.0
 11
471.65804374621757
 21
-446.36357405119452
 31
0.0
  0
TEXT
  5
5B8
  8
NOTE
  6
CONTINUOUS
 62
     4
 10
493.33331574621798
 20
-430.53704305119447
 30
0.0
 40
60.0
  1
D2（自然排水口）
 50
0.000003
 41
0.7
  7
STANDARD1
  0
LINE
  5
5B9
  8
NOTE
  6
CONTINUOUS
 62
     4
 10
848.18324299999983
 20
-216.45101
 30
0.0
 11
468.14776399999988
 21
-216.45101
 31
0.0
  0
TEXT
  5
5BA
  8
NOTE
  6
CONTINUOUS
 62
     4
 10
481.95478400000002
 20
-205.68198699999991
 30
0.0
 40
60.0
  1
RG %%C15.88
 50
0.000003
 41
0.7
  7
STANDARD1
  0
TEXT
  5
5F2
  8
SIZE
  6
CONTINUOUS
 62
    30
 10
1064.6417939999999
 20
-306.28571399999998
 30
0.0
 40
50.0
  1
140以上
 50
90.0
 41
0.9
 72
     1
 11
1064.6417939999999
 21
-198.28571400000001
 31
0.0
  0
LINE
  5
601
  8
SIZE
  6
CONTINUOUS
 62
    30
 10
406.69998800000002
 20
475.0
 30
0.0
 11
1100.6417819999999
 21
475.0
 31
0.0
  0
LINE
  5
602
  8
SIZE
  6
CONTINUOUS
 62
    30
 10
406.69999999999999
 20
140.0
 30
0.0
 11
1100.6417939999999
 21
140.0
 31
0.0
  0
LINE
  5
603
  8
SIZE
  6
CONTINUOUS
 62
    30
 10
157.5
 20
0.0
 30
0.0
 11
1100.6417939999999
 21
0.0
 31
0.0
  0
LINE
  5
604
  8
SIZE
  6
CONTINUOUS
 62
    30
 10
406.69999999999999
 20
140.0
 30
0.0
 11
1100.6417939999999
 21
140.0
 31
0.0
  0
LINE
  5
60D
  8
SIZE
  6
CONTINUOUS
 62
    30
 10
404.69998799999991
 20
475.0
 30
0.0
 11
997.41730099999995
 21
475.0
 31
0.0
  0
LINE
  5
60E
  8
SIZE
  6
CONTINUOUS
 62
    30
 10
243.503581
 20
170.0
 30
0.0
 11
997.41730099999995
 21
170.0
 31
0.0
  0
LINE
  5
60F
  8
SIZE
  6
CONTINUOUS
 62
    30
 10
311.50358100000011
 20
241.0
 30
0.0
 11
884.48235599999964
 21
241.0
 31
0.0
  0
LINE
  5
610
  8
SIZE
  6
CONTINUOUS
 62
    30
 10
245.58476899999999
 20
269.0
 30
0.0
 11
884.48235599999964
 21
269.0
 31
0.0
  0
LINE
  5
611
  8
SIZE
  6
CONTINUOUS
 62
    30
 10
404.69998799999991
 20
475.0
 30
0.0
 11
884.48235599999964
 21
475.0
 31
0.0
  0
LINE
  5
612
  8
SIZE
  6
CONTINUOUS
 62
    30
 10
245.58476899999999
 20
269.0
 30
0.0
 11
884.48235599999964
 21
269.0
 31
0.0
  0
LINE
  5
619
  8
SIZE
  6
CONTINUOUS
 62
    30
 10
404.69998799999991
 20
475.0
 30
0.0
 11
777.89265799999964
 21
475.0
 31
0.0
  0
LINE
  5
61A
  8
SIZE
  6
CONTINUOUS
 62
    30
 10
387.49998799999997
 20
493.64043499999991
 30
0.0
 11
387.49998799999997
 21
847.85288060294602
 31
0.0
  0
LINE
  5
61B
  8
SIZE
  6
CONTINUOUS
 62
    30
 10
114.499988
 20
369.50269500000002
 30
0.0
 11
114.499988
 21
847.85288060294602
 31
0.0
  0
LINE
  5
61C
  8
SIZE
  6
CONTINUOUS
 62
    30
 10
387.49998799999997
 20
493.64043499999991
 30
0.0
 11
387.49998799999997
 21
700.05287199999964
 31
0.0
  0
LINE
  5
61D
  8
SIZE
  6
CONTINUOUS
 62
    30
 10
263.49998799999997
 20
289.00359300000002
 30
0.0
 11
263.49998799999997
 21
700.05287199999964
 31
0.0
  0
LINE
  5
61E
  8
SIZE
  6
CONTINUOUS
 62
    30
 10
387.49998799999997
 20
493.64043499999991
 30
0.0
 11
387.49998799999997
 21
1047.5589
 31
0.0
  0
LINE
  5
621
  8
SIZE
  6
CONTINUOUS
 62
    30
 10
199.499988
 20
317.00359300000002
 30
0.0
 11
199.499988
 21
712.05287199999964
 31
0.0
  0
LINE
  5
622
  8
SIZE
  6
CONTINUOUS
 62
    30
 10
263.49998799999997
 20
289.00359300000002
 30
0.0
 11
263.49998799999997
 21
712.05287199999964
 31
0.0
  0
CIRCLE
  5
626
  8
DETAIL
  6
CONTINUOUS
 62
     5
 10
114.499988
 20
326.0
 30
0.0
 40
16.0
  0
ARC
  5
627
  8
DETAIL
  6
CONTINUOUS
 62
     5
 10
114.499988
 20
326.0
 30
0.0
 40
17.502095999999991
 50
180.0
 51
0.0
  0
CIRCLE
  5
628
  8
DETAIL
  6
CONTINUOUS
 62
     5
 10
120.875803
 20
246.77005
 30
0.0
 40
20.002395
  0
LINE
  5
629
  8
DETAIL
  6
CONTINUOUS
 62
     5
 10
23.864394999999998
 20
180.96216999999999
 30
0.0
 11
150.87939600000001
 21
180.96216999999999
 31
0.0
  0
LINE
  5
62A
  8
NOTE
  6
CONTINUOUS
 62
     4
 10
135.394158
 20
326.0
 30
0.0
 11
93.605817999999999
 21
326.0
 31
0.0
  0
LINE
  5
62C
  8
NOTE
  6
CONTINUOUS
 62
     4
 10
114.499988
 20
348.50269500000002
 30
0.0
 11
114.499988
 21
303.49730499999998
 31
0.0
  0
LINE
  5
62D
  8
DETAIL
  6
CONTINUOUS
 62
     5
 10
13.863198000000001
 20
190.963368
 30
0.0
 11
13.863198000000001
 21
328.98169100000001
 31
0.0
  0
ARC
  5
641
  8
DETAIL
  6
CONTINUOUS
 62
     5
 10
23.864394999999998
 20
190.963368
 30
0.0
 40
10.001198
 50
180.0
 51
270.0
  0
LINE
  5
642
  8
DETAIL
  6
CONTINUOUS
 62
     5
 10
-327.30001199999998
 20
475.0
 30
0.0
 11
-327.30001199999998
 21
457.99856299999988
 31
0.0
  0
POINT
  5
644
  8
DEFPOINTS
  6
CONTINUOUS
 62
     7
 10
114.499988
 20
348.50269500000002
 30
0.0
  0
LINE
  5
645
  8
NOTE
  6
CONTINUOUS
 62
     4
 10
114.499988
 20
326.0
 30
0.0
 11
85.682762999999994
 21
337.58380899999997
 31
0.0
  0
LINE
  5
646
  8
NOTE
  6
CONTINUOUS
 62
     4
 10
95.335442999999998
 20
350.44048500000002
 30
0.0
 11
114.499988
 21
326.0
 31
0.0
  0
POINT
  5
647
  8
DEFPOINTS
  6
CONTINUOUS
 62
     7
 10
93.605817999999999
 20
326.0
 30
0.0
  0
ARC
  5
648
  8
DETAIL
  6
CONTINUOUS
 62
     5
 10
23.864394999999998
 20
328.98169100000001
 30
0.0
 40
10.001198
 50
90.0
 51
180.0
  0
LINE
  5
649
  8
DETAIL
  6
CONTINUOUS
 62
     5
 10
96.997891999999993
 20
338.982889
 30
0.0
 11
23.864394999999998
 21
338.982889
 31
0.0
  0
LINE
  5
64A
  8
DETAIL
  6
CONTINUOUS
 62
     5
 10
96.997891999999993
 20
326.0
 30
0.0
 11
96.997891999999993
 21
338.982889
 31
0.0
  0
LINE
  5
64B
  8
OUTLINE
  6
CONTINUOUS
 62
     3
 10
387.49998799999997
 20
474.19999999999987
 30
0.0
 11
387.49998799999997
 21
140.80438176402069
 31
0.0
  0
LINE
  5
64C
  8
DETAIL
  6
CONTINUOUS
 62
     5
 10
387.49998799999997
 20
474.19999999999987
 30
0.0
 11
387.49998799999997
 21
140.80438176402069
 31
0.0
  0
LINE
  5
64D
  8
DETAIL
  6
CONTINUOUS
 62
     5
 10
169.875981
 20
412.99709299999989
 30
0.0
 11
169.875981
 21
257.97792600000002
 31
0.0
  0
LINE
  5
64E
  8
DETAIL
  6
CONTINUOUS
 62
     5
 10
341.89793900000001
 20
229.96937600000001
 30
0.0
 11
341.89793900000001
 21
412.99709299999989
 31
0.0
  0
LINE
  5
64F
  8
DETAIL
  6
CONTINUOUS
 62
     5
 10
160.880593
 20
190.963368
 30
0.0
 11
160.880593
 21
328.98169100000001
 31
0.0
  0
ARC
  5
653
  8
DETAIL
  6
CONTINUOUS
 62
     5
 10
336.89733999999999
 20
229.96937600000001
 30
0.0
 40
5.0005990000000002
 50
270.0
 51
0.0
  0
LINE
  5
654
  8
NOTE
  6
CONTINUOUS
 62
     4
 10
195.499988
 20
170.0
 30
0.0
 11
216.90006099999999
 21
147.49102500000001
 31
0.0
  0
LINE
  5
655
  8
NOTE
  6
CONTINUOUS
 62
     4
 10
202.77850699999999
 20
139.80661900000001
 30
0.0
 11
195.499988
 21
170.0
 31
0.0
  0
LINE
  5
656
  8
NOTE
  6
CONTINUOUS
 62
     4
 10
195.499988
 20
199.58360500000001
 30
0.0
 11
195.499988
 21
140.41639499999999
 31
0.0
  0
LINE
  5
657
  8
DETAIL
  6
CONTINUOUS
 62
     5
 10
216.50250299999999
 20
142.800096
 30
0.0
 11
216.50250299999999
 21
170.0
 31
0.0
  0
LINE
  5
658
  8
DETAIL
  6
CONTINUOUS
 62
     5
 10
174.49747300000001
 20
142.800096
 30
0.0
 11
174.49747300000001
 21
170.0
 31
0.0
  0
POINT
  5
659
  8
DEFPOINTS
  6
CONTINUOUS
 62
     7
 10
195.499988
 20
140.41639499999999
 30
0.0
  0
LINE
  5
669
  8
DETAIL
  6
CONTINUOUS
 62
     5
 10
219.50178399999999
 20
229.96937600000001
 30
0.0
 11
240.49783199999999
 21
229.96937600000001
 31
0.0
  0
LINE
  5
66A
  8
NOTE
  6
CONTINUOUS
 62
     4
 10
199.499988
 20
269.00000000000011
 30
0.0
 11
219.6103895877458
 21
245.33169108792541
 31
0.0
  0
LINE
  5
66B
  8
NOTE
  6
CONTINUOUS
 62
     4
 10
205.08195152298961
 20
238.44744216618841
 30
0.0
 11
199.499988
 21
269.00000000000011
 31
0.0
  0
POINT
  5
66C
  8
DEFPOINTS
  6
CONTINUOUS
 62
     7
 10
225.503581
 20
170.0
 30
0.0
  0
POINT
  5
66D
  8
DEFPOINTS
  6
CONTINUOUS
 62
     7
 10
227.58476899999999
 20
269.0
 30
0.0
  0
POINT
  5
66E
  8
DEFPOINTS
  6
CONTINUOUS
 62
     7
 10
227.58476899999999
 20
269.0
 30
0.0
  0
POINT
  5
66F
  8
DEFPOINTS
  6
CONTINUOUS
 62
     7
 10
199.499988
 20
299.00359300000002
 30
0.0
  0
ARC
  5
670
  8
DETAIL
  6
CONTINUOUS
 62
     5
 10
219.50178399999999
 20
234.96937600000001
 30
0.0
 40
5.0
 50
180.0
 51
270.0
  0
ARC
  5
671
  8
DETAIL
  6
CONTINUOUS
 62
     5
 10
179.49819199999999
 20
257.977327
 30
0.0
 40
5.0
 50
270.0
 51
0.0
  0
LINE
  5
672
  8
NOTE
  6
CONTINUOUS
 62
     4
 10
199.499988
 20
299.00359300000002
 30
0.0
 11
199.499988
 21
238.996407
 31
0.0
  0
LINE
  5
673
  8
NOTE
  6
CONTINUOUS
 62
     4
 10
227.58476899999999
 20
269.0
 30
0.0
 11
171.41520700000001
 21
269.0
 31
0.0
  0
LINE
  5
674
  8
NOTE
  6
CONTINUOUS
 62
     4
 10
225.503581
 20
170.0
 30
0.0
 11
165.49639500000001
 21
170.0
 31
0.0
  0
ARC
  5
675
  8
DETAIL
  6
CONTINUOUS
 62
     5
 10
195.499988
 20
170.0
 30
0.0
 40
21.002514999999999
 50
0.0
 51
180.0
  0
CIRCLE
  5
676
  8
DETAIL
  6
CONTINUOUS
 62
     5
 10
199.499988
 20
269.0
 30
0.0
 40
15.001796000000001
  0
CIRCLE
  5
677
  8
DETAIL
  6
CONTINUOUS
 62
     5
 10
199.499988
 20
269.0
 30
0.0
 40
4.759999999999998
  0
CIRCLE
  5
678
  8
DETAIL
  6
CONTINUOUS
 62
     5
 10
195.499988
 20
170.0
 30
0.0
 40
13.751647
  0
LINE
  5
679
  8
DETAIL
  6
CONTINUOUS
 62
     5
 10
214.50178399999999
 20
234.96937600000001
 30
0.0
 11
214.50178399999999
 21
269.0
 31
0.0
  0
LINE
  5
67A
  8
DETAIL
  6
CONTINUOUS
 62
     5
 10
184.49819199999999
 20
257.977327
 30
0.0
 11
184.49819199999999
 21
269.0
 31
0.0
  0
ARC
  5
67B
  8
DETAIL
  6
CONTINUOUS
 62
     5
 10
174.87657999999999
 20
257.97792600000002
 30
0.0
 40
5.0005990000000002
 50
180.0
 51
270.0
  0
LINE
  5
67C
  8
DETAIL
  6
CONTINUOUS
 62
     5
 10
174.87657999999999
 20
252.977327
 30
0.0
 11
179.49819199999999
 21
252.977327
 31
0.0
  0
ARC
  5
67D
  8
DETAIL
  6
CONTINUOUS
 62
     5
 10
150.87939600000001
 20
190.963368
 30
0.0
 40
10.001198
 50
270.0
 51
0.0
  0
POINT
  5
67F
  8
DEFPOINTS
  6
CONTINUOUS
 62
     7
 10
263.49998799999997
 20
271.00359300000002
 30
0.0
  0
LINE
  5
680
  8
NOTE
  6
CONTINUOUS
 62
     4
 10
263.49998799999997
 20
241.0
 30
0.0
 11
283.08857699999999
 21
216.898045
 31
0.0
  0
LINE
  5
681
  8
NOTE
  6
CONTINUOUS
 62
     4
 10
268.41322600000001
 20
210.33279999999999
 30
0.0
 11
263.49998799999997
 21
241.0
 31
0.0
  0
POINT
  5
682
  8
DEFPOINTS
  6
CONTINUOUS
 62
     7
 10
293.503581
 20
241.0
 30
0.0
  0
POINT
  5
683
  8
DEFPOINTS
  6
CONTINUOUS
 62
     7
 10
263.49998799999997
 20
271.00359300000002
 30
0.0
  0
ARC
  5
684
  8
DETAIL
  6
CONTINUOUS
 62
     5
 10
286.5021440000001
 20
229.96877699999999
 30
0.0
 40
5.0
 50
180.0
 51
270.0
  0
ARC
  5
685
  8
DETAIL
  6
CONTINUOUS
 62
     5
 10
240.49783199999999
 20
234.96937600000001
 30
0.0
 40
5.0
 50
270.0
 51
0.0
  0
LINE
  5
686
  8
DETAIL
  6
CONTINUOUS
 62
     5
 10
281.5021440000001
 20
241.0
 30
0.0
 11
281.5021440000001
 21
229.96877699999999
 31
0.0
  0
LINE
  5
687
  8
DETAIL
  6
CONTINUOUS
 62
     5
 10
245.49783199999999
 20
241.0
 30
0.0
 11
245.49783199999999
 21
234.96937600000001
 31
0.0
  0
LINE
  5
688
  8
NOTE
  6
CONTINUOUS
 62
     4
 10
263.49998799999997
 20
271.00359300000002
 30
0.0
 11
263.49998799999997
 21
210.996407
 31
0.0
  0
LINE
  5
689
  8
NOTE
  6
CONTINUOUS
 62
     4
 10
293.503581
 20
241.0
 30
0.0
 11
233.49639500000001
 21
241.0
 31
0.0
  0
CIRCLE
  5
68A
  8
DETAIL
  6
CONTINUOUS
 62
     5
 10
263.49998799999997
 20
241.0
 30
0.0
 40
7.9400000000000004
  0
CIRCLE
  5
68B
  8
DETAIL
  6
CONTINUOUS
 62
     5
 10
263.49998799999997
 20
241.0
 30
0.0
 40
18.002155999999999
  0
LINE
  5
68C
  8
DETAIL
  6
CONTINUOUS
 62
     5
 10
286.5021440000001
 20
224.96877699999999
 30
0.0
 11
336.89733999999999
 21
224.96877699999999
 31
0.0
  0
POINT
  5
68D
  8
DEFPOINTS
  6
CONTINUOUS
 62
     7
 10
387.5
 20
140.80000000000001
 30
0.0
  0
POINT
  5
68E
  8
DEFPOINTS
  6
CONTINUOUS
 62
     7
 10
387.5
 20
140.80000000000001
 30
0.0
  0
POINT
  5
68F
  8
DEFPOINTS
  6
CONTINUOUS
 62
     7
 10
387.5
 20
140.80000000000001
 30
0.0
  0
POINT
  5
690
  8
DEFPOINTS
  6
CONTINUOUS
 62
     7
 10
386.69999999999999
 20
140.0
 30
0.0
  0
POINT
  5
691
  8
DEFPOINTS
  6
CONTINUOUS
 62
     7
 10
386.69999999999999
 20
140.0
 30
0.0
  0
ARC
  5
692
  8
DETAIL
  6
CONTINUOUS
 62
     5
 10
386.69999999999999
 20
140.80000000000001
 30
0.0
 40
0.8
 50
270.0
 51
0.0
  0
ARC
  5
693
  8
OUTLINE
  6
CONTINUOUS
 62
     3
 10
386.69999999999999
 20
140.80000000000001
 30
0.0
 40
0.8
 50
270.0
 51
0.0
  0
LINE
  5
6A3
  8
NOTE
  6
CONTINUOUS
 62
     4
 10
333.49902999999989
 20
475.0
 30
0.0
 11
373.500946
 21
475.0
 31
0.0
  0
CIRCLE
  5
6A4
  8
FIX
  6
CONTINUOUS
 62
    11
 10
353.49998799999997
 20
475.0
 30
0.0
 40
18.598564
  0
LINE
  5
6A5
  8
DETAIL
  6
CONTINUOUS
 62
     5
 10
323.99645500000008
 20
475.0
 30
0.0
 11
383.00326799999999
 21
475.0
 31
0.0
  0
LINE
  5
6A6
  8
DETAIL
  6
CONTINUOUS
 62
     5
 10
344.49891000000002
 20
462.99856299999988
 30
0.0
 11
326.99681399999997
 21
462.99856299999988
 31
0.0
  0
LINE
  5
6A7
  8
DETAIL
  6
CONTINUOUS
 62
     5
 10
380.00323100000003
 20
431.99544899999989
 30
0.0
 11
340.99849100000012
 21
431.99544899999989
 31
0.0
  0
ARC
  5
6A8
  8
DETAIL
  6
CONTINUOUS
 62
     5
 10
336.89733999999999
 20
412.99709299999989
 30
0.0
 40
5.0005990000000002
 50
0.0
 51
90.0
  0
LINE
  5
6A9
  8
DETAIL
  6
CONTINUOUS
 62
     5
 10
324.03328800000008
 20
475.0
 30
0.0
 11
324.03324800000001
 21
457.99856299999988
 31
0.0
  0
LINE
  5
6AA
  8
DETAIL
  6
CONTINUOUS
 62
     5
 10
336.89733999999999
 20
417.99769199999992
 30
0.0
 11
174.87657999999999
 21
417.99769199999992
 31
0.0
  0
ARC
  5
6AB
  8
DETAIL
  6
CONTINUOUS
 62
     5
 10
174.87657999999999
 20
412.99709299999989
 30
0.0
 40
5.0005990000000002
 50
90.0
 51
180.0
  0
LINE
  5
6AC
  8
DETAIL
  6
CONTINUOUS
 62
     5
 10
132.002084
 20
326.0
 30
0.0
 11
132.002084
 21
338.982889
 31
0.0
  0
ARC
  5
6AD
  8
DETAIL
  6
CONTINUOUS
 62
     5
 10
150.87939600000001
 20
328.98169100000001
 30
0.0
 40
10.001198
 50
0.0
 51
90.0
  0
LINE
  5
6AE
  8
DETAIL
  6
CONTINUOUS
 62
     5
 10
150.87939600000001
 20
338.982889
 30
0.0
 11
132.002084
 21
338.982889
 31
0.0
  0
LINE
  5
6AF
  8
DETAIL
  6
CONTINUOUS
 62
     5
 10
327.0336069999999
 20
454.99820399999987
 30
0.0
 11
338.03492499999999
 21
454.99820399999987
 31
0.0
  0
ARC
  5
6B0
  8
DETAIL
  6
CONTINUOUS
 62
     5
 10
327.0336069999999
 20
457.99856299999988
 30
0.0
 40
3.0003589999999991
 50
180.0
 51
270.0
  0
LINE
  5
6B1
  8
DETAIL
  6
CONTINUOUS
 62
     5
 10
338.03492499999999
 20
454.99820399999987
 30
0.0
 11
338.03492499999999
 21
434.99580899999989
 31
0.0
  0
ARC
  5
6B2
  8
DETAIL
  6
CONTINUOUS
 62
     5
 10
341.0352840000001
 20
434.99580899999989
 30
0.0
 40
3.0003589999999991
 50
180.0
 51
270.0
  0
CIRCLE
  5
6B3
  8
DETAIL
  6
CONTINUOUS
 62
     5
 10
255.88764
 20
409.99673300000001
 30
0.0
 40
3.0003589999999991
  0
ARC
  5
6B4
  8
DETAIL
  6
CONTINUOUS
 62
     5
 10
326.97116630035879
 20
465.9370029756829
 30
0.0
 40
2.93855190445709
 50
178.79261741900439
 51
270.50008427600369
  0
LINE
  5
6B5
  8
DETAIL
  6
CONTINUOUS
 62
     5
 10
383.04038400000002
 20
434.995836
 30
0.0
 11
383.04038800000001
 21
475.0
 31
0.0
  0
LINE
  5
6B6
  8
NOTE
  6
CONTINUOUS
 62
     4
 10
353.49998799999997
 20
495.00239499999981
 30
0.0
 11
353.49998799999997
 21
454.99760500000002
 31
0.0
  0
ARC
  5
6BA
  8
DETAIL
  6
CONTINUOUS
 62
     5
 10
380.04002400000002
 20
434.99580899999989
 30
0.0
 40
3.0003589999999991
 50
270.0
 51
0.0005280000000087
  0
POINT
  5
6C4
  8
DEFPOINTS
  6
CONTINUOUS
 62
     7
 10
387.49998799999997
 20
473.64043499999991
 30
0.0
  0
POINT
  5
6C5
  8
DEFPOINTS
  6
CONTINUOUS
 62
     7
 10
387.49998799999997
 20
473.64043499999991
 30
0.0
  0
POINT
  5
6C6
  8
DEFPOINTS
  6
CONTINUOUS
 62
     7
 10
387.49998799999997
 20
473.64043499999991
 30
0.0
  0
POINT
  5
6C7
  8
DEFPOINTS
  6
CONTINUOUS
 62
     7
 10
386.69998800000002
 20
475.0
 30
0.0
  0
POINT
  5
6C8
  8
DEFPOINTS
  6
CONTINUOUS
 62
     7
 10
387.49998799999997
 20
473.64043499999991
 30
0.0
  0
POINT
  5
6C9
  8
DEFPOINTS
  6
CONTINUOUS
 62
     7
 10
353.49998799999997
 20
495.00239499999981
 30
0.0
  0
ARC
  5
6CA
  8
DETAIL
  6
CONTINUOUS
 62
     5
 10
386.69998800000002
 20
474.19999999999987
 30
0.0
 40
0.8
 50
0.0
 51
90.0
  0
ARC
  5
6CB
  8
OUTLINE
  6
CONTINUOUS
 62
     3
 10
386.69998800000002
 20
474.19999999999987
 30
0.0
 40
0.8
 50
0.0
 51
90.0
  0
POINT
  5
6CC
  8
DEFPOINTS
  6
CONTINUOUS
 62
     7
 10
386.69998800000002
 20
475.0
 30
0.0
  0
POINT
  5
6CD
  8
DEFPOINTS
  6
CONTINUOUS
 62
     7
 10
386.69998800000002
 20
475.0
 30
0.0
  0
POINT
  5
6CE
  8
DEFPOINTS
  6
CONTINUOUS
 62
     7
 10
386.69998800000002
 20
475.0
 30
0.0
  0
POINT
  5
6CF
  8
DEFPOINTS
  6
CONTINUOUS
 62
     7
 10
353.49998799999997
 20
495.00239499999981
 30
0.0
  0
LINE
  5
6D0
  8
DETAIL
  6
CONTINUOUS
 62
     5
 10
359.50070699999998
 20
472.69999999999987
 30
0.0
 11
347.49926900000008
 21
472.69999999999987
 31
0.0
  0
LINE
  5
6D1
  8
DETAIL
  6
CONTINUOUS
 62
     5
 10
347.49926900000008
 20
475.0
 30
0.0
 11
347.49926900000008
 21
465.99892199999988
 31
0.0
  0
ARC
  5
6D2
  8
DETAIL
  6
CONTINUOUS
 62
     5
 10
344.49891000000002
 20
465.99892199999988
 30
0.0
 40
3.0003589999999991
 50
270.0
 51
0.0
  0
ARC
  5
6D3
  8
DETAIL
  6
CONTINUOUS
 62
     5
 10
362.50106599999998
 20
465.99892199999988
 30
0.0
 40
3.0003589999999991
 50
180.0
 51
270.0
  0
ARC
  5
6D4
  8
DETAIL
  6
CONTINUOUS
 62
     5
 10
379.97670369736642
 20
466.06279799305599
 30
0.0
 40
3.06434921874899
 50
270.49471121013693
 51
358.8055897503998
  0
LINE
  5
6D5
  8
DETAIL
  6
CONTINUOUS
 62
     5
 10
359.50070699999998
 20
475.0
 30
0.0
 11
359.50070699999998
 21
465.99892199999988
 31
0.0
  0
LINE
  5
6D6
  8
DETAIL
  6
CONTINUOUS
 62
     5
 10
362.50106599999998
 20
462.99856299999988
 30
0.0
 11
380.00316199999997
 21
462.99856299999988
 31
0.0
  0
CIRCLE
  5
6D8
  8
SIZE
  6
CONTINUOUS
 62
    30
 10
114.499988
 20
829.85288060294613
 30
0.0
 40
10.0
  0
LINE
  5
6D9
  8
SIZE
  6
CONTINUOUS
 62
    30
 10
344.02329448657929
 20
740.10936340653677
 30
0.0
 11
237.88160824486471
 21
740.10936340653677
 31
0.0
  0
TEXT
  5
6DB
  8
SIZE
  6
CONTINUOUS
 62
    30
 10
255.88160824486479
 20
758.10936340653677
 30
0.0
 40
50.0
  1
64
 41
0.9
 72
     1
 11
293.38160824486482
 21
758.10936340653677
 31
0.0
  0
TEXT
  5
6DC
  8
SIZE
  6
CONTINUOUS
 62
    30
 10
-57.857154857142859
 20
1047.5589
 30
0.0
 40
50.0
  1
775
 41
0.9
 72
     1
 11
-0.0000119999999981
 21
1047.5589
 31
0.0
  0
LINE
  5
6E0
  8
SIZE
  6
CONTINUOUS
 62
    30
 10
134.499988
 20
829.85288060294613
 30
0.0
 11
367.49998799999997
 21
829.85288060294613
 31
0.0
  0
LINE
  5
6E1
  8
SIZE
  6
CONTINUOUS
 62
    30
 10
283.49998799999997
 20
682.05287199999975
 30
0.0
 11
367.49998799999997
 21
682.05287199999975
 31
0.0
  0
LINE
  5
6E4
  8
SIZE
  6
CONTINUOUS
 62
    30
 10
263.49998799999997
 20
682.05287199999975
 30
0.0
 11
199.499988
 21
682.05287199999975
 31
0.0
  0
POINT
  5
6E5
  8
DEFPOINTS
  6
CONTINUOUS
 62
     7
 10
199.499988
 20
682.05287199999975
 30
0.0
  0
LINE
  5
6E6
  8
SIZE
  6
CONTINUOUS
 62
    30
 10
189.499988
 20
682.05287199999975
 30
0.0
 11
179.499988
 21
682.05287199999975
 31
0.0
  0
CIRCLE
  5
6E7
  8
SIZE
  6
CONTINUOUS
 62
    30
 10
199.499988
 20
682.05287199999975
 30
0.0
 40
10.0
  0
LINE
  5
6E8
  8
SIZE
  6
CONTINUOUS
 62
    30
 10
273.49998799999997
 20
682.05287199999975
 30
0.0
 11
283.49998799999997
 21
682.05287199999975
 31
0.0
  0
CIRCLE
  5
6E9
  8
SIZE
  6
CONTINUOUS
 62
    30
 10
263.49998799999997
 20
682.05287199999975
 30
0.0
 40
10.0
  0
LINE
  5
6EA
  8
SIZE
  6
CONTINUOUS
 62
    30
 10
273.49998799999997
 20
682.05287199999975
 30
0.0
 11
283.49998799999997
 21
682.05287199999975
 31
0.0
  0
CIRCLE
  5
6EB
  8
SIZE
  6
CONTINUOUS
 62
    30
 10
263.49998799999997
 20
682.05287199999975
 30
0.0
 40
10.0
  0
LINE
  5
6EC
  8
SIZE
  6
CONTINUOUS
 62
    30
 10
283.49998799999997
 20
682.05287199999975
 30
0.0
 11
303.49998799999997
 21
682.05287199999975
 31
0.0
  0
TEXT
  5
6ED
  8
SIZE
  6
CONTINUOUS
 62
    30
 10
193.14284514285711
 20
847.85288060294602
 30
0.0
 40
50.0
  1
273
 41
0.9
 72
     1
 11
250.999988
 21
847.85288060294602
 31
0.0
  0
LINE
  5
6EE
  8
SIZE
  6
CONTINUOUS
 62
    30
 10
124.499988
 20
829.85288060294613
 30
0.0
 11
134.499988
 21
829.85288060294613
 31
0.0
  0
TEXT
  5
6F0
  8
SIZE
  6
CONTINUOUS
 62
    30
 10
430.9642738571427
 20
700.05287199999964
 30
0.0
 40
50.0
  1
124
 41
0.9
 72
     1
 11
485.60713099999992
 21
700.05287199999964
 31
0.0
  0
LINE
  5
6F1
  8
SIZE
  6
CONTINUOUS
 62
    30
 10
387.49998799999997
 20
682.05287199999975
 30
0.0
 11
563.71427399999982
 21
682.05287199999975
 31
0.0
  0
POINT
  5
6F2
  8
DEFPOINTS
  6
CONTINUOUS
 62
     7
 10
387.49998799999997
 20
682.05287199999975
 30
0.0
  0
LINE
  5
6F3
  8
SIZE
  6
CONTINUOUS
 62
    30
 10
377.49998799999997
 20
682.05287199999975
 30
0.0
 11
367.49998799999997
 21
682.05287199999975
 31
0.0
  0
CIRCLE
  5
6F4
  8
SIZE
  6
CONTINUOUS
 62
    30
 10
387.49998799999997
 20
682.05287199999975
 30
0.0
 40
10.0
  0
POINT
  5
6F6
  8
DEFPOINTS
  6
CONTINUOUS
 62
     7
 10
387.49998799999997
 20
829.85288060294613
 30
0.0
  0
LINE
  5
6F7
  8
SIZE
  6
CONTINUOUS
 62
    30
 10
377.49998799999997
 20
829.85288060294613
 30
0.0
 11
367.49998799999997
 21
829.85288060294613
 31
0.0
  0
CIRCLE
  5
6F8
  8
SIZE
  6
CONTINUOUS
 62
    30
 10
387.49998799999997
 20
829.85288060294613
 30
0.0
 40
10.0
  0
POINT
  5
6FE
  8
DEFPOINTS
  6
CONTINUOUS
 62
     7
 10
387.49998799999997
 20
1029.5589
 30
0.0
  0
LINE
  5
6FF
  8
SIZE
  6
CONTINUOUS
 62
    30
 10
377.49998799999997
 20
1029.5589
 30
0.0
 11
367.49998799999997
 21
1029.5589
 31
0.0
  0
CIRCLE
  5
700
  8
SIZE
  6
CONTINUOUS
 62
    30
 10
387.49998799999997
 20
1029.5589
 30
0.0
 40
10.0
  0
TEXT
  5
702
  8
SIZE
  6
CONTINUOUS
 62
    30
 10
1064.6417819999999
 20
250.6428571428572
 30
0.0
 40
50.0
  1
335
 50
90.0
 41
0.9
 72
     1
 11
1064.6417819999999
 21
308.5
 31
0.0
  0
TEXT
  5
704
  8
SIZE
  6
CONTINUOUS
 62
    30
 10
949.41730099999995
 20
264.64285714285722
 30
0.0
 40
50.0
  1
305
 50
90.0
 41
0.9
 72
     1
 11
949.41730099999995
 21
322.5
 31
0.0
  0
LINE
  5
705
  8
SIZE
  6
CONTINUOUS
 62
    30
 10
967.41730099999995
 20
190.0
 30
0.0
 11
967.41730099999995
 21
455.0
 31
0.0
  0
LINE
  5
706
  8
SIZE
  6
CONTINUOUS
 62
    30
 10
854.48235599999987
 20
289.0
 30
0.0
 11
854.48235599999987
 21
309.0
 31
0.0
  0
LINE
  5
707
  8
SIZE
  6
CONTINUOUS
 62
    30
 10
854.48235599999987
 20
289.0
 30
0.0
 11
854.48235599999987
 21
455.0
 31
0.0
  0
TEXT
  5
708
  8
SIZE
  6
CONTINUOUS
 62
    30
 10
836.48235599999987
 20
60.890027571428583
 30
0.0
 40
50.0
  1
28
 50
90.0
 41
0.9
 72
     1
 11
836.48235599999987
 21
97.318599000000006
 31
0.0
  0
LINE
  5
70B
  8
SIZE
  6
CONTINUOUS
 62
    30
 10
854.48235599999987
 20
221.0
 30
0.0
 11
854.48235599999987
 21
42.890028000000001
 31
0.0
  0
POINT
  5
70C
  8
DEFPOINTS
  6
CONTINUOUS
 62
     7
 10
854.48235599999987
 20
241.0
 30
0.0
  0
LINE
  5
70D
  8
SIZE
  6
CONTINUOUS
 62
    30
 10
854.48235599999987
 20
231.0
 30
0.0
 11
854.48235599999987
 21
221.0
 31
0.0
  0
CIRCLE
  5
70E
  8
SIZE
  6
CONTINUOUS
 62
    30
 10
854.48235599999987
 20
241.0
 30
0.0
 40
10.0
  0
LINE
  5
70F
  8
SIZE
  6
CONTINUOUS
 62
    30
 10
854.48235599999987
 20
279.0
 30
0.0
 11
854.48235599999987
 21
289.0
 31
0.0
  0
CIRCLE
  5
710
  8
SIZE
  6
CONTINUOUS
 62
    30
 10
854.48235599999987
 20
269.0
 30
0.0
 40
10.0
  0
LINE
  5
711
  8
SIZE
  6
CONTINUOUS
 62
    30
 10
854.48235599999987
 20
269.0
 30
0.0
 11
854.48235599999987
 21
241.0
 31
0.0
  0
LINE
  5
712
  8
SIZE
  6
CONTINUOUS
 62
    30
 10
854.48235599999987
 20
279.0
 30
0.0
 11
854.48235599999987
 21
289.0
 31
0.0
  0
CIRCLE
  5
713
  8
SIZE
  6
CONTINUOUS
 62
    30
 10
854.48235599999987
 20
269.0
 30
0.0
 40
10.0
  0
LINE
  5
714
  8
SIZE
  6
CONTINUOUS
 62
    30
 10
967.41730099999995
 20
180.0
 30
0.0
 11
967.41730099999995
 21
190.0
 31
0.0
  0
CIRCLE
  5
715
  8
SIZE
  6
CONTINUOUS
 62
    30
 10
967.41730099999995
 20
170.0
 30
0.0
 40
10.0
  0
TEXT
  5
716
  8
SIZE
  6
CONTINUOUS
 62
    30
 10
836.48235599999987
 20
315.21428571428572
 30
0.0
 40
50.0
  1
206
 50
90.0
 41
0.9
 72
     1
 11
836.48235599999987
 21
372.0
 31
0.0
  0
LINE
  5
71E
  8
SIZE
  6
CONTINUOUS
 62
    30
 10
967.41730099999995
 20
465.0
 30
0.0
 11
967.41730099999995
 21
455.0
 31
0.0
  0
LINE
  5
71F
  8
SIZE
  6
CONTINUOUS
 62
    30
 10
854.48235599999987
 20
465.0
 30
0.0
 11
854.48235599999987
 21
455.0
 31
0.0
  0
POINT
  5
720
  8
DEFPOINTS
  6
CONTINUOUS
 62
     7
 10
854.48235599999987
 20
475.0
 30
0.0
  0
CIRCLE
  5
721
  8
SIZE
  6
CONTINUOUS
 62
    30
 10
854.48235599999987
 20
475.0
 30
0.0
 40
10.0
  0
POINT
  5
722
  8
DEFPOINTS
  6
CONTINUOUS
 62
     7
 10
967.41730099999995
 20
475.0
 30
0.0
  0
CIRCLE
  5
723
  8
SIZE
  6
CONTINUOUS
 62
    30
 10
967.41730099999995
 20
475.0
 30
0.0
 40
10.0
  0
LINE
  5
724
  8
SIZE
  6
CONTINUOUS
 62
    30
 10
1082.6417939999999
 20
160.0
 30
0.0
 11
1082.6417819999999
 21
455.0
 31
0.0
  0
LINE
  5
725
  8
SIZE
  6
CONTINUOUS
 62
    30
 10
1082.6417939999999
 20
150.0
 30
0.0
 11
1082.6417939999999
 21
160.0
 31
0.0
  0
CIRCLE
  5
726
  8
SIZE
  6
CONTINUOUS
 62
    30
 10
1082.6417939999999
 20
140.0
 30
0.0
 40
10.0
  0
POINT
  5
727
  8
DEFPOINTS
  6
CONTINUOUS
 62
     7
 10
1082.6417939999999
 20
0.0
 30
0.0
  0
LINE
  5
728
  8
SIZE
  6
CONTINUOUS
 62
    30
 10
1082.6417939999999
 20
10.0
 30
0.0
 11
1082.6417939999999
 21
20.0
 31
0.0
  0
LINE
  5
729
  8
SIZE
  6
CONTINUOUS
 62
    30
 10
1082.6417939999999
 20
130.0
 30
0.0
 11
1082.6417939999999
 21
120.0
 31
0.0
  0
CIRCLE
  5
72A
  8
SIZE
  6
CONTINUOUS
 62
    30
 10
1082.6417939999999
 20
140.0
 30
0.0
 40
10.0
  0
LINE
  5
72B
  8
SIZE
  6
CONTINUOUS
 62
    30
 10
1082.6417939999999
 20
120.0
 30
0.0
 11
1082.6417939999999
 21
20.0
 31
0.0
  0
LINE
  5
72C
  8
SIZE
  6
CONTINUOUS
 62
    30
 10
1082.6417819999999
 20
465.0
 30
0.0
 11
1082.6417819999999
 21
455.0
 31
0.0
  0
POINT
  5
72D
  8
DEFPOINTS
  6
CONTINUOUS
 62
     7
 10
1082.6417819999999
 20
475.0
 30
0.0
  0
CIRCLE
  5
72E
  8
SIZE
  6
CONTINUOUS
 62
    30
 10
1082.6417819999999
 20
475.0
 30
0.0
 40
10.0
  0
LINE
  5
72F
  8
NOTE
  6
CONTINUOUS
 62
     4
 10
814.82218494205347
 20
-323.89715469908748
 30
0.0
 11
476.71113394205349
 21
-323.89715469908748
 31
0.0
  0
TEXT
  5
730
  8
NOTE
  6
CONTINUOUS
 62
     4
 10
485.68981894205291
 20
-306.25774669908742
 30
0.0
 40
60.0
  1
RL %%C9.52
 50
0.000003
 41
0.7
  7
STANDARD1
  0
LINE
  5
7D9
  8
NOTE
  6
CONTINUOUS
 62
     4
 10
199.499988
 20
269.0
 30
0.0
 11
476.71113394205349
 21
-323.89715469908748
 31
0.0
  0
LINE
  5
7EC
  8
NOTE
  6
CONTINUOUS
 62
     4
 10
195.499988
 20
170.0
 30
0.0
 11
479.2543679999996
 21
-446.36357405119452
 31
0.0
  0
LINE
  5
7ED
  8
NOTE
  6
CONTINUOUS
 62
     4
 10
263.49998799999997
 20
241.0
 30
0.0
 11
468.14776399999988
 21
-216.45101
 31
0.0
  0
LINE
  5
7EE
  8
NOTE
  6
CONTINUOUS
 62
     4
 10
-356.50001200000008
 20
475.0
 30
0.0
 11
-569.94755091171442
 21
625.06971925963001
 31
0.0
  0
LINE
  5
7F1
  8
NOTE
  6
CONTINUOUS
 62
     4
 10
114.499988
 20
326.0
 30
0.0
 11
-532.05009299999995
 21
791.03698799999984
 31
0.0
  0
LINE
  5
D16
  8
SIZE
  6
CONTINUOUS
 62
    30
 10
73.605818000000014
 20
326.0
 30
0.0
 11
-50.142568482249729
 21
326.0
 31
0.0
  0
LINE
  5
D17
  8
SIZE
  6
CONTINUOUS
 62
    30
 10
366.69999999999999
 20
140.0
 30
0.0
 11
-50.142568482249779
 21
140.00000000000011
 31
0.0
  0
LINE
  5
D18
  8
SIZE
  6
CONTINUOUS
 62
    30
 10
-32.142568482249743
 20
306.0
 30
0.0
 11
-32.142568482249771
 21
160.00000000000011
 31
0.0
  0
CIRCLE
  5
D1E
  8
SIZE
  6
CONTINUOUS
 62
    30
 10
-32.142568482249771
 20
140.00000000000011
 30
0.0
 40
10.0
  0
LINE
  5
D1F
  8
SIZE
  6
CONTINUOUS
 62
    30
 10
-32.142568482249771
 20
150.00000000000011
 30
0.0
 11
-32.142568482249771
 21
160.00000000000011
 31
0.0
  0
CIRCLE
  5
D20
  8
SIZE
  6
CONTINUOUS
 62
    30
 10
-32.142568482249743
 20
326.0
 30
0.0
 40
10.0
  0
LINE
  5
D21
  8
SIZE
  6
CONTINUOUS
 62
    30
 10
-32.142568482249743
 20
316.0
 30
0.0
 11
-32.142568482249743
 21
306.0
 31
0.0
  0
TEXT
  5
D22
  8
SIZE
  6
CONTINUOUS
 62
    30
 10
-45.360201320290777
 20
180.5
 30
0.0
 40
50.0
  1
186
 50
90.0
 41
0.9
 72
     1
 11
-45.360201320290777
 21
233.0
 31
0.0
  0
LINE
  5
1029
  8
DETAIL
  6
CONTINUOUS
 62
     5
 10
387.5
 20
442.000000000005
 30
0.0
 11
417.49999999996362
 21
441.99999999989188
 31
0.0
  0
LINE
  5
102A
  8
DETAIL
  6
CONTINUOUS
 62
     5
 10
387.5
 20
228.000000000005
 30
0.0
 11
417.49999999999989
 21
228.000000000005
 31
0.0
  0
LINE
  5
102B
  8
DETAIL
  6
CONTINUOUS
 62
     5
 10
417.49999999999989
 20
228.000000000005
 30
0.0
 11
417.49999999999989
 21
442.000000000005
 31
0.0
  0
LINE
  5
102C
  8
NOTE
  6
CONTINUOUS
 62
     4
 10
407.5
 20
326.00000023678598
 30
0.0
 11
407.5
 21
343.99999976324477
 31
0.0
  0
LINE
  5
102D
  8
NOTE
  6
CONTINUOUS
 62
     4
 10
398.50000023677973
 20
335.00000000000517
 30
0.0
 11
416.49999976323107
 21
335.00000000000517
 31
0.0
  0
LINE
  5
102E
  8
NOTE
  6
CONTINUOUS
 62
     4
 10
407.5
 20
261.00000023678598
 30
0.0
 11
407.5
 21
278.99999976324477
 31
0.0
  0
LINE
  5
102F
  8
NOTE
  6
CONTINUOUS
 62
     4
 10
398.50000023677973
 20
270.00000000000517
 30
0.0
 11
416.49999976323107
 21
270.00000000000517
 31
0.0
  0
LINE
  5
1030
  8
NOTE
  6
CONTINUOUS
 62
     4
 10
407.5
 20
391.00000023678598
 30
0.0
 11
407.5
 21
408.99999976324472
 31
0.0
  0
LINE
  5
1031
  8
NOTE
  6
CONTINUOUS
 62
     4
 10
398.50000023677921
 20
400.00000000000472
 30
0.0
 11
416.49999976323079
 21
400.00000000000472
 31
0.0
  0
LINE
  5
104C
  8
SIZE
  6
CONTINUOUS
 62
    30
 10
387.5
 20
495.00000000000489
 30
0.0
 11
387.5
 21
576.87630892718425
 31
0.0
  0
LINE
  5
104D
  8
SIZE
  6
CONTINUOUS
 62
    30
 10
417.49999999999989
 20
462.00000000000477
 30
0.0
 11
417.49999999999989
 21
576.87630892718425
 31
0.0
  0
LINE
  5
104E
  8
SIZE
  6
CONTINUOUS
 62
    30
 10
397.5
 20
546.87630892718425
 30
0.0
 11
407.5
 21
546.87630892718425
 31
0.0
  0
LINE
  5
104F
  8
SIZE
  6
CONTINUOUS
 62
    30
 10
417.49999999999989
 20
546.87630892718425
 30
0.0
 11
532.95070938792549
 21
546.87630892718425
 31
0.0
  0
TEXT
  5
1050
  8
SIZE
  6
CONTINUOUS
 62
    30
 10
440.19528656950189
 20
562.13577207885373
 30
0.0
 40
50.0
  1
30
 41
0.9
 72
     1
 11
476.62385799807328
 21
562.13577207885373
 31
0.0
  0
CIRCLE
  5
1051
  8
SIZE
  6
CONTINUOUS
 62
    30
 10
417.49999999999989
 20
546.87630892718425
 30
0.0
 40
5.0
  0
LINE
  5
1052
  8
SIZE
  6
CONTINUOUS
 62
    30
 10
412.5
 20
546.87630892718425
 30
0.0
 11
407.5
 21
546.87630892718425
 31
0.0
  0
CIRCLE
  5
1053
  8
SIZE
  6
CONTINUOUS
 62
    30
 10
387.5
 20
546.87630892718425
 30
0.0
 40
5.0
  0
LINE
  5
1054
  8
SIZE
  6
CONTINUOUS
 62
    30
 10
392.5
 20
546.87630892718425
 30
0.0
 11
397.5
 21
546.87630892718425
 31
0.0
  0
LINE
  5
13D9
  8
DETAIL
  6
CONTINUOUS
 62
     5
 10
-526.49998316272831
 20
0.0000000000003411
 30
0.0
 11
123.4999997369131
 21
0.0000000000003411
 31
0.0
  0
LINE
  5
13DA
  8
DETAIL
  6
CONTINUOUS
 62
     5
 10
-526.49998316272831
 20
-0.9999999736825203
 30
0.0
 11
123.4999997369131
 21
-0.9999999736825203
 31
0.0
  0
LINE
  5
13DB
  8
DETAIL
  6
CONTINUOUS
 62
     5
 10
101.9700003033248
 20
58.999998447822122
 30
0.0
 11
-504.96998372913691
 21
58.999998447822122
 31
0.0
  0
LINE
  5
13DC
  8
NOTE
  6
CONTINUOUS
 62
     4
 10
-558.16163669114019
 20
0.9999999736832023
 30
0.0
 11
-538.16163721731198
 21
20.999999447520509
 31
0.0
  0
LINE
  5
13DD
  8
NOTE
  6
CONTINUOUS
 62
     4
 10
-553.16163682267097
 20
0.9999999736832023
 30
0.0
 11
-533.16163734884276
 21
20.999999447520509
 31
0.0
  0
LINE
  5
13DE
  8
NOTE
  6
CONTINUOUS
 62
     4
 10
-548.16163695422392
 20
0.9999999736832023
 30
0.0
 11
-528.1616374803998
 21
20.999999447520509
 31
0.0
  0
LINE
  5
13DF
  8
NOTE
  6
CONTINUOUS
 62
     4
 10
-516.49998342581193
 20
20.999999447520509
 30
0.0
 11
-609.20407538127211
 21
20.999999447520509
 31
0.0
  0
LINE
  5
13E0
  8
NOTE
  6
CONTINUOUS
 62
     4
 10
-516.49998342581193
 20
0.9999999736832023
 30
0.0
 11
-609.20407538127211
 21
0.9999999736832023
 31
0.0
  0
LINE
  5
13E1
  8
NOTE
  6
CONTINUOUS
 62
     4
 10
-576.91202256971042
 20
0.9999999736832023
 30
0.0
 11
-556.91202309588346
 21
20.999999447520509
 31
0.0
  0
LINE
  5
13E2
  8
NOTE
  6
CONTINUOUS
 62
     4
 10
-581.91202243815906
 20
0.9999999736832023
 30
0.0
 11
-561.91202296432994
 21
20.999999447520509
 31
0.0
  0
LINE
  5
13E3
  8
NOTE
  6
CONTINUOUS
 62
     4
 10
-586.91202230662407
 20
0.9999999736832023
 30
0.0
 11
-566.91202283279915
 21
20.999999447520509
 31
0.0
  0
LINE
  5
13E4
  8
NOTE
  6
CONTINUOUS
 62
     4
 10
-516.49998342581193
 20
0.9999999736832023
 30
0.0
 11
-516.49998342581193
 21
20.999999447520509
 31
0.0
  0
LINE
  5
13E5
  8
DETAIL
  6
CONTINUOUS
 62
     5
 10
-504.96998372913691
 20
0.0000000000003411
 30
0.0
 11
-504.96998372913691
 21
58.999998447822122
 31
0.0
  0
LINE
  5
13E6
  8
DETAIL
  6
CONTINUOUS
 62
     5
 10
-526.49998316272831
 20
-0.9999999736825203
 30
0.0
 11
-526.49998316272831
 21
0.0000000000003411
 31
0.0
  0
LINE
  5
13E7
  8
DETAIL
  6
CONTINUOUS
 62
     5
 10
101.9700003033248
 20
0.0000000000003411
 30
0.0
 11
101.9700003033248
 21
58.999998447822122
 31
0.0
  0
LINE
  5
13E8
  8
NOTE
  6
CONTINUOUS
 62
     4
 10
213.49999736917371
 20
0.9999999736832023
 30
0.0
 11
113.5
 21
0.9999999736832023
 31
0.0
  0
LINE
  5
13E9
  8
NOTE
  6
CONTINUOUS
 62
     4
 10
213.49999736917371
 20
20.999999447520509
 30
0.0
 11
113.5
 21
20.999999447520509
 31
0.0
  0
LINE
  5
13EA
  8
NOTE
  6
CONTINUOUS
 62
     4
 10
113.5
 20
0.9999999736832023
 30
0.0
 11
113.5
 21
20.999999447520509
 31
0.0
  0
LINE
  5
13EB
  8
NOTE
  6
CONTINUOUS
 62
     4
 10
131.83834515617491
 20
0.9999999736832023
 30
0.0
 11
151.838344630004
 21
20.999999447520509
 31
0.0
  0
LINE
  5
13EC
  8
NOTE
  6
CONTINUOUS
 62
     4
 10
171.83834410384981
 20
0.9999999736832023
 30
0.0
 11
191.8383435776777
 21
20.999999447520509
 31
0.0
  0
LINE
  5
13ED
  8
NOTE
  6
CONTINUOUS
 62
     4
 10
136.83834502462281
 20
0.9999999736832023
 30
0.0
 11
156.83834449846881
 21
20.999999447520509
 31
0.0
  0
LINE
  5
13EE
  8
NOTE
  6
CONTINUOUS
 62
     4
 10
176.83834397229691
 20
0.9999999736832023
 30
0.0
 11
196.83834344612461
 21
20.999999447520509
 31
0.0
  0
LINE
  5
13EF
  8
NOTE
  6
CONTINUOUS
 62
     4
 10
141.83834489309081
 20
0.9999999736832023
 30
0.0
 11
161.83834436691581
 21
20.999999447520509
 31
0.0
  0
LINE
  5
13F0
  8
NOTE
  6
CONTINUOUS
 62
     4
 10
181.8383438407659
 20
0.9999999736832023
 30
0.0
 11
201.83834331458999
 21
20.999999447520509
 31
0.0
  0
LINE
  5
13F1
  8
DETAIL
  6
CONTINUOUS
 62
     5
 10
123.4999997369131
 20
-0.9999999736825203
 30
0.0
 11
123.4999997369131
 21
0.0000000000003411
 31
0.0
  0
LINE
  5
13F2
  8
DETAIL
  6
CONTINUOUS
 62
     5
 10
-358.90000001578619
 20
172.00000002631921
 30
0.0
 11
-130.09999998421591
 21
172.00000002631921
 31
0.0
  0
LINE
  5
13F3
  8
DETAIL
  6
CONTINUOUS
 62
     5
 10
-129.5000000000031
 20
422.00000002631532
 30
0.0
 11
-319.50246921560017
 21
422.00000002631532
 31
0.0
  0
LINE
  5
13F4
  8
DETAIL
  6
CONTINUOUS
 62
     5
 10
-305.09999538027517
 20
158.20327327377731
 30
0.0
 11
-222.107505562668
 21
158.20327327377731
 31
0.0
  0
LINE
  5
13F5
  8
DETAIL
  6
CONTINUOUS
 62
     5
 10
-359.50000000000318
 20
267.99999750072152
 30
0.0
 11
-359.50000000000318
 21
172.6000000105343
 31
0.0
  0
ARC
  5
13F6
  8
DETAIL
  6
CONTINUOUS
 62
     5
 10
-358.90000001578619
 20
172.6000000105343
 30
0.0
 40
0.5999999842153863
 50
180.0
 51
270.0
  0
ARC
  5
13F7
  8
DETAIL
  6
CONTINUOUS
 62
     5
 10
-362.29999992634521
 20
186.50000051302061
 30
0.0
 40
1.999999947383587
 50
180.0
 51
270.0
  0
ARC
  5
13F8
  8
DETAIL
  6
CONTINUOUS
 62
     5
 10
-362.29999992634521
 20
223.4999995396158
 30
0.0
 40
1.9999999473835071
 50
90.0
 51
180.0
  0
LINE
  5
13F9
  8
DETAIL
  6
CONTINUOUS
 62
     5
 10
-361.29999995265092
 20
187.5000004867054
 30
0.0
 11
-359.50000000000318
 21
187.5000004867054
 31
0.0
  0
LINE
  5
13FA
  8
DETAIL
  6
CONTINUOUS
 62
     5
 10
-361.29999995265092
 20
222.4999995659222
 30
0.0
 11
-359.50000000000318
 21
222.4999995659222
 31
0.0
  0
LINE
  5
13FB
  8
DETAIL
  6
CONTINUOUS
 62
     5
 10
-361.29999995265092
 20
184.50000056563499
 30
0.0
 11
-361.29999995265092
 21
225.49999948699249
 31
0.0
  0
LINE
  5
13FC
  8
DETAIL
  6
CONTINUOUS
 62
     5
 10
-364.29999987373179
 20
186.50000051302061
 30
0.0
 11
-364.29999987373179
 21
223.4999995396158
 31
0.0
  0
LINE
  5
13FD
  8
DETAIL
  6
CONTINUOUS
 62
     5
 10
-362.29999992634521
 20
184.50000056563499
 30
0.0
 11
-361.29999995265092
 21
184.50000056563499
 31
0.0
  0
LINE
  5
13FE
  8
DETAIL
  6
CONTINUOUS
 62
     5
 10
-362.29999992634521
 20
225.49999948699249
 30
0.0
 11
-361.29999995265092
 21
225.49999948699249
 31
0.0
  0
LINE
  5
13FF
  8
DETAIL
  6
CONTINUOUS
 62
     5
 10
-308.09999530133427
 20
172.00000002631921
 30
0.0
 11
-308.09999530133427
 21
161.20327319485679
 31
0.0
  0
ARC
  5
1400
  8
DETAIL
  6
CONTINUOUS
 62
     5
 10
-305.09999538027517
 20
161.20327319485679
 30
0.0
 40
2.9999999210753741
 50
180.0
 51
270.0
  0
LINE
  5
1401
  8
DETAIL
  6
CONTINUOUS
 62
     5
 10
-358.90000001578619
 20
268.59999748493669
 30
0.0
 11
-322.50246913668121
 21
268.59999748493669
 31
0.0
  0
ARC
  5
1402
  8
DETAIL
  6
CONTINUOUS
 62
     5
 10
-358.90000001578619
 20
267.99999750072152
 30
0.0
 40
0.5999999842154307
 50
90.0
 51
180.0
  0
LINE
  5
1403
  8
DETAIL
  6
CONTINUOUS
 62
     5
 10
-322.50246913668121
 20
419.00000010523593
 30
0.0
 11
-322.50246913668121
 21
268.59999748493669
 31
0.0
  0
LINE
  5
1404
  8
DETAIL
  6
CONTINUOUS
 62
     5
 10
-129.5000000000031
 20
172.6000000105343
 30
0.0
 11
-129.5000000000031
 21
422.00000002631532
 31
0.0
  0
LINE
  5
1405
  8
DETAIL
  6
CONTINUOUS
 62
     5
 10
-219.10750564158559
 20
161.20327319485679
 30
0.0
 11
-219.10750564158559
 21
172.00000002631921
 31
0.0
  0
ARC
  5
1406
  8
DETAIL
  6
CONTINUOUS
 62
     5
 10
-222.107505562668
 20
161.20327319485679
 30
0.0
 40
2.999999921075295
 50
270.0
 51
0.0
  0
ARC
  5
1407
  8
DETAIL
  6
CONTINUOUS
 62
     5
 10
-130.09999998421591
 20
172.6000000105343
 30
0.0
 40
0.5999999842154307
 50
270.0
 51
0.0
  0
LINE
  5
1408
  8
DETAIL
  6
CONTINUOUS
 62
     5
 10
-126.5000000789223
 20
222.49999948699249
 30
0.0
 11
-127.5000000526159
 21
222.49999948699249
 31
0.0
  0
ARC
  5
1409
  8
DETAIL
  6
CONTINUOUS
 62
     5
 10
-126.5000000789223
 20
220.4999995396158
 30
0.0
 40
1.999999947383263
 50
0.0
 51
90.0
  0
LINE
  5
140A
  8
DETAIL
  6
CONTINUOUS
 62
     5
 10
-127.5000000526159
 20
219.4999995659222
 30
0.0
 11
-129.5000000000031
 21
219.4999995659222
 31
0.0
  0
LINE
  5
140B
  8
DETAIL
  6
CONTINUOUS
 62
     5
 10
-126.5000000789223
 20
184.50000056563499
 30
0.0
 11
-127.5000000526159
 21
184.50000056563499
 31
0.0
  0
LINE
  5
140C
  8
DETAIL
  6
CONTINUOUS
 62
     5
 10
-124.50000013153431
 20
186.50000051302061
 30
0.0
 11
-124.50000013153431
 21
223.4999995396158
 31
0.0
  0
LINE
  5
140D
  8
DETAIL
  6
CONTINUOUS
 62
     5
 10
-127.5000000526159
 20
184.50000056563499
 30
0.0
 11
-127.5000000526159
 21
225.49999948699249
 31
0.0
  0
LINE
  5
140E
  8
DETAIL
  6
CONTINUOUS
 62
     5
 10
-127.5000000526159
 20
187.5000004867054
 30
0.0
 11
-129.5000000000031
 21
187.5000004867054
 31
0.0
  0
ARC
  5
140F
  8
DETAIL
  6
CONTINUOUS
 62
     5
 10
-126.5000000789223
 20
186.50000051302061
 30
0.0
 40
1.9999999473835071
 50
270.0
 51
0.0
  0
LINE
  5
1410
  8
NOTE
  6
CONTINUOUS
 62
     4
 10
-124.500000131527
 20
183.39501806838621
 30
0.0
 11
-124.500000131527
 21
226.60498198425401
 31
0.0
  0
LINE
  5
1411
  8
NOTE
  6
CONTINUOUS
 62
     4
 10
-102.8950181736022
 20
205.00000002631921
 30
0.0
 11
-146.10498208946899
 21
205.00000002631921
 31
0.0
  0
LINE
  5
1412
  8
NOTE
  6
CONTINUOUS
 62
     4
 10
-364.29999987372321
 20
183.39501806838621
 30
0.0
 11
-364.29999987372321
 21
226.60498198425401
 31
0.0
  0
LINE
  5
1413
  8
NOTE
  6
CONTINUOUS
 62
     4
 10
-342.695017915797
 20
205.00000002631921
 30
0.0
 11
-385.90498183166522
 21
205.00000002631921
 31
0.0
  0
LINE
  5
1414
  8
SIZE
  6
CONTINUOUS
 62
    30
 10
387.50000000000091
 20
129.00000002631731
 30
0.0
 11
387.50000000000091
 21
-307.31033460301978
 31
0.0
  0
LINE
  5
1415
  8
SIZE
  6
CONTINUOUS
 62
    30
 10
113.5
 20
-9.0000000263167976
 30
0.0
 11
113.4999999999999
 21
-307.31033460301978
 31
0.0
  0
LINE
  5
1416
  8
SIZE
  6
CONTINUOUS
 62
    30
 10
387.50000000000091
 20
-287.31033460301978
 30
0.0
 11
113.4999999999999
 21
-287.31033460301978
 31
0.0
  0
CIRCLE
  5
1417
  8
SIZE
  6
CONTINUOUS
 62
    30
 10
387.50000000000091
 20
-287.31033460301978
 30
0.0
 40
7.5
  0
CIRCLE
  5
1418
  8
SIZE
  6
CONTINUOUS
 62
    30
 10
113.4999999999999
 20
-287.31033460301978
 30
0.0
 40
7.5
  0
TEXT
  5
1419
  8
SIZE
  6
CONTINUOUS
 62
    30
 10
191.57142857142901
 20
-272.31033460301978
 30
0.0
 40
50.0
  1
274
 41
0.9
 72
     1
 11
250.50000000000051
 21
-272.31033460301978
 31
0.0
  0
POINT
  5
141A
  8
DEFPOINTS
  6
CONTINUOUS
 62
     7
 10
113.5
 20
0.9999999736832023
 30
0.0
  0
POINT
  5
141B
  8
DEFPOINTS
  6
CONTINUOUS
 62
     7
 10
113.4999999999999
 20
-287.31033460301978
 30
0.0
  0
LINE
  5
141C
  8
SIZE
  6
CONTINUOUS
 62
    30
 10
113.5
 20
-9.0000000263167976
 30
0.0
 11
113.4999999999999
 21
-307.31033460301978
 31
0.0
  0
LINE
  5
141D
  8
SIZE
  6
CONTINUOUS
 62
    30
 10
-516.49998342581193
 20
-9.0000000263167976
 30
0.0
 11
-516.49998342581193
 21
-307.31033460301978
 31
0.0
  0
LINE
  5
141E
  8
SIZE
  6
CONTINUOUS
 62
    30
 10
113.4999999999999
 20
-287.31033460301978
 30
0.0
 11
-516.49998342581193
 21
-287.31033460301978
 31
0.0
  0
CIRCLE
  5
141F
  8
SIZE
  6
CONTINUOUS
 62
    30
 10
113.4999999999999
 20
-287.31033460301978
 30
0.0
 40
7.5
  0
CIRCLE
  5
1420
  8
SIZE
  6
CONTINUOUS
 62
    30
 10
-516.49998342581193
 20
-287.31033460301978
 30
0.0
 40
7.5
  0
TEXT
  5
1421
  8
SIZE
  6
CONTINUOUS
 62
    30
 10
-463.78570599862019
 20
-272.31033460301978
 30
0.0
 40
50.0
  1
630（天井開口寸法）
 41
0.9
 72
     1
 11
-201.49999171290591
 21
-272.31033460301978
 31
0.0
  0
POINT
  5
1422
  8
DEFPOINTS
  6
CONTINUOUS
 62
     7
 10
113.5
 20
0.9999999736832023
 30
0.0
  0
POINT
  5
1423
  8
DEFPOINTS
  6
CONTINUOUS
 62
     7
 10
-516.49998342581193
 20
0.9999999736832023
 30
0.0
  0
POINT
  5
1424
  8
DEFPOINTS
  6
CONTINUOUS
 62
     7
 10
-516.49998342581193
 20
-287.31033460301978
 30
0.0
  0
LINE
  5
1425
  8
SIZE
  6
CONTINUOUS
 62
    30
 10
113.5
 20
-9.0000000263167976
 30
0.0
 11
113.4999999999999
 21
-129.3145437306535
 31
0.0
  0
LINE
  5
1426
  8
SIZE
  6
CONTINUOUS
 62
    30
 10
123.4999997369131
 20
-10.99999997368252
 30
0.0
 11
123.4999997369131
 21
-129.3145437306535
 31
0.0
  0
LINE
  5
1427
  8
SIZE
  6
CONTINUOUS
 62
    30
 10
113.5
 20
-109.3145437306535
 30
0.0
 11
83.499999999999986
 21
-109.3145437306535
 31
0.0
  0
LINE
  5
1428
  8
SIZE
  6
CONTINUOUS
 62
    30
 10
123.4999997369131
 20
-109.3145437306535
 30
0.0
 11
277.78571402262742
 21
-109.3145437306535
 31
0.0
  0
LINE
  5
1429
  8
SIZE
  6
CONTINUOUS
 62
    30
 10
113.5
 20
-109.3145437306535
 30
0.0
 11
123.4999997369131
 21
-109.3145437306535
 31
0.0
  0
CIRCLE
  5
142A
  8
SIZE
  6
CONTINUOUS
 62
    30
 10
113.5
 20
-109.3145437306535
 30
0.0
 40
7.5
  0
CIRCLE
  5
142B
  8
SIZE
  6
CONTINUOUS
 62
    30
 10
123.4999997369131
 20
-109.3145437306535
 30
0.0
 40
7.5
  0
TEXT
  5
142C
  8
SIZE
  6
CONTINUOUS
 62
    30
 10
198.49999973691311
 20
-94.31454373065344
 30
0.0
 40
50.0
  1
10
 41
0.9
 72
     1
 11
230.64285687977031
 21
-94.31454373065344
 31
0.0
  0
POINT
  5
142D
  8
DEFPOINTS
  6
CONTINUOUS
 62
     7
 10
113.5
 20
0.9999999736832023
 30
0.0
  0
POINT
  5
142E
  8
DEFPOINTS
  6
CONTINUOUS
 62
     7
 10
123.4999997369131
 20
-0.9999999736825203
 30
0.0
  0
POINT
  5
142F
  8
DEFPOINTS
  6
CONTINUOUS
 62
     7
 10
123.4999997369131
 20
-109.3145437306535
 30
0.0
  0
LINE
  5
1430
  8
SIZE
  6
CONTINUOUS
 62
    30
 10
-516.49998342581193
 20
-9.0000000263167976
 30
0.0
 11
-516.49998342581193
 21
-307.31033460301978
 31
0.0
  0
LINE
  5
1431
  8
SIZE
  6
CONTINUOUS
 62
    30
 10
-526.49998316272831
 20
-10.99999997368252
 30
0.0
 11
-526.49998316272831
 21
-307.31033460301978
 31
0.0
  0
LINE
  5
1432
  8
SIZE
  6
CONTINUOUS
 62
    30
 10
-516.49998342581193
 20
-287.31033460301978
 30
0.0
 11
-486.49998342581188
 21
-287.31033460301978
 31
0.0
  0
LINE
  5
1433
  8
SIZE
  6
CONTINUOUS
 62
    30
 10
-526.49998316272831
 20
-287.31033460301978
 30
0.0
 11
-680.78569744844253
 21
-287.31033460301978
 31
0.0
  0
LINE
  5
1434
  8
SIZE
  6
CONTINUOUS
 62
    30
 10
-516.49998342581193
 20
-287.31033460301978
 30
0.0
 11
-526.49998316272831
 21
-287.31033460301978
 31
0.0
  0
CIRCLE
  5
1435
  8
SIZE
  6
CONTINUOUS
 62
    30
 10
-516.49998342581193
 20
-287.31033460301978
 30
0.0
 40
7.5
  0
CIRCLE
  5
1436
  8
SIZE
  6
CONTINUOUS
 62
    30
 10
-526.49998316272831
 20
-287.31033460301978
 30
0.0
 40
7.5
  0
TEXT
  5
1437
  8
SIZE
  6
CONTINUOUS
 62
    30
 10
-665.78569744844253
 20
-272.31033460301978
 30
0.0
 40
50.0
  1
10
 41
0.9
 72
     1
 11
-633.64284030558542
 21
-272.31033460301978
 31
0.0
  0
POINT
  5
1438
  8
DEFPOINTS
  6
CONTINUOUS
 62
     7
 10
-516.49998342581193
 20
0.9999999736832023
 30
0.0
  0
POINT
  5
1439
  8
DEFPOINTS
  6
CONTINUOUS
 62
     7
 10
-526.49998316272831
 20
-0.9999999736825203
 30
0.0
  0
POINT
  5
143A
  8
DEFPOINTS
  6
CONTINUOUS
 62
     7
 10
-526.49998316272831
 20
-287.31033460301978
 30
0.0
  0
LINE
  5
143B
  8
SIZE
  6
CONTINUOUS
 62
    30
 10
123.4999997369131
 20
-10.99999997368252
 30
0.0
 11
123.4999997369131
 21
-214.92871916304421
 31
0.0
  0
LINE
  5
143C
  8
SIZE
  6
CONTINUOUS
 62
    30
 10
-526.49998316272831
 20
-10.99999997368252
 30
0.0
 11
-526.49998316272831
 21
-214.92871916304421
 31
0.0
  0
LINE
  5
143D
  8
SIZE
  6
CONTINUOUS
 62
    30
 10
123.4999997369131
 20
-194.92871916304421
 30
0.0
 11
-526.49998316272831
 21
-194.92871916304421
 31
0.0
  0
CIRCLE
  5
143E
  8
SIZE
  6
CONTINUOUS
 62
    30
 10
123.4999997369131
 20
-194.92871916304421
 30
0.0
 40
7.5
  0
CIRCLE
  5
143F
  8
SIZE
  6
CONTINUOUS
 62
    30
 10
-526.49998316272831
 20
-194.92871916304421
 30
0.0
 40
7.5
  0
TEXT
  5
1440
  8
SIZE
  6
CONTINUOUS
 62
    30
 10
-259.35713457005039
 20
-179.92871916304421
 30
0.0
 40
50.0
  1
650
 41
0.9
 72
     1
 11
-201.49999171290759
 21
-179.92871916304421
 31
0.0
  0
POINT
  5
1441
  8
DEFPOINTS
  6
CONTINUOUS
 62
     7
 10
123.4999997369131
 20
-0.9999999736825203
 30
0.0
  0
POINT
  5
1442
  8
DEFPOINTS
  6
CONTINUOUS
 62
     7
 10
-526.49998316272831
 20
-0.9999999736825203
 30
0.0
  0
POINT
  5
1443
  8
DEFPOINTS
  6
CONTINUOUS
 62
     7
 10
-526.49998316272831
 20
-194.92871916304421
 30
0.0
  0
POINT
  5
1444
  8
DEFPOINTS
  6
CONTINUOUS
 62
     7
 10
-358.90000001578619
 20
172.00000002631921
 30
0.0
  0
POINT
  5
1445
  8
DEFPOINTS
  6
CONTINUOUS
 62
     7
 10
-359.50000000000318
 20
267.99999750072152
 30
0.0
  0
LINE
  5
1446
  8
SIZE
  6
CONTINUOUS
 62
    30
 10
-619.20407538127211
 20
0.9999999736832023
 30
0.0
 11
-662.99067682109285
 21
0.9999999736832023
 31
0.0
  0
LINE
  5
1447
  8
SIZE
  6
CONTINUOUS
 62
    30
 10
-536.49998316272831
 20
-0.9999999736825203
 30
0.0
 11
-662.99067682109285
 21
-0.9999999736824065
 31
0.0
  0
LINE
  5
1448
  8
SIZE
  6
CONTINUOUS
 62
    30
 10
-642.99067682109285
 20
0.9999999736832023
 30
0.0
 11
-642.99067682109285
 21
30.999999973683199
 31
0.0
  0
LINE
  5
1449
  8
SIZE
  6
CONTINUOUS
 62
    30
 10
-642.99067682109285
 20
-0.9999999736824065
 30
0.0
 11
-642.99067682109285
 21
-120.99999997368241
 31
0.0
  0
LINE
  5
144A
  8
SIZE
  6
CONTINUOUS
 62
    30
 10
-642.99067682109285
 20
0.9999999736832023
 30
0.0
 11
-642.99067682109285
 21
-0.9999999736824065
 31
0.0
  0
CIRCLE
  5
144B
  8
SIZE
  6
CONTINUOUS
 62
    30
 10
-642.99067682109285
 20
0.9999999736832023
 30
0.0
 40
7.5
  0
CIRCLE
  5
144C
  8
SIZE
  6
CONTINUOUS
 62
    30
 10
-642.99067682109285
 20
-0.9999999736824065
 30
0.0
 40
7.5
  0
TEXT
  5
144D
  8
SIZE
  6
CONTINUOUS
 62
    30
 10
-657.99067682109285
 20
-105.99999997368261
 30
0.0
 40
50.0
  1
2
 50
90.0
 41
0.9
 72
     1
 11
-657.99067682109285
 21
-90.999999973682634
 31
0.0
  0
POINT
  5
144E
  8
DEFPOINTS
  6
CONTINUOUS
 62
     7
 10
-609.20407538127211
 20
0.9999999736832023
 30
0.0
  0
POINT
  5
144F
  8
DEFPOINTS
  6
CONTINUOUS
 62
     7
 10
-526.49998316272831
 20
-0.9999999736825203
 30
0.0
  0
POINT
  5
1450
  8
DEFPOINTS
  6
CONTINUOUS
 62
     7
 10
-642.99067682109285
 20
-0.9999999736824065
 30
0.0
  0
LINE
  5
1451
  8
SIZE
  6
CONTINUOUS
 62
    30
 10
-619.20407538127211
 20
0.9999999736832023
 30
0.0
 11
-662.99067682109285
 21
0.9999999736832023
 31
0.0
  0
LINE
  5
1452
  8
SIZE
  6
CONTINUOUS
 62
    30
 10
-514.96998372913686
 20
58.999998447822122
 30
0.0
 11
-662.99067682109285
 21
58.999998447822229
 31
0.0
  0
LINE
  5
1453
  8
SIZE
  6
CONTINUOUS
 62
    30
 10
-642.99067682109285
 20
0.9999999736832023
 30
0.0
 11
-642.99067682109285
 21
58.999998447822229
 31
0.0
  0
LINE
  5
1454
  8
SIZE
  6
CONTINUOUS
 62
    30
 10
-642.99067682109285
 20
29.999999210752659
 30
0.0
 11
-706.00997198798723
 21
15.38218587442543
 31
0.0
  0
LINE
  5
1455
  8
SIZE
  6
CONTINUOUS
 62
    30
 10
-706.00997198798723
 20
15.38218587442543
 30
0.0
 11
-706.00997198798723
 21
118.23932873156819
 31
0.0
  0
CIRCLE
  5
1456
  8
SIZE
  6
CONTINUOUS
 62
    30
 10
-642.99067682109285
 20
0.9999999736832023
 30
0.0
 40
7.5
  0
CIRCLE
  5
1457
  8
SIZE
  6
CONTINUOUS
 62
    30
 10
-642.99067682109285
 20
58.999998447822229
 30
0.0
 40
7.5
  0
POINT
  5
1458
  8
DEFPOINTS
  6
CONTINUOUS
 62
     7
 10
-609.20407538127211
 20
0.9999999736832023
 30
0.0
  0
POINT
  5
1459
  8
DEFPOINTS
  6
CONTINUOUS
 62
     7
 10
-504.96998372913691
 20
58.999998447822122
 30
0.0
  0
POINT
  5
145A
  8
DEFPOINTS
  6
CONTINUOUS
 62
     7
 10
-642.99067682109285
 20
58.999998447822229
 30
0.0
  0
POINT
  5
145B
  8
DEFPOINTS
  6
CONTINUOUS
 62
     7
 10
-526.49998316272831
 20
-0.9999999736825203
 30
0.0
  0
LINE
  5
145C
  8
NOTE
  6
CONTINUOUS
 62
     4
 10
-246.79521293451299
 20
247.20454016884301
 30
0.0
 11
-306.72970975905582
 21
247.20454016884301
 31
0.0
  0
TEXT
  5
145D
  8
NOTE
  6
CONTINUOUS
 62
     4
 10
-303.40434357502221
 20
258.41645415402331
 30
0.0
 40
45.0
  1
EL
 50
0.0000029999846689
 41
0.7
  7
STANDARD1
  0
LINE
  5
145E
  8
NOTE
  6
CONTINUOUS
 62
     4
 10
-164.28565449888171
 20
247.05232879458191
 30
0.0
 11
-224.22015132342401
 21
247.05232879458191
 31
0.0
  0
TEXT
  5
145F
  8
NOTE
  6
CONTINUOUS
 62
     4
 10
-220.8947851393909
 20
258.26424277976218
 30
0.0
 40
45.0
  1
CL
 50
0.0000029999846689
 41
0.7
  7
STANDARD1
  0
LINE
  5
1460
  8
NOTE
  6
CONTINUOUS
 62
     4
 10
-124.50000013153431
 20
205.00000002631921
 30
0.0
 11
-164.28565449888171
 21
247.05232879458191
 31
0.0
  0
LINE
  5
1461
  8
NOTE
  6
CONTINUOUS
 62
     4
 10
-364.29999987373179
 20
205.00000002631921
 30
0.0
 11
-306.72970975905582
 21
247.20454016884301
 31
0.0
  0
LINE
  5
1462
  8
NOTE
  6
CONTINUOUS
 62
     4
 10
-124.500000131527
 20
205.0000000263083
 30
0.0
 11
-153.75049073564099
 21
223.0764625162285
 31
0.0
  0
LINE
  5
1463
  8
NOTE
  6
CONTINUOUS
 62
     4
 10
-124.500000131527
 20
205.0000000263083
 30
0.0
 11
-140.79343556959699
 21
235.27992130307231
 31
0.0
  0
LINE
  5
1464
  8
NOTE
  6
CONTINUOUS
 62
     4
 10
-364.29999987373179
 20
205.00000002632831
 30
0.0
 11
-342.98422531322188
 21
231.9812426147694
 31
0.0
  0
LINE
  5
1465
  8
NOTE
  6
CONTINUOUS
 62
     4
 10
-364.29999987373179
 20
205.00000002632831
 30
0.0
 11
-332.34937620644757
 21
217.70855297986799
 31
0.0
  0
LINE
  5
1467
  8
OUTLINE
  6
CONTINUOUS
 62
     3
 10
-504.96998372913691
 20
0.0000000000003411
 30
0.0
 11
-504.96998372913691
 21
58.999998447822122
 31
0.0
  0
LINE
  5
1468
  8
OUTLINE
  6
CONTINUOUS
 62
     3
 10
-504.96998372913691
 20
58.999998447822122
 30
0.0
 11
101.9700003033248
 21
58.999998447822122
 31
0.0
  0
LINE
  5
1469
  8
OUTLINE
  6
CONTINUOUS
 62
     3
 10
101.9700003033248
 20
58.999998447822122
 30
0.0
 11
101.9700003033248
 21
0.0000000000003411
 31
0.0
  0
LINE
  5
146A
  8
OUTLINE
  6
CONTINUOUS
 62
     3
 10
-526.49998316272831
 20
-0.9999999736825203
 30
0.0
 11
-526.49998316272831
 21
-0.0000000000014779
 31
0.0
  0
LINE
  5
146B
  8
OUTLINE
  6
CONTINUOUS
 62
     3
 10
-526.49998316272831
 20
-0.0000000000014779
 30
0.0
 11
123.4999997369131
 21
0.0000000000003411
 31
0.0
  0
LINE
  5
146C
  8
OUTLINE
  6
CONTINUOUS
 62
     3
 10
123.4999997369131
 20
0.0000000000003411
 30
0.0
 11
123.4999997369131
 21
-0.9999999736825203
 31
0.0
  0
LINE
  5
146D
  8
OUTLINE
  6
CONTINUOUS
 62
     3
 10
123.4999997369131
 20
-0.9999999736825203
 30
0.0
 11
-526.49998316272831
 21
-0.9999999736825203
 31
0.0
  0
TEXT
  5
1474
  8
ETC
  6
CONTINUOUS
 62
    61
 10
72.957108298390381
 20
1303.0766652206401
 30
0.0
 40
80.0
  1
PD-RP112_160FA9_5
 50
0.000003
 41
0.8
  0
TEXT
  5
1475
  8
ETC
  6
CONTINUOUS
 62
    61
 10
196.1002395054972
 20
1175.4358074814711
 30
0.0
 40
80.0
  1
(後吸込・角ダクト組込)
 50
0.000003
 41
0.8
  0
LINE
  5
1486
  8
DETAIL
  6
CONTINUOUS
 62
     5
 10
-408.49999999999989
 20
147.18833687402389
 30
0.0
 11
-408.49999999999989
 21
467.18832950771338
 31
0.0
  0
LINE
  5
1487
  8
DETAIL
  6
CONTINUOUS
 62
     5
 10
-408.49999999999989
 20
147.18833687402389
 30
0.0
 11
-387.4999999999992
 21
147.18833687402389
 31
0.0
  0
LINE
  5
1488
  8
DETAIL
  6
CONTINUOUS
 62
     5
 10
-408.49999999999989
 20
467.18832950771338
 30
0.0
 11
-387.4999999999992
 21
467.18832950771338
 31
0.0
  0
POINT
  5
1489
  8
DEFPOINTS
  6
CONTINUOUS
 62
     7
 10
-408.49999999999989
 20
467.18832950771338
 30
0.0
  0
POINT
  5
148A
  8
DEFPOINTS
  6
CONTINUOUS
 62
     7
 10
-408.49999999999989
 20
467.18832950771338
 30
0.0
  0
TEXT
  5
1491
  8
SIZE
  6
CONTINUOUS
 62
    30
 10
-726.61855804215884
 20
35.530067402099682
 30
0.0
 40
50.0
  1
58
 50
90.0
 41
0.9
 72
     1
 11
-726.61855804215884
 21
71.958638830671106
 31
0.0
  0
LINE
  5
1497
  8
SIZE
  6
CONTINUOUS
 62
    30
 10
237.88160824486471
 20
740.10936340653677
 30
0.0
 11
231.499988
 21
682.05287199999975
 31
0.0
  0
LINE
  5
14BC
  8
DETAIL
  6
CONTINUOUS
 62
     5
 10
-322.50246708646409
 20
419.00000178232722
 30
0.0
 11
-319.50246716538322
 21
422.00000170340661
 31
0.0
  0
POINT
  5
14BD
  8
DEFPOINTS
  6
CONTINUOUS
 62
     7
 10
-319.50246716538322
 20
422.00000170340661
 30
0.0
  0
POINT
  5
14BE
  8
DEFPOINTS
  6
CONTINUOUS
 62
     7
 10
-319.50246716538322
 20
422.00000170340661
 30
0.0
  0
CIRCLE
  5
1551
  8
DETAIL
  6
CONTINUOUS
 62
     5
 10
407.5
 20
400.00000000001529
 30
0.0
 40
1.5
  0
CIRCLE
  5
1552
  8
DETAIL
  6
CONTINUOUS
 62
     5
 10
407.5
 20
335.00000000000512
 30
0.0
 40
1.5
  0
CIRCLE
  5
1553
  8
DETAIL
  6
CONTINUOUS
 62
     5
 10
407.5
 20
270.00000000001529
 30
0.0
 40
1.5
  0
LINE
  5
15C6
  8
SIZE
  6
CONTINUOUS
 62
    30
 10
-339.50246921560017
 20
422.00000002631532
 30
0.0
 11
-642.3476379384947
 21
422.00000002631538
 31
0.0
  0
LINE
  5
15C7
  8
SIZE
  6
CONTINUOUS
 62
    30
 10
-378.90000001578619
 20
172.00000002631899
 30
0.0
 11
-642.34763793849481
 21
172.00000002631899
 31
0.0
  0
LINE
  5
15C8
  8
SIZE
  6
CONTINUOUS
 62
    30
 10
-624.34763793849459
 20
402.00000002631532
 30
0.0
 11
-624.34763793849481
 21
192.00000002631899
 31
0.0
  0
LINE
  5
15CE
  8
SIZE
  6
CONTINUOUS
 62
    30
 10
-339.50246716538322
 20
422.00000170340661
 30
0.0
 11
-642.3476379384947
 21
422.00000170340678
 31
0.0
  0
LINE
  5
15CF
  8
SIZE
  6
CONTINUOUS
 62
    30
 10
-405.70001200000002
 20
475.0
 30
0.0
 11
-642.3476379384947
 21
475.0
 31
0.0
  0
LINE
  5
15D0
  8
SIZE
  6
CONTINUOUS
 62
    30
 10
-624.34763793849459
 20
442.00000170340672
 30
0.0
 11
-624.34763793849459
 21
455.0
 31
0.0
  0
LINE
  5
15D1
  8
SIZE
  6
CONTINUOUS
 62
    30
 10
-624.34763793849459
 20
475.0
 30
0.0
 11
-624.34763793849459
 21
568.03714285714295
 31
0.0
  0
LINE
  5
15D5
  8
SIZE
  6
CONTINUOUS
 62
    30
 10
-387.50001200000003
 20
494.19999997120573
 30
0.0
 11
-387.50001200000003
 21
1047.5589
 31
0.0
  0
LINE
  5
15D6
  8
SIZE
  6
CONTINUOUS
 62
    30
 10
-408.49999999999989
 20
487.18832950771338
 30
0.0
 11
-408.49999999999989
 21
1047.5589
 31
0.0
  0
LINE
  5
15D7
  8
SIZE
  6
CONTINUOUS
 62
    30
 10
-367.50001200000003
 20
1029.5589
 30
0.0
 11
-347.50001200000003
 21
1029.5589
 31
0.0
  0
LINE
  5
15D8
  8
SIZE
  6
CONTINUOUS
 62
    30
 10
-428.49999999999989
 20
1029.5589
 30
0.0
 11
-519.70637435487697
 21
1029.5589
 31
0.0
  0
LINE
  5
15DC
  8
SIZE
  6
CONTINUOUS
 62
    30
 10
-129.5000000000031
 20
442.00000002631521
 30
0.0
 11
-129.50000000000301
 21
955.43111822918945
 31
0.0
  0
LINE
  5
15DD
  8
SIZE
  6
CONTINUOUS
 62
    30
 10
-359.50000000000171
 20
287.99999750072152
 30
0.0
 11
-359.50000000000159
 21
955.43111822918945
 31
0.0
  0
LINE
  5
15DE
  8
SIZE
  6
CONTINUOUS
 62
    30
 10
-149.50000000000301
 20
937.43111822918945
 30
0.0
 11
-339.50000000000159
 21
937.43111822918945
 31
0.0
  0
LINE
  5
15E2
  8
SIZE
  6
CONTINUOUS
 62
    30
 10
-129.5000000000031
 20
442.00000002631521
 30
0.0
 11
-129.50000000000301
 21
955.43111822918945
 31
0.0
  0
LINE
  5
15E3
  8
SIZE
  6
CONTINUOUS
 62
    30
 10
387.49998799999997
 20
493.64043499999991
 30
0.0
 11
387.49998799999997
 21
955.43111822918945
 31
0.0
  0
LINE
  5
15E4
  8
SIZE
  6
CONTINUOUS
 62
    30
 10
-109.500000000003
 20
937.43111822918945
 30
0.0
 11
367.49998799999997
 21
937.43111822918945
 31
0.0
  0
LINE
  5
15E8
  8
SIZE
  6
CONTINUOUS
 62
    30
 10
387.49998799999997
 20
493.64043499999991
 30
0.0
 11
387.49998799999997
 21
1047.5589
 31
0.0
  0
LINE
  5
15E9
  8
SIZE
  6
CONTINUOUS
 62
    30
 10
417.49999999999989
 20
461.99999999989188
 30
0.0
 11
417.49999999999989
 21
1047.5589
 31
0.0
  0
LINE
  5
15EA
  8
SIZE
  6
CONTINUOUS
 62
    30
 10
367.49998799999997
 20
1029.5589
 30
0.0
 11
347.49998799999997
 21
1029.5589
 31
0.0
  0
LINE
  5
15EB
  8
SIZE
  6
CONTINUOUS
 62
    30
 10
437.5
 20
1029.5589
 30
0.0
 11
530.53714285714284
 21
1029.5589
 31
0.0
  0
TEXT
  5
15EF
  8
SIZE
  6
CONTINUOUS
 62
    30
 10
444.65351121868741
 20
1048.3057527704491
 30
0.0
 40
50.0
  1
30
 41
0.9
 72
     1
 11
481.08208264725891
 21
1048.3057527704491
 31
0.0
  0
CIRCLE
  5
15F0
  8
SIZE
  6
CONTINUOUS
 62
    30
 10
417.49999999999989
 20
1029.5589
 30
0.0
 40
10.0
  0
LINE
  5
15F1
  8
SIZE
  6
CONTINUOUS
 62
    30
 10
427.5
 20
1029.5589
 30
0.0
 11
437.5
 21
1029.5589
 31
0.0
  0
CIRCLE
  5
15F2
  8
SIZE
  6
CONTINUOUS
 62
    30
 10
387.49998799999997
 20
1029.5589
 30
0.0
 40
10.0
  0
LINE
  5
15F3
  8
SIZE
  6
CONTINUOUS
 62
    30
 10
377.49998799999997
 20
1029.5589
 30
0.0
 11
367.49998799999997
 21
1029.5589
 31
0.0
  0
TEXT
  5
15F4
  8
SIZE
  6
CONTINUOUS
 62
    30
 10
-505.4550602098837
 20
1048.3057527704491
 30
0.0
 40
50.0
  1
21
 41
0.9
 72
     1
 11
-478.66934592416942
 21
1048.3057527704491
 31
0.0
  0
CIRCLE
  5
15F5
  8
SIZE
  6
CONTINUOUS
 62
    30
 10
-408.49999999999989
 20
1029.5589
 30
0.0
 40
10.0
  0
LINE
  5
15F6
  8
SIZE
  6
CONTINUOUS
 62
    30
 10
-418.49999999999977
 20
1029.5589
 30
0.0
 11
-428.49999999999989
 21
1029.5589
 31
0.0
  0
CIRCLE
  5
15F7
  8
SIZE
  6
CONTINUOUS
 62
    30
 10
-387.50001200000003
 20
1029.5589
 30
0.0
 40
10.0
  0
LINE
  5
15F8
  8
SIZE
  6
CONTINUOUS
 62
    30
 10
-377.50001200000003
 20
1029.5589
 30
0.0
 11
-367.50001200000003
 21
1029.5589
 31
0.0
  0
TEXT
  5
15F9
  8
SIZE
  6
CONTINUOUS
 62
    30
 10
75.428565428569911
 20
956.17797099963877
 30
0.0
 40
50.0
  1
517
 41
0.9
 72
     1
 11
128.99999399999851
 21
956.17797099963877
 31
0.0
  0
CIRCLE
  5
15FA
  8
SIZE
  6
CONTINUOUS
 62
    30
 10
387.49998799999997
 20
937.43111822918945
 30
0.0
 40
10.0
  0
LINE
  5
15FB
  8
SIZE
  6
CONTINUOUS
 62
    30
 10
377.49998799999997
 20
937.43111822918945
 30
0.0
 11
367.49998799999997
 21
937.43111822918945
 31
0.0
  0
CIRCLE
  5
15FC
  8
SIZE
  6
CONTINUOUS
 62
    30
 10
-129.50000000000301
 20
937.43111822918945
 30
0.0
 40
10.0
  0
LINE
  5
15FD
  8
SIZE
  6
CONTINUOUS
 62
    30
 10
-119.500000000003
 20
937.43111822918945
 30
0.0
 11
-109.500000000003
 21
937.43111822918945
 31
0.0
  0
TEXT
  5
15FE
  8
SIZE
  6
CONTINUOUS
 62
    30
 10
-302.35714285714522
 20
956.17797099963877
 30
0.0
 40
50.0
  1
230
 41
0.9
 72
     1
 11
-244.5000000000023
 21
956.17797099963877
 31
0.0
  0
CIRCLE
  5
15FF
  8
SIZE
  6
CONTINUOUS
 62
    30
 10
-359.50000000000159
 20
937.43111822918945
 30
0.0
 40
10.0
  0
LINE
  5
1600
  8
SIZE
  6
CONTINUOUS
 62
    30
 10
-349.50000000000159
 20
937.43111822918945
 30
0.0
 11
-339.50000000000159
 21
937.43111822918945
 31
0.0
  0
CIRCLE
  5
1601
  8
SIZE
  6
CONTINUOUS
 62
    30
 10
-129.50000000000301
 20
937.43111822918945
 30
0.0
 40
10.0
  0
LINE
  5
1602
  8
SIZE
  6
CONTINUOUS
 62
    30
 10
-139.50000000000301
 20
937.43111822918945
 30
0.0
 11
-149.50000000000301
 21
937.43111822918945
 31
0.0
  0
TEXT
  5
1603
  8
SIZE
  6
CONTINUOUS
 62
    30
 10
-641.56816682755743
 20
239.14285716917439
 30
0.0
 40
50.0
  1
250
 50
90.0
 41
0.9
 72
     1
 11
-641.56816682755743
 21
297.00000002631731
 31
0.0
  0
CIRCLE
  5
1604
  8
SIZE
  6
CONTINUOUS
 62
    30
 10
-624.34763793849481
 20
172.00000002631899
 30
0.0
 40
10.0
  0
LINE
  5
1605
  8
SIZE
  6
CONTINUOUS
 62
    30
 10
-624.34763793849481
 20
182.00000002631899
 30
0.0
 11
-624.34763793849481
 21
192.00000002631899
 31
0.0
  0
CIRCLE
  5
1606
  8
SIZE
  6
CONTINUOUS
 62
    30
 10
-624.34763793849459
 20
422.00000002631532
 30
0.0
 40
10.0
  0
LINE
  5
1607
  8
SIZE
  6
CONTINUOUS
 62
    30
 10
-624.34763793849459
 20
412.00000002631538
 30
0.0
 11
-624.34763793849459
 21
402.00000002631532
 31
0.0
  0
TEXT
  5
1608
  8
SIZE
  6
CONTINUOUS
 62
    30
 10
-641.56816682755743
 20
491.2246087841159
 30
0.0
 40
50.0
  1
53
 50
90.0
 41
0.9
 72
     1
 11
-641.56816682755743
 21
527.6531802126874
 31
0.0
  0
CIRCLE
  5
1609
  8
SIZE
  6
CONTINUOUS
 62
    30
 10
-624.34763793849459
 20
475.0
 30
0.0
 40
10.0
  0
LINE
  5
160A
  8
SIZE
  6
CONTINUOUS
 62
    30
 10
-624.34763793849459
 20
465.0
 30
0.0
 11
-624.34763793849459
 21
455.0
 31
0.0
  0
CIRCLE
  5
160B
  8
SIZE
  6
CONTINUOUS
 62
    30
 10
-624.34763793849459
 20
422.00000170340672
 30
0.0
 40
10.0
  0
LINE
  5
160C
  8
SIZE
  6
CONTINUOUS
 62
    30
 10
-624.34763793849459
 20
432.00000170340672
 30
0.0
 11
-624.34763793849459
 21
442.00000170340672
 31
0.0
  0
ENDSEC
  0
EOF
