  0
SECTION
  2
HEADER
  9
$ACADVER
  1
AC1009
  9
$INSBASE
 10
0.0
 20
0.0
 30
0.0
  9
$EXTMIN
 10
-1483.282892659292
 20
-1214.044346527706
 30
-0.0000000000000053
  9
$EXTMAX
 10
1291.3202352062981
 20
1145.402623795442
 30
0.0000000000000099
  9
$LIMMIN
 10
-4267.1522210000003
 20
-2696.0832100000011
  9
$LIMMAX
 10
7190.7174229999991
 20
5141.1553640000002
  9
$ORTHOMODE
 70
     1
  9
$REGENMODE
 70
     1
  9
$FILLMODE
 70
     1
  9
$QTEXTMODE
 70
     0
  9
$MIRRTEXT
 70
     0
  9
$DRAGMODE
 70
     2
  9
$LTSCALE
 40
20.0
  9
$OSMODE
 70
   431
  9
$ATTMODE
 70
     1
  9
$TEXTSIZE
 40
64.0
  9
$TRACEWID
 40
0.05
  9
$TEXTSTYLE
  7
STANDARD1
  9
$CLAYER
  8
SYMBOLLINE
  9
$CELTYPE
  6
CONTINUOUS
  9
$CECOLOR
 62
     7
  9
$DIMSCALE
 40
1.0
  9
$DIMASZ
 40
10.0
  9
$DIMEXO
 40
20.0
  9
$DIMDLI
 40
80.0
  9
$DIMRND
 40
0.0
  9
$DIMDLE
 40
0.0
  9
$DIMEXE
 40
18.0
  9
$DIMTP
 40
0.0
  9
$DIMTM
 40
0.0
  9
$DIMTXT
 40
55.0
  9
$DIMCEN
 40
0.09
  9
$DIMTSZ
 40
0.0
  9
$DIMTOL
 70
     0
  9
$DIMLIM
 70
     0
  9
$DIMTIH
 70
     0
  9
$DIMTOH
 70
     0
  9
$DIMSE1
 70
     0
  9
$DIMSE2
 70
     0
  9
$DIMTAD
 70
     1
  9
$DIMZIN
 70
     8
  9
$DIMBLK
  1
ORIGIN
  9
$DIMASO
 70
     1
  9
$DIMSHO
 70
     0
  9
$DIMPOST
  1

  9
$DIMAPOST
  1

  9
$DIMALT
 70
     0
  9
$DIMALTD
 70
     2
  9
$DIMALTF
 40
25.399999999999999
  9
$DIMLFAC
 40
1.0
  9
$DIMTOFL
 70
     0
  9
$DIMTVP
 40
0.0
  9
$DIMTIX
 70
     0
  9
$DIMSOXD
 70
     0
  9
$DIMSAH
 70
     0
  9
$DIMBLK1
  1

  9
$DIMBLK2
  1

  9
$DIMSTYLE
  2
STANDARD
  9
$DIMCLRD
 70
     0
  9
$DIMCLRE
 70
     0
  9
$DIMCLRT
 70
     0
  9
$DIMTFAC
 40
1.0
  9
$DIMGAP
 40
0.09
  9
$LUNITS
 70
     2
  9
$LUPREC
 70
     4
  9
$SKETCHINC
 40
0.1
  9
$FILLETRAD
 40
0.8
  9
$AUNITS
 70
     1
  9
$AUPREC
 70
     3
  9
$MENU
  1
ACAD
  9
$ELEVATION
 40
0.0
  9
$PELEVATION
 40
0.0
  9
$THICKNESS
 40
0.0
  9
$LIMCHECK
 70
     0
  9
$BLIPMODE
 70
     0
  9
$CHAMFERA
 40
0.0
  9
$CHAMFERB
 40
0.0
  9
$SKPOLY
 70
     0
  9
$TDCREATE
 40
2450330.4399309959
  9
$TDUPDATE
 40
2456776.4941113661
  9
$TDINDWG
 40
3.8164870833000002
  9
$TDUSRTIMER
 40
3.8163308565
  9
$USRTIMER
 70
     1
  9
$ANGBASE
 50
0.0
  9
$ANGDIR
 70
     0
  9
$PDMODE
 70
     3
  9
$PDSIZE
 40
-2.0
  9
$PLINEWID
 40
0.0
  9
$COORDS
 70
     1
  9
$SPLFRAME
 70
     0
  9
$SPLINETYPE
 70
     6
  9
$SPLINESEGS
 70
     8
  9
$ATTDIA
 70
     0
  9
$ATTREQ
 70
     1
  9
$HANDLING
 70
     1
  9
$HANDSEED
  5
1654
  9
$SURFTAB1
 70
     6
  9
$SURFTAB2
 70
     6
  9
$SURFTYPE
 70
     6
  9
$SURFU
 70
     6
  9
$SURFV
 70
     6
  9
$UCSNAME
  2

  9
$UCSORG
 10
0.0
 20
0.0
 30
0.0
  9
$UCSXDIR
 10
1.0
 20
0.0
 30
0.0
  9
$UCSYDIR
 10
0.0
 20
1.0
 30
0.0
  9
$PUCSNAME
  2

  9
$PUCSORG
 10
0.0
 20
0.0
 30
0.0
  9
$PUCSXDIR
 10
1.0
 20
0.0
 30
0.0
  9
$PUCSYDIR
 10
0.0
 20
1.0
 30
0.0
  9
$USERI1
 70
     0
  9
$USERI2
 70
     0
  9
$USERI3
 70
     0
  9
$USERI4
 70
     0
  9
$USERI5
 70
     0
  9
$USERR1
 40
20.0
  9
$USERR2
 40
0.0
  9
$USERR3
 40
0.0
  9
$USERR4
 40
0.0
  9
$USERR5
 40
0.0
  9
$WORLDVIEW
 70
     1
  9
$SHADEDGE
 70
     3
  9
$SHADEDIF
 70
    70
  9
$TILEMODE
 70
     1
  9
$MAXACTVP
 70
    48
  9
$PLIMCHECK
 70
     0
  9
$PEXTMIN
 10
1.0000000000000000E+020
 20
1.0000000000000000E+020
 30
1.0000000000000000E+020
  9
$PEXTMAX
 10
-1.0000000000000000E+020
 20
-1.0000000000000000E+020
 30
-1.0000000000000000E+020
  9
$PLIMMIN
 10
0.0
 20
0.0
  9
$PLIMMAX
 10
12.0
 20
9.0
  9
$UNITMODE
 70
     0
  9
$VISRETAIN
 70
     1
  9
$PLINEGEN
 70
     0
  9
$PSLTSCALE
 70
     1
  0
ENDSEC
  0
SECTION
  2
TABLES
  0
TABLE
  2
VPORT
 70
     1
  0
VPORT
  2
*ACTIVE
 70
     0
 10
0.0
 20
0.0
 11
1.0
 21
1.0
 12
-95.981328726496884
 22
-34.320861366131787
 13
0.0
 23
0.0
 14
50.0
 24
50.0
 15
100.0
 25
100.0
 16
0.0
 26
0.0
 36
1.0
 17
0.0
 27
0.0
 37
0.0
 40
2377.412302584492
 41
1.5540025412960601
 42
50.0
 43
0.0
 44
0.0
 50
0.0
 51
0.0
 71
     0
 72
  1000
 73
     1
 74
     0
 75
     0
 76
     0
 77
     0
 78
     0
  0
ENDTAB
  0
TABLE
  2
LTYPE
 70
     3
  0
LTYPE
  2
CONTINUOUS
 70
     0
  3
実線
 72
    65
 73
     0
 40
0.0
  0
LTYPE
  2
DASHDOT
 70
     0
  3
____ _ ____ _ ____ _ ____ _ ____ _ ____ _ ____
 72
    65
 73
     4
 40
5.5
 49
4.0
 49
-0.6
 49
0.3
 49
-0.6
  0
ENDTAB
  0
TABLE
  2
LAYER
 70
    12
  0
LAYER
  2
0
 70
     0
 62
     7
  6
CONTINUOUS
  0
LAYER
  2
SYMBOLLINE
 70
     0
 62
    15
  6
CONTINUOUS
  0
LAYER
  2
NOTE
 70
     0
 62
     4
  6
CONTINUOUS
  0
LAYER
  2
OUTLINE
 70
     0
 62
     3
  6
CONTINUOUS
  0
LAYER
  2
DETAIL
 70
     0
 62
     5
  6
CONTINUOUS
  0
LAYER
  2
BASIS
 70
     0
 62
     6
  6
DASHDOT
  0
LAYER
  2
SIZE
 70
     0
 62
    30
  6
CONTINUOUS
  0
LAYER
  2
ARRANGE
 70
     0
 62
     1
  6
CONTINUOUS
  0
LAYER
  2
FIX
 70
     0
 62
    11
  6
CONTINUOUS
  0
LAYER
  2
SERVICESPACE
 70
     0
 62
     2
  6
DASHDOT
  0
LAYER
  2
ETC
 70
     0
 62
    61
  6
CONTINUOUS
  0
LAYER
  2
DEFPOINTS
 70
     0
 62
     7
  6
CONTINUOUS
  0
ENDTAB
  0
TABLE
  2
STYLE
 70
     5
  0
STYLE
  2
STANDARD
 70
     0
 40
0.0
 41
0.9
 50
0.0
 71
     0
 42
64.0
  3
SIMPLEX
  4
BIGFONT
  0
STYLE
  2
ANNOTATIVE
 70
     0
 40
0.0
 41
1.0
 50
0.0
 71
     0
 42
0.2
  3
txt
  4

  0
STYLE
  2
STANDARD1
 70
     0
 40
0.0
 41
1.0
 50
0.0
 71
     0
 42
64.0
  3
MONOTXT
  4
BIGFONT
  0
STYLE
  2

 70
     1
 40
0.0
 41
1.0
 50
0.0
 71
     0
 42
64.0
  3
ltypeshp.shx
  4

  0
STYLE
  2
NOTE
 70
     0
 40
0.0
 41
0.7
 50
0.0
 71
     0
 42
64.0
  3
SIMPLEX.shx
  4
BIGFONT.shx
  0
ENDTAB
  0
TABLE
  2
VIEW
 70
     1
  0
VIEW
  2
ALL
 70
     0
 40
9000.0
 10
241.50664699999999
 20
0.0
 41
12483.01
 11
0.0
 21
0.0
 31
1.0
 12
0.0
 22
0.0
 32
0.0
 42
50.0
 43
0.0
 44
0.0
 50
0.0
 71
     0
  0
ENDTAB
  0
TABLE
  2
UCS
 70
     0
  0
ENDTAB
  0
TABLE
  2
APPID
 70
     6
  0
APPID
  2
ACAD
 70
     0
  0
APPID
  2
ACADANNOTATIVE
 70
     0
  0
APPID
  2
ACAD_MLEADERVER
 70
     0
  0
APPID
  2
ACAD_EXEMPT_FROM_CAD_STANDARDS
 70
     0
  0
APPID
  2
ACAD_DSTYLE_DIMJAG
 70
     0
  0
APPID
  2
ACAD_DSTYLE_DIMTALN
 70
     0
  0
ENDTAB
  0
TABLE
  2
DIMSTYLE
 70
     3
  0
DIMSTYLE
  2
STANDARD
 70
     0
  3

  4

  5

  6

  7

 40
1.0
 41
0.18
 42
0.0625
 43
0.38
 44
0.18
 45
0.0
 46
0.0
 47
0.0
 48
0.0
140
0.18
141
0.09
142
0.0
143
25.399999999999999
144
1.0
145
0.0
146
1.0
147
0.09
 71
     0
 72
     0
 73
     1
 74
     1
 75
     0
 76
     0
 77
     0
 78
     0
170
     0
171
     2
172
     0
173
     0
174
     0
175
     0
176
     0
177
     0
178
     0
  0
DIMSTYLE
  2
ANNOTATIVE
 70
     0
  3

  4

  5

  6

  7

 40
1.0
 41
0.18
 42
0.0625
 43
0.38
 44
0.18
 45
0.0
 46
0.0
 47
0.0
 48
0.0
140
0.18
141
0.09
142
0.0
143
25.399999999999999
144
1.0
145
0.0
146
1.0
147
0.09
 71
     0
 72
     0
 73
     1
 74
     1
 75
     0
 76
     0
 77
     0
 78
     0
170
     0
171
     2
172
     0
173
     0
174
     0
175
     0
176
     0
177
     0
178
     0
  0
ENDTAB
  0
ENDSEC
  0
SECTION
  2
BLOCKS
  0
BLOCK
  8
0
  2
$MODEL_SPACE
 70
     0
 10
0.0
 20
0.0
 30
0.0
  3
$MODEL_SPACE
  1

  0
ENDBLK
  5
149F
  8
0
  0
BLOCK
 67
     1
  8
0
  2
$PAPER_SPACE
 70
     0
 10
0.0
 20
0.0
 30
0.0
  3
$PAPER_SPACE
  1

  0
ENDBLK
  5
149B
 67
     1
  8
0
  0
BLOCK
  8
0
  2
_ORIGIN
 70
     0
 10
0.0
 20
0.0
 30
0.0
  3
_ORIGIN
  1

  0
CIRCLE
  5
34
  8
0
  6
CONTINUOUS
 62
     7
 10
0.0
 20
0.0
 30
0.0
 40
0.5
  0
LINE
  5
35
  8
0
  6
CONTINUOUS
 62
     7
 10
-0.5
 20
0.0
 30
0.0
 11
-1.0
 21
0.0
 31
0.0
  0
ENDBLK
  5
36
  8
0
  0
BLOCK
  8
0
 62
     7
  2
A$C7BA37111
 70
     0
 10
0.0
 20
0.0
 30
0.0
  3
A$C7BA37111
  1

  0
LINE
  5
33F
  8
NOTE
  6
CONTINUOUS
 62
     4
 10
2923.494893
 20
1599.5914150000001
 30
0.0
 11
3808.670305000001
 21
1599.5914150000001
 31
0.0
  0
TEXT
  5
340
  8
NOTE
  6
CONTINUOUS
 62
     4
 10
2947.4272580000002
 20
1617.230836
 30
0.0
 40
60.0
  1
外気取入口%%C150（ノックアウト穴）
 50
0.000003
 41
0.7
  7
STANDARD1
  0
LINE
  5
341
  8
SIZE
  6
CONTINUOUS
 62
    30
 10
2511.000188
 20
551.55797900000005
 30
0.0
 11
3390.5373330000011
 21
551.55797900000005
 31
0.0
  0
LINE
  5
342
  8
SIZE
  6
CONTINUOUS
 62
    30
 10
2535.000188
 20
801.55797900000005
 30
0.0
 11
3390.5373330000011
 21
801.55797900000005
 31
0.0
  0
LINE
  5
343
  8
SIZE
  6
CONTINUOUS
 62
    30
 10
2535.000188
 20
801.55797900000005
 30
0.0
 11
3390.5373330000011
 21
801.55797900000005
 31
0.0
  0
LINE
  5
344
  8
SIZE
  6
CONTINUOUS
 62
    30
 10
2535.000188
 20
1401.5579789999999
 30
0.0
 11
3390.5373330000011
 21
1401.5579789999999
 31
0.0
  0
LINE
  5
345
  8
NOTE
  6
CONTINUOUS
 62
     4
 10
3624.3760659999998
 20
1736.744526
 30
0.0
 11
2918.4890300000002
 21
1736.744526
 31
0.0
  0
TEXT
  5
346
  8
NOTE
  6
CONTINUOUS
 62
     4
 10
2933.0367289999999
 20
1752.571056
 30
0.0
 40
60.0
  1
AH 4-14×30長穴(M10)
 50
0.000003
 41
0.7
  7
STANDARD1
  0
LINE
  5
347
  8
BASIS
  6
DASHDOT
 62
     6
 10
2563.000188
 20
939.05797900000005
 30
0.0
 11
913.00018800000009
 21
939.05797900000005
 31
0.0
  0
LINE
  5
348
  8
SIZE
  6
CONTINUOUS
 62
    30
 10
2493.0001990000001
 20
1566.978818
 30
0.0
 11
983.00019899999995
 21
1566.978818
 31
0.0
  0
LINE
  5
349
  8
SERVICESPACE
  6
CONTINUOUS
 62
     2
 10
963.00018800000009
 20
818.55797900000005
 30
0.0
 11
2513.000188
 21
818.55797900000005
 31
0.0
  0
LINE
  5
34A
  8
SERVICESPACE
  6
CONTINUOUS
 62
     2
 10
963.00018800000009
 20
1384.5579789999999
 30
0.0
 11
2513.000188
 21
1384.5579789999999
 31
0.0
  0
LINE
  5
34B
  8
OUTLINE
  6
CONTINUOUS
 62
     3
 10
2493.000188
 20
1326.5579789999999
 30
0.0
 11
983.00018800000021
 21
1326.5579789999999
 31
0.0
  0
LINE
  5
34C
  8
OUTLINE
  6
CONTINUOUS
 62
     3
 10
983.00018800000021
 20
551.55797900000005
 30
0.0
 11
2493.000188
 21
551.55797900000005
 31
0.0
  0
LINE
  5
34D
  8
OUTLINE
  6
CONTINUOUS
 62
     3
 10
959.00018799999998
 20
1401.5579789999999
 30
0.0
 11
2517.000188
 21
1401.5579789999999
 31
0.0
  0
LINE
  5
34E
  8
SIZE
  6
CONTINUOUS
 62
    30
 10
2513.000188
 20
1671.207989
 30
0.0
 11
963.00018800000009
 21
1671.207989
 31
0.0
  0
LINE
  5
34F
  8
DETAIL
  6
CONTINUOUS
 62
     5
 10
959.00018799999998
 20
1401.5579789999999
 30
0.0
 11
2517.000188
 21
1401.5579789999999
 31
0.0
  0
LINE
  5
350
  8
SIZE
  6
CONTINUOUS
 62
    30
 10
1003.000188
 20
129.49455
 30
0.0
 11
2473.000188
 21
129.49455
 31
0.0
  0
ARC
  5
351
  8
DETAIL
  6
CONTINUOUS
 62
     5
 10
1435.738965
 20
436.59560199999987
 30
0.0
 40
100.0
 50
85.835943999999998
 51
121.227886
  0
LINE
  5
352
  8
SIZE
  6
CONTINUOUS
 62
    30
 10
987.00018800000021
 20
29.999994999999998
 30
0.0
 11
2489.000188
 21
29.999994999999998
 31
0.0
  0
TEXT
  5
353
  8
SIZE
  6
CONTINUOUS
 62
    30
 10
1385.1430451428571
 20
372.615295
 30
0.0
 40
50.0
  1
320
 41
0.9
 72
     1
 11
1443.000188
 21
372.615295
 31
0.0
  0
LINE
  5
354
  8
SIZE
  6
CONTINUOUS
 62
    30
 10
1303.000188
 20
354.615295
 30
0.0
 11
1583.000188
 21
354.615295
 31
0.0
  0
LINE
  5
355
  8
SIZE
  6
CONTINUOUS
 62
    30
 10
1010.000188
 20
224.37408099999999
 30
0.0
 11
2466.000188
 21
224.37408099999999
 31
0.0
  0
LINE
  5
356
  8
DETAIL
  6
CONTINUOUS
 62
     5
 10
983.00018800000021
 20
551.55797900000005
 30
0.0
 11
2493.000188
 21
551.55797900000005
 31
0.0
  0
LINE
  5
357
  8
DETAIL
  6
CONTINUOUS
 62
     5
 10
1016.3362049999999
 20
1309.5559430000001
 30
0.0
 11
2460.026175
 21
1309.5559430000001
 31
0.0
  0
LINE
  5
358
  8
DETAIL
  6
CONTINUOUS
 62
     5
 10
2493.000188
 20
1326.5579789999999
 30
0.0
 11
983.00018800000021
 21
1326.5579789999999
 31
0.0
  0
LINE
  5
359
  8
SERVICESPACE
  6
CONTINUOUS
 62
     2
 10
963.00018800000009
 20
1384.5579789999999
 30
0.0
 11
963.00018800000009
 21
818.55797900000005
 31
0.0
  0
POLYLINE
  5
35A
  8
NOTE
  6
CONTINUOUS
 62
     4
 66
     1
 10
0.0
 20
0.0
 30
0.0
  0
VERTEX
  5
1625
  8
NOTE
  6
CONTINUOUS
 62
     4
 10
983.00021800000013
 20
743.55797900000005
 30
0.0
  0
VERTEX
  5
1626
  8
NOTE
  6
CONTINUOUS
 62
     4
 10
605.43329699999981
 20
1178.49513
 30
0.0
  0
SEQEND
  5
1627
  8
NOTE
  6
CONTINUOUS
 62
     4
  0
POLYLINE
  5
35E
  8
NOTE
  6
CONTINUOUS
 62
     4
 66
     1
 10
0.0
 20
0.0
 30
0.0
  0
VERTEX
  5
1628
  8
NOTE
  6
CONTINUOUS
 62
     4
 10
944.00018799999998
 20
739.55797900000005
 30
0.0
  0
VERTEX
  5
1629
  8
NOTE
  6
CONTINUOUS
 62
     4
 10
605.43329699999981
 20
1057.7219230000001
 30
0.0
  0
SEQEND
  5
162A
  8
NOTE
  6
CONTINUOUS
 62
     4
  0
POLYLINE
  5
362
  8
NOTE
  6
CONTINUOUS
 62
     4
 66
     1
 10
0.0
 20
0.0
 30
0.0
  0
VERTEX
  5
162B
  8
NOTE
  6
CONTINUOUS
 62
     4
 10
936.00018799999998
 20
675.55797900000005
 30
0.0
  0
VERTEX
  5
162C
  8
NOTE
  6
CONTINUOUS
 62
     4
 10
596.24859000000004
 20
951.76413200000002
 30
0.0
  0
SEQEND
  5
162D
  8
NOTE
  6
CONTINUOUS
 62
     4
  0
POLYLINE
  5
366
  8
NOTE
  6
CONTINUOUS
 62
     4
 66
     1
 10
0.0
 20
0.0
 30
0.0
  0
VERTEX
  5
162E
  8
NOTE
  6
CONTINUOUS
 62
     4
 10
949.00018800000021
 20
824.55797900000005
 30
0.0
  0
VERTEX
  5
162F
  8
NOTE
  6
CONTINUOUS
 62
     4
 10
536.71322099999998
 20
1373.6197320000001
 30
0.0
  0
SEQEND
  5
1630
  8
NOTE
  6
CONTINUOUS
 62
     4
  0
LINE
  5
36A
  8
OUTLINE
  6
CONTINUOUS
 62
     3
 10
983.00018800000021
 20
551.55797900000005
 30
0.0
 11
983.00018800000021
 21
1326.5579789999999
 31
0.0
  0
LINE
  5
36B
  8
OUTLINE
  6
CONTINUOUS
 62
     3
 10
943.00018799999998
 20
1385.5579789999999
 30
0.0
 11
943.00018799999998
 21
817.55797900000005
 31
0.0
  0
LINE
  5
36C
  8
DETAIL
  6
CONTINUOUS
 62
     5
 10
943.00018799999998
 20
1385.5579789999999
 30
0.0
 11
943.00018799999998
 21
817.55797900000005
 31
0.0
  0
LINE
  5
36D
  8
SIZE
  6
CONTINUOUS
 62
    30
 10
983.00018800000021
 20
620.78895599999987
 30
0.0
 11
983.00018800000021
 21
1162.2670350000001
 31
0.0
  0
LINE
  5
36E
  8
SIZE
  6
CONTINUOUS
 62
    30
 10
944.00018799999998
 20
777.55797900000005
 30
0.0
 11
944.00018799999998
 21
1162.2670350000001
 31
0.0
  0
LINE
  5
36F
  8
SIZE
  6
CONTINUOUS
 62
    30
 10
983.00018800000021
 20
620.55978600000003
 30
0.0
 11
983.00018800000021
 21
1074.241004
 31
0.0
  0
LINE
  5
370
  8
SIZE
  6
CONTINUOUS
 62
    30
 10
949.00018800000021
 20
862.5579789999997
 30
0.0
 11
949.00018800000021
 21
1074.241004
 31
0.0
  0
TEXT
  5
371
  8
SIZE
  6
CONTINUOUS
 62
    30
 10
111.146866
 20
881.20083614285716
 30
0.0
 40
50.0
  1
775
 50
90.0
 41
0.9
 72
     1
 11
111.146866
 21
939.05797900000005
 31
0.0
  0
LINE
  5
372
  8
SIZE
  6
CONTINUOUS
 62
    30
 10
129.14686599999999
 20
571.55797900000005
 30
0.0
 11
129.14686599999999
 21
1306.5579789999999
 31
0.0
  0
LINE
  5
373
  8
DETAIL
  6
CONTINUOUS
 62
     5
 10
983.00018800000021
 20
602.55978600000003
 30
0.0
 11
983.00018800000021
 21
1278.5561829999999
 31
0.0
  0
LINE
  5
374
  8
SIZE
  6
CONTINUOUS
 62
    30
 10
963.00018800000009
 20
551.55797900000005
 30
0.0
 11
331.08290299999999
 21
551.55797900000005
 31
0.0
  0
LINE
  5
375
  8
SIZE
  6
CONTINUOUS
 62
    30
 10
936.3388829999999
 20
743.55797900000005
 30
0.0
 11
331.08290299999999
 21
743.55797900000005
 31
0.0
  0
LINE
  5
376
  8
SIZE
  6
CONTINUOUS
 62
    30
 10
965.00018800000032
 20
551.55797900000005
 30
0.0
 11
99.146866000000017
 21
551.55797900000005
 31
0.0
  0
LINE
  5
377
  8
SIZE
  6
CONTINUOUS
 62
    30
 10
965.00018800000032
 20
551.55797900000005
 30
0.0
 11
219.38928000000001
 21
551.55797900000005
 31
0.0
  0
LINE
  5
378
  8
SIZE
  6
CONTINUOUS
 62
    30
 10
910.99923000000001
 20
824.55797900000005
 30
0.0
 11
219.38928000000001
 21
824.55797900000005
 31
0.0
  0
LINE
  5
379
  8
SIZE
  6
CONTINUOUS
 62
    30
 10
905.99923000000013
 20
739.55797900000005
 30
0.0
 11
419.4096629999998
 21
739.55797900000005
 31
0.0
  0
LINE
  5
37A
  8
SIZE
  6
CONTINUOUS
 62
    30
 10
891.33885299999974
 20
675.55797900000005
 30
0.0
 11
419.4096629999998
 21
675.55797900000005
 31
0.0
  0
LINE
  5
37B
  8
SIZE
  6
CONTINUOUS
 62
    30
 10
891.33885299999974
 20
675.55797900000005
 30
0.0
 11
419.4096629999998
 21
675.55797900000005
 31
0.0
  0
LINE
  5
37C
  8
SIZE
  6
CONTINUOUS
 62
    30
 10
965.00018800000032
 20
551.55797900000005
 30
0.0
 11
419.4096629999998
 21
551.55797900000005
 31
0.0
  0
LINE
  5
37D
  8
SIZE
  6
CONTINUOUS
 62
    30
 10
1167.500188
 20
481.55797899999999
 30
0.0
 11
99.146866000000017
 21
481.55797899999999
 31
0.0
  0
LINE
  5
37E
  8
SIZE
  6
CONTINUOUS
 62
    30
 10
965.00018800000032
 20
551.55797900000005
 30
0.0
 11
99.146866000000017
 21
551.55797900000005
 31
0.0
  0
TEXT
  5
37F
  8
SIZE
  6
CONTINUOUS
 62
    30
 10
111.146866
 20
350.70083657142862
 30
0.0
 40
50.0
  1
70
 50
90.0
 41
0.9
 72
     1
 11
111.146866
 21
387.12940800000001
 31
0.0
  0
TEXT
  5
380
  8
SIZE
  6
CONTINUOUS
 62
    30
 10
331.08290299999999
 20
588.62940757142871
 30
0.0
 40
55.0
  1
192
 50
90.0
 41
0.9
 72
     1
 11
331.08290299999999
 21
647.55797900000016
 31
0.0
  0
LINE
  5
381
  8
SIZE
  6
CONTINUOUS
 62
    30
 10
349.08290299999999
 20
723.55797900000005
 30
0.0
 11
349.08290299999999
 21
571.55797900000005
 31
0.0
  0
TEXT
  5
382
  8
SIZE
  6
CONTINUOUS
 62
    30
 10
231.38928000000001
 20
630.20083614285727
 30
0.0
 40
50.0
  1
273
 50
90.0
 41
0.9
 72
     1
 11
231.38928000000001
 21
688.05797900000005
 31
0.0
  0
LINE
  5
383
  8
SIZE
  6
CONTINUOUS
 62
    30
 10
249.38928000000001
 20
804.55797900000005
 30
0.0
 11
249.38928000000001
 21
571.55797900000005
 31
0.0
  0
TEXT
  5
384
  8
SIZE
  6
CONTINUOUS
 62
    30
 10
431.4096629999998
 20
558.91512185714305
 30
0.0
 40
50.0
  1
124
 50
90.0
 41
0.9
 72
     1
 11
431.4096629999998
 21
613.55797900000005
 31
0.0
  0
LINE
  5
385
  8
SIZE
  6
CONTINUOUS
 62
    30
 10
449.40966299999991
 20
571.55797900000005
 30
0.0
 11
449.40966299999991
 21
655.55797900000016
 31
0.0
  0
CIRCLE
  5
386
  8
SIZE
  6
CONTINUOUS
 62
    30
 10
129.14686599999999
 20
481.55797899999999
 30
0.0
 40
10.0
  0
LINE
  5
387
  8
SIZE
  6
CONTINUOUS
 62
    30
 10
129.14686599999999
 20
471.55797899999988
 30
0.0
 11
129.14686599999999
 21
461.55797899999988
 31
0.0
  0
LINE
  5
388
  8
SIZE
  6
CONTINUOUS
 62
    30
 10
129.14686599999999
 20
461.55797899999988
 30
0.0
 11
129.14686599999999
 21
332.70083599999998
 31
0.0
  0
LINE
  5
389
  8
SIZE
  6
CONTINUOUS
 62
    30
 10
129.14686599999999
 20
561.55797900000005
 30
0.0
 11
129.14686599999999
 21
571.55797900000005
 31
0.0
  0
CIRCLE
  5
38A
  8
SIZE
  6
CONTINUOUS
 62
    30
 10
129.14686599999999
 20
551.55797900000005
 30
0.0
 40
10.0
  0
POINT
  5
38B
  8
DEFPOINTS
  6
CONTINUOUS
 62
     7
 10
129.14686599999999
 20
481.55797899999999
 30
0.0
  0
LINE
  5
38C
  8
SIZE
  6
CONTINUOUS
 62
    30
 10
129.14686599999999
 20
561.55797900000005
 30
0.0
 11
129.14686599999999
 21
571.55797900000005
 31
0.0
  0
CIRCLE
  5
38D
  8
SIZE
  6
CONTINUOUS
 62
    30
 10
129.14686599999999
 20
551.55797900000005
 30
0.0
 40
10.0
  0
LINE
  5
38E
  8
SIZE
  6
CONTINUOUS
 62
    30
 10
129.14686599999999
 20
551.55797900000005
 30
0.0
 11
129.14686599999999
 21
481.55797899999999
 31
0.0
  0
LINE
  5
38F
  8
SIZE
  6
CONTINUOUS
 62
    30
 10
129.14686599999999
 20
571.55797900000005
 30
0.0
 11
129.14686599999999
 21
591.55797900000005
 31
0.0
  0
POINT
  5
390
  8
DEFPOINTS
  6
CONTINUOUS
 62
     7
 10
249.38928000000001
 20
551.55797900000005
 30
0.0
  0
LINE
  5
391
  8
SIZE
  6
CONTINUOUS
 62
    30
 10
249.38928000000001
 20
561.55797900000005
 30
0.0
 11
249.38928000000001
 21
571.55797900000005
 31
0.0
  0
CIRCLE
  5
392
  8
SIZE
  6
CONTINUOUS
 62
    30
 10
249.38928000000001
 20
551.55797900000005
 30
0.0
 40
10.0
  0
POINT
  5
393
  8
DEFPOINTS
  6
CONTINUOUS
 62
     7
 10
349.08290299999999
 20
551.55797900000005
 30
0.0
  0
LINE
  5
394
  8
SIZE
  6
CONTINUOUS
 62
    30
 10
349.08290299999999
 20
561.55797900000005
 30
0.0
 11
349.08290299999999
 21
571.55797900000005
 31
0.0
  0
CIRCLE
  5
395
  8
SIZE
  6
CONTINUOUS
 62
    30
 10
349.08290299999999
 20
551.55797900000005
 30
0.0
 40
10.0
  0
LINE
  5
396
  8
SIZE
  6
CONTINUOUS
 62
    30
 10
449.40966299999991
 20
561.55797900000005
 30
0.0
 11
449.40966299999991
 21
571.55797900000005
 31
0.0
  0
CIRCLE
  5
397
  8
SIZE
  6
CONTINUOUS
 62
    30
 10
449.40966299999991
 20
551.55797900000005
 30
0.0
 40
10.0
  0
LINE
  5
398
  8
SIZE
  6
CONTINUOUS
 62
    30
 10
249.38928000000001
 20
814.55797900000005
 30
0.0
 11
249.38928000000001
 21
804.55797900000005
 31
0.0
  0
CIRCLE
  5
399
  8
SIZE
  6
CONTINUOUS
 62
    30
 10
249.38928000000001
 20
824.55797900000005
 30
0.0
 40
10.0
  0
LINE
  5
39A
  8
SIZE
  6
CONTINUOUS
 62
    30
 10
449.40966299999991
 20
759.55797900000005
 30
0.0
 11
449.40966299999991
 21
932.51748899999996
 31
0.0
  0
LINE
  5
39B
  8
SIZE
  6
CONTINUOUS
 62
    30
 10
349.08290299999999
 20
733.55797900000005
 30
0.0
 11
349.08290299999999
 21
723.55797900000005
 31
0.0
  0
CIRCLE
  5
39C
  8
SIZE
  6
CONTINUOUS
 62
    30
 10
349.08290299999999
 20
743.55797900000005
 30
0.0
 40
10.0
  0
POINT
  5
39D
  8
DEFPOINTS
  6
CONTINUOUS
 62
     7
 10
449.40966299999991
 20
739.55797900000005
 30
0.0
  0
LINE
  5
39E
  8
SIZE
  6
CONTINUOUS
 62
    30
 10
449.40966299999991
 20
749.55797900000005
 30
0.0
 11
449.40966299999991
 21
759.55797900000005
 31
0.0
  0
CIRCLE
  5
39F
  8
SIZE
  6
CONTINUOUS
 62
    30
 10
449.40966299999991
 20
739.55797900000005
 30
0.0
 40
10.0
  0
LINE
  5
3A0
  8
SIZE
  6
CONTINUOUS
 62
    30
 10
449.40966299999991
 20
665.55797900000005
 30
0.0
 11
449.40966299999991
 21
655.55797900000016
 31
0.0
  0
CIRCLE
  5
3A1
  8
SIZE
  6
CONTINUOUS
 62
    30
 10
449.40966299999991
 20
675.55797900000005
 30
0.0
 40
10.0
  0
LINE
  5
3A2
  8
SIZE
  6
CONTINUOUS
 62
    30
 10
449.40966299999991
 20
675.55797900000005
 30
0.0
 11
449.40966299999991
 21
739.55797900000005
 31
0.0
  0
LINE
  5
3A3
  8
SIZE
  6
CONTINUOUS
 62
    30
 10
449.40966299999991
 20
655.55797900000016
 30
0.0
 11
449.40966299999991
 21
635.55797900000005
 31
0.0
  0
POINT
  5
3A4
  8
DEFPOINTS
  6
CONTINUOUS
 62
     7
 10
449.40966299999991
 20
675.55797900000005
 30
0.0
  0
LINE
  5
3A5
  8
SIZE
  6
CONTINUOUS
 62
    30
 10
449.40966299999991
 20
665.55797900000005
 30
0.0
 11
449.40966299999991
 21
655.55797900000016
 31
0.0
  0
CIRCLE
  5
3A6
  8
SIZE
  6
CONTINUOUS
 62
    30
 10
449.40966299999991
 20
675.55797900000005
 30
0.0
 40
10.0
  0
TEXT
  5
3A7
  8
SIZE
  6
CONTINUOUS
 62
    30
 10
431.4096629999998
 20
839.51748899999984
 30
0.0
 40
50.0
  1
64
 50
90.0
 41
0.9
 72
     1
 11
431.4096629999998
 21
877.01748899999984
 31
0.0
  0
LINE
  5
3A8
  8
SIZE
  6
CONTINUOUS
 62
    30
 10
983.00018800000021
 20
533.55797900000005
 30
0.0
 11
983.00018800000021
 21
99.494550000000004
 31
0.0
  0
LINE
  5
3A9
  8
SIZE
  6
CONTINUOUS
 62
    30
 10
967.00018799999987
 20
538.05444599999998
 30
0.0
 11
967.00018799999987
 21
99.494550000000004
 31
0.0
  0
LINE
  5
3AA
  8
SIZE
  6
CONTINUOUS
 62
    30
 10
983.00018800000021
 20
533.55797900000005
 30
0.0
 11
983.00018800000021
 21
99.494550000000004
 31
0.0
  0
LINE
  5
3AB
  8
SIZE
  6
CONTINUOUS
 62
    30
 10
967.00018799999987
 20
538.05444599999998
 30
0.0
 11
967.00018799999987
 21
-0.000005
 31
0.0
  0
LINE
  5
3AC
  8
SIZE
  6
CONTINUOUS
 62
    30
 10
967.00018799999987
 20
538.05444599999998
 30
0.0
 11
967.00018799999987
 21
194.37408099999999
 31
0.0
  0
LINE
  5
3AD
  8
SIZE
  6
CONTINUOUS
 62
    30
 10
990.00018800000032
 20
547.55797900000005
 30
0.0
 11
990.00018800000032
 21
194.37408099999999
 31
0.0
  0
LINE
  5
3AE
  8
SIZE
  6
CONTINUOUS
 62
    30
 10
1283.000188
 20
391.61346400000002
 30
0.0
 11
1283.000188
 21
324.615295
 31
0.0
  0
LINE
  5
3AF
  8
SIZE
  6
CONTINUOUS
 62
    30
 10
990.00018800000032
 20
547.55797900000005
 30
0.0
 11
990.00018800000032
 21
194.37408099999999
 31
0.0
  0
CIRCLE
  5
3B0
  8
SIZE
  6
CONTINUOUS
 62
    30
 10
967.00018799999987
 20
129.49455
 30
0.0
 40
10.0
  0
CIRCLE
  5
3B1
  8
SIZE
  6
CONTINUOUS
 62
    30
 10
967.00018799999987
 20
29.999994999999998
 30
0.0
 40
10.0
  0
CIRCLE
  5
3B2
  8
SIZE
  6
CONTINUOUS
 62
    30
 10
967.00018799999987
 20
224.37408099999999
 30
0.0
 40
10.0
  0
TEXT
  5
3B3
  8
SIZE
  6
CONTINUOUS
 62
    30
 10
846.85733042857134
 20
147.49455
 30
0.0
 40
50.0
  1
16
 41
0.9
 72
     1
 11
877.92875900000001
 21
147.49455
 31
0.0
  0
LINE
  5
3B4
  8
SIZE
  6
CONTINUOUS
 62
    30
 10
947.00018800000009
 20
129.49455
 30
0.0
 11
828.85733100000004
 21
129.49455
 31
0.0
  0
LINE
  5
3B5
  8
SIZE
  6
CONTINUOUS
 62
    30
 10
957.00018800000032
 20
129.49455
 30
0.0
 11
947.00018800000009
 21
129.49455
 31
0.0
  0
TEXT
  5
3B6
  8
SIZE
  6
CONTINUOUS
 62
    30
 10
836.14304557142839
 20
242.37408099999999
 30
0.0
 40
50.0
  1
23
 41
0.9
 72
     1
 11
872.57161699999983
 21
242.37408099999999
 31
0.0
  0
LINE
  5
3B7
  8
SIZE
  6
CONTINUOUS
 62
    30
 10
947.00018800000009
 20
224.37408099999999
 30
0.0
 11
818.14304500000003
 21
224.37408099999999
 31
0.0
  0
LINE
  5
3B8
  8
SIZE
  6
CONTINUOUS
 62
    30
 10
957.00018800000032
 20
224.37408099999999
 30
0.0
 11
947.00018800000009
 21
224.37408099999999
 31
0.0
  0
LINE
  5
3B9
  8
SIZE
  6
CONTINUOUS
 62
    30
 10
993.00018799999998
 20
129.49455
 30
0.0
 11
1003.000188
 21
129.49455
 31
0.0
  0
CIRCLE
  5
3BA
  8
SIZE
  6
CONTINUOUS
 62
    30
 10
983.00018800000021
 20
129.49455
 30
0.0
 40
10.0
  0
POINT
  5
3BB
  8
DEFPOINTS
  6
CONTINUOUS
 62
     7
 10
967.00018799999987
 20
129.49455
 30
0.0
  0
LINE
  5
3BC
  8
SIZE
  6
CONTINUOUS
 62
    30
 10
993.00018799999998
 20
129.49455
 30
0.0
 11
1003.000188
 21
129.49455
 31
0.0
  0
CIRCLE
  5
3BD
  8
SIZE
  6
CONTINUOUS
 62
    30
 10
983.00018800000021
 20
129.49455
 30
0.0
 40
10.0
  0
LINE
  5
3BE
  8
SIZE
  6
CONTINUOUS
 62
    30
 10
983.00018800000021
 20
129.49455
 30
0.0
 11
967.00018799999987
 21
129.49455
 31
0.0
  0
LINE
  5
3BF
  8
SIZE
  6
CONTINUOUS
 62
    30
 10
1003.000188
 20
129.49455
 30
0.0
 11
1023.000188
 21
129.49455
 31
0.0
  0
LINE
  5
3C0
  8
SIZE
  6
CONTINUOUS
 62
    30
 10
977.00018799999998
 20
29.999994999999998
 30
0.0
 11
987.00018800000021
 21
29.999994999999998
 31
0.0
  0
POINT
  5
3C1
  8
DEFPOINTS
  6
CONTINUOUS
 62
     7
 10
967.00018799999987
 20
224.37408099999999
 30
0.0
  0
LINE
  5
3C2
  8
SIZE
  6
CONTINUOUS
 62
    30
 10
1000.000188
 20
224.37408099999999
 30
0.0
 11
1010.000188
 21
224.37408099999999
 31
0.0
  0
CIRCLE
  5
3C3
  8
SIZE
  6
CONTINUOUS
 62
    30
 10
990.00018800000032
 20
224.37408099999999
 30
0.0
 40
10.0
  0
LINE
  5
3C4
  8
SIZE
  6
CONTINUOUS
 62
    30
 10
990.00018800000032
 20
224.37408099999999
 30
0.0
 11
967.00018799999987
 21
224.37408099999999
 31
0.0
  0
LINE
  5
3C5
  8
SIZE
  6
CONTINUOUS
 62
    30
 10
1010.000188
 20
224.37408099999999
 30
0.0
 11
1030.000188
 21
224.37408099999999
 31
0.0
  0
LINE
  5
3C6
  8
SIZE
  6
CONTINUOUS
 62
    30
 10
1000.000188
 20
224.37408099999999
 30
0.0
 11
1010.000188
 21
224.37408099999999
 31
0.0
  0
CIRCLE
  5
3C7
  8
SIZE
  6
CONTINUOUS
 62
    30
 10
990.00018800000032
 20
224.37408099999999
 30
0.0
 40
10.0
  0
LINE
  5
3C8
  8
NOTE
  6
CONTINUOUS
 62
     4
 10
983.00021800000013
 20
743.55797900000005
 30
0.0
 11
957.58969499999967
 21
761.41637700000001
 31
0.0
  0
LINE
  5
3C9
  8
NOTE
  6
CONTINUOUS
 62
     4
 10
956.33888300000001
 20
743.55797900000005
 30
0.0
 11
1009.661553
 21
743.55797900000005
 31
0.0
  0
LINE
  5
3CA
  8
OUTLINE
  6
CONTINUOUS
 62
     3
 10
959.00018799999998
 20
801.55797900000005
 30
0.0
 11
983.00018800000021
 21
801.55797900000005
 31
0.0
  0
LINE
  5
3CB
  8
SIZE
  6
CONTINUOUS
 62
    30
 10
983.00018800000021
 20
373.44054399999999
 30
0.0
 11
936.00018799999998
 21
373.44054399999999
 31
0.0
  0
LINE
  5
3CC
  8
DETAIL
  6
CONTINUOUS
 62
     5
 10
959.00018799999998
 20
801.55797900000005
 30
0.0
 11
983.00018800000021
 21
801.55797900000005
 31
0.0
  0
LINE
  5
3CD
  8
NOTE
  6
CONTINUOUS
 62
     4
 10
909.33885299999997
 20
675.55797900000005
 30
0.0
 11
962.66152299999999
 21
675.55797900000005
 31
0.0
  0
LINE
  5
3CE
  8
DETAIL
  6
CONTINUOUS
 62
     5
 10
983.00018800000021
 20
683.49797899999999
 30
0.0
 11
936.00018799999998
 21
683.49797899999999
 31
0.0
  0
LINE
  5
3CF
  8
DETAIL
  6
CONTINUOUS
 62
     5
 10
936.00018799999998
 20
667.61797899999988
 30
0.0
 11
983.00018800000021
 21
667.61797899999988
 31
0.0
  0
LINE
  5
3D0
  8
NOTE
  6
CONTINUOUS
 62
     4
 10
923.99923000000001
 20
739.55797900000005
 30
0.0
 11
964.00114599999995
 21
739.55797900000005
 31
0.0
  0
LINE
  5
3D1
  8
DETAIL
  6
CONTINUOUS
 62
     5
 10
944.00018799999998
 20
734.79797900000005
 30
0.0
 11
983.00018800000021
 21
734.79797900000005
 31
0.0
  0
LINE
  5
3D2
  8
DETAIL
  6
CONTINUOUS
 62
     5
 10
983.00018800000021
 20
744.31797900000004
 30
0.0
 11
944.00018799999998
 21
744.31797900000004
 31
0.0
  0
LINE
  5
3D3
  8
NOTE
  6
CONTINUOUS
 62
     4
 10
928.9992299999999
 20
824.55797900000005
 30
0.0
 11
969.00114599999995
 21
824.55797900000005
 31
0.0
  0
LINE
  5
3D4
  8
DETAIL
  6
CONTINUOUS
 62
     5
 10
949.00018800000021
 20
808.55797900000005
 30
0.0
 11
983.00018800000021
 21
808.55797900000005
 31
0.0
  0
LINE
  5
3D5
  8
DETAIL
  6
CONTINUOUS
 62
     5
 10
949.00018800000021
 20
840.55797899999993
 30
0.0
 11
983.00018800000021
 21
840.55797899999993
 31
0.0
  0
LINE
  5
3D6
  8
SIZE
  6
CONTINUOUS
 62
    30
 10
936.00018799999998
 20
637.55797900000005
 30
0.0
 11
936.00018799999998
 21
343.44054399999999
 31
0.0
  0
TEXT
  5
3D7
  8
SIZE
  6
CONTINUOUS
 62
    30
 10
805.14304557142816
 20
391.44054399999999
 30
0.0
 40
50.0
  1
47
 41
0.9
 72
     1
 11
841.57161699999972
 21
391.44054399999999
 31
0.0
  0
LINE
  5
3D8
  8
SIZE
  6
CONTINUOUS
 62
    30
 10
916.00018800000021
 20
373.44054399999999
 30
0.0
 11
787.14304500000003
 21
373.44054399999999
 31
0.0
  0
LINE
  5
3D9
  8
SIZE
  6
CONTINUOUS
 62
    30
 10
926.00018799999998
 20
373.44054399999999
 30
0.0
 11
916.00018800000021
 21
373.44054399999999
 31
0.0
  0
CIRCLE
  5
3DA
  8
SIZE
  6
CONTINUOUS
 62
    30
 10
936.00018799999998
 20
373.44054399999999
 30
0.0
 40
10.0
  0
POINT
  5
3DB
  8
DEFPOINTS
  6
CONTINUOUS
 62
     7
 10
956.33888300000001
 20
743.55797900000005
 30
0.0
  0
LINE
  5
3DC
  8
NOTE
  6
CONTINUOUS
 62
     4
 10
936.00018799999998
 20
675.55797900000005
 30
0.0
 11
908.03209599999991
 21
689.06364199999985
 31
0.0
  0
LINE
  5
3DD
  8
NOTE
  6
CONTINUOUS
 62
     4
 10
918.53194199999984
 20
701.23827200000005
 30
0.0
 11
936.00018799999998
 21
675.55797900000005
 31
0.0
  0
LINE
  5
3DE
  8
NOTE
  6
CONTINUOUS
 62
     4
 10
944.00018799999998
 20
739.55797900000005
 30
0.0
 11
916.80583300000001
 21
754.56078300000001
 31
0.0
  0
LINE
  5
3DF
  8
NOTE
  6
CONTINUOUS
 62
     4
 10
927.95058800000004
 20
766.147966
 30
0.0
 11
944.00018799999998
 21
739.55797900000005
 31
0.0
  0
POINT
  5
3E0
  8
DEFPOINTS
  6
CONTINUOUS
 62
     7
 10
936.00018799999998
 20
655.55797900000016
 30
0.0
  0
POINT
  5
3E1
  8
DEFPOINTS
  6
CONTINUOUS
 62
     7
 10
944.00018799999998
 20
759.55797900000005
 30
0.0
  0
POINT
  5
3E2
  8
DEFPOINTS
  6
CONTINUOUS
 62
     7
 10
923.99923000000001
 20
739.55797900000005
 30
0.0
  0
POINT
  5
3E3
  8
DEFPOINTS
  6
CONTINUOUS
 62
     7
 10
909.33885299999997
 20
675.55797900000005
 30
0.0
  0
POINT
  5
3E4
  8
DEFPOINTS
  6
CONTINUOUS
 62
     7
 10
909.33885299999997
 20
675.55797900000005
 30
0.0
  0
LINE
  5
3E5
  8
NOTE
  6
CONTINUOUS
 62
     4
 10
936.00018799999998
 20
655.55797900000016
 30
0.0
 11
936.00018799999998
 21
695.55797900000005
 31
0.0
  0
LINE
  5
3E6
  8
DETAIL
  6
CONTINUOUS
 62
     5
 10
936.00018799999998
 20
683.49797899999999
 30
0.0
 11
936.00018799999998
 21
667.61797899999988
 31
0.0
  0
LINE
  5
3E7
  8
NOTE
  6
CONTINUOUS
 62
     4
 10
944.00018799999998
 20
719.55797900000005
 30
0.0
 11
944.00018799999998
 21
759.55797900000005
 31
0.0
  0
LINE
  5
3E8
  8
DETAIL
  6
CONTINUOUS
 62
     5
 10
944.00018799999998
 20
744.31797900000004
 30
0.0
 11
944.00018799999998
 21
734.79797900000005
 31
0.0
  0
LINE
  5
3E9
  8
NOTE
  6
CONTINUOUS
 62
     4
 10
949.00018800000021
 20
824.55797900000005
 30
0.0
 11
924.27051599999993
 21
843.34788100000003
 31
0.0
  0
LINE
  5
3EA
  8
NOTE
  6
CONTINUOUS
 62
     4
 10
936.97861499999988
 20
853.19534799999985
 30
0.0
 11
949.00018800000021
 21
824.55797900000005
 31
0.0
  0
ARC
  5
3EB
  8
OUTLINE
  6
CONTINUOUS
 62
     3
 10
959.00018799999998
 20
817.55797900000005
 30
0.0
 40
16.0
 50
180.0
 51
270.0
  0
ARC
  5
3EC
  8
DETAIL
  6
CONTINUOUS
 62
     5
 10
959.00018799999998
 20
817.55797900000005
 30
0.0
 40
16.0
 50
180.0
 51
270.0
  0
POINT
  5
3ED
  8
DEFPOINTS
  6
CONTINUOUS
 62
     7
 10
949.00018800000021
 20
844.55797900000005
 30
0.0
  0
POINT
  5
3EE
  8
DEFPOINTS
  6
CONTINUOUS
 62
     7
 10
928.9992299999999
 20
824.55797900000005
 30
0.0
  0
LINE
  5
3EF
  8
NOTE
  6
CONTINUOUS
 62
     4
 10
949.00018800000021
 20
804.55797900000005
 30
0.0
 11
949.00018800000021
 21
844.55797900000005
 31
0.0
  0
LINE
  5
3F0
  8
DETAIL
  6
CONTINUOUS
 62
     5
 10
949.00018800000021
 20
840.55797899999993
 30
0.0
 11
949.00018800000021
 21
808.55797900000005
 31
0.0
  0
LINE
  5
3F1
  8
DETAIL
  6
CONTINUOUS
 62
     5
 10
1183.0002179999999
 20
521.55809199999976
 30
0.0
 11
1383.0002179999999
 21
521.55809199999976
 31
0.0
  0
LINE
  5
3F2
  8
DETAIL
  6
CONTINUOUS
 62
     5
 10
1185.5002179999999
 20
481.55809199999999
 30
0.0
 11
1380.5002179999999
 21
481.55809199999999
 31
0.0
  0
LINE
  5
3F3
  8
SIZE
  6
CONTINUOUS
 62
    30
 10
983.00018800000021
 20
533.55797900000005
 30
0.0
 11
983.00018800000021
 21
343.44054399999999
 31
0.0
  0
POINT
  5
3F4
  8
DEFPOINTS
  6
CONTINUOUS
 62
     7
 10
983.00018800000021
 20
373.44054399999999
 30
0.0
  0
LINE
  5
3F5
  8
SIZE
  6
CONTINUOUS
 62
    30
 10
993.00018799999998
 20
373.44054399999999
 30
0.0
 11
1003.000188
 21
373.44054399999999
 31
0.0
  0
CIRCLE
  5
3F6
  8
SIZE
  6
CONTINUOUS
 62
    30
 10
983.00018800000021
 20
373.44054399999999
 30
0.0
 40
10.0
  0
LINE
  5
3F7
  8
SIZE
  6
CONTINUOUS
 62
    30
 10
1003.000188
 20
373.44054399999999
 30
0.0
 11
1023.000188
 21
373.44054399999999
 31
0.0
  0
LINE
  5
3F8
  8
DETAIL
  6
CONTINUOUS
 62
     5
 10
1178.4873359999999
 20
529.09330499999965
 30
0.0
 11
1019.336565
 21
543.55702099999985
 31
0.0
  0
POINT
  5
3F9
  8
DEFPOINTS
  6
CONTINUOUS
 62
     7
 10
983.00018800000021
 20
551.55797900000005
 30
0.0
  0
POINT
  5
3FA
  8
DEFPOINTS
  6
CONTINUOUS
 62
     7
 10
983.00018800000021
 20
551.55797900000005
 30
0.0
  0
POINT
  5
3FB
  8
DEFPOINTS
  6
CONTINUOUS
 62
     7
 10
983.00018800000021
 20
602.78895599999998
 30
0.0
  0
POINT
  5
3FC
  8
DEFPOINTS
  6
CONTINUOUS
 62
     7
 10
983.00018800000021
 20
602.55978600000003
 30
0.0
  0
POINT
  5
3FD
  8
DEFPOINTS
  6
CONTINUOUS
 62
     7
 10
983.00018800000021
 20
551.55797900000005
 30
0.0
  0
POINT
  5
3FE
  8
DEFPOINTS
  6
CONTINUOUS
 62
     7
 10
983.00018800000021
 20
551.55797900000005
 30
0.0
  0
POINT
  5
3FF
  8
DEFPOINTS
  6
CONTINUOUS
 62
     7
 10
967.00018799999987
 20
556.05444599999998
 30
0.0
  0
POINT
  5
400
  8
DEFPOINTS
  6
CONTINUOUS
 62
     7
 10
983.00018800000021
 20
551.55797900000005
 30
0.0
  0
POINT
  5
401
  8
DEFPOINTS
  6
CONTINUOUS
 62
     7
 10
967.00018799999987
 20
556.05444599999998
 30
0.0
  0
POINT
  5
402
  8
DEFPOINTS
  6
CONTINUOUS
 62
     7
 10
967.00018799999987
 20
556.05444599999998
 30
0.0
  0
POINT
  5
403
  8
DEFPOINTS
  6
CONTINUOUS
 62
     7
 10
990.00018800000032
 20
565.55797900000005
 30
0.0
  0
POINT
  5
404
  8
DEFPOINTS
  6
CONTINUOUS
 62
     7
 10
983.00018800000021
 20
551.55797900000005
 30
0.0
  0
POINT
  5
405
  8
DEFPOINTS
  6
CONTINUOUS
 62
     7
 10
983.00018800000021
 20
551.55797900000005
 30
0.0
  0
POINT
  5
406
  8
DEFPOINTS
  6
CONTINUOUS
 62
     7
 10
983.00018800000021
 20
551.55797900000005
 30
0.0
  0
POINT
  5
407
  8
DEFPOINTS
  6
CONTINUOUS
 62
     7
 10
990.00018800000032
 20
565.55797900000005
 30
0.0
  0
ARC
  5
408
  8
DETAIL
  6
CONTINUOUS
 62
     5
 10
985.00018799999998
 20
602.55978600000003
 30
0.0
 40
2.0
 50
180.0
 51
270.0
  0
ARC
  5
409
  8
DETAIL
  6
CONTINUOUS
 62
     5
 10
985.00018799999998
 20
568.55619300000001
 30
0.0
 40
2.0
 50
90.0
 51
180.0
  0
CIRCLE
  5
40A
  8
FIX
  6
CONTINUOUS
 62
    11
 10
990.00018800000032
 20
585.55797900000005
 30
0.0
 40
18.598564
  0
LINE
  5
40B
  8
NOTE
  6
CONTINUOUS
 62
     4
 10
969.9992299999999
 20
585.55797900000005
 30
0.0
 11
1010.0011459999999
 21
585.55797900000005
 31
0.0
  0
LINE
  5
40C
  8
NOTE
  6
CONTINUOUS
 62
     4
 10
990.00018800000032
 20
565.55797900000005
 30
0.0
 11
990.00018800000032
 21
605.55797900000016
 31
0.0
  0
LINE
  5
40D
  8
DETAIL
  6
CONTINUOUS
 62
     5
 10
983.00018800000021
 20
551.55797900000005
 30
0.0
 11
983.00018800000021
 21
568.55619300000001
 31
0.0
  0
LINE
  5
40E
  8
DETAIL
  6
CONTINUOUS
 62
     5
 10
996.80100200000015
 20
570.55619300000001
 30
0.0
 11
996.80100200000015
 21
600.55978600000003
 31
0.0
  0
LINE
  5
40F
  8
DETAIL
  6
CONTINUOUS
 62
     5
 10
985.00018799999998
 20
600.55978600000003
 30
0.0
 11
996.80100200000015
 21
600.55978600000003
 31
0.0
  0
LINE
  5
410
  8
DETAIL
  6
CONTINUOUS
 62
     5
 10
985.00018799999998
 20
570.55619300000001
 30
0.0
 11
996.80100200000015
 21
570.55619300000001
 31
0.0
  0
LINE
  5
411
  8
DETAIL
  6
CONTINUOUS
 62
     5
 10
983.00018800000021
 20
615.06151199999999
 30
0.0
 11
967.00018799999987
 21
615.06151199999999
 31
0.0
  0
LINE
  5
412
  8
DETAIL
  6
CONTINUOUS
 62
     5
 10
983.00018800000021
 20
556.05444599999998
 30
0.0
 11
967.00018799999987
 21
556.05444599999998
 31
0.0
  0
LINE
  5
413
  8
DETAIL
  6
CONTINUOUS
 62
     5
 10
997.00102600000002
 20
577.55702099999985
 30
0.0
 11
997.00102600000002
 21
593.55893700000001
 31
0.0
  0
LINE
  5
414
  8
DETAIL
  6
CONTINUOUS
 62
     5
 10
982.99935000000005
 20
579.55725999999981
 30
0.0
 11
967.00018799999987
 21
579.55725999999981
 31
0.0
  0
LINE
  5
415
  8
DETAIL
  6
CONTINUOUS
 62
     5
 10
982.99935000000005
 20
591.55869800000005
 30
0.0
 11
967.00018799999987
 21
591.55869800000005
 31
0.0
  0
LINE
  5
416
  8
DETAIL
  6
CONTINUOUS
 62
     5
 10
967.00018799999987
 20
556.05444599999998
 30
0.0
 11
967.00018799999987
 21
579.55725999999981
 31
0.0
  0
LINE
  5
417
  8
DETAIL
  6
CONTINUOUS
 62
     5
 10
982.99935000000005
 20
591.55869800000005
 30
0.0
 11
982.99935000000005
 21
593.55893700000001
 31
0.0
  0
ARC
  5
418
  8
DETAIL
  6
CONTINUOUS
 62
     5
 10
990.00018800000032
 20
577.55702099999985
 30
0.0
 40
7.000837999999999
 50
180.0
 51
0.0
  0
ARC
  5
419
  8
DETAIL
  6
CONTINUOUS
 62
     5
 10
990.00018800000032
 20
593.55893700000001
 30
0.0
 40
7.000837999999999
 50
0.0
 51
180.0
  0
LINE
  5
41A
  8
DETAIL
  6
CONTINUOUS
 62
     5
 10
982.99935000000005
 20
577.55702099999985
 30
0.0
 11
982.99935000000005
 21
579.55725999999981
 31
0.0
  0
LINE
  5
41B
  8
DETAIL
  6
CONTINUOUS
 62
     5
 10
967.00018799999987
 20
591.55869800000005
 30
0.0
 11
967.00018799999987
 21
615.06151199999999
 31
0.0
  0
ARC
  5
41C
  8
DETAIL
  6
CONTINUOUS
 62
     5
 10
1013.3358459999999
 20
549.55773899999997
 30
0.0
 40
2.000239999999998
 50
0.0
 51
90.0
  0
ARC
  5
41D
  8
DETAIL
  6
CONTINUOUS
 62
     5
 10
1019.336565
 20
547.5575
 30
0.0
 40
4.0004790000000003
 50
180.0
 51
270.0
  0
LINE
  5
41E
  8
DETAIL
  6
CONTINUOUS
 62
     5
 10
1015.336086
 20
549.55773899999997
 30
0.0
 11
1015.336086
 21
547.5575
 31
0.0
  0
LINE
  5
41F
  8
DETAIL
  6
CONTINUOUS
 62
     5
 10
1185.5002179999999
 20
481.55809199999999
 30
0.0
 11
1182.8265280000001
 21
524.44311300000004
 31
0.0
  0
POINT
  5
420
  8
DEFPOINTS
  6
CONTINUOUS
 62
     7
 10
1185.500188
 20
481.55797899999999
 30
0.0
  0
ARC
  5
421
  8
DETAIL
  6
CONTINUOUS
 62
     5
 10
1177.999589
 20
524.11654999999996
 30
0.0
 40
5.0005990000000002
 50
0.0
 51
84.402604999999994
  0
LINE
  5
422
  8
DETAIL
  6
CONTINUOUS
 62
     5
 10
1183.000188
 20
523.65042500000004
 30
0.0
 11
1183.000188
 21
524.11654999999996
 31
0.0
  0
LINE
  5
423
  8
NOTE
  6
CONTINUOUS
 62
     4
 10
1283.000188
 20
553.50249399999996
 30
0.0
 11
1283.000188
 21
409.61346400000002
 31
0.0
  0
LINE
  5
424
  8
SIZE
  6
CONTINUOUS
 62
    30
 10
1293.000188
 20
354.615295
 30
0.0
 11
1303.000188
 21
354.615295
 31
0.0
  0
POINT
  5
425
  8
DEFPOINTS
  6
CONTINUOUS
 62
     7
 10
1283.000188
 20
409.61346400000002
 30
0.0
  0
CIRCLE
  5
426
  8
SIZE
  6
CONTINUOUS
 62
    30
 10
1283.000188
 20
354.615295
 30
0.0
 40
10.0
  0
LINE
  5
427
  8
NOTE
  6
CONTINUOUS
 62
     4
 10
1211.0556730000001
 20
481.55797899999999
 30
0.0
 11
1354.9447029999999
 21
481.55797899999999
 31
0.0
  0
ARC
  5
428
  8
DETAIL
  6
CONTINUOUS
 62
     5
 10
1384.9315260000001
 20
520.39658199999985
 30
0.0
 40
2.0
 50
121.227886
 51
176.423666
  0
ARC
  5
429
  8
DETAIL
  6
CONTINUOUS
 62
     5
 10
1384.9315260000001
 20
520.39658199999985
 30
0.0
 40
2.0
 50
121.227886
 51
176.423666
  0
LINE
  5
42A
  8
DETAIL
  6
CONTINUOUS
 62
     5
 10
1380.5002179999999
 20
481.55809199999999
 30
0.0
 11
1382.9354209999999
 21
520.52133800000001
 31
0.0
  0
LINE
  5
42B
  8
NOTE
  6
CONTINUOUS
 62
     4
 10
969.92325800000003
 20
771.72906699999965
 30
0.0
 11
983.00021800000013
 21
743.55797900000005
 31
0.0
  0
LINE
  5
42C
  8
NOTE
  6
CONTINUOUS
 62
     4
 10
605.43329699999981
 20
1178.49513
 30
0.0
 11
170.50249700000001
 21
1178.49513
 31
0.0
  0
TEXT
  5
42D
  8
NOTE
  6
CONTINUOUS
 62
     4
 10
192.17776900000001
 20
1194.3216609999999
 30
0.0
 40
60.0
  1
D2（自然排水口）
 50
0.000003
 41
0.7
  7
STANDARD1
  0
LINE
  5
42E
  8
SIZE
  6
CONTINUOUS
 62
    30
 10
965.00018800000032
 20
1326.5579789999999
 30
0.0
 11
99.146866000000017
 21
1326.5579789999999
 31
0.0
  0
TEXT
  5
42F
  8
NOTE
  6
CONTINUOUS
 62
     4
 10
259.83045099999998
 20
1389.4462619999999
 30
0.0
 40
60.0
  1
RD VP25
 50
0.000003
 41
0.7
  7
STANDARD1
  0
LINE
  5
430
  8
NOTE
  6
CONTINUOUS
 62
     4
 10
536.71322099999998
 20
1373.6197320000001
 30
0.0
 11
238.155179
 21
1373.6197320000001
 31
0.0
  0
LINE
  5
431
  8
NOTE
  6
CONTINUOUS
 62
     4
 10
536.71322099999998
 20
1373.6197320000001
 30
0.0
 11
238.155179
 21
1373.6197320000001
 31
0.0
  0
TEXT
  5
432
  8
ETC
  6
CONTINUOUS
 62
    61
 10
0.000011
 20
1821.6734240000001
 30
0.0
 40
65.0
  1
MPD-RP112_160FA3_1
 50
0.000003
 41
0.85
  7
STANDARD1
  0
LINE
  5
433
  8
NOTE
  6
CONTINUOUS
 62
     4
 10
605.43329699999981
 20
1057.7219230000001
 30
0.0
 11
262.56943699999999
 21
1057.7219230000001
 31
0.0
  0
TEXT
  5
434
  8
NOTE
  6
CONTINUOUS
 62
     4
 10
284.244709
 20
1073.548454
 30
0.0
 40
60.0
  1
RL %%C9.52
 50
0.000003
 41
0.7
  7
STANDARD1
  0
LINE
  5
435
  8
NOTE
  6
CONTINUOUS
 62
     4
 10
596.24859000000004
 20
951.76413200000002
 30
0.0
 11
224.45178999999999
 21
951.76413200000002
 31
0.0
  0
TEXT
  5
436
  8
NOTE
  6
CONTINUOUS
 62
     4
 10
246.127062
 20
967.59066199999995
 30
0.0
 40
60.0
  1
RG %%C15.88
 50
0.000003
 41
0.7
  7
STANDARD1
  0
POINT
  5
437
  8
DEFPOINTS
  6
CONTINUOUS
 62
     7
 10
129.14686599999999
 20
1326.5579789999999
 30
0.0
  0
LINE
  5
438
  8
SIZE
  6
CONTINUOUS
 62
    30
 10
129.14686599999999
 20
1316.5579789999999
 30
0.0
 11
129.14686599999999
 21
1306.5579789999999
 31
0.0
  0
CIRCLE
  5
439
  8
SIZE
  6
CONTINUOUS
 62
    30
 10
129.14686599999999
 20
1326.5579789999999
 30
0.0
 40
10.0
  0
LINE
  5
43A
  8
SIZE
  6
CONTINUOUS
 62
    30
 10
943.00019899999995
 20
1403.55799
 30
0.0
 11
943.00019899999995
 21
1596.978818
 31
0.0
  0
LINE
  5
43B
  8
SIZE
  6
CONTINUOUS
 62
    30
 10
963.00019899999995
 20
1402.55799
 30
0.0
 11
963.00019899999995
 21
1596.978818
 31
0.0
  0
LINE
  5
43C
  8
SIZE
  6
CONTINUOUS
 62
    30
 10
963.00019899999995
 20
1402.55799
 30
0.0
 11
963.00019899999995
 21
1596.978818
 31
0.0
  0
LINE
  5
43D
  8
SIZE
  6
CONTINUOUS
 62
    30
 10
943.00018799999998
 20
1403.5579789999999
 30
0.0
 11
943.00018799999998
 21
1701.207989
 31
0.0
  0
LINE
  5
43E
  8
SIZE
  6
CONTINUOUS
 62
    30
 10
983.00018800000021
 20
1132.2670350000001
 30
0.0
 11
944.00018799999998
 21
1132.2670350000001
 31
0.0
  0
LINE
  5
43F
  8
SIZE
  6
CONTINUOUS
 62
    30
 10
983.00018800000021
 20
1044.241004
 30
0.0
 11
949.00018800000021
 21
1044.241004
 31
0.0
  0
TEXT
  5
440
  8
SIZE
  6
CONTINUOUS
 62
    30
 10
816.00018800000021
 20
1062.241004
 30
0.0
 40
50.0
  1
34
 41
0.9
 72
     1
 11
853.50018800000021
 21
1062.241004
 31
0.0
  0
LINE
  5
441
  8
SIZE
  6
CONTINUOUS
 62
    30
 10
929.00018800000009
 20
1044.241004
 30
0.0
 11
798.00018799999964
 21
1044.241004
 31
0.0
  0
LINE
  5
442
  8
SIZE
  6
CONTINUOUS
 62
    30
 10
939.00018800000009
 20
1044.241004
 30
0.0
 11
929.00018800000009
 21
1044.241004
 31
0.0
  0
CIRCLE
  5
443
  8
SIZE
  6
CONTINUOUS
 62
    30
 10
949.00018800000021
 20
1044.241004
 30
0.0
 40
10.0
  0
TEXT
  5
444
  8
SIZE
  6
CONTINUOUS
 62
    30
 10
815.28590214285657
 20
1150.2670350000001
 30
0.0
 40
50.0
  1
39
 41
0.9
 72
     1
 11
850.64304499999957
 21
1150.2670350000001
 31
0.0
  0
LINE
  5
445
  8
SIZE
  6
CONTINUOUS
 62
    30
 10
924.00018800000021
 20
1132.2670350000001
 30
0.0
 11
797.28590199999985
 21
1132.2670350000001
 31
0.0
  0
LINE
  5
446
  8
SIZE
  6
CONTINUOUS
 62
    30
 10
934.00018799999998
 20
1132.2670350000001
 30
0.0
 11
924.00018800000021
 21
1132.2670350000001
 31
0.0
  0
CIRCLE
  5
447
  8
SIZE
  6
CONTINUOUS
 62
    30
 10
944.00018799999998
 20
1132.2670350000001
 30
0.0
 40
10.0
  0
ARC
  5
448
  8
OUTLINE
  6
CONTINUOUS
 62
     3
 10
959.00018799999998
 20
1385.5579789999999
 30
0.0
 40
16.0
 50
90.0
 51
180.0
  0
ARC
  5
449
  8
DETAIL
  6
CONTINUOUS
 62
     5
 10
959.00018799999998
 20
1385.5579789999999
 30
0.0
 40
16.0
 50
90.0
 51
180.0
  0
POINT
  5
44A
  8
DEFPOINTS
  6
CONTINUOUS
 62
     7
 10
943.00019899999995
 20
1385.55799
 30
0.0
  0
POINT
  5
44B
  8
DEFPOINTS
  6
CONTINUOUS
 62
     7
 10
943.00018799999998
 20
1385.5579789999999
 30
0.0
  0
POINT
  5
44C
  8
DEFPOINTS
  6
CONTINUOUS
 62
     7
 10
983.00018800000021
 20
1044.241004
 30
0.0
  0
LINE
  5
44D
  8
SIZE
  6
CONTINUOUS
 62
    30
 10
993.00018799999998
 20
1044.241004
 30
0.0
 11
1003.000188
 21
1044.241004
 31
0.0
  0
CIRCLE
  5
44E
  8
SIZE
  6
CONTINUOUS
 62
    30
 10
983.00018800000021
 20
1044.241004
 30
0.0
 40
10.0
  0
LINE
  5
44F
  8
SIZE
  6
CONTINUOUS
 62
    30
 10
1003.000188
 20
1044.241004
 30
0.0
 11
1023.000188
 21
1044.241004
 31
0.0
  0
POINT
  5
450
  8
DEFPOINTS
  6
CONTINUOUS
 62
     7
 10
983.00018800000021
 20
1132.2670350000001
 30
0.0
  0
LINE
  5
451
  8
SIZE
  6
CONTINUOUS
 62
    30
 10
993.00018799999998
 20
1132.2670350000001
 30
0.0
 11
1003.000188
 21
1132.2670350000001
 31
0.0
  0
CIRCLE
  5
452
  8
SIZE
  6
CONTINUOUS
 62
    30
 10
983.00018800000021
 20
1132.2670350000001
 30
0.0
 40
10.0
  0
LINE
  5
453
  8
SIZE
  6
CONTINUOUS
 62
    30
 10
1003.000188
 20
1132.2670350000001
 30
0.0
 11
1023.000188
 21
1132.2670350000001
 31
0.0
  0
POINT
  5
454
  8
DEFPOINTS
  6
CONTINUOUS
 62
     7
 10
963.00019899999995
 20
1384.55799
 30
0.0
  0
POINT
  5
455
  8
DEFPOINTS
  6
CONTINUOUS
 62
     7
 10
963.00019899999995
 20
1384.55799
 30
0.0
  0
POINT
  5
456
  8
DEFPOINTS
  6
CONTINUOUS
 62
     7
 10
983.00018800000021
 20
1326.5579789999999
 30
0.0
  0
ARC
  5
457
  8
DETAIL
  6
CONTINUOUS
 62
     5
 10
985.00018799999998
 20
1278.5561829999999
 30
0.0
 40
2.0
 50
90.0
 51
180.0
  0
ARC
  5
458
  8
DETAIL
  6
CONTINUOUS
 62
     5
 10
985.00018799999998
 20
1312.5597749999999
 30
0.0
 40
2.0
 50
180.0
 51
270.0
  0
CIRCLE
  5
459
  8
FIX
  6
CONTINUOUS
 62
    11
 10
990.00018800000032
 20
1295.5579789999999
 30
0.0
 40
18.598564
  0
LINE
  5
45A
  8
NOTE
  6
CONTINUOUS
 62
     4
 10
990.00018800000032
 20
1275.5579789999999
 30
0.0
 11
990.00018800000032
 21
1315.5579789999999
 31
0.0
  0
LINE
  5
45B
  8
NOTE
  6
CONTINUOUS
 62
     4
 10
969.86777599999982
 20
1295.5579789999999
 30
0.0
 11
1010.0011459999999
 21
1295.5579789999999
 31
0.0
  0
LINE
  5
45C
  8
DETAIL
  6
CONTINUOUS
 62
     5
 10
983.00018800000021
 20
1312.5597749999999
 30
0.0
 11
983.00018800000021
 21
1325.757883
 31
0.0
  0
LINE
  5
45D
  8
DETAIL
  6
CONTINUOUS
 62
     5
 10
996.86765600000001
 20
1280.5561829999999
 30
0.0
 11
996.86765600000001
 21
1310.5597749999999
 31
0.0
  0
LINE
  5
45E
  8
DETAIL
  6
CONTINUOUS
 62
     5
 10
985.00018799999998
 20
1280.5561829999999
 30
0.0
 11
996.86765600000001
 21
1280.5561829999999
 31
0.0
  0
LINE
  5
45F
  8
DETAIL
  6
CONTINUOUS
 62
     5
 10
985.00018799999998
 20
1310.5597749999999
 30
0.0
 11
996.86765600000001
 21
1310.5597749999999
 31
0.0
  0
LINE
  5
460
  8
DETAIL
  6
CONTINUOUS
 62
     5
 10
983.00018800000021
 20
1324.757979
 30
0.0
 11
967.00018799999987
 21
1324.757979
 31
0.0
  0
LINE
  5
461
  8
DETAIL
  6
CONTINUOUS
 62
     5
 10
983.00018800000021
 20
1266.3579789999999
 30
0.0
 11
967.00018799999987
 21
1266.3579789999999
 31
0.0
  0
LINE
  5
462
  8
DETAIL
  6
CONTINUOUS
 62
     5
 10
997.00102600000002
 20
1303.558867
 30
0.0
 11
997.00102600000002
 21
1287.5570909999999
 31
0.0
  0
LINE
  5
463
  8
DETAIL
  6
CONTINUOUS
 62
     5
 10
967.00018799999987
 20
1289.5579789999999
 30
0.0
 11
967.00018799999987
 21
1266.3579789999999
 31
0.0
  0
LINE
  5
464
  8
DETAIL
  6
CONTINUOUS
 62
     5
 10
982.99935000000005
 20
1301.5579789999999
 30
0.0
 11
967.00018799999987
 21
1301.5579789999999
 31
0.0
  0
LINE
  5
465
  8
DETAIL
  6
CONTINUOUS
 62
     5
 10
982.99935000000005
 20
1289.5579789999999
 30
0.0
 11
967.00018799999987
 21
1289.5579789999999
 31
0.0
  0
LINE
  5
466
  8
DETAIL
  6
CONTINUOUS
 62
     5
 10
967.00018799999987
 20
1324.757979
 30
0.0
 11
967.00018799999987
 21
1301.5579789999999
 31
0.0
  0
LINE
  5
467
  8
DETAIL
  6
CONTINUOUS
 62
     5
 10
982.99935000000005
 20
1289.5579789999999
 30
0.0
 11
982.99935000000005
 21
1287.5570210000001
 31
0.0
  0
ARC
  5
468
  8
DETAIL
  6
CONTINUOUS
 62
     5
 10
990.00018800000032
 20
1303.558937
 30
0.0
 40
7.000837999999999
 50
359.99943000000002
 51
180.0
  0
ARC
  5
469
  8
DETAIL
  6
CONTINUOUS
 62
     5
 10
990.00018800000032
 20
1287.5570210000001
 30
0.0
 40
7.000837999999999
 50
180.0
 51
0.00057
  0
LINE
  5
46A
  8
DETAIL
  6
CONTINUOUS
 62
     5
 10
982.99935000000005
 20
1303.558937
 30
0.0
 11
982.99935000000005
 21
1301.5579789999999
 31
0.0
  0
LINE
  5
46B
  8
DETAIL
  6
CONTINUOUS
 62
     5
 10
1013.3358459999999
 20
1312.556302
 30
0.0
 11
1016.3362049999999
 21
1309.5559430000001
 31
0.0
  0
LINE
  5
46C
  8
DETAIL
  6
CONTINUOUS
 62
     5
 10
1013.3358459999999
 20
1312.556302
 30
0.0
 11
1013.3358459999999
 21
1326.5579789999999
 31
0.0
  0
LINE
  5
46D
  8
DETAIL
  6
CONTINUOUS
 62
     5
 10
983.00018800000021
 20
1326.5579789999999
 30
0.0
 11
983.00018800000021
 21
1325.757883
 31
0.0
  0
LINE
  5
46E
  8
DETAIL
  6
CONTINUOUS
 62
     5
 10
1013.3358459999999
 20
1325.757883
 30
0.0
 11
983.00018800000021
 21
1325.757883
 31
0.0
  0
CIRCLE
  5
46F
  8
SIZE
  6
CONTINUOUS
 62
    30
 10
963.00019899999995
 20
1566.978818
 30
0.0
 40
10.0
  0
LINE
  5
470
  8
SIZE
  6
CONTINUOUS
 62
    30
 10
963.00019899999995
 20
1566.978818
 30
0.0
 11
943.00019899999995
 21
1566.978818
 31
0.0
  0
CIRCLE
  5
471
  8
SIZE
  6
CONTINUOUS
 62
    30
 10
963.00019899999995
 20
1566.978818
 30
0.0
 40
10.0
  0
LINE
  5
472
  8
SIZE
  6
CONTINUOUS
 62
    30
 10
953.00018799999998
 20
1671.207989
 30
0.0
 11
963.00018800000009
 21
1671.207989
 31
0.0
  0
TEXT
  5
473
  8
SIZE
  6
CONTINUOUS
 62
    30
 10
812.14305657142859
 20
1584.978818
 30
0.0
 40
50.0
  1
20
 41
0.9
 72
     1
 11
848.57162800000003
 21
1584.978818
 31
0.0
  0
LINE
  5
474
  8
SIZE
  6
CONTINUOUS
 62
    30
 10
923.00019899999995
 20
1566.978818
 30
0.0
 11
794.143056
 21
1566.978818
 31
0.0
  0
POINT
  5
475
  8
DEFPOINTS
  6
CONTINUOUS
 62
     7
 10
943.00019899999995
 20
1566.978818
 30
0.0
  0
LINE
  5
476
  8
SIZE
  6
CONTINUOUS
 62
    30
 10
933.00019899999995
 20
1566.978818
 30
0.0
 11
923.00019899999995
 21
1566.978818
 31
0.0
  0
CIRCLE
  5
477
  8
SIZE
  6
CONTINUOUS
 62
    30
 10
943.00019899999995
 20
1566.978818
 30
0.0
 40
10.0
  0
POINT
  5
478
  8
DEFPOINTS
  6
CONTINUOUS
 62
     7
 10
943.00018799999998
 20
1671.207989
 30
0.0
  0
CIRCLE
  5
479
  8
SIZE
  6
CONTINUOUS
 62
    30
 10
943.00018799999998
 20
1671.207989
 30
0.0
 40
10.0
  0
LINE
  5
47A
  8
SIZE
  6
CONTINUOUS
 62
    30
 10
973.00019899999995
 20
1566.978818
 30
0.0
 11
983.00019899999995
 21
1566.978818
 31
0.0
  0
LINE
  5
47B
  8
SIZE
  6
CONTINUOUS
 62
    30
 10
983.00019899999995
 20
1566.978818
 30
0.0
 11
1003.000199
 21
1566.978818
 31
0.0
  0
POINT
  5
47C
  8
DEFPOINTS
  6
CONTINUOUS
 62
     7
 10
963.00019899999995
 20
1566.978818
 30
0.0
  0
LINE
  5
47D
  8
SIZE
  6
CONTINUOUS
 62
    30
 10
973.00019899999995
 20
1566.978818
 30
0.0
 11
983.00019899999995
 21
1566.978818
 31
0.0
  0
CIRCLE
  5
47E
  8
ARRANGE
  6
CONTINUOUS
 62
     1
 10
1738.000188
 20
939.05797900000005
 30
0.0
 40
50.0
  0
LINE
  5
47F
  8
BASIS
  6
DASHDOT
 62
     6
 10
1738.000188
 20
1416.4478300000001
 30
0.0
 11
1738.000188
 21
470.66812800000002
 31
0.0
  0
TEXT
  5
480
  8
SIZE
  6
CONTINUOUS
 62
    30
 10
2914.6970209999999
 20
810.13941199999999
 30
0.0
 40
50.0
  1
(吊りボルトピッチ)
 50
90.0
 41
0.9
 72
     1
 11
2914.6970209999999
 21
1048.639412
 31
0.0
  0
TEXT
  5
481
  8
SIZE
  6
CONTINUOUS
 62
    30
 10
2986.3304229999999
 20
850.0860895714286
 30
0.0
 40
55.0
  1
710
 50
90.0
 41
0.9
 72
     1
 11
2986.3304229999999
 21
909.01466100000005
 31
0.0
  0
LINE
  5
482
  8
SIZE
  6
CONTINUOUS
 62
    30
 10
3007.8262789999999
 20
1275.5579789999999
 30
0.0
 11
3007.8262789999999
 21
605.55797900000016
 31
0.0
  0
TEXT
  5
483
  8
SIZE
  6
CONTINUOUS
 62
    30
 10
3146.635491
 20
854.91975171428555
 30
0.0
 40
50.0
  1
566（天井開口寸法）
 50
90.0
 41
0.9
 72
     1
 11
3146.635491
 21
1117.2054659999999
 31
0.0
  0
LINE
  5
484
  8
SIZE
  6
CONTINUOUS
 62
    30
 10
3164.635491
 20
1364.55799
 30
0.0
 11
3164.635491
 21
838.55798999999956
 31
0.0
  0
LINE
  5
485
  8
SERVICESPACE
  6
CONTINUOUS
 62
     2
 10
2513.000188
 20
1384.5579789999999
 30
0.0
 11
2513.000188
 21
818.55797900000005
 31
0.0
  0
LINE
  5
486
  8
OUTLINE
  6
CONTINUOUS
 62
     3
 10
2493.000188
 20
551.55797900000005
 30
0.0
 11
2493.000188
 21
1326.5579789999999
 31
0.0
  0
LINE
  5
487
  8
OUTLINE
  6
CONTINUOUS
 62
     3
 10
2533.000188
 20
1385.5579789999999
 30
0.0
 11
2533.000188
 21
817.55797900000005
 31
0.0
  0
LINE
  5
488
  8
DETAIL
  6
CONTINUOUS
 62
     5
 10
2533.000188
 20
1385.5579789999999
 30
0.0
 11
2533.000188
 21
817.55797900000005
 31
0.0
  0
LINE
  5
489
  8
ARRANGE
  6
CONTINUOUS
 62
     1
 10
1787.963951
 20
988.65457400000003
 30
0.0
 11
1688.036425
 21
889.46138399999984
 31
0.0
  0
LINE
  5
48A
  8
ARRANGE
  6
CONTINUOUS
 62
     1
 10
1788.037538
 20
889.53562599999964
 30
0.0
 11
1687.9628379999999
 21
988.580332
 31
0.0
  0
LINE
  5
48B
  8
DETAIL
  6
CONTINUOUS
 62
     5
 10
2493.000188
 20
602.560025
 30
0.0
 11
2493.000188
 21
1278.5458470000001
 31
0.0
  0
TEXT
  5
48C
  8
NOTE
  6
CONTINUOUS
 62
     4
 10
1831.516918
 20
699.59141499999987
 30
0.0
 40
60.0
  1
%%C200 吹出円形フランジ
 50
0.000003
 41
0.7
  7
STANDARD1
  0
LINE
  5
48D
  8
NOTE
  6
CONTINUOUS
 62
     4
 10
2409.4606100000001
 20
684.79574799999978
 30
0.0
 11
1815.1421760000001
 21
684.79574799999978
 31
0.0
  0
LINE
  5
48E
  8
DETAIL
  6
CONTINUOUS
 62
     5
 10
2340.5002180000001
 20
481.55809199999999
 30
0.0
 11
2145.5002180000001
 21
481.55809199999999
 31
0.0
  0
LINE
  5
48F
  8
DETAIL
  6
CONTINUOUS
 62
     5
 10
2143.0002180000001
 20
521.55809199999976
 30
0.0
 11
2343.0002180000001
 21
521.55809199999976
 31
0.0
  0
LINE
  5
490
  8
NOTE
  6
CONTINUOUS
 62
     4
 10
2171.0556729999998
 20
481.55797899999999
 30
0.0
 11
2314.9447030000001
 21
481.55797899999999
 31
0.0
  0
LINE
  5
491
  8
SIZE
  6
CONTINUOUS
 62
    30
 10
2263.000188
 20
354.615295
 30
0.0
 11
2473.000188
 21
354.615295
 31
0.0
  0
LINE
  5
492
  8
SIZE
  6
CONTINUOUS
 62
    30
 10
2243.000188
 20
391.61346400000002
 30
0.0
 11
2243.000188
 21
324.615295
 31
0.0
  0
LINE
  5
493
  8
SIZE
  6
CONTINUOUS
 62
    30
 10
2243.000188
 20
391.61346400000002
 30
0.0
 11
2243.000188
 21
324.615295
 31
0.0
  0
LINE
  5
494
  8
SIZE
  6
CONTINUOUS
 62
    30
 10
1923.000188
 20
391.61346400000002
 30
0.0
 11
1923.000188
 21
324.615295
 31
0.0
  0
LINE
  5
495
  8
SIZE
  6
CONTINUOUS
 62
    30
 10
1923.000188
 20
391.61346400000002
 30
0.0
 11
1923.000188
 21
324.615295
 31
0.0
  0
LINE
  5
496
  8
SIZE
  6
CONTINUOUS
 62
    30
 10
1603.000188
 20
391.61346400000002
 30
0.0
 11
1603.000188
 21
324.615295
 31
0.0
  0
LINE
  5
497
  8
SIZE
  6
CONTINUOUS
 62
    30
 10
1603.000188
 20
391.61346400000002
 30
0.0
 11
1603.000188
 21
324.615295
 31
0.0
  0
TEXT
  5
498
  8
SIZE
  6
CONTINUOUS
 62
    30
 10
1418.071616571428
 20
255.46931900000001
 30
0.0
 40
50.0
  1
1496(吊りボルトピッチ)
 41
0.9
 72
     1
 11
1738.000188
 21
255.46931900000001
 31
0.0
  0
TEXT
  5
499
  8
SIZE
  6
CONTINUOUS
 62
    30
 10
1667.285902285714
 20
147.49455
 30
0.0
 40
50.0
  1
1510
 41
0.9
 72
     1
 11
1738.000188
 21
147.49455
 31
0.0
  0
TEXT
  5
49A
  8
SIZE
  6
CONTINUOUS
 62
    30
 10
1663.000188
 20
47.999994999999998
 30
0.0
 40
50.0
  1
1542
 41
0.9
 72
     1
 11
1738.000188
 21
47.999994999999998
 31
0.0
  0
LINE
  5
49B
  8
DETAIL
  6
CONTINUOUS
 62
     5
 10
1823.0002179999999
 20
521.55809199999976
 30
0.0
 11
2023.0002179999999
 21
521.55809199999976
 31
0.0
  0
LINE
  5
49C
  8
DETAIL
  6
CONTINUOUS
 62
     5
 10
1825.5002179999999
 20
481.55809199999999
 30
0.0
 11
2020.5002179999999
 21
481.55809199999999
 31
0.0
  0
LINE
  5
49D
  8
SIZE
  6
CONTINUOUS
 62
    30
 10
1623.000188
 20
354.615295
 30
0.0
 11
1903.000188
 21
354.615295
 31
0.0
  0
LINE
  5
49E
  8
NOTE
  6
CONTINUOUS
 62
     4
 10
1851.0556730000001
 20
481.55797899999999
 30
0.0
 11
1994.944702999999
 21
481.55797899999999
 31
0.0
  0
POLYLINE
  5
49F
  8
NOTE
  6
CONTINUOUS
 62
     4
 66
     1
 10
0.0
 20
0.0
 30
0.0
  0
VERTEX
  5
1631
  8
NOTE
  6
CONTINUOUS
 62
     4
 10
1603.000188
 20
481.55797899999999
 30
0.0
  0
VERTEX
  5
1632
  8
NOTE
  6
CONTINUOUS
 62
     4
 10
1815.1421760000001
 20
684.79574799999978
 30
0.0
  0
SEQEND
  5
1633
  8
NOTE
  6
CONTINUOUS
 62
     4
  0
LINE
  5
4A3
  8
DETAIL
  6
CONTINUOUS
 62
     5
 10
1505.5002179999999
 20
481.55809199999999
 30
0.0
 11
1700.5002179999999
 21
481.55809199999999
 31
0.0
  0
LINE
  5
4A4
  8
DETAIL
  6
CONTINUOUS
 62
     5
 10
1503.0002179999999
 20
521.55809199999976
 30
0.0
 11
1703.0002179999999
 21
521.55809199999976
 31
0.0
  0
LINE
  5
4A5
  8
NOTE
  6
CONTINUOUS
 62
     4
 10
1531.0556730000001
 20
481.55797899999999
 30
0.0
 11
1674.9447029999999
 21
481.55797899999999
 31
0.0
  0
LINE
  5
4A6
  8
NOTE
  6
CONTINUOUS
 62
     4
 10
1603.000188
 20
553.50249399999996
 30
0.0
 11
1603.000188
 21
409.61346400000002
 31
0.0
  0
POINT
  5
4A7
  8
DEFPOINTS
  6
CONTINUOUS
 62
     7
 10
1603.000188
 20
409.61346400000002
 30
0.0
  0
LINE
  5
4A8
  8
SIZE
  6
CONTINUOUS
 62
    30
 10
1613.000188
 20
354.615295
 30
0.0
 11
1623.000188
 21
354.615295
 31
0.0
  0
CIRCLE
  5
4A9
  8
SIZE
  6
CONTINUOUS
 62
    30
 10
1603.000188
 20
354.615295
 30
0.0
 40
10.0
  0
POINT
  5
4AA
  8
DEFPOINTS
  6
CONTINUOUS
 62
     7
 10
1603.000188
 20
354.615295
 30
0.0
  0
POINT
  5
4AB
  8
DEFPOINTS
  6
CONTINUOUS
 62
     7
 10
1603.000188
 20
409.61346400000002
 30
0.0
  0
LINE
  5
4AC
  8
SIZE
  6
CONTINUOUS
 62
    30
 10
1593.000188
 20
354.615295
 30
0.0
 11
1583.000188
 21
354.615295
 31
0.0
  0
CIRCLE
  5
4AD
  8
SIZE
  6
CONTINUOUS
 62
    30
 10
1603.000188
 20
354.615295
 30
0.0
 40
10.0
  0
ARC
  5
4AE
  8
DETAIL
  6
CONTINUOUS
 62
     5
 10
1501.06891
 20
520.39658199999985
 30
0.0
 40
2.0
 50
3.5763339999999948
 51
58.772114000000002
  0
LINE
  5
4AF
  8
DETAIL
  6
CONTINUOUS
 62
     5
 10
1505.5002179999999
 20
481.55809199999999
 30
0.0
 11
1503.0650149999999
 21
520.52133800000001
 31
0.0
  0
ARC
  5
4B0
  8
DETAIL
  6
CONTINUOUS
 62
     5
 10
1501.06891
 20
520.39658199999985
 30
0.0
 40
2.0
 50
3.5763339999999948
 51
58.772114000000002
  0
ARC
  5
4B1
  8
DETAIL
  6
CONTINUOUS
 62
     5
 10
1450.261471
 20
436.59560199999987
 30
0.0
 40
100.0
 50
58.772114000000002
 51
94.164056000000002
  0
LINE
  5
4B2
  8
NOTE
  6
CONTINUOUS
 62
     4
 10
1603.000188
 20
481.55797899999999
 30
0.0
 11
1619.10221
 21
508.11625400000003
 31
0.0
  0
LINE
  5
4B3
  8
NOTE
  6
CONTINUOUS
 62
     4
 10
1630.2240859999999
 20
496.50710899999939
 30
0.0
 11
1603.000188
 21
481.55797899999999
 31
0.0
  0
TEXT
  5
4B4
  8
SIZE
  6
CONTINUOUS
 62
    30
 10
1705.1430451428571
 20
372.615295
 30
0.0
 40
50.0
  1
320
 41
0.9
 72
     1
 11
1763.000188
 21
372.615295
 31
0.0
  0
ARC
  5
4B5
  8
DETAIL
  6
CONTINUOUS
 62
     5
 10
1755.738965
 20
436.59560199999987
 30
0.0
 40
100.0
 50
85.835943999999998
 51
121.227886
  0
ARC
  5
4B6
  8
DETAIL
  6
CONTINUOUS
 62
     5
 10
1704.9315260000001
 20
520.39658199999985
 30
0.0
 40
2.0
 50
121.227886
 51
176.423666
  0
LINE
  5
4B7
  8
DETAIL
  6
CONTINUOUS
 62
     5
 10
1700.5002179999999
 20
481.55809199999999
 30
0.0
 11
1702.9354209999999
 21
520.52133800000001
 31
0.0
  0
ARC
  5
4B8
  8
DETAIL
  6
CONTINUOUS
 62
     5
 10
1704.9315260000001
 20
520.39658199999985
 30
0.0
 40
2.0
 50
121.227886
 51
176.423666
  0
ARC
  5
4B9
  8
DETAIL
  6
CONTINUOUS
 62
     5
 10
1821.06891
 20
520.39658199999985
 30
0.0
 40
2.0
 50
3.5763339999999948
 51
58.772114000000002
  0
ARC
  5
4BA
  8
DETAIL
  6
CONTINUOUS
 62
     5
 10
1821.06891
 20
520.39658199999985
 30
0.0
 40
2.0
 50
3.5763339999999948
 51
58.772114000000002
  0
ARC
  5
4BB
  8
DETAIL
  6
CONTINUOUS
 62
     5
 10
1770.261471
 20
436.59560199999987
 30
0.0
 40
100.0
 50
58.772114000000002
 51
94.164056000000002
  0
LINE
  5
4BC
  8
DETAIL
  6
CONTINUOUS
 62
     5
 10
1825.5002179999999
 20
481.55809199999999
 30
0.0
 11
1823.0650149999999
 21
520.52133800000001
 31
0.0
  0
ARC
  5
4BD
  8
DETAIL
  6
CONTINUOUS
 62
     5
 10
2075.738965
 20
436.59560199999987
 30
0.0
 40
100.0
 50
85.835943999999998
 51
121.227886
  0
TEXT
  5
4BE
  8
SIZE
  6
CONTINUOUS
 62
    30
 10
2025.1430451428571
 20
372.615295
 30
0.0
 40
50.0
  1
320
 41
0.9
 72
     1
 11
2083.000188
 21
372.615295
 31
0.0
  0
LINE
  5
4BF
  8
SIZE
  6
CONTINUOUS
 62
    30
 10
1943.000188
 20
354.615295
 30
0.0
 11
2223.000188
 21
354.615295
 31
0.0
  0
LINE
  5
4C0
  8
NOTE
  6
CONTINUOUS
 62
     4
 10
1923.000188
 20
553.50249399999996
 30
0.0
 11
1923.000188
 21
409.61346400000002
 31
0.0
  0
POINT
  5
4C1
  8
DEFPOINTS
  6
CONTINUOUS
 62
     7
 10
1923.000188
 20
409.61346400000002
 30
0.0
  0
LINE
  5
4C2
  8
SIZE
  6
CONTINUOUS
 62
    30
 10
1933.000188
 20
354.615295
 30
0.0
 11
1943.000188
 21
354.615295
 31
0.0
  0
CIRCLE
  5
4C3
  8
SIZE
  6
CONTINUOUS
 62
    30
 10
1923.000188
 20
354.615295
 30
0.0
 40
10.0
  0
POINT
  5
4C4
  8
DEFPOINTS
  6
CONTINUOUS
 62
     7
 10
1923.000188
 20
354.615295
 30
0.0
  0
POINT
  5
4C5
  8
DEFPOINTS
  6
CONTINUOUS
 62
     7
 10
1923.000188
 20
409.61346400000002
 30
0.0
  0
LINE
  5
4C6
  8
SIZE
  6
CONTINUOUS
 62
    30
 10
1913.000188
 20
354.615295
 30
0.0
 11
1903.000188
 21
354.615295
 31
0.0
  0
CIRCLE
  5
4C7
  8
SIZE
  6
CONTINUOUS
 62
    30
 10
1923.000188
 20
354.615295
 30
0.0
 40
10.0
  0
ARC
  5
4C8
  8
DETAIL
  6
CONTINUOUS
 62
     5
 10
2024.9315260000001
 20
520.39658199999985
 30
0.0
 40
2.0
 50
121.227886
 51
176.423666
  0
LINE
  5
4C9
  8
DETAIL
  6
CONTINUOUS
 62
     5
 10
2020.5002179999999
 20
481.55809199999999
 30
0.0
 11
2022.9354209999999
 21
520.52133800000001
 31
0.0
  0
ARC
  5
4CA
  8
DETAIL
  6
CONTINUOUS
 62
     5
 10
2024.9315260000001
 20
520.39658199999985
 30
0.0
 40
2.0
 50
121.227886
 51
176.423666
  0
LINE
  5
4CB
  8
NOTE
  6
CONTINUOUS
 62
     4
 10
2243.000188
 20
553.50249399999996
 30
0.0
 11
2243.000188
 21
409.61346400000002
 31
0.0
  0
POINT
  5
4CC
  8
DEFPOINTS
  6
CONTINUOUS
 62
     7
 10
2243.000188
 20
409.61346400000002
 30
0.0
  0
LINE
  5
4CD
  8
SIZE
  6
CONTINUOUS
 62
    30
 10
2253.000188
 20
354.615295
 30
0.0
 11
2263.000188
 21
354.615295
 31
0.0
  0
CIRCLE
  5
4CE
  8
SIZE
  6
CONTINUOUS
 62
    30
 10
2243.000188
 20
354.615295
 30
0.0
 40
10.0
  0
POINT
  5
4CF
  8
DEFPOINTS
  6
CONTINUOUS
 62
     7
 10
2243.000188
 20
354.615295
 30
0.0
  0
POINT
  5
4D0
  8
DEFPOINTS
  6
CONTINUOUS
 62
     7
 10
2243.000188
 20
409.61346400000002
 30
0.0
  0
LINE
  5
4D1
  8
SIZE
  6
CONTINUOUS
 62
    30
 10
2233.000188
 20
354.615295
 30
0.0
 11
2223.000188
 21
354.615295
 31
0.0
  0
CIRCLE
  5
4D2
  8
SIZE
  6
CONTINUOUS
 62
    30
 10
2243.000188
 20
354.615295
 30
0.0
 40
10.0
  0
ARC
  5
4D3
  8
DETAIL
  6
CONTINUOUS
 62
     5
 10
2141.06891
 20
520.39658199999985
 30
0.0
 40
2.0
 50
3.5763339999999948
 51
58.772114000000002
  0
ARC
  5
4D4
  8
DETAIL
  6
CONTINUOUS
 62
     5
 10
2141.06891
 20
520.39658199999985
 30
0.0
 40
2.0
 50
3.5763339999999948
 51
58.772114000000002
  0
ARC
  5
4D5
  8
DETAIL
  6
CONTINUOUS
 62
     5
 10
2090.2614709999998
 20
436.59560199999987
 30
0.0
 40
100.0
 50
58.772114000000002
 51
94.164056000000002
  0
LINE
  5
4D6
  8
DETAIL
  6
CONTINUOUS
 62
     5
 10
2145.5002180000001
 20
481.55809199999999
 30
0.0
 11
2143.0650150000001
 21
520.52133800000001
 31
0.0
  0
LINE
  5
4D7
  8
SIZE
  6
CONTINUOUS
 62
    30
 10
2493.000188
 20
533.55797900000005
 30
0.0
 11
2493.000188
 21
99.494550000000004
 31
0.0
  0
LINE
  5
4D8
  8
SIZE
  6
CONTINUOUS
 62
    30
 10
2509.000188
 20
538.05444599999998
 30
0.0
 11
2509.000188
 21
-0.000005
 31
0.0
  0
LINE
  5
4D9
  8
SIZE
  6
CONTINUOUS
 62
    30
 10
2509.000188
 20
538.05444599999998
 30
0.0
 11
2509.000188
 21
99.494550000000004
 31
0.0
  0
LINE
  5
4DA
  8
SIZE
  6
CONTINUOUS
 62
    30
 10
2493.000188
 20
533.55797900000005
 30
0.0
 11
2493.000188
 21
99.494550000000004
 31
0.0
  0
LINE
  5
4DB
  8
SIZE
  6
CONTINUOUS
 62
    30
 10
2509.000188
 20
538.05444599999998
 30
0.0
 11
2509.000188
 21
194.37408099999999
 31
0.0
  0
LINE
  5
4DC
  8
SIZE
  6
CONTINUOUS
 62
    30
 10
2486.000188
 20
547.55797900000005
 30
0.0
 11
2486.000188
 21
194.37408099999999
 31
0.0
  0
LINE
  5
4DD
  8
SIZE
  6
CONTINUOUS
 62
    30
 10
2493.000188
 20
533.55797900000005
 30
0.0
 11
2493.000188
 21
324.615295
 31
0.0
  0
LINE
  5
4DE
  8
SIZE
  6
CONTINUOUS
 62
    30
 10
2486.000188
 20
547.55797900000005
 30
0.0
 11
2486.000188
 21
194.37408099999999
 31
0.0
  0
LINE
  5
4DF
  8
SIZE
  6
CONTINUOUS
 62
    30
 10
2519.000188
 20
129.49455
 30
0.0
 11
2529.000188
 21
129.49455
 31
0.0
  0
LINE
  5
4E0
  8
SIZE
  6
CONTINUOUS
 62
    30
 10
2519.000188
 20
224.37408099999999
 30
0.0
 11
2529.000188
 21
224.37408099999999
 31
0.0
  0
POINT
  5
4E1
  8
DEFPOINTS
  6
CONTINUOUS
 62
     7
 10
2493.000188
 20
129.49455
 30
0.0
  0
LINE
  5
4E2
  8
SIZE
  6
CONTINUOUS
 62
    30
 10
2483.000188
 20
129.49455
 30
0.0
 11
2473.000188
 21
129.49455
 31
0.0
  0
CIRCLE
  5
4E3
  8
SIZE
  6
CONTINUOUS
 62
    30
 10
2493.000188
 20
129.49455
 30
0.0
 40
10.0
  0
POINT
  5
4E4
  8
DEFPOINTS
  6
CONTINUOUS
 62
     7
 10
2509.000188
 20
29.999994999999998
 30
0.0
  0
LINE
  5
4E5
  8
SIZE
  6
CONTINUOUS
 62
    30
 10
2499.000188
 20
29.999994999999998
 30
0.0
 11
2489.000188
 21
29.999994999999998
 31
0.0
  0
CIRCLE
  5
4E6
  8
SIZE
  6
CONTINUOUS
 62
    30
 10
2509.000188
 20
29.999994999999998
 30
0.0
 40
10.0
  0
POINT
  5
4E7
  8
DEFPOINTS
  6
CONTINUOUS
 62
     7
 10
2509.000188
 20
129.49455
 30
0.0
  0
CIRCLE
  5
4E8
  8
SIZE
  6
CONTINUOUS
 62
    30
 10
2509.000188
 20
129.49455
 30
0.0
 40
10.0
  0
LINE
  5
4E9
  8
SIZE
  6
CONTINUOUS
 62
    30
 10
2483.000188
 20
129.49455
 30
0.0
 11
2473.000188
 21
129.49455
 31
0.0
  0
CIRCLE
  5
4EA
  8
SIZE
  6
CONTINUOUS
 62
    30
 10
2493.000188
 20
129.49455
 30
0.0
 40
10.0
  0
LINE
  5
4EB
  8
SIZE
  6
CONTINUOUS
 62
    30
 10
2493.000188
 20
129.49455
 30
0.0
 11
2509.000188
 21
129.49455
 31
0.0
  0
LINE
  5
4EC
  8
SIZE
  6
CONTINUOUS
 62
    30
 10
2473.000188
 20
129.49455
 30
0.0
 11
2453.000188
 21
129.49455
 31
0.0
  0
POINT
  5
4ED
  8
DEFPOINTS
  6
CONTINUOUS
 62
     7
 10
2509.000188
 20
224.37408099999999
 30
0.0
  0
CIRCLE
  5
4EE
  8
SIZE
  6
CONTINUOUS
 62
    30
 10
2509.000188
 20
224.37408099999999
 30
0.0
 40
10.0
  0
LINE
  5
4EF
  8
SIZE
  6
CONTINUOUS
 62
    30
 10
2476.000188
 20
224.37408099999999
 30
0.0
 11
2466.000188
 21
224.37408099999999
 31
0.0
  0
CIRCLE
  5
4F0
  8
SIZE
  6
CONTINUOUS
 62
    30
 10
2486.000188
 20
224.37408099999999
 30
0.0
 40
10.0
  0
LINE
  5
4F1
  8
SIZE
  6
CONTINUOUS
 62
    30
 10
2486.000188
 20
224.37408099999999
 30
0.0
 11
2509.000188
 21
224.37408099999999
 31
0.0
  0
LINE
  5
4F2
  8
SIZE
  6
CONTINUOUS
 62
    30
 10
2466.000188
 20
224.37408099999999
 30
0.0
 11
2446.000188
 21
224.37408099999999
 31
0.0
  0
POINT
  5
4F3
  8
DEFPOINTS
  6
CONTINUOUS
 62
     7
 10
2486.000188
 20
224.37408099999999
 30
0.0
  0
LINE
  5
4F4
  8
SIZE
  6
CONTINUOUS
 62
    30
 10
2476.000188
 20
224.37408099999999
 30
0.0
 11
2466.000188
 21
224.37408099999999
 31
0.0
  0
CIRCLE
  5
4F5
  8
SIZE
  6
CONTINUOUS
 62
    30
 10
2486.000188
 20
224.37408099999999
 30
0.0
 40
10.0
  0
TEXT
  5
4F6
  8
SIZE
  6
CONTINUOUS
 62
    30
 10
2567.0001884285721
 20
147.49455
 30
0.0
 40
50.0
  1
16
 41
0.9
 72
     1
 11
2598.0716170000001
 21
147.49455
 31
0.0
  0
LINE
  5
4F7
  8
SIZE
  6
CONTINUOUS
 62
    30
 10
2529.000188
 20
129.49455
 30
0.0
 11
2647.1430449999998
 21
129.49455
 31
0.0
  0
LINE
  5
4F8
  8
SIZE
  6
CONTINUOUS
 62
    30
 10
2529.000188
 20
224.37408099999999
 30
0.0
 11
2657.8573310000011
 21
224.37408099999999
 31
0.0
  0
TEXT
  5
4F9
  8
SIZE
  6
CONTINUOUS
 62
    30
 10
2567.0001875714288
 20
242.37408099999999
 30
0.0
 40
50.0
  1
23
 41
0.9
 72
     1
 11
2603.4287589999999
 21
242.37408099999999
 31
0.0
  0
LINE
  5
4FA
  8
SIZE
  6
CONTINUOUS
 62
    30
 10
2513.000188
 20
551.55797900000005
 30
0.0
 11
3025.8262789999999
 21
551.55797900000005
 31
0.0
  0
LINE
  5
4FB
  8
SIZE
  6
CONTINUOUS
 62
    30
 10
2526.0765929999998
 20
585.55797900000005
 30
0.0
 11
3025.8262789999999
 21
585.55797900000005
 31
0.0
  0
LINE
  5
4FC
  8
SIZE
  6
CONTINUOUS
 62
    30
 10
2526.0765929999998
 20
585.55797900000005
 30
0.0
 11
3025.8262789999999
 21
585.55797900000005
 31
0.0
  0
LINE
  5
4FD
  8
SIZE
  6
CONTINUOUS
 62
    30
 10
2531.0001990000001
 20
818.55799000000002
 30
0.0
 11
3194.635491
 21
818.55799000000002
 31
0.0
  0
LINE
  5
4FE
  8
SIZE
  6
CONTINUOUS
 62
    30
 10
2511.0001990000001
 20
551.55799000000002
 30
0.0
 11
3195.3166000000001
 21
551.55799000000002
 31
0.0
  0
LINE
  5
4FF
  8
SIZE
  6
CONTINUOUS
 62
    30
 10
2531.0001990000001
 20
818.55799000000002
 30
0.0
 11
3195.3166000000001
 21
818.55799000000002
 31
0.0
  0
TEXT
  5
500
  8
SIZE
  6
CONTINUOUS
 62
    30
 10
2310.1430451428569
 20
372.615295
 30
0.0
 40
50.0
  1
250
 41
0.9
 72
     1
 11
2368.000188
 21
372.615295
 31
0.0
  0
POINT
  5
501
  8
DEFPOINTS
  6
CONTINUOUS
 62
     7
 10
2493.000188
 20
354.615295
 30
0.0
  0
LINE
  5
502
  8
SIZE
  6
CONTINUOUS
 62
    30
 10
2483.000188
 20
354.615295
 30
0.0
 11
2473.000188
 21
354.615295
 31
0.0
  0
CIRCLE
  5
503
  8
SIZE
  6
CONTINUOUS
 62
    30
 10
2493.000188
 20
354.615295
 30
0.0
 40
10.0
  0
LINE
  5
504
  8
DETAIL
  6
CONTINUOUS
 62
     5
 10
2457.4942019999999
 20
543.58453499999996
 30
0.0
 11
2351.8304199999998
 21
533.48703699999987
 31
0.0
  0
LINE
  5
505
  8
DETAIL
  6
CONTINUOUS
 62
     5
 10
2340.5002180000001
 20
481.55809199999999
 30
0.0
 11
2343.4236580000002
 21
528.44900700000005
 31
0.0
  0
ARC
  5
506
  8
DETAIL
  6
CONTINUOUS
 62
     5
 10
2352.9076879999998
 20
523.63827099999992
 30
0.0
 40
9.9075070000000007
 50
96.242253000000005
 51
179.92971399999999
  0
POINT
  5
507
  8
DEFPOINTS
  6
CONTINUOUS
 62
     7
 10
2493.000188
 20
551.55797900000005
 30
0.0
  0
POINT
  5
508
  8
DEFPOINTS
  6
CONTINUOUS
 62
     7
 10
2506.0765929999998
 20
585.55797900000005
 30
0.0
  0
POINT
  5
509
  8
DEFPOINTS
  6
CONTINUOUS
 62
     7
 10
2506.0765929999998
 20
585.55797900000005
 30
0.0
  0
POINT
  5
50A
  8
DEFPOINTS
  6
CONTINUOUS
 62
     7
 10
2493.0001990000001
 20
551.55799000000002
 30
0.0
  0
POINT
  5
50B
  8
DEFPOINTS
  6
CONTINUOUS
 62
     7
 10
2493.000188
 20
551.55797900000005
 30
0.0
  0
POINT
  5
50C
  8
DEFPOINTS
  6
CONTINUOUS
 62
     7
 10
2493.000188
 20
551.55797900000005
 30
0.0
  0
POINT
  5
50D
  8
DEFPOINTS
  6
CONTINUOUS
 62
     7
 10
2509.000188
 20
556.05444599999998
 30
0.0
  0
POINT
  5
50E
  8
DEFPOINTS
  6
CONTINUOUS
 62
     7
 10
2509.000188
 20
556.05444599999998
 30
0.0
  0
POINT
  5
50F
  8
DEFPOINTS
  6
CONTINUOUS
 62
     7
 10
2493.000188
 20
551.55797900000005
 30
0.0
  0
POINT
  5
510
  8
DEFPOINTS
  6
CONTINUOUS
 62
     7
 10
2509.000188
 20
556.05444599999998
 30
0.0
  0
POINT
  5
511
  8
DEFPOINTS
  6
CONTINUOUS
 62
     7
 10
2486.000188
 20
565.55797900000005
 30
0.0
  0
POINT
  5
512
  8
DEFPOINTS
  6
CONTINUOUS
 62
     7
 10
2493.000188
 20
551.55797900000005
 30
0.0
  0
POINT
  5
513
  8
DEFPOINTS
  6
CONTINUOUS
 62
     7
 10
2486.000188
 20
565.55797900000005
 30
0.0
  0
CIRCLE
  5
514
  8
FIX
  6
CONTINUOUS
 62
    11
 10
2486.000188
 20
585.55797900000005
 30
0.0
 40
18.598564
  0
LINE
  5
515
  8
NOTE
  6
CONTINUOUS
 62
     4
 10
2465.9237830000002
 20
585.55797900000005
 30
0.0
 11
2506.0765929999998
 21
585.55797900000005
 31
0.0
  0
LINE
  5
516
  8
NOTE
  6
CONTINUOUS
 62
     4
 10
2486.000188
 20
565.55797900000005
 30
0.0
 11
2486.000188
 21
605.55797900000016
 31
0.0
  0
LINE
  5
517
  8
DETAIL
  6
CONTINUOUS
 62
     5
 10
2493.000188
 20
551.55797900000005
 30
0.0
 11
2493.000188
 21
568.55587000000003
 31
0.0
  0
LINE
  5
518
  8
DETAIL
  6
CONTINUOUS
 62
     5
 10
2479.1993739999998
 20
570.55619300000001
 30
0.0
 11
2479.1993739999998
 21
600.55978600000003
 31
0.0
  0
LINE
  5
519
  8
DETAIL
  6
CONTINUOUS
 62
     5
 10
2490.9998639999999
 20
600.55978600000003
 30
0.0
 11
2479.1993739999998
 21
600.55978600000003
 31
0.0
  0
LINE
  5
51A
  8
DETAIL
  6
CONTINUOUS
 62
     5
 10
2490.9998639999999
 20
570.55619300000001
 30
0.0
 11
2479.1993739999998
 21
570.55619300000001
 31
0.0
  0
ARC
  5
51B
  8
DETAIL
  6
CONTINUOUS
 62
     5
 10
2490.999948000001
 20
602.560025
 30
0.0
 40
2.000239999999998
 50
269.997589
 51
0.0
  0
ARC
  5
51C
  8
DETAIL
  6
CONTINUOUS
 62
     5
 10
2490.999948000001
 20
568.55595400000004
 30
0.0
 40
2.000239999999998
 50
359.99759
 51
90.002410999999995
  0
LINE
  5
51D
  8
DETAIL
  6
CONTINUOUS
 62
     5
 10
2478.99935
 20
577.55702099999985
 30
0.0
 11
2478.99935
 21
593.55893700000001
 31
0.0
  0
LINE
  5
51E
  8
DETAIL
  6
CONTINUOUS
 62
     5
 10
2509.000188
 20
591.55869800000005
 30
0.0
 11
2509.000188
 21
615.06151199999999
 31
0.0
  0
LINE
  5
51F
  8
DETAIL
  6
CONTINUOUS
 62
     5
 10
2493.0010259999999
 20
579.55725999999981
 30
0.0
 11
2509.000188
 21
579.55725999999981
 31
0.0
  0
LINE
  5
520
  8
DETAIL
  6
CONTINUOUS
 62
     5
 10
2493.0010259999999
 20
591.55869800000005
 30
0.0
 11
2509.000188
 21
591.55869800000005
 31
0.0
  0
LINE
  5
521
  8
DETAIL
  6
CONTINUOUS
 62
     5
 10
2509.000188
 20
556.05444599999998
 30
0.0
 11
2509.000188
 21
579.55725999999981
 31
0.0
  0
LINE
  5
522
  8
DETAIL
  6
CONTINUOUS
 62
     5
 10
2493.000188
 20
615.06151199999999
 30
0.0
 11
2509.000188
 21
615.06151199999999
 31
0.0
  0
LINE
  5
523
  8
DETAIL
  6
CONTINUOUS
 62
     5
 10
2493.000188
 20
556.05444599999998
 30
0.0
 11
2509.000188
 21
556.05444599999998
 31
0.0
  0
LINE
  5
524
  8
DETAIL
  6
CONTINUOUS
 62
     5
 10
2493.0010259999999
 20
591.55869800000005
 30
0.0
 11
2493.0010259999999
 21
593.55893700000001
 31
0.0
  0
ARC
  5
525
  8
DETAIL
  6
CONTINUOUS
 62
     5
 10
2486.000188
 20
577.55702099999985
 30
0.0
 40
7.000837999999999
 50
180.0
 51
0.0
  0
ARC
  5
526
  8
DETAIL
  6
CONTINUOUS
 62
     5
 10
2486.000188
 20
593.55893700000001
 30
0.0
 40
7.000837999999999
 50
0.0
 51
180.0
  0
LINE
  5
527
  8
DETAIL
  6
CONTINUOUS
 62
     5
 10
2493.0010259999999
 20
577.55702099999985
 30
0.0
 11
2493.0010259999999
 21
579.55725999999981
 31
0.0
  0
LINE
  5
528
  8
DETAIL
  6
CONTINUOUS
 62
     5
 10
2461.0262950000001
 20
549.55773899999997
 30
0.0
 11
2461.0262950000001
 21
547.5575
 31
0.0
  0
ARC
  5
529
  8
DETAIL
  6
CONTINUOUS
 62
     5
 10
2463.0265340000001
 20
549.55773899999997
 30
0.0
 40
2.000239999999998
 50
90.0
 51
180.0
  0
ARC
  5
52A
  8
DETAIL
  6
CONTINUOUS
 62
     5
 10
2457.0258159999998
 20
547.5575
 30
0.0
 40
4.0004790000000003
 50
274.91189500000002
 51
0.0
  0
ARC
  5
52B
  8
OUTLINE
  6
CONTINUOUS
 62
     3
 10
2517.000188
 20
817.55797900000005
 30
0.0
 40
16.0
 50
270.0
 51
0.0
  0
ARC
  5
52C
  8
DETAIL
  6
CONTINUOUS
 62
     5
 10
2517.000188
 20
817.55797900000005
 30
0.0
 40
16.0
 50
270.0
 51
0.0
  0
POINT
  5
52D
  8
DEFPOINTS
  6
CONTINUOUS
 62
     7
 10
2513.0001990000001
 20
818.55799000000002
 30
0.0
  0
POINT
  5
52E
  8
DEFPOINTS
  6
CONTINUOUS
 62
     7
 10
2513.0001990000001
 20
818.55799000000002
 30
0.0
  0
LINE
  5
52F
  8
OUTLINE
  6
CONTINUOUS
 62
     3
 10
2493.000188
 20
801.55797900000005
 30
0.0
 11
2517.000188
 21
801.55797900000005
 31
0.0
  0
POINT
  5
530
  8
DEFPOINTS
  6
CONTINUOUS
 62
     7
 10
2517.000188
 20
801.55797900000005
 30
0.0
  0
POINT
  5
531
  8
DEFPOINTS
  6
CONTINUOUS
 62
     7
 10
2517.000188
 20
801.55797900000005
 30
0.0
  0
LINE
  5
532
  8
DETAIL
  6
CONTINUOUS
 62
     5
 10
2493.000188
 20
801.55797900000005
 30
0.0
 11
2517.000188
 21
801.55797900000005
 31
0.0
  0
TEXT
  5
533
  8
SIZE
  6
CONTINUOUS
 62
    30
 10
3147.3166000000001
 20
627.20084714285713
 30
0.0
 40
50.0
  1
267
 50
90.0
 41
0.9
 72
     1
 11
3147.3166000000001
 21
685.05799000000002
 31
0.0
  0
LINE
  5
534
  8
SIZE
  6
CONTINUOUS
 62
    30
 10
3165.316600000001
 20
798.55799000000002
 30
0.0
 11
3165.316600000001
 21
571.55799000000002
 31
0.0
  0
TEXT
  5
535
  8
SIZE
  6
CONTINUOUS
 62
    30
 10
2989.8262789999999
 20
398.03782699999999
 30
0.0
 40
55.0
  1
34
 50
90.0
 41
0.9
 72
     1
 11
2989.8262789999999
 21
439.28782699999988
 31
0.0
  0
LINE
  5
536
  8
SIZE
  6
CONTINUOUS
 62
    30
 10
3007.8262789999999
 20
380.03782699999999
 30
0.0
 11
3007.8262789999999
 21
551.55797900000005
 31
0.0
  0
POINT
  5
537
  8
DEFPOINTS
  6
CONTINUOUS
 62
     7
 10
3007.8262789999999
 20
551.55797900000005
 30
0.0
  0
LINE
  5
538
  8
SIZE
  6
CONTINUOUS
 62
    30
 10
3007.8262789999999
 20
541.55797900000005
 30
0.0
 11
3007.8262789999999
 21
531.55797900000005
 31
0.0
  0
CIRCLE
  5
539
  8
SIZE
  6
CONTINUOUS
 62
    30
 10
3007.8262789999999
 20
551.55797900000005
 30
0.0
 40
10.0
  0
LINE
  5
53A
  8
SIZE
  6
CONTINUOUS
 62
    30
 10
3007.8262789999999
 20
595.55797900000005
 30
0.0
 11
3007.8262789999999
 21
605.55797900000016
 31
0.0
  0
CIRCLE
  5
53B
  8
SIZE
  6
CONTINUOUS
 62
    30
 10
3007.8262789999999
 20
585.55797900000005
 30
0.0
 40
10.0
  0
LINE
  5
53C
  8
SIZE
  6
CONTINUOUS
 62
    30
 10
3007.8262789999999
 20
585.55797900000005
 30
0.0
 11
3007.8262789999999
 21
551.55797900000005
 31
0.0
  0
LINE
  5
53D
  8
SIZE
  6
CONTINUOUS
 62
    30
 10
3007.8262789999999
 20
531.55797900000005
 30
0.0
 11
3007.8262789999999
 21
511.55797899999988
 31
0.0
  0
LINE
  5
53E
  8
SIZE
  6
CONTINUOUS
 62
    30
 10
3007.8262789999999
 20
605.55797900000016
 30
0.0
 11
3007.8262789999999
 21
625.55797900000005
 31
0.0
  0
POINT
  5
53F
  8
DEFPOINTS
  6
CONTINUOUS
 62
     7
 10
3007.8262789999999
 20
585.55797900000005
 30
0.0
  0
LINE
  5
540
  8
SIZE
  6
CONTINUOUS
 62
    30
 10
3007.8262789999999
 20
595.55797900000005
 30
0.0
 11
3007.8262789999999
 21
605.55797900000016
 31
0.0
  0
CIRCLE
  5
541
  8
SIZE
  6
CONTINUOUS
 62
    30
 10
3007.8262789999999
 20
585.55797900000005
 30
0.0
 40
10.0
  0
POINT
  5
542
  8
DEFPOINTS
  6
CONTINUOUS
 62
     7
 10
3165.316600000001
 20
551.55799000000002
 30
0.0
  0
LINE
  5
543
  8
SIZE
  6
CONTINUOUS
 62
    30
 10
3165.316600000001
 20
561.55799000000002
 30
0.0
 11
3165.316600000001
 21
571.55799000000002
 31
0.0
  0
CIRCLE
  5
544
  8
SIZE
  6
CONTINUOUS
 62
    30
 10
3165.316600000001
 20
551.55799000000002
 30
0.0
 40
10.0
  0
POINT
  5
545
  8
DEFPOINTS
  6
CONTINUOUS
 62
     7
 10
3164.635491
 20
818.55799000000002
 30
0.0
  0
LINE
  5
546
  8
SIZE
  6
CONTINUOUS
 62
    30
 10
3164.635491
 20
828.55799000000002
 30
0.0
 11
3164.635491
 21
838.55798999999956
 31
0.0
  0
CIRCLE
  5
547
  8
SIZE
  6
CONTINUOUS
 62
    30
 10
3164.635491
 20
818.55799000000002
 30
0.0
 40
10.0
  0
LINE
  5
548
  8
SIZE
  6
CONTINUOUS
 62
    30
 10
3165.316600000001
 20
808.55799000000002
 30
0.0
 11
3165.316600000001
 21
798.55799000000002
 31
0.0
  0
CIRCLE
  5
549
  8
SIZE
  6
CONTINUOUS
 62
    30
 10
3165.316600000001
 20
818.55799000000002
 30
0.0
 40
10.0
  0
TEXT
  5
54A
  8
SIZE
  6
CONTINUOUS
 62
    30
 10
1458.5716275714281
 20
1584.978818
 30
0.0
 40
50.0
  1
1550（天井開口寸法）
 41
0.9
 72
     1
 11
1738.0001990000001
 21
1584.978818
 31
0.0
  0
TEXT
  5
54B
  8
SIZE
  6
CONTINUOUS
 62
    30
 10
1663.000188
 20
1689.207989
 30
0.0
 40
50.0
  1
1590
 41
0.9
 72
     1
 11
1738.000188
 21
1689.207989
 31
0.0
  0
LINE
  5
54C
  8
SIZE
  6
CONTINUOUS
 62
    30
 10
3007.8262789999999
 20
1366.5579789999999
 30
0.0
 11
3007.8262789999999
 21
1557.700836
 31
0.0
  0
LINE
  5
54D
  8
SIZE
  6
CONTINUOUS
 62
    30
 10
2533.0001990000001
 20
1403.55799
 30
0.0
 11
2533.0001990000001
 21
1596.978818
 31
0.0
  0
LINE
  5
54E
  8
SIZE
  6
CONTINUOUS
 62
    30
 10
2513.0001990000001
 20
1402.55799
 30
0.0
 11
2513.0001990000001
 21
1596.978818
 31
0.0
  0
LINE
  5
54F
  8
SIZE
  6
CONTINUOUS
 62
    30
 10
2513.0001990000001
 20
1402.55799
 30
0.0
 11
2513.0001990000001
 21
1596.978818
 31
0.0
  0
POLYLINE
  5
550
  8
NOTE
  6
CONTINUOUS
 62
     4
 66
     1
 10
0.0
 20
0.0
 30
0.0
  0
VERTEX
  5
1634
  8
NOTE
  6
CONTINUOUS
 62
     4
 10
2486.000188
 20
1295.5579789999999
 30
0.0
  0
VERTEX
  5
1635
  8
NOTE
  6
CONTINUOUS
 62
     4
 10
2918.4890300000002
 20
1736.744526
 30
0.0
  0
SEQEND
  5
1636
  8
NOTE
  6
CONTINUOUS
 62
     4
  0
POLYLINE
  5
554
  8
NOTE
  6
CONTINUOUS
 62
     4
 66
     1
 10
0.0
 20
0.0
 30
0.0
  0
VERTEX
  5
1637
  8
NOTE
  6
CONTINUOUS
 62
     4
 10
2493.000188
 20
1170.5579789999999
 30
0.0
  0
VERTEX
  5
1638
  8
NOTE
  6
CONTINUOUS
 62
     4
 10
2923.494893
 20
1599.5914150000001
 30
0.0
  0
SEQEND
  5
1639
  8
NOTE
  6
CONTINUOUS
 62
     4
  0
LINE
  5
558
  8
SIZE
  6
CONTINUOUS
 62
    30
 10
2533.000188
 20
1403.5579789999999
 30
0.0
 11
2533.000188
 21
1701.207989
 31
0.0
  0
LINE
  5
559
  8
SIZE
  6
CONTINUOUS
 62
    30
 10
2513.000188
 20
1326.5579789999999
 30
0.0
 11
3025.8262789999999
 21
1326.5579789999999
 31
0.0
  0
LINE
  5
55A
  8
SIZE
  6
CONTINUOUS
 62
    30
 10
2537.000188
 20
1401.5579789999999
 30
0.0
 11
3025.8262789999999
 21
1401.5579789999999
 31
0.0
  0
LINE
  5
55B
  8
SIZE
  6
CONTINUOUS
 62
    30
 10
2526.0765929999998
 20
1295.5579789999999
 30
0.0
 11
3025.8262789999999
 21
1295.5579789999999
 31
0.0
  0
LINE
  5
55C
  8
SIZE
  6
CONTINUOUS
 62
    30
 10
2526.0765929999998
 20
1295.5579789999999
 30
0.0
 11
3025.8262789999999
 21
1295.5579789999999
 31
0.0
  0
LINE
  5
55D
  8
SIZE
  6
CONTINUOUS
 62
    30
 10
2513.000188
 20
1326.5579789999999
 30
0.0
 11
3025.8262789999999
 21
1326.5579789999999
 31
0.0
  0
LINE
  5
55E
  8
SIZE
  6
CONTINUOUS
 62
    30
 10
2537.0001989999992
 20
1401.55799
 30
0.0
 11
3182.635491
 21
1401.55799
 31
0.0
  0
LINE
  5
55F
  8
SIZE
  6
CONTINUOUS
 62
    30
 10
2533.0001990000001
 20
1384.55799
 30
0.0
 11
3182.635491
 21
1384.55799
 31
0.0
  0
LINE
  5
560
  8
SIZE
  6
CONTINUOUS
 62
    30
 10
2531.0001990000001
 20
1384.55799
 30
0.0
 11
3194.635491
 21
1384.55799
 31
0.0
  0
LINE
  5
561
  8
SIZE
  6
CONTINUOUS
 62
    30
 10
2531.0765929999998
 20
1170.5579789999999
 30
0.0
 11
2762.4869880000001
 21
1170.5579789999999
 31
0.0
  0
LINE
  5
562
  8
SIZE
  6
CONTINUOUS
 62
    30
 10
2511.000188
 20
1326.5579789999999
 30
0.0
 11
2762.4869880000001
 21
1326.5579789999999
 31
0.0
  0
LINE
  5
563
  8
SIZE
  6
CONTINUOUS
 62
    30
 10
2732.4869880000001
 20
1306.5579789999999
 30
0.0
 11
2732.4869880000001
 21
1190.5579789999999
 31
0.0
  0
LINE
  5
564
  8
NOTE
  6
CONTINUOUS
 62
     4
 10
2493.000188
 20
1170.5579789999999
 30
0.0
 11
2508.669214
 21
1197.3739949999999
 31
0.0
  0
LINE
  5
565
  8
NOTE
  6
CONTINUOUS
 62
     4
 10
2519.9779699999999
 20
1185.946817
 30
0.0
 11
2493.000188
 21
1170.5579789999999
 31
0.0
  0
POINT
  5
566
  8
DEFPOINTS
  6
CONTINUOUS
 62
     7
 10
2513.0765929999998
 20
1170.5579789999999
 30
0.0
  0
LINE
  5
567
  8
NOTE
  6
CONTINUOUS
 62
     4
 10
2493.000188
 20
1150.5579789999999
 30
0.0
 11
2493.000188
 21
1190.5579789999999
 31
0.0
  0
LINE
  5
568
  8
NOTE
  6
CONTINUOUS
 62
     4
 10
2472.9237830000011
 20
1170.5579789999999
 30
0.0
 11
2513.0765929999998
 21
1170.5579789999999
 31
0.0
  0
TEXT
  5
569
  8
SIZE
  6
CONTINUOUS
 62
    30
 10
2714.4869880000001
 20
1027.5579789999999
 30
0.0
 40
50.0
  1
156
 50
90.0
 41
0.9
 72
     1
 11
2714.4869880000001
 21
1080.0579789999999
 31
0.0
  0
LINE
  5
56A
  8
SIZE
  6
CONTINUOUS
 62
    30
 10
2732.4869880000001
 20
1170.5579789999999
 30
0.0
 11
2732.4869880000001
 21
1009.557979
 31
0.0
  0
POINT
  5
56B
  8
DEFPOINTS
  6
CONTINUOUS
 62
     7
 10
2732.4869880000001
 20
1170.5579789999999
 30
0.0
  0
LINE
  5
56C
  8
SIZE
  6
CONTINUOUS
 62
    30
 10
2732.4869880000001
 20
1180.5579789999999
 30
0.0
 11
2732.4869880000001
 21
1190.5579789999999
 31
0.0
  0
CIRCLE
  5
56D
  8
SIZE
  6
CONTINUOUS
 62
    30
 10
2732.4869880000001
 20
1170.5579789999999
 30
0.0
 40
10.0
  0
ARC
  5
56E
  8
OUTLINE
  6
CONTINUOUS
 62
     3
 10
2517.000188
 20
1385.5579789999999
 30
0.0
 40
16.0
 50
0.0
 51
90.0
  0
ARC
  5
56F
  8
DETAIL
  6
CONTINUOUS
 62
     5
 10
2517.000188
 20
1385.5579789999999
 30
0.0
 40
16.0
 50
0.0
 51
90.0
  0
POINT
  5
570
  8
DEFPOINTS
  6
CONTINUOUS
 62
     7
 10
2506.0765929999998
 20
1295.5579789999999
 30
0.0
  0
POINT
  5
571
  8
DEFPOINTS
  6
CONTINUOUS
 62
     7
 10
2506.0765929999998
 20
1295.5579789999999
 30
0.0
  0
POINT
  5
572
  8
DEFPOINTS
  6
CONTINUOUS
 62
     7
 10
2493.000188
 20
1326.5579789999999
 30
0.0
  0
POINT
  5
573
  8
DEFPOINTS
  6
CONTINUOUS
 62
     7
 10
2513.0001990000001
 20
1384.55799
 30
0.0
  0
POINT
  5
574
  8
DEFPOINTS
  6
CONTINUOUS
 62
     7
 10
2513.0001990000001
 20
1384.55799
 30
0.0
  0
POINT
  5
575
  8
DEFPOINTS
  6
CONTINUOUS
 62
     7
 10
2513.0001990000001
 20
1384.55799
 30
0.0
  0
POINT
  5
576
  8
DEFPOINTS
  6
CONTINUOUS
 62
     7
 10
2513.0001990000001
 20
1384.55799
 30
0.0
  0
LINE
  5
577
  8
NOTE
  6
CONTINUOUS
 62
     4
 10
2486.000188
 20
1295.5579789999999
 30
0.0
 11
2501.3529859999999
 21
1322.556288
 31
0.0
  0
LINE
  5
578
  8
NOTE
  6
CONTINUOUS
 62
     4
 10
2512.7952559999999
 20
1311.2628010000001
 30
0.0
 11
2486.000188
 21
1295.5579789999999
 31
0.0
  0
POINT
  5
579
  8
DEFPOINTS
  6
CONTINUOUS
 62
     7
 10
2493.000188
 20
1326.5579789999999
 30
0.0
  0
ARC
  5
57A
  8
DETAIL
  6
CONTINUOUS
 62
     5
 10
2491.000188
 20
1312.5494389999999
 30
0.0
 40
2.0
 50
270.0
 51
0.0
  0
ARC
  5
57B
  8
DETAIL
  6
CONTINUOUS
 62
     5
 10
2491.000188
 20
1278.5458470000001
 30
0.0
 40
2.0
 50
0.0
 51
90.0
  0
CIRCLE
  5
57C
  8
FIX
  6
CONTINUOUS
 62
    11
 10
2486.000188
 20
1295.5579789999999
 30
0.0
 40
18.598564
  0
LINE
  5
57D
  8
NOTE
  6
CONTINUOUS
 62
     4
 10
2465.9237830000002
 20
1295.5579789999999
 30
0.0
 11
2506.0765929999998
 21
1295.5579789999999
 31
0.0
  0
LINE
  5
57E
  8
NOTE
  6
CONTINUOUS
 62
     4
 10
2486.000188
 20
1275.5579789999999
 30
0.0
 11
2486.000188
 21
1315.5579789999999
 31
0.0
  0
LINE
  5
57F
  8
DETAIL
  6
CONTINUOUS
 62
     5
 10
2493.000188
 20
1312.5494389999999
 30
0.0
 11
2493.000188
 21
1325.757883
 31
0.0
  0
LINE
  5
580
  8
DETAIL
  6
CONTINUOUS
 62
     5
 10
2479.1327200000001
 20
1280.5458470000001
 30
0.0
 11
2479.1327200000001
 21
1310.5494389999999
 31
0.0
  0
LINE
  5
581
  8
DETAIL
  6
CONTINUOUS
 62
     5
 10
2491.000188
 20
1280.5458470000001
 30
0.0
 11
2479.1327200000001
 21
1280.5458470000001
 31
0.0
  0
LINE
  5
582
  8
DETAIL
  6
CONTINUOUS
 62
     5
 10
2491.000188
 20
1310.5494389999999
 30
0.0
 11
2479.1327200000001
 21
1310.5494389999999
 31
0.0
  0
LINE
  5
583
  8
DETAIL
  6
CONTINUOUS
 62
     5
 10
2493.000188
 20
1326.5579789999999
 30
0.0
 11
2463.0265340000001
 21
1326.5579789999999
 31
0.0
  0
LINE
  5
584
  8
DETAIL
  6
CONTINUOUS
 62
     5
 10
2493.000188
 20
1266.3579789999999
 30
0.0
 11
2509.000188
 21
1266.3579789999999
 31
0.0
  0
LINE
  5
585
  8
DETAIL
  6
CONTINUOUS
 62
     5
 10
2493.000188
 20
1324.757979
 30
0.0
 11
2509.000188
 21
1324.757979
 31
0.0
  0
LINE
  5
586
  8
DETAIL
  6
CONTINUOUS
 62
     5
 10
2478.99935
 20
1303.558937
 30
0.0
 11
2478.99935
 21
1287.5570210000001
 31
0.0
  0
LINE
  5
587
  8
DETAIL
  6
CONTINUOUS
 62
     5
 10
2509.000188
 20
1289.5579789999999
 30
0.0
 11
2509.000188
 21
1266.3579789999999
 31
0.0
  0
LINE
  5
588
  8
DETAIL
  6
CONTINUOUS
 62
     5
 10
2493.0010259999999
 20
1301.5579789999999
 30
0.0
 11
2509.000188
 21
1301.5579789999999
 31
0.0
  0
LINE
  5
589
  8
DETAIL
  6
CONTINUOUS
 62
     5
 10
2493.0010259999999
 20
1289.5579789999999
 30
0.0
 11
2509.000188
 21
1289.5579789999999
 31
0.0
  0
LINE
  5
58A
  8
DETAIL
  6
CONTINUOUS
 62
     5
 10
2509.000188
 20
1324.757979
 30
0.0
 11
2509.000188
 21
1301.5579789999999
 31
0.0
  0
LINE
  5
58B
  8
DETAIL
  6
CONTINUOUS
 62
     5
 10
2493.0010259999999
 20
1289.5579789999999
 30
0.0
 11
2493.0010259999999
 21
1287.5570210000001
 31
0.0
  0
ARC
  5
58C
  8
DETAIL
  6
CONTINUOUS
 62
     5
 10
2486.000188
 20
1303.558937
 30
0.0
 40
7.000837999999999
 50
0.0
 51
180.0
  0
ARC
  5
58D
  8
DETAIL
  6
CONTINUOUS
 62
     5
 10
2486.000188
 20
1287.5570210000001
 30
0.0
 40
7.000837999999999
 50
180.0
 51
0.0
  0
LINE
  5
58E
  8
DETAIL
  6
CONTINUOUS
 62
     5
 10
2493.0010259999999
 20
1303.558937
 30
0.0
 11
2493.0010259999999
 21
1301.5579789999999
 31
0.0
  0
LINE
  5
58F
  8
DETAIL
  6
CONTINUOUS
 62
     5
 10
2460.026175
 20
1309.5559430000001
 30
0.0
 11
2463.0265340000001
 21
1312.556302
 31
0.0
  0
LINE
  5
590
  8
DETAIL
  6
CONTINUOUS
 62
     5
 10
2463.0265340000001
 20
1312.556302
 30
0.0
 11
2463.0265340000001
 21
1326.5579789999999
 31
0.0
  0
LINE
  5
591
  8
DETAIL
  6
CONTINUOUS
 62
     5
 10
2493.000188
 20
1326.5579789999999
 30
0.0
 11
2493.000188
 21
1325.757883
 31
0.0
  0
POINT
  5
592
  8
DEFPOINTS
  6
CONTINUOUS
 62
     7
 10
2517.0001990000001
 20
1401.55799
 30
0.0
  0
POINT
  5
593
  8
DEFPOINTS
  6
CONTINUOUS
 62
     7
 10
2517.000188
 20
1401.5579789999999
 30
0.0
  0
POINT
  5
594
  8
DEFPOINTS
  6
CONTINUOUS
 62
     7
 10
2533.0001990000001
 20
1385.55799
 30
0.0
  0
POINT
  5
595
  8
DEFPOINTS
  6
CONTINUOUS
 62
     7
 10
2533.000188
 20
1385.5579789999999
 30
0.0
  0
LINE
  5
596
  8
SIZE
  6
CONTINUOUS
 62
    30
 10
2732.4869880000001
 20
1316.5579789999999
 30
0.0
 11
2732.4869880000001
 21
1306.5579789999999
 31
0.0
  0
CIRCLE
  5
597
  8
SIZE
  6
CONTINUOUS
 62
    30
 10
2732.4869880000001
 20
1326.5579789999999
 30
0.0
 40
10.0
  0
TEXT
  5
598
  8
SIZE
  6
CONTINUOUS
 62
    30
 10
2989.8262789999999
 20
1459.5579794285709
 30
0.0
 40
55.0
  1
75
 50
90.0
 41
0.9
 72
     1
 11
2989.8262789999999
 21
1499.629408
 31
0.0
  0
LINE
  5
599
  8
SIZE
  6
CONTINUOUS
 62
    30
 10
3007.8262789999999
 20
1311.0579789999999
 30
0.0
 11
2919.5536030000021
 21
1439.9518519999999
 31
0.0
  0
TEXT
  5
59A
  8
SIZE
  6
CONTINUOUS
 62
    30
 10
2901.5536029999998
 20
1457.951852285714
 30
0.0
 40
55.0
  1
31
 50
90.0
 41
0.9
 72
     1
 11
2901.5536029999998
 21
1487.416138
 31
0.0
  0
LINE
  5
59B
  8
SIZE
  6
CONTINUOUS
 62
    30
 10
2919.5536030000021
 20
1439.9518519999999
 30
0.0
 11
2919.5536030000021
 21
1534.8804239999999
 31
0.0
  0
CIRCLE
  5
59C
  8
SIZE
  6
CONTINUOUS
 62
    30
 10
3007.8262789999999
 20
1401.5579789999999
 30
0.0
 40
10.0
  0
CIRCLE
  5
59D
  8
SIZE
  6
CONTINUOUS
 62
    30
 10
3164.635491
 20
1401.55799
 30
0.0
 40
10.0
  0
LINE
  5
59E
  8
SIZE
  6
CONTINUOUS
 62
    30
 10
3007.8262789999999
 20
1316.5579789999999
 30
0.0
 11
3007.8262789999999
 21
1306.5579789999999
 31
0.0
  0
CIRCLE
  5
59F
  8
SIZE
  6
CONTINUOUS
 62
    30
 10
3007.8262789999999
 20
1326.5579789999999
 30
0.0
 40
10.0
  0
LINE
  5
5A0
  8
SIZE
  6
CONTINUOUS
 62
    30
 10
3007.8262789999999
 20
1306.5579789999999
 30
0.0
 11
3007.8262789999999
 21
1286.5579789999999
 31
0.0
  0
LINE
  5
5A1
  8
SIZE
  6
CONTINUOUS
 62
    30
 10
3007.8262789999999
 20
1285.5579789999999
 30
0.0
 11
3007.8262789999999
 21
1275.5579789999999
 31
0.0
  0
CIRCLE
  5
5A2
  8
SIZE
  6
CONTINUOUS
 62
    30
 10
3007.8262789999999
 20
1295.5579789999999
 30
0.0
 40
10.0
  0
POINT
  5
5A3
  8
DEFPOINTS
  6
CONTINUOUS
 62
     7
 10
3007.8262789999999
 20
1295.5579789999999
 30
0.0
  0
LINE
  5
5A4
  8
SIZE
  6
CONTINUOUS
 62
    30
 10
3007.8262789999999
 20
1285.5579789999999
 30
0.0
 11
3007.8262789999999
 21
1275.5579789999999
 31
0.0
  0
CIRCLE
  5
5A5
  8
SIZE
  6
CONTINUOUS
 62
    30
 10
3007.8262789999999
 20
1295.5579789999999
 30
0.0
 40
10.0
  0
LINE
  5
5A6
  8
SIZE
  6
CONTINUOUS
 62
    30
 10
3007.8262789999999
 20
1336.5579789999999
 30
0.0
 11
3007.8262789999999
 21
1346.5579789999999
 31
0.0
  0
CIRCLE
  5
5A7
  8
SIZE
  6
CONTINUOUS
 62
    30
 10
3007.8262789999999
 20
1326.5579789999999
 30
0.0
 40
10.0
  0
LINE
  5
5A8
  8
SIZE
  6
CONTINUOUS
 62
    30
 10
3007.8262789999999
 20
1326.5579789999999
 30
0.0
 11
3007.8262789999999
 21
1295.5579789999999
 31
0.0
  0
LINE
  5
5A9
  8
SIZE
  6
CONTINUOUS
 62
    30
 10
3007.8262789999999
 20
1275.5579789999999
 30
0.0
 11
3007.8262789999999
 21
1255.5579789999999
 31
0.0
  0
LINE
  5
5AA
  8
SIZE
  6
CONTINUOUS
 62
    30
 10
3007.8262789999999
 20
1346.5579789999999
 30
0.0
 11
3007.8262789999999
 21
1366.5579789999999
 31
0.0
  0
LINE
  5
5AB
  8
SIZE
  6
CONTINUOUS
 62
    30
 10
3164.635491
 20
1374.55799
 30
0.0
 11
3164.635491
 21
1364.55799
 31
0.0
  0
CIRCLE
  5
5AC
  8
SIZE
  6
CONTINUOUS
 62
    30
 10
3164.635491
 20
1384.55799
 30
0.0
 40
10.0
  0
LINE
  5
5AD
  8
SIZE
  6
CONTINUOUS
 62
    30
 10
3164.635491
 20
1364.55799
 30
0.0
 11
3164.635491
 21
1344.55799
 31
0.0
  0
LINE
  5
5AE
  8
SIZE
  6
CONTINUOUS
 62
    30
 10
3164.635491
 20
1374.55799
 30
0.0
 11
3164.635491
 21
1364.55799
 31
0.0
  0
CIRCLE
  5
5AF
  8
SIZE
  6
CONTINUOUS
 62
    30
 10
3164.635491
 20
1384.55799
 30
0.0
 40
10.0
  0
LINE
  5
5B0
  8
SIZE
  6
CONTINUOUS
 62
    30
 10
3007.8262789999999
 20
1411.5579789999999
 30
0.0
 11
3007.8262789999999
 21
1421.5579789999999
 31
0.0
  0
POINT
  5
5B1
  8
DEFPOINTS
  6
CONTINUOUS
 62
     7
 10
3164.635491
 20
1401.55799
 30
0.0
  0
TEXT
  5
5B2
  8
SIZE
  6
CONTINUOUS
 62
    30
 10
3146.635491
 20
1459.5579901428571
 30
0.0
 40
55.0
  1
17
 50
90.0
 41
0.9
 72
     1
 11
3146.635491
 21
1494.915133
 31
0.0
  0
LINE
  5
5B3
  8
SIZE
  6
CONTINUOUS
 62
    30
 10
3164.635491
 20
1411.55799
 30
0.0
 11
3164.635491
 21
1421.55799
 31
0.0
  0
LINE
  5
5B4
  8
SIZE
  6
CONTINUOUS
 62
    30
 10
3164.635491
 20
1421.55799
 30
0.0
 11
3164.635491
 21
1548.2722759999999
 31
0.0
  0
CIRCLE
  5
5B5
  8
SIZE
  6
CONTINUOUS
 62
    30
 10
2533.0001990000001
 20
1566.978818
 30
0.0
 40
10.0
  0
LINE
  5
5B6
  8
SIZE
  6
CONTINUOUS
 62
    30
 10
2513.0001990000001
 20
1566.978818
 30
0.0
 11
2533.0001990000001
 21
1566.978818
 31
0.0
  0
CIRCLE
  5
5B7
  8
SIZE
  6
CONTINUOUS
 62
    30
 10
2533.000188
 20
1671.207989
 30
0.0
 40
10.0
  0
LINE
  5
5B8
  8
SIZE
  6
CONTINUOUS
 62
    30
 10
2503.000199000001
 20
1566.978818
 30
0.0
 11
2493.0001990000001
 21
1566.978818
 31
0.0
  0
CIRCLE
  5
5B9
  8
SIZE
  6
CONTINUOUS
 62
    30
 10
2513.0001990000001
 20
1566.978818
 30
0.0
 40
10.0
  0
LINE
  5
5BA
  8
SIZE
  6
CONTINUOUS
 62
    30
 10
2493.0001990000001
 20
1566.978818
 30
0.0
 11
2473.0001990000001
 21
1566.978818
 31
0.0
  0
LINE
  5
5BB
  8
SIZE
  6
CONTINUOUS
 62
    30
 10
2503.000199000001
 20
1566.978818
 30
0.0
 11
2493.0001990000001
 21
1566.978818
 31
0.0
  0
CIRCLE
  5
5BC
  8
SIZE
  6
CONTINUOUS
 62
    30
 10
2513.0001990000001
 20
1566.978818
 30
0.0
 40
10.0
  0
LINE
  5
5BD
  8
SIZE
  6
CONTINUOUS
 62
    30
 10
2523.000188
 20
1671.207989
 30
0.0
 11
2513.000188
 21
1671.207989
 31
0.0
  0
TEXT
  5
5BE
  8
SIZE
  6
CONTINUOUS
 62
    30
 10
2591.0001985714289
 20
1584.978818
 30
0.0
 40
50.0
  1
20
 41
0.9
 72
     1
 11
2627.42877
 21
1584.978818
 31
0.0
  0
LINE
  5
5BF
  8
SIZE
  6
CONTINUOUS
 62
    30
 10
2553.0001989999992
 20
1566.978818
 30
0.0
 11
2681.8573420000012
 21
1566.978818
 31
0.0
  0
POINT
  5
5C0
  8
DEFPOINTS
  6
CONTINUOUS
 62
     7
 10
2533.0001990000001
 20
1566.978818
 30
0.0
  0
LINE
  5
5C1
  8
SIZE
  6
CONTINUOUS
 62
    30
 10
2543.0001990000001
 20
1566.978818
 30
0.0
 11
2553.0001989999992
 21
1566.978818
 31
0.0
  0
LINE
  5
5C2
  8
SIZE
  6
CONTINUOUS
 62
    30
 10
3360.537333000002
 20
1381.5579789999999
 30
0.0
 11
3360.537333000002
 21
821.55797900000005
 31
0.0
  0
TEXT
  5
5C3
  8
SIZE
  6
CONTINUOUS
 62
    30
 10
3342.5373330000002
 20
618.70083614285716
 30
0.0
 40
50.0
  1
250
 50
90.0
 41
0.9
 72
     1
 11
3342.5373330000002
 21
676.55797900000016
 31
0.0
  0
LINE
  5
5C4
  8
SIZE
  6
CONTINUOUS
 62
    30
 10
3360.537333000002
 20
781.55797900000005
 30
0.0
 11
3360.537333000002
 21
571.55797900000005
 31
0.0
  0
POINT
  5
5C5
  8
DEFPOINTS
  6
CONTINUOUS
 62
     7
 10
3360.537333000002
 20
551.55797900000005
 30
0.0
  0
LINE
  5
5C6
  8
SIZE
  6
CONTINUOUS
 62
    30
 10
3360.537333000002
 20
561.55797900000005
 30
0.0
 11
3360.537333000002
 21
571.55797900000005
 31
0.0
  0
CIRCLE
  5
5C7
  8
SIZE
  6
CONTINUOUS
 62
    30
 10
3360.537333000002
 20
551.55797900000005
 30
0.0
 40
10.0
  0
LINE
  5
5C8
  8
SIZE
  6
CONTINUOUS
 62
    30
 10
3360.537333000002
 20
791.55797900000005
 30
0.0
 11
3360.537333000002
 21
781.55797900000005
 31
0.0
  0
CIRCLE
  5
5C9
  8
SIZE
  6
CONTINUOUS
 62
    30
 10
3360.537333000002
 20
801.55797900000005
 30
0.0
 40
10.0
  0
POINT
  5
5CA
  8
DEFPOINTS
  6
CONTINUOUS
 62
     7
 10
3360.537333000002
 20
801.55797900000005
 30
0.0
  0
LINE
  5
5CB
  8
SIZE
  6
CONTINUOUS
 62
    30
 10
3360.537333000002
 20
811.55797899999982
 30
0.0
 11
3360.537333000002
 21
821.55797900000005
 31
0.0
  0
CIRCLE
  5
5CC
  8
SIZE
  6
CONTINUOUS
 62
    30
 10
3360.537333000002
 20
801.55797900000005
 30
0.0
 40
10.0
  0
TEXT
  5
5CD
  8
SIZE
  6
CONTINUOUS
 62
    30
 10
3342.5373330000002
 20
1043.700836142857
 30
0.0
 40
50.0
  1
600
 50
90.0
 41
0.9
 72
     1
 11
3342.5373330000002
 21
1101.5579789999999
 31
0.0
  0
CIRCLE
  5
5CE
  8
SIZE
  6
CONTINUOUS
 62
    30
 10
3360.537333000002
 20
1401.5579789999999
 30
0.0
 40
10.0
  0
LINE
  5
5CF
  8
SIZE
  6
CONTINUOUS
 62
    30
 10
3360.537333000002
 20
1391.5579789999999
 30
0.0
 11
3360.537333000002
 21
1381.5579789999999
 31
0.0
  0
ENDBLK
  5
5D1
  8
0
 62
     7
  0
BLOCK
  8
0
  2
_DOTBLANK
 70
     0
 10
0.0
 20
0.0
 30
0.0
  3
_DOTBLANK
  1

  0
CIRCLE
  5
920
  8
0
  6
CONTINUOUS
 62
     7
 10
0.0
 20
0.0
 30
0.0
 40
0.5
  0
LINE
  5
921
  8
0
  6
CONTINUOUS
 62
     7
 10
-0.5
 20
0.0
 30
0.0
 11
-1.0
 21
0.0
 31
0.0
  0
ENDBLK
  5
922
  8
0
  0
BLOCK
  8
0
 62
     7
  2
*D5
 70
     1
 10
0.0
 20
0.0
 30
0.0
  3
*D5
  1

  0
LINE
  5
FE3
  8
SYMBOLLINE
  6
CONTINUOUS
 62
     0
 10
-740.0
 20
-417.49999999999989
 30
0.0
 11
-1109.7663332908121
 21
-417.49999999999989
 31
0.0
  0
LINE
  5
FE4
  8
SYMBOLLINE
  6
CONTINUOUS
 62
     0
 10
-775.0
 20
-387.5
 30
0.0
 11
-1109.7663332908121
 21
-387.5
 31
0.0
  0
LINE
  5
FE5
  8
SYMBOLLINE
  6
CONTINUOUS
 62
     0
 10
-1091.7663332908121
 20
-437.49999999999989
 30
0.0
 11
-1091.7663332908121
 21
-457.49999999999989
 31
0.0
  0
LINE
  5
FE6
  8
SYMBOLLINE
  6
CONTINUOUS
 62
     0
 10
-1091.7663332908121
 20
-367.49999999999989
 30
0.0
 11
-1091.7663332908121
 21
-267.17714285714288
 31
0.0
  0
INSERT
  5
FE7
  8
SYMBOLLINE
  6
CONTINUOUS
 62
     0
  2
_ORIGIN
 10
-1091.7663332908121
 20
-417.49999999999989
 30
0.0
 41
20.0
 42
20.0
 43
20.0
 50
90.0
  0
INSERT
  5
FE8
  8
SYMBOLLINE
  6
CONTINUOUS
 62
     0
  2
_ORIGIN
 10
-1091.7663332908121
 20
-387.5
 30
0.0
 41
20.0
 42
20.0
 43
20.0
 50
270.0
  0
INSERT
  5
FE9
  8
SYMBOLLINE
  6
CONTINUOUS
 62
     7
  2
*U6
 10
0.0
 20
0.0
 30
0.0
  0
POINT
  5
FEA
  8
DEFPOINTS
  6
CONTINUOUS
 62
     0
 10
-720.0
 20
-417.49999999999989
 30
0.0
  0
POINT
  5
FEB
  8
DEFPOINTS
  6
CONTINUOUS
 62
     0
 10
-755.0
 20
-387.5
 30
0.0
  0
POINT
  5
FEC
  8
DEFPOINTS
  6
CONTINUOUS
 62
     0
 10
-1091.7663332908121
 20
-387.5
 30
0.0
  0
ENDBLK
  5
FE2
  8
0
 62
     7
  0
BLOCK
  8
0
 62
     7
  2
*U6
 70
     1
 10
0.0
 20
0.0
 30
0.0
  3
*U6
  1

  0
TEXT
  5
1034
  8
SYMBOLLINE
  6
CONTINUOUS
 62
     0
 10
-1091.856333290812
 20
-347.41000000000008
 30
0.0
 40
55.0
  1
30
 50
90.0
 41
0.9
  0
ENDBLK
  5
1036
  8
0
 62
     7
  0
BLOCK
  8
0
  2
_SMALL
 70
     0
 10
0.0
 20
0.0
 30
0.0
  3
_SMALL
  1

  0
CIRCLE
  5
10DF
  8
0
  6
CONTINUOUS
 62
     7
 10
0.0
 20
0.0
 30
0.0
 40
0.25
  0
ENDBLK
  5
10E0
  8
0
  0
BLOCK
  8
0
 62
     7
  2
*D8
 70
     1
 10
0.0
 20
0.0
 30
0.0
  3
*D8
  1

  0
LINE
  5
124E
  8
SYMBOLLINE
  6
CONTINUOUS
 62
     0
 10
-0.0000000000000556
 20
407.5
 30
0.0
 11
-0.0000000000000256
 21
897.16653856165783
 31
0.0
  0
LINE
  5
124F
  8
SYMBOLLINE
  6
CONTINUOUS
 62
     0
 10
771.0
 20
407.5
 30
0.0
 11
771.0
 21
897.16653856165783
 31
0.0
  0
LINE
  5
1250
  8
SYMBOLLINE
  6
CONTINUOUS
 62
     0
 10
19.999999999999972
 20
879.16653856165783
 30
0.0
 11
751.0
 21
879.16653856165783
 31
0.0
  0
INSERT
  5
1251
  8
SYMBOLLINE
  6
CONTINUOUS
 62
     0
  2
_ORIGIN
 10
-0.0000000000000267
 20
879.16653856165783
 30
0.0
 41
20.0
 42
20.0
 43
20.0
 50
180.0
  0
INSERT
  5
1252
  8
SYMBOLLINE
  6
CONTINUOUS
 62
     0
  2
_ORIGIN
 10
771.0
 20
879.16653856165783
 30
0.0
 41
20.0
 42
20.0
 43
20.0
  0
INSERT
  5
1253
  8
SYMBOLLINE
  6
CONTINUOUS
 62
     7
  2
*U9
 10
0.0
 20
0.0
 30
0.0
  0
POINT
  5
1254
  8
DEFPOINTS
  6
CONTINUOUS
 62
     0
 10
-0.0000000000000568
 20
387.5
 30
0.0
  0
POINT
  5
1255
  8
DEFPOINTS
  6
CONTINUOUS
 62
     0
 10
771.0
 20
387.5
 30
0.0
  0
POINT
  5
1256
  8
DEFPOINTS
  6
CONTINUOUS
 62
     0
 10
771.0
 20
879.16653856165783
 30
0.0
  0
ENDBLK
  5
124D
  8
0
 62
     7
  0
BLOCK
  8
0
 62
     7
  2
*U9
 70
     1
 10
0.0
 20
0.0
 30
0.0
  3
*U9
  1

  0
TEXT
  5
140F
  8
SYMBOLLINE
  6
CONTINUOUS
 62
     0
 10
332.46428571428572
 20
879.25653856165775
 30
0.0
 40
55.0
  1
771
 41
0.9
  0
ENDBLK
  5
1411
  8
0
 62
     7
  0
BLOCK
  8
0
 62
     7
  2
*D10
 70
     1
 10
0.0
 20
0.0
 30
0.0
  3
*D10
  1

  0
LINE
  5
133E
  8
SIZE
  6
CONTINUOUS
 62
     0
 10
-775.0
 20
-387.5
 30
0.0
 11
-1535.918343808285
 21
-387.49999999999977
 31
0.0
  0
LINE
  5
133F
  8
SIZE
  6
CONTINUOUS
 62
     0
 10
-884.9999999999992
 20
129.49999999999909
 30
0.0
 11
-1535.918343808285
 21
129.4999999999992
 31
0.0
  0
LINE
  5
1340
  8
SIZE
  6
CONTINUOUS
 62
     0
 10
-1517.918343808285
 20
-367.49999999999977
 30
0.0
 11
-1517.918343808285
 21
109.4999999999992
 31
0.0
  0
INSERT
  5
1341
  8
SIZE
  6
CONTINUOUS
 62
     0
  2
_ORIGIN
 10
-1517.918343808285
 20
-387.49999999999977
 30
0.0
 41
20.0
 42
20.0
 43
20.0
 50
270.0
  0
INSERT
  5
1342
  8
SIZE
  6
CONTINUOUS
 62
     0
  2
_ORIGIN
 10
-1517.918343808285
 20
129.4999999999992
 30
0.0
 41
20.0
 42
20.0
 43
20.0
 50
90.0
  0
INSERT
  5
1343
  8
SYMBOLLINE
  6
CONTINUOUS
 62
     7
  2
*U11
 10
0.0
 20
0.0
 30
0.0
  0
POINT
  5
1344
  8
DEFPOINTS
  6
CONTINUOUS
 62
     0
 10
-755.0
 20
-387.5
 30
0.0
  0
POINT
  5
1345
  8
DEFPOINTS
  6
CONTINUOUS
 62
     0
 10
-864.99999999999955
 20
129.49999999999909
 30
0.0
  0
POINT
  5
1346
  8
DEFPOINTS
  6
CONTINUOUS
 62
     0
 10
-1517.918343808285
 20
129.4999999999992
 30
0.0
  0
ENDBLK
  5
126C
  8
0
 62
     7
  0
BLOCK
  8
0
 62
     7
  2
*U11
 70
     1
 10
0.0
 20
0.0
 30
0.0
  3
*U11
  1

  0
TEXT
  5
141B
  8
SIZE
  6
CONTINUOUS
 62
     0
 10
-1518.008343808285
 20
-187.9285714285719
 30
0.0
 40
55.0
  1
517
 50
90.0
 41
0.9
  0
ENDBLK
  5
141D
  8
0
 62
     7
  0
BLOCK
  8
0
 62
     7
  2
*D12
 70
     1
 10
0.0
 20
0.0
 30
0.0
  3
*D12
  1

  0
LINE
  5
135B
  8
SIZE
  6
CONTINUOUS
 62
     0
 10
-797.0
 20
-159.5
 30
0.0
 11
-797.0
 21
80.289035703781309
 31
0.0
  0
LINE
  5
135C
  8
SIZE
  6
CONTINUOUS
 62
     0
 10
-755.0
 20
-367.5
 30
0.0
 11
-755.0
 21
80.289035703781309
 31
0.0
  0
LINE
  5
135D
  8
SIZE
  6
CONTINUOUS
 62
     0
 10
-777.0
 20
62.28903570378133
 30
0.0
 11
-775.0
 21
62.28903570378133
 31
0.0
  0
LINE
  5
135E
  8
SIZE
  6
CONTINUOUS
 62
     0
 10
-755.0
 20
62.28903570378133
 30
0.0
 11
-654.6771428571426
 21
62.28903570378133
 31
0.0
  0
INSERT
  5
135F
  8
SIZE
  6
CONTINUOUS
 62
     0
  2
_ORIGIN
 10
-797.0
 20
62.28903570378133
 30
0.0
 41
20.0
 42
20.0
 43
20.0
 50
180.0
  0
INSERT
  5
1360
  8
SIZE
  6
CONTINUOUS
 62
     0
  2
_ORIGIN
 10
-755.0
 20
62.28903570378133
 30
0.0
 41
20.0
 42
20.0
 43
20.0
  0
INSERT
  5
1361
  8
SYMBOLLINE
  6
CONTINUOUS
 62
     7
  2
*U13
 10
0.0
 20
0.0
 30
0.0
  0
POINT
  5
1362
  8
DEFPOINTS
  6
CONTINUOUS
 62
     0
 10
-797.0
 20
-179.5
 30
0.0
  0
POINT
  5
1363
  8
DEFPOINTS
  6
CONTINUOUS
 62
     0
 10
-755.0
 20
-387.5
 30
0.0
  0
POINT
  5
1364
  8
DEFPOINTS
  6
CONTINUOUS
 62
     0
 10
-755.0
 20
62.28903570378133
 30
0.0
  0
ENDBLK
  5
128D
  8
0
 62
     7
  0
BLOCK
  8
0
 62
     7
  2
*U13
 70
     1
 10
0.0
 20
0.0
 30
0.0
  3
*U13
  1

  0
TEXT
  5
1427
  8
SIZE
  6
CONTINUOUS
 62
     0
 10
-734.90999999999985
 20
62.379035703781348
 30
0.0
 40
55.0
  1
42
 41
0.9
  0
ENDBLK
  5
1429
  8
0
 62
     7
  0
BLOCK
  8
0
 62
     7
  2
*D14
 70
     1
 10
0.0
 20
0.0
 30
0.0
  3
*D14
  1

  0
LINE
  5
12AA
  8
SYMBOLLINE
  6
CONTINUOUS
 62
     0
 10
-789.0
 20
-74.5
 30
0.0
 11
-789.0
 21
18.0
 31
0.0
  0
LINE
  5
12AB
  8
SYMBOLLINE
  6
CONTINUOUS
 62
     0
 10
-755.0
 20
-367.5
 30
0.0
 11
-755.0
 21
18.0
 31
0.0
  0
LINE
  5
12AC
  8
SYMBOLLINE
  6
CONTINUOUS
 62
     0
 10
-809.0
 20
0.0
 30
0.0
 11
-829.0
 21
0.0
 31
0.0
  0
LINE
  5
12AD
  8
SYMBOLLINE
  6
CONTINUOUS
 62
     0
 10
-735.0
 20
0.0
 30
0.0
 11
-632.32000000000005
 21
0.0
 31
0.0
  0
INSERT
  5
12AE
  8
SYMBOLLINE
  6
CONTINUOUS
 62
     0
  2
_ORIGIN
 10
-789.0
 20
0.0
 30
0.0
 41
20.0
 42
20.0
 43
20.0
  0
INSERT
  5
12AF
  8
SYMBOLLINE
  6
CONTINUOUS
 62
     0
  2
_ORIGIN
 10
-755.0
 20
0.0
 30
0.0
 41
20.0
 42
20.0
 43
20.0
 50
180.0
  0
INSERT
  5
12B0
  8
SYMBOLLINE
  6
CONTINUOUS
 62
     7
  2
*U15
 10
0.0
 20
0.0
 30
0.0
  0
POINT
  5
12B1
  8
DEFPOINTS
  6
CONTINUOUS
 62
     0
 10
-789.0
 20
-94.500000000000014
 30
0.0
  0
POINT
  5
12B2
  8
DEFPOINTS
  6
CONTINUOUS
 62
     0
 10
-755.0
 20
-387.5
 30
0.0
  0
POINT
  5
12B3
  8
DEFPOINTS
  6
CONTINUOUS
 62
     0
 10
-755.0
 20
0.0
 30
0.0
  0
ENDBLK
  5
12A9
  8
0
 62
     7
  0
BLOCK
  8
0
 62
     7
  2
*U15
 70
     1
 10
0.0
 20
0.0
 30
0.0
  3
*U15
  1

  0
TEXT
  5
1413
  8
SYMBOLLINE
  6
CONTINUOUS
 62
     0
 10
-714.90999999999985
 20
0.0900000000000034
 30
0.0
 40
55.0
  1
34
 41
0.9
  0
ENDBLK
  5
1415
  8
0
 62
     7
  0
BLOCK
  8
0
 62
     7
  2
*D16
 70
     1
 10
0.0
 20
0.0
 30
0.0
  3
*D16
  1

  0
LINE
  5
1351
  8
SIZE
  6
CONTINUOUS
 62
     0
 10
-789.0
 20
-74.5
 30
0.0
 11
-789.0
 21
-5.8787184821921983
 31
0.0
  0
LINE
  5
1352
  8
SIZE
  6
CONTINUOUS
 62
     0
 10
-755.0
 20
-367.5
 30
0.0
 11
-755.0
 21
-5.8787184821921983
 31
0.0
  0
LINE
  5
1353
  8
SIZE
  6
CONTINUOUS
 62
     0
 10
-809.0
 20
-23.878718482192198
 30
0.0
 11
-829.0
 21
-23.878718482192198
 31
0.0
  0
LINE
  5
1354
  8
SIZE
  6
CONTINUOUS
 62
     0
 10
-735.0
 20
-23.878718482192198
 30
0.0
 11
-632.32000000000005
 21
-23.878718482192198
 31
0.0
  0
INSERT
  5
1355
  8
SIZE
  6
CONTINUOUS
 62
     0
  2
_ORIGIN
 10
-789.0
 20
-23.878718482192198
 30
0.0
 41
20.0
 42
20.0
 43
20.0
  0
INSERT
  5
1356
  8
SIZE
  6
CONTINUOUS
 62
     0
  2
_ORIGIN
 10
-755.0
 20
-23.878718482192198
 30
0.0
 41
20.0
 42
20.0
 43
20.0
 50
180.0
  0
INSERT
  5
1357
  8
SYMBOLLINE
  6
CONTINUOUS
 62
     7
  2
*U17
 10
0.0
 20
0.0
 30
0.0
  0
POINT
  5
1358
  8
DEFPOINTS
  6
CONTINUOUS
 62
     0
 10
-789.0
 20
-94.500000000000014
 30
0.0
  0
POINT
  5
1359
  8
DEFPOINTS
  6
CONTINUOUS
 62
     0
 10
-755.0
 20
-387.5
 30
0.0
  0
POINT
  5
135A
  8
DEFPOINTS
  6
CONTINUOUS
 62
     0
 10
-755.0
 20
-23.878718482192198
 30
0.0
  0
ENDBLK
  5
12B7
  8
0
 62
     7
  0
BLOCK
  8
0
 62
     7
  2
*U17
 70
     1
 10
0.0
 20
0.0
 30
0.0
  3
*U17
  1

  0
TEXT
  5
1423
  8
SIZE
  6
CONTINUOUS
 62
     0
 10
-714.90999999999985
 20
-23.788718482192198
 30
0.0
 40
55.0
  1
34
 41
0.9
  0
ENDBLK
  5
1425
  8
0
 62
     7
  0
BLOCK
  8
0
 62
     7
  2
*D18
 70
     1
 10
0.0
 20
0.0
 30
0.0
  3
*D18
  1

  0
LINE
  5
1335
  8
SIZE
  6
CONTINUOUS
 62
     0
 10
-884.9999999999992
 20
129.5
 30
0.0
 11
-1535.918343808285
 21
129.50000000000011
 31
0.0
  0
LINE
  5
1336
  8
SIZE
  6
CONTINUOUS
 62
     0
 10
-884.99999999999875
 20
359.5
 30
0.0
 11
-1535.918343808285
 21
359.50000000000023
 31
0.0
  0
LINE
  5
1337
  8
SIZE
  6
CONTINUOUS
 62
     0
 10
-1517.918343808285
 20
149.50000000000011
 30
0.0
 11
-1517.918343808285
 21
339.50000000000028
 31
0.0
  0
INSERT
  5
1338
  8
SIZE
  6
CONTINUOUS
 62
     0
  2
_ORIGIN
 10
-1517.918343808285
 20
129.50000000000011
 30
0.0
 41
20.0
 42
20.0
 43
20.0
 50
270.0
  0
INSERT
  5
1339
  8
SIZE
  6
CONTINUOUS
 62
     0
  2
_ORIGIN
 10
-1517.918343808285
 20
359.50000000000023
 30
0.0
 41
20.0
 42
20.0
 43
20.0
 50
90.0
  0
INSERT
  5
133A
  8
SYMBOLLINE
  6
CONTINUOUS
 62
     7
  2
*U19
 10
0.0
 20
0.0
 30
0.0
  0
POINT
  5
133B
  8
DEFPOINTS
  6
CONTINUOUS
 62
     0
 10
-864.99999999999955
 20
129.5
 30
0.0
  0
POINT
  5
133C
  8
DEFPOINTS
  6
CONTINUOUS
 62
     0
 10
-864.99999999999875
 20
359.5
 30
0.0
  0
POINT
  5
133D
  8
DEFPOINTS
  6
CONTINUOUS
 62
     0
 10
-1517.918343808285
 20
359.50000000000023
 30
0.0
  0
ENDBLK
  5
12ED
  8
0
 62
     7
  0
BLOCK
  8
0
 62
     7
  2
*U19
 70
     1
 10
0.0
 20
0.0
 30
0.0
  3
*U19
  1

  0
TEXT
  5
1417
  8
SIZE
  6
CONTINUOUS
 62
     0
 10
-1518.008343808285
 20
180.8571428571428
 30
0.0
 40
55.0
  1
230
 50
90.0
 41
0.9
  0
ENDBLK
  5
1419
  8
0
 62
     7
  0
BLOCK
  8
0
 62
     7
  2
*D20
 70
     1
 10
0.0
 20
0.0
 30
0.0
  3
*D20
  1

  0
LINE
  5
1347
  8
SIZE
  6
CONTINUOUS
 62
     0
 10
-775.0
 20
387.5
 30
0.0
 11
-1626.8533219999999
 21
387.50000000000023
 31
0.0
  0
LINE
  5
1348
  8
SIZE
  6
CONTINUOUS
 62
     0
 10
-745.00000078923824
 20
408.49999999999989
 30
0.0
 11
-1626.8533219999999
 21
408.50000000000011
 31
0.0
  0
LINE
  5
1349
  8
SIZE
  6
CONTINUOUS
 62
     0
 10
-1608.8533219999999
 20
367.50000000000023
 30
0.0
 11
-1608.8533219999999
 21
347.50000000000023
 31
0.0
  0
LINE
  5
134A
  8
SIZE
  6
CONTINUOUS
 62
     0
 10
-1608.8533219999999
 20
428.50000000000011
 30
0.0
 11
-1608.8533219999999
 21
507.60857142857162
 31
0.0
  0
INSERT
  5
134B
  8
SIZE
  6
CONTINUOUS
 62
     0
  2
_ORIGIN
 10
-1608.8533219999999
 20
387.50000000000023
 30
0.0
 41
20.0
 42
20.0
 43
20.0
 50
90.0
  0
INSERT
  5
134C
  8
SIZE
  6
CONTINUOUS
 62
     0
  2
_ORIGIN
 10
-1608.8533219999999
 20
408.50000000000011
 30
0.0
 41
20.0
 42
20.0
 43
20.0
 50
270.0
  0
INSERT
  5
134D
  8
SYMBOLLINE
  6
CONTINUOUS
 62
     7
  2
*U21
 10
0.0
 20
0.0
 30
0.0
  0
POINT
  5
134E
  8
DEFPOINTS
  6
CONTINUOUS
 62
     0
 10
-755.00000000000011
 20
387.5
 30
0.0
  0
POINT
  5
134F
  8
DEFPOINTS
  6
CONTINUOUS
 62
     0
 10
-725.00000078923824
 20
408.49999999999989
 30
0.0
  0
POINT
  5
1350
  8
DEFPOINTS
  6
CONTINUOUS
 62
     0
 10
-1608.8533219999999
 20
408.50000000000011
 30
0.0
  0
ENDBLK
  5
12FA
  8
0
 62
     7
  0
BLOCK
  8
0
 62
     7
  2
*U21
 70
     1
 10
0.0
 20
0.0
 30
0.0
  3
*U21
  1

  0
TEXT
  5
141F
  8
SIZE
  6
CONTINUOUS
 62
     0
 10
-1608.9433220000001
 20
448.58999999999992
 30
0.0
 40
55.0
  1
21
 50
90.0
 41
0.9
  0
ENDBLK
  5
1421
  8
0
 62
     7
  0
BLOCK
  8
0
 62
     7
  2
*D24
 70
     1
 10
0.0
 20
0.0
 30
0.0
  3
*D24
  1

  0
LINE
  5
159E
  8
SIZE
  6
CONTINUOUS
 62
     0
 10
-755.0
 20
-407.5
 30
0.0
 11
-755.0
 21
-855.32856874794368
 31
0.0
  0
LINE
  5
159F
  8
SIZE
  6
CONTINUOUS
 62
     0
 10
-797.0
 20
-239.5
 30
0.0
 11
-797.0
 21
-855.32856874794368
 31
0.0
  0
LINE
  5
15A0
  8
SIZE
  6
CONTINUOUS
 62
     0
 10
-765.0
 20
-837.32856874794368
 30
0.0
 11
-787.0
 21
-837.32856874794368
 31
0.0
  0
LINE
  5
15A1
  8
SIZE
  6
CONTINUOUS
 62
     0
 10
-797.0
 20
-837.32856874794368
 30
0.0
 11
-938.13664346621874
 21
-837.32856874794368
 31
0.0
  0
INSERT
  5
15A2
  8
SIZE
  6
CONTINUOUS
 62
     0
  2
_ORIGIN
 10
-755.0
 20
-837.32856874794368
 30
0.0
 41
10.0
 42
10.0
 43
10.0
  0
INSERT
  5
15A3
  8
SIZE
  6
CONTINUOUS
 62
     0
  2
_ORIGIN
 10
-797.0
 20
-837.32856874794368
 30
0.0
 41
10.0
 42
10.0
 43
10.0
 50
180.0
  0
INSERT
  5
15A4
  8
SYMBOLLINE
  6
CONTINUOUS
 62
     7
  2
*U28
 10
0.0
 20
0.0
 30
0.0
  0
POINT
  5
15A5
  8
DEFPOINTS
  6
CONTINUOUS
 62
     0
 10
-755.0
 20
-387.5
 30
0.0
  0
POINT
  5
15A6
  8
DEFPOINTS
  6
CONTINUOUS
 62
     0
 10
-797.0
 20
-219.5
 30
0.0
  0
POINT
  5
15A7
  8
DEFPOINTS
  6
CONTINUOUS
 62
     0
 10
-797.0
 20
-837.32856874794368
 30
0.0
  0
ENDBLK
  5
1535
  8
0
 62
     7
  0
BLOCK
  8
0
 62
     7
  2
*D25
 70
     1
 10
0.0
 20
0.0
 30
0.0
  3
*D25
  1

  0
LINE
  5
1594
  8
SIZE
  6
CONTINUOUS
 62
     0
 10
-755.0
 20
-407.5
 30
0.0
 11
-755.0
 21
-750.52532360207897
 31
0.0
  0
LINE
  5
1595
  8
SIZE
  6
CONTINUOUS
 62
     0
 10
-789.0
 20
-150.5
 30
0.0
 11
-789.0
 21
-750.52532360207897
 31
0.0
  0
LINE
  5
1596
  8
SIZE
  6
CONTINUOUS
 62
     0
 10
-765.0
 20
-732.52532360207886
 30
0.0
 11
-779.0
 21
-732.52532360207886
 31
0.0
  0
LINE
  5
1597
  8
SIZE
  6
CONTINUOUS
 62
     0
 10
-789.0
 20
-732.52532360207886
 30
0.0
 11
-932.48913255104492
 21
-732.52532360207886
 31
0.0
  0
INSERT
  5
1598
  8
SIZE
  6
CONTINUOUS
 62
     0
  2
_ORIGIN
 10
-755.0
 20
-732.52532360207886
 30
0.0
 41
10.0
 42
10.0
 43
10.0
  0
INSERT
  5
1599
  8
SIZE
  6
CONTINUOUS
 62
     0
  2
_ORIGIN
 10
-789.0
 20
-732.52532360207886
 30
0.0
 41
10.0
 42
10.0
 43
10.0
 50
180.0
  0
INSERT
  5
159A
  8
SYMBOLLINE
  6
CONTINUOUS
 62
     7
  2
*U27
 10
0.0
 20
0.0
 30
0.0
  0
POINT
  5
159B
  8
DEFPOINTS
  6
CONTINUOUS
 62
     0
 10
-755.0
 20
-387.5
 30
0.0
  0
POINT
  5
159C
  8
DEFPOINTS
  6
CONTINUOUS
 62
     0
 10
-789.0
 20
-130.5
 30
0.0
  0
POINT
  5
159D
  8
DEFPOINTS
  6
CONTINUOUS
 62
     0
 10
-789.0
 20
-732.52532360207886
 30
0.0
  0
ENDBLK
  5
1561
  8
0
 62
     7
  0
BLOCK
  8
0
 62
     7
  2
*D26
 70
     1
 10
0.0
 20
0.0
 30
0.0
  3
*D26
  1

  0
LINE
  5
15D6
  8
SIZE
  6
CONTINUOUS
 62
     0
 10
806.99999915814647
 20
-123.49999973691681
 30
0.0
 11
1010.097109031469
 21
-123.49999973691691
 31
0.0
  0
LINE
  5
15D7
  8
SIZE
  6
CONTINUOUS
 62
     0
 10
775.0
 20
-387.5
 30
0.0
 11
1010.097109031469
 21
-387.5
 31
0.0
  0
LINE
  5
15D8
  8
SIZE
  6
CONTINUOUS
 62
     0
 10
992.09710903146902
 20
-133.49999973691689
 30
0.0
 11
992.09710903146879
 21
-377.50000000000011
 31
0.0
  0
INSERT
  5
15D9
  8
SIZE
  6
CONTINUOUS
 62
     0
  2
_ORIGIN
 10
992.09710903146902
 20
-123.49999973691691
 30
0.0
 41
10.0
 42
10.0
 43
10.0
 50
90.0
  0
INSERT
  5
15DA
  8
SIZE
  6
CONTINUOUS
 62
     0
  2
_ORIGIN
 10
992.09710903146879
 20
-387.5
 30
0.0
 41
10.0
 42
10.0
 43
10.0
 50
270.0
  0
INSERT
  5
15DB
  8
SYMBOLLINE
  6
CONTINUOUS
 62
     7
  2
*U29
 10
0.0
 20
0.0
 30
0.0
  0
POINT
  5
15DC
  8
DEFPOINTS
  6
CONTINUOUS
 62
     0
 10
786.99999915814647
 20
-123.49999973691681
 30
0.0
  0
POINT
  5
15DD
  8
DEFPOINTS
  6
CONTINUOUS
 62
     0
 10
755.0
 20
-387.5
 30
0.0
  0
POINT
  5
15DE
  8
DEFPOINTS
  6
CONTINUOUS
 62
     0
 10
992.09710903146879
 20
-387.5
 30
0.0
  0
ENDBLK
  5
15C3
  8
0
 62
     7
  0
BLOCK
  8
0
 62
     7
  2
*U27
 70
     1
 10
0.0
 20
0.0
 30
0.0
  3
*U27
  1

  0
TEXT
  5
1649
  8
SIZE
  6
CONTINUOUS
 62
     0
 10
-932.39913255104511
 20
-732.43532360207894
 30
0.0
 40
55.0
  1
34
 41
0.9
  0
ENDBLK
  5
164B
  8
0
 62
     7
  0
BLOCK
  8
0
 62
     7
  2
*U28
 70
     1
 10
0.0
 20
0.0
 30
0.0
  3
*U28
  1

  0
TEXT
  5
164D
  8
SIZE
  6
CONTINUOUS
 62
     0
 10
-938.04664346621848
 20
-837.23856874794376
 30
0.0
 40
55.0
  1
42
 41
0.9
  0
ENDBLK
  5
164F
  8
0
 62
     7
  0
BLOCK
  8
0
 62
     7
  2
*U29
 70
     1
 10
0.0
 20
0.0
 30
0.0
  3
*U29
  1

  0
TEXT
  5
1651
  8
SIZE
  6
CONTINUOUS
 62
     0
 10
992.00710903146899
 20
-320.3214284398868
 30
0.0
 40
55.0
  1
264
 50
90.0
 41
0.9
  0
ENDBLK
  5
1653
  8
0
 62
     7
  0
ENDSEC
  0
SECTION
  2
ENTITIES
  0
LINE
  5
5DB
  8
BASIS
  6
DASHDOT
 62
     6
 10
825.0
 20
0.0
 30
0.0
 11
-1000.0
 21
0.0
 31
0.0
  0
LINE
  5
5E0
  8
OUTLINE
  6
CONTINUOUS
 62
     3
 10
-755.0
 20
-387.5
 30
0.0
 11
755.0
 21
-387.5
 31
0.0
  0
LINE
  5
5E4
  8
SIZE
  6
CONTINUOUS
 62
    30
 10
-735.0
 20
-1084.0043588019739
 30
0.0
 11
735.0
 21
-1084.0043588019739
 31
0.0
  0
LINE
  5
5E6
  8
SIZE
  6
CONTINUOUS
 62
    30
 10
-751.0
 20
-1183.4989138019739
 30
0.0
 11
751.0
 21
-1183.4989138019739
 31
0.0
  0
LINE
  5
5EA
  8
DETAIL
  6
CONTINUOUS
 62
     5
 10
-755.0
 20
-387.5
 30
0.0
 11
755.0
 21
-387.5
 31
0.0
  0
LINE
  5
5FE
  8
OUTLINE
  6
CONTINUOUS
 62
     3
 10
-755.0
 20
-387.5
 30
0.0
 11
-755.0
 21
-123.49999973691681
 31
0.0
  0
LINE
  5
607
  8
DETAIL
  6
CONTINUOUS
 62
     5
 10
-755.0
 20
-387.5
 30
0.0
 11
-755.0
 21
-123.49999973691681
 31
0.0
  0
LINE
  5
60B
  8
SIZE
  6
CONTINUOUS
 62
    30
 10
-773.0
 20
-387.5
 30
0.0
 11
-1440.103752706407
 21
-387.5
 31
0.0
  0
LINE
  5
60C
  8
SIZE
  6
CONTINUOUS
 62
    30
 10
-827.00095799999986
 20
-114.5
 30
0.0
 11
-1440.103752706407
 21
-114.5
 31
0.0
  0
LINE
  5
60D
  8
SIZE
  6
CONTINUOUS
 62
    30
 10
-832.00095799999986
 20
-199.5
 30
0.0
 11
-1318.5905250000001
 21
-199.5
 31
0.0
  0
LINE
  5
60E
  8
SIZE
  6
CONTINUOUS
 62
    30
 10
-846.66133499999989
 20
-263.5
 30
0.0
 11
-1318.5905250000001
 21
-263.5
 31
0.0
  0
LINE
  5
60F
  8
SIZE
  6
CONTINUOUS
 62
    30
 10
-846.66133499999989
 20
-263.5
 30
0.0
 11
-1318.5905250000001
 21
-263.5
 31
0.0
  0
LINE
  5
610
  8
SIZE
  6
CONTINUOUS
 62
    30
 10
-773.0
 20
-387.5
 30
0.0
 11
-1318.5905250000001
 21
-387.5
 31
0.0
  0
TEXT
  5
616
  8
SIZE
  6
CONTINUOUS
 62
    30
 10
-1428.103752706407
 20
-314.64285714285711
 30
0.0
 40
55.0
  1
273
 50
90.0
 41
0.9
 72
     1
 11
-1428.103752706407
 21
-251.0
 31
0.0
  0
LINE
  5
617
  8
SIZE
  6
CONTINUOUS
 62
    30
 10
-1410.103752706407
 20
-134.5
 30
0.0
 11
-1410.103752706407
 21
-367.5
 31
0.0
  0
TEXT
  5
618
  8
SIZE
  6
CONTINUOUS
 62
    30
 10
-1306.5905250000001
 20
-385.60714285714289
 30
0.0
 40
55.0
  1
124
 50
90.0
 41
0.9
 72
     1
 11
-1306.5905250000001
 21
-325.5
 31
0.0
  0
LINE
  5
619
  8
SIZE
  6
CONTINUOUS
 62
    30
 10
-1288.5905250000001
 20
-367.5
 30
0.0
 11
-1288.5905250000001
 21
-283.5
 31
0.0
  0
POINT
  5
624
  8
DEFPOINTS
  6
CONTINUOUS
 62
     7
 10
-1410.103752706407
 20
-387.5
 30
0.0
  0
LINE
  5
625
  8
SIZE
  6
CONTINUOUS
 62
    30
 10
-1410.103752706407
 20
-382.5
 30
0.0
 11
-1410.103752706407
 21
-367.5
 31
0.0
  0
CIRCLE
  5
626
  8
SIZE
  6
CONTINUOUS
 62
    30
 10
-1410.103752706407
 20
-387.5
 30
0.0
 40
5.0
  0
LINE
  5
62A
  8
SIZE
  6
CONTINUOUS
 62
    30
 10
-1288.5905250000001
 20
-382.5
 30
0.0
 11
-1288.5905250000001
 21
-367.5
 31
0.0
  0
CIRCLE
  5
62B
  8
SIZE
  6
CONTINUOUS
 62
    30
 10
-1288.5905250000001
 20
-387.5
 30
0.0
 40
5.0
  0
LINE
  5
62C
  8
SIZE
  6
CONTINUOUS
 62
    30
 10
-1410.103752706407
 20
-119.5
 30
0.0
 11
-1410.103752706407
 21
-134.5
 31
0.0
  0
CIRCLE
  5
62D
  8
SIZE
  6
CONTINUOUS
 62
    30
 10
-1410.103752706407
 20
-114.5
 30
0.0
 40
5.0
  0
LINE
  5
62E
  8
SIZE
  6
CONTINUOUS
 62
    30
 10
-1288.5905250000001
 20
-179.5
 30
0.0
 11
-1288.5905250000001
 21
-6.5404900000000001
 31
0.0
  0
POINT
  5
631
  8
DEFPOINTS
  6
CONTINUOUS
 62
     7
 10
-1288.5905250000001
 20
-199.5
 30
0.0
  0
LINE
  5
632
  8
SIZE
  6
CONTINUOUS
 62
    30
 10
-1288.5905250000001
 20
-194.5
 30
0.0
 11
-1288.5905250000001
 21
-179.5
 31
0.0
  0
CIRCLE
  5
633
  8
SIZE
  6
CONTINUOUS
 62
    30
 10
-1288.5905250000001
 20
-199.5
 30
0.0
 40
5.0
  0
LINE
  5
634
  8
SIZE
  6
CONTINUOUS
 62
    30
 10
-1288.5905250000001
 20
-273.5
 30
0.0
 11
-1288.5905250000001
 21
-283.5
 31
0.0
  0
CIRCLE
  5
635
  8
SIZE
  6
CONTINUOUS
 62
    30
 10
-1288.5905250000001
 20
-263.5
 30
0.0
 40
5.0
  0
LINE
  5
636
  8
SIZE
  6
CONTINUOUS
 62
    30
 10
-1288.5905250000001
 20
-263.5
 30
0.0
 11
-1288.5905250000001
 21
-199.5
 31
0.0
  0
LINE
  5
637
  8
SIZE
  6
CONTINUOUS
 62
    30
 10
-1288.5905250000001
 20
-283.5
 30
0.0
 11
-1288.5905250000001
 21
-303.5
 31
0.0
  0
POINT
  5
638
  8
DEFPOINTS
  6
CONTINUOUS
 62
     7
 10
-1288.5905250000001
 20
-263.5
 30
0.0
  0
LINE
  5
639
  8
SIZE
  6
CONTINUOUS
 62
    30
 10
-1288.5905250000001
 20
-268.5
 30
0.0
 11
-1288.5905250000001
 21
-283.5
 31
0.0
  0
CIRCLE
  5
63A
  8
SIZE
  6
CONTINUOUS
 62
    30
 10
-1288.5905250000001
 20
-263.5
 30
0.0
 40
5.0
  0
TEXT
  5
63B
  8
SIZE
  6
CONTINUOUS
 62
    30
 10
-1306.5905250000001
 20
-103.29049000000001
 30
0.0
 40
55.0
  1
64
 50
90.0
 41
0.9
 72
     1
 11
-1306.5905250000001
 21
-62.040490000000013
 31
0.0
  0
LINE
  5
63C
  8
SIZE
  6
CONTINUOUS
 62
    30
 10
-755.0
 20
-405.49999999999989
 30
0.0
 11
-755.0
 21
-1114.0043588019751
 31
0.0
  0
LINE
  5
63D
  8
SIZE
  6
CONTINUOUS
 62
    30
 10
-771.0
 20
-401.003533
 30
0.0
 11
-771.0
 21
-1114.0043588019751
 31
0.0
  0
LINE
  5
63E
  8
SIZE
  6
CONTINUOUS
 62
    30
 10
-755.0
 20
-405.49999999999989
 30
0.0
 11
-755.0
 21
-1114.0043588019751
 31
0.0
  0
LINE
  5
63F
  8
SIZE
  6
CONTINUOUS
 62
    30
 10
-771.0
 20
-401.003533
 30
0.0
 11
-771.0
 21
-1213.4989138019739
 31
0.0
  0
LINE
  5
640
  8
SIZE
  6
CONTINUOUS
 62
    30
 10
-771.0
 20
-401.003533
 30
0.0
 11
-771.0
 21
-1019.124827801974
 31
0.0
  0
CIRCLE
  5
644
  8
SIZE
  6
CONTINUOUS
 62
    30
 10
-771.0
 20
-1084.0043588019739
 30
0.0
 40
5.0
  0
CIRCLE
  5
645
  8
SIZE
  6
CONTINUOUS
 62
    30
 10
-771.0
 20
-1183.4989138019739
 30
0.0
 40
5.0
  0
TEXT
  5
647
  8
SIZE
  6
CONTINUOUS
 62
    30
 10
-894.2500004285713
 20
-1066.0043588019739
 30
0.0
 40
55.0
  1
16
 41
0.9
 72
     1
 11
-860.07142899999985
 21
-1066.0043588019739
 31
0.0
  0
LINE
  5
648
  8
SIZE
  6
CONTINUOUS
 62
    30
 10
-791.0
 20
-1084.0043588019739
 30
0.0
 11
-909.14285700000005
 21
-1084.0043588019739
 31
0.0
  0
LINE
  5
649
  8
SIZE
  6
CONTINUOUS
 62
    30
 10
-776.0
 20
-1084.0043588019739
 30
0.0
 11
-791.0
 21
-1084.0043588019739
 31
0.0
  0
LINE
  5
64D
  8
SIZE
  6
CONTINUOUS
 62
    30
 10
-750.0
 20
-1084.0043588019739
 30
0.0
 11
-735.0
 21
-1084.0043588019739
 31
0.0
  0
CIRCLE
  5
64E
  8
SIZE
  6
CONTINUOUS
 62
    30
 10
-755.0
 20
-1084.0043588019739
 30
0.0
 40
5.0
  0
POINT
  5
64F
  8
DEFPOINTS
  6
CONTINUOUS
 62
     7
 10
-771.0
 20
-1084.0043588019739
 30
0.0
  0
LINE
  5
650
  8
SIZE
  6
CONTINUOUS
 62
    30
 10
-750.0
 20
-1084.0043588019739
 30
0.0
 11
-735.0
 21
-1084.0043588019739
 31
0.0
  0
CIRCLE
  5
651
  8
SIZE
  6
CONTINUOUS
 62
    30
 10
-755.0
 20
-1084.0043588019739
 30
0.0
 40
5.0
  0
LINE
  5
652
  8
SIZE
  6
CONTINUOUS
 62
    30
 10
-755.0
 20
-1084.0043588019739
 30
0.0
 11
-771.0
 21
-1084.0043588019739
 31
0.0
  0
LINE
  5
653
  8
SIZE
  6
CONTINUOUS
 62
    30
 10
-735.0
 20
-1084.0043588019739
 30
0.0
 11
-715.0
 21
-1084.0043588019739
 31
0.0
  0
LINE
  5
654
  8
SIZE
  6
CONTINUOUS
 62
    30
 10
-766.0
 20
-1183.4989138019739
 30
0.0
 11
-751.0
 21
-1183.4989138019739
 31
0.0
  0
LINE
  5
65F
  8
SIZE
  6
CONTINUOUS
 62
    30
 10
-755.0
 20
-948.56413169231428
 30
0.0
 11
-807.0
 21
-948.56413169231428
 31
0.0
  0
LINE
  5
661
  8
NOTE
  6
CONTINUOUS
 62
     4
 10
-833.66133500000001
 20
-263.5
 30
0.0
 11
-780.33866499999999
 21
-263.5
 31
0.0
  0
LINE
  5
664
  8
NOTE
  6
CONTINUOUS
 62
     4
 10
-817.00095799999986
 20
-199.5
 30
0.0
 11
-776.99904200000003
 21
-199.5
 31
0.0
  0
LINE
  5
667
  8
NOTE
  6
CONTINUOUS
 62
     4
 10
-809.00095799999986
 20
-114.5
 30
0.0
 11
-768.99904200000003
 21
-114.5
 31
0.0
  0
LINE
  5
668
  8
DETAIL
  6
CONTINUOUS
 62
     5
 10
-789.0
 20
-130.5
 30
0.0
 11
-755.0
 21
-130.5
 31
0.0
  0
LINE
  5
66A
  8
SIZE
  6
CONTINUOUS
 62
    30
 10
-807.0
 20
-301.5
 30
0.0
 11
-807.0
 21
-978.56413169231428
 31
0.0
  0
TEXT
  5
66B
  8
SIZE
  6
CONTINUOUS
 62
    30
 10
-941.49999957142859
 20
-930.56413169231428
 30
0.0
 40
55.0
  1
52
 41
0.9
 72
     1
 11
-901.42857100000015
 21
-930.56413169231428
 31
0.0
  0
LINE
  5
66C
  8
SIZE
  6
CONTINUOUS
 62
    30
 10
-827.0
 20
-948.56413169231428
 30
0.0
 11
-955.85714299999984
 21
-948.56413169231428
 31
0.0
  0
LINE
  5
66D
  8
SIZE
  6
CONTINUOUS
 62
    30
 10
-812.0
 20
-948.56413169231428
 30
0.0
 11
-827.0
 21
-948.56413169231428
 31
0.0
  0
CIRCLE
  5
66E
  8
SIZE
  6
CONTINUOUS
 62
    30
 10
-807.0
 20
-948.56413169231428
 30
0.0
 40
5.0
  0
LINE
  5
670
  8
NOTE
  6
CONTINUOUS
 62
     4
 10
-807.00000000000023
 20
-263.5
 30
0.0
 11
-811.39290635491841
 21
-294.24604815170483
 31
0.0
  0
LINE
  5
671
  8
NOTE
  6
CONTINUOUS
 62
     4
 10
-826.17739253689535
 20
-287.93040487524092
 30
0.0
 11
-807.00000000000023
 21
-263.5
 31
0.0
  0
LINE
  5
672
  8
NOTE
  6
CONTINUOUS
 62
     4
 10
-796.99999999999943
 20
-199.5
 30
0.0
 11
-802.75544670017564
 21
-230.0203523080888
 31
0.0
  0
LINE
  5
673
  8
NOTE
  6
CONTINUOUS
 62
     4
 10
-817.24453939332852
 20
-223.05367685887111
 30
0.0
 11
-796.99999999999943
 21
-199.5
 31
0.0
  0
POINT
  5
674
  8
DEFPOINTS
  6
CONTINUOUS
 62
     7
 10
-807.0
 20
-283.5
 30
0.0
  0
POINT
  5
675
  8
DEFPOINTS
  6
CONTINUOUS
 62
     7
 10
-789.0
 20
-94.500000000000014
 30
0.0
  0
POINT
  5
676
  8
DEFPOINTS
  6
CONTINUOUS
 62
     7
 10
-817.00095799999986
 20
-199.5
 30
0.0
  0
POINT
  5
677
  8
DEFPOINTS
  6
CONTINUOUS
 62
     7
 10
-833.66133500000001
 20
-263.5
 30
0.0
  0
POINT
  5
678
  8
DEFPOINTS
  6
CONTINUOUS
 62
     7
 10
-833.66133500000001
 20
-263.5
 30
0.0
  0
LINE
  5
679
  8
NOTE
  6
CONTINUOUS
 62
     4
 10
-807.0
 20
-283.5
 30
0.0
 11
-807.0
 21
-243.5
 31
0.0
  0
LINE
  5
67B
  8
NOTE
  6
CONTINUOUS
 62
     4
 10
-797.0
 20
-219.5
 30
0.0
 11
-797.0
 21
-179.5
 31
0.0
  0
LINE
  5
67D
  8
NOTE
  6
CONTINUOUS
 62
     4
 10
-789.0
 20
-114.5
 30
0.0
 11
-794.47469959089824
 21
-145.0719603360107
 31
0.0
  0
LINE
  5
67E
  8
NOTE
  6
CONTINUOUS
 62
     4
 10
-809.02720964832849
 20
-138.23874458218859
 30
0.0
 11
-789.0
 21
-114.5
 31
0.0
  0
POINT
  5
681
  8
DEFPOINTS
  6
CONTINUOUS
 62
     7
 10
-789.0
 20
-94.500000000000014
 30
0.0
  0
POINT
  5
682
  8
DEFPOINTS
  6
CONTINUOUS
 62
     7
 10
-809.00095799999986
 20
-114.5
 30
0.0
  0
LINE
  5
683
  8
NOTE
  6
CONTINUOUS
 62
     4
 10
-789.0
 20
-134.5
 30
0.0
 11
-789.0
 21
-94.500000000000014
 31
0.0
  0
LINE
  5
684
  8
DETAIL
  6
CONTINUOUS
 62
     5
 10
-789.0
 20
-123.49999973691681
 30
0.0
 11
-789.0
 21
-130.5
 31
0.0
  0
LINE
  5
687
  8
SIZE
  6
CONTINUOUS
 62
    30
 10
-755.0
 20
-405.49999999999989
 30
0.0
 11
-755.0
 21
-978.56413169231428
 31
0.0
  0
POINT
  5
688
  8
DEFPOINTS
  6
CONTINUOUS
 62
     7
 10
-755.0
 20
-948.56413169231428
 30
0.0
  0
LINE
  5
689
  8
SIZE
  6
CONTINUOUS
 62
    30
 10
-751.743664517242
 20
-948.56413169231428
 30
0.0
 11
-741.74366451724188
 21
-948.56413169231428
 31
0.0
  0
CIRCLE
  5
68A
  8
SIZE
  6
CONTINUOUS
 62
    30
 10
-755.0
 20
-948.56413169231428
 30
0.0
 40
5.0
  0
POINT
  5
68F
  8
DEFPOINTS
  6
CONTINUOUS
 62
     7
 10
-755.0
 20
-336.269023
 30
0.0
  0
POINT
  5
690
  8
DEFPOINTS
  6
CONTINUOUS
 62
     7
 10
-755.0
 20
-336.49819300000001
 30
0.0
  0
POINT
  5
693
  8
DEFPOINTS
  6
CONTINUOUS
 62
     7
 10
-771.0
 20
-383.003533
 30
0.0
  0
POINT
  5
695
  8
DEFPOINTS
  6
CONTINUOUS
 62
     7
 10
-771.0
 20
-383.003533
 30
0.0
  0
POINT
  5
696
  8
DEFPOINTS
  6
CONTINUOUS
 62
     7
 10
-771.0
 20
-383.003533
 30
0.0
  0
LINE
  5
6A1
  8
DETAIL
  6
CONTINUOUS
 62
     5
 10
-755.0
 20
-387.5
 30
0.0
 11
-755.00000000000011
 21
-383.003533
 31
0.0
  0
LINE
  5
6A8
  8
DETAIL
  6
CONTINUOUS
 62
     5
 10
-755.00083800000004
 20
-359.500719
 30
0.0
 11
-771.0
 21
-359.500719
 31
0.0
  0
LINE
  5
6A9
  8
DETAIL
  6
CONTINUOUS
 62
     5
 10
-755.00083800000004
 20
-347.499281
 30
0.0
 11
-771.0
 21
-347.499281
 31
0.0
  0
LINE
  5
6AA
  8
DETAIL
  6
CONTINUOUS
 62
     5
 10
-771.0
 20
-383.003533
 30
0.0
 11
-771.0
 21
-359.500719
 31
0.0
  0
LINE
  5
6AB
  8
DETAIL
  6
CONTINUOUS
 62
     5
 10
-755.00083800000004
 20
-347.499281
 30
0.0
 11
-755.00083800000004
 21
-345.49904199999997
 31
0.0
  0
LINE
  5
6AE
  8
DETAIL
  6
CONTINUOUS
 62
     5
 10
-755.00083800000004
 20
-361.50095800000003
 30
0.0
 11
-755.00083800000004
 21
-359.500719
 31
0.0
  0
LINE
  5
6AF
  8
DETAIL
  6
CONTINUOUS
 62
     5
 10
-771.0
 20
-347.499281
 30
0.0
 11
-771.0
 21
-323.996467
 31
0.0
  0
TEXT
  5
6C3
  8
NOTE
  6
CONTINUOUS
 62
     4
 10
-1242.0154001301851
 20
-477.44146312656733
 30
0.0
 40
60.0
  1
D1 VP25
 50
0.000003
 41
0.7
  7
STANDARD1
  0
LINE
  5
6C5
  8
NOTE
  6
CONTINUOUS
 62
     4
 10
-965.13263013018513
 20
-493.26799312656732
 30
0.0
 11
-1263.690672130185
 21
-493.26799312656732
 31
0.0
  0
LINE
  5
6C7
  8
NOTE
  6
CONTINUOUS
 62
     4
 10
-965.93490643944597
 20
-606.3069703843056
 30
0.0
 11
-1308.7987664394459
 21
-606.3069703843056
 31
0.0
  0
TEXT
  5
6C8
  8
NOTE
  6
CONTINUOUS
 62
     4
 10
-1287.1234944394459
 20
-590.48043938430567
 30
0.0
 40
60.0
  1
RL %%C9.52
 50
0.000003
 41
0.7
  7
STANDARD1
  0
LINE
  5
6C9
  8
NOTE
  6
CONTINUOUS
 62
     4
 10
-977.11961343944608
 20
-712.26476138430553
 30
0.0
 11
-1348.9164134394459
 21
-712.26476138430553
 31
0.0
  0
TEXT
  5
6CA
  8
NOTE
  6
CONTINUOUS
 62
     4
 10
-1327.241141439446
 20
-696.4382313843056
 30
0.0
 40
60.0
  1
RG %%C15.88
 50
0.000003
 41
0.7
  7
STANDARD1
  0
CIRCLE
  5
712
  8
ARRANGE
  6
CONTINUOUS
 62
     1
 10
0.0
 20
0.0
 30
0.0
 40
50.0
  0
LINE
  5
713
  8
BASIS
  6
DASHDOT
 62
     6
 10
0.0
 20
600.0
 30
0.0
 11
0.0
 21
-500.0
 31
0.0
  0
LINE
  5
71A
  8
OUTLINE
  6
CONTINUOUS
 62
     3
 10
755.0
 20
-387.5
 30
0.0
 11
755.0
 21
-123.49999973691681
 31
0.0
  0
LINE
  5
71D
  8
ARRANGE
  6
CONTINUOUS
 62
     1
 10
49.963763
 20
49.596595000000001
 30
0.0
 11
-49.963763
 21
-49.596595000000001
 31
0.0
  0
LINE
  5
71E
  8
ARRANGE
  6
CONTINUOUS
 62
     1
 10
50.037350000000004
 20
-49.522353000000003
 30
0.0
 11
-50.037350000000004
 21
49.522353000000003
 31
0.0
  0
TEXT
  5
72D
  8
SIZE
  6
CONTINUOUS
 62
    30
 10
-77.785714285714292
 20
-1066.0043588019739
 30
0.0
 40
55.0
  1
1510
 41
0.9
 72
     1
 11
0.0
 21
-1066.0043588019739
 31
0.0
  0
TEXT
  5
72E
  8
SIZE
  6
CONTINUOUS
 62
    30
 10
-82.5
 20
-1165.4989138019739
 30
0.0
 40
55.0
  1
1542
 41
0.9
 72
     1
 11
0.0
 21
-1165.4989138019739
 31
0.0
  0
LINE
  5
76B
  8
SIZE
  6
CONTINUOUS
 62
    30
 10
755.0
 20
-405.49999999999989
 30
0.0
 11
755.0
 21
-1114.0043588019751
 31
0.0
  0
LINE
  5
76C
  8
SIZE
  6
CONTINUOUS
 62
    30
 10
771.0
 20
-401.003533
 30
0.0
 11
771.0
 21
-1213.4989138019739
 31
0.0
  0
LINE
  5
76D
  8
SIZE
  6
CONTINUOUS
 62
    30
 10
771.0
 20
-401.003533
 30
0.0
 11
771.0
 21
-1114.0043588019751
 31
0.0
  0
LINE
  5
76E
  8
SIZE
  6
CONTINUOUS
 62
    30
 10
755.0
 20
-405.49999999999989
 30
0.0
 11
755.0
 21
-1114.0043588019751
 31
0.0
  0
LINE
  5
773
  8
SIZE
  6
CONTINUOUS
 62
    30
 10
776.0
 20
-1084.0043588019739
 30
0.0
 11
791.0
 21
-1084.0043588019739
 31
0.0
  0
POINT
  5
775
  8
DEFPOINTS
  6
CONTINUOUS
 62
     7
 10
755.0
 20
-1084.0043588019739
 30
0.0
  0
LINE
  5
776
  8
SIZE
  6
CONTINUOUS
 62
    30
 10
750.0
 20
-1084.0043588019739
 30
0.0
 11
735.0
 21
-1084.0043588019739
 31
0.0
  0
CIRCLE
  5
777
  8
SIZE
  6
CONTINUOUS
 62
    30
 10
755.0
 20
-1084.0043588019739
 30
0.0
 40
5.0
  0
POINT
  5
778
  8
DEFPOINTS
  6
CONTINUOUS
 62
     7
 10
771.0
 20
-1183.4989138019739
 30
0.0
  0
LINE
  5
779
  8
SIZE
  6
CONTINUOUS
 62
    30
 10
766.0
 20
-1183.4989138019739
 30
0.0
 11
751.0
 21
-1183.4989138019739
 31
0.0
  0
CIRCLE
  5
77A
  8
SIZE
  6
CONTINUOUS
 62
    30
 10
771.0
 20
-1183.4989138019739
 30
0.0
 40
5.0
  0
POINT
  5
77B
  8
DEFPOINTS
  6
CONTINUOUS
 62
     7
 10
771.0
 20
-1084.0043588019739
 30
0.0
  0
CIRCLE
  5
77C
  8
SIZE
  6
CONTINUOUS
 62
    30
 10
771.0
 20
-1084.0043588019739
 30
0.0
 40
5.0
  0
LINE
  5
77D
  8
SIZE
  6
CONTINUOUS
 62
    30
 10
750.0
 20
-1084.0043588019739
 30
0.0
 11
735.0
 21
-1084.0043588019739
 31
0.0
  0
CIRCLE
  5
77E
  8
SIZE
  6
CONTINUOUS
 62
    30
 10
755.0
 20
-1084.0043588019739
 30
0.0
 40
5.0
  0
LINE
  5
77F
  8
SIZE
  6
CONTINUOUS
 62
    30
 10
755.0
 20
-1084.0043588019739
 30
0.0
 11
771.0
 21
-1084.0043588019739
 31
0.0
  0
LINE
  5
780
  8
SIZE
  6
CONTINUOUS
 62
    30
 10
735.0
 20
-1084.0043588019739
 30
0.0
 11
715.0
 21
-1084.0043588019739
 31
0.0
  0
TEXT
  5
78A
  8
SIZE
  6
CONTINUOUS
 62
    30
 10
825.89285757142841
 20
-1066.0043588019739
 30
0.0
 40
55.0
  1
16
 41
0.9
 72
     1
 11
860.07142899999985
 21
-1066.0043588019739
 31
0.0
  0
LINE
  5
78B
  8
SIZE
  6
CONTINUOUS
 62
    30
 10
791.0
 20
-1084.0043588019739
 30
0.0
 11
909.14285700000005
 21
-1084.0043588019739
 31
0.0
  0
POINT
  5
79B
  8
DEFPOINTS
  6
CONTINUOUS
 62
     7
 10
755.0
 20
-387.5
 30
0.0
  0
POINT
  5
79C
  8
DEFPOINTS
  6
CONTINUOUS
 62
     7
 10
768.07640500000002
 20
-353.5
 30
0.0
  0
POINT
  5
79D
  8
DEFPOINTS
  6
CONTINUOUS
 62
     7
 10
768.07640500000002
 20
-353.5
 30
0.0
  0
POINT
  5
79E
  8
DEFPOINTS
  6
CONTINUOUS
 62
     7
 10
755.00001099999986
 20
-387.49998900000003
 30
0.0
  0
POINT
  5
79F
  8
DEFPOINTS
  6
CONTINUOUS
 62
     7
 10
755.0
 20
-387.5
 30
0.0
  0
POINT
  5
7A0
  8
DEFPOINTS
  6
CONTINUOUS
 62
     7
 10
755.0
 20
-387.5
 30
0.0
  0
POINT
  5
7A1
  8
DEFPOINTS
  6
CONTINUOUS
 62
     7
 10
771.0
 20
-383.003533
 30
0.0
  0
POINT
  5
7A2
  8
DEFPOINTS
  6
CONTINUOUS
 62
     7
 10
771.0
 20
-383.003533
 30
0.0
  0
POINT
  5
7A3
  8
DEFPOINTS
  6
CONTINUOUS
 62
     7
 10
755.0
 20
-387.5
 30
0.0
  0
POINT
  5
7A4
  8
DEFPOINTS
  6
CONTINUOUS
 62
     7
 10
771.0
 20
-383.003533
 30
0.0
  0
POINT
  5
7A6
  8
DEFPOINTS
  6
CONTINUOUS
 62
     7
 10
755.0
 20
-387.5
 30
0.0
  0
LINE
  5
7AB
  8
DETAIL
  6
CONTINUOUS
 62
     5
 10
755.0
 20
-387.5
 30
0.0
 11
755.00000000000011
 21
-383.00353300000012
 31
0.0
  0
LINE
  5
7B2
  8
DETAIL
  6
CONTINUOUS
 62
     5
 10
771.0
 20
-347.499281
 30
0.0
 11
771.0
 21
-323.996467
 31
0.0
  0
LINE
  5
7B3
  8
DETAIL
  6
CONTINUOUS
 62
     5
 10
755.00083800000004
 20
-359.500719
 30
0.0
 11
771.0
 21
-359.500719
 31
0.0
  0
LINE
  5
7B4
  8
DETAIL
  6
CONTINUOUS
 62
     5
 10
755.00083800000004
 20
-347.499281
 30
0.0
 11
771.0
 21
-347.499281
 31
0.0
  0
LINE
  5
7B5
  8
DETAIL
  6
CONTINUOUS
 62
     5
 10
771.0
 20
-383.003533
 30
0.0
 11
771.0
 21
-359.500719
 31
0.0
  0
LINE
  5
7B8
  8
DETAIL
  6
CONTINUOUS
 62
     5
 10
755.00083800000004
 20
-347.499281
 30
0.0
 11
755.00083800000004
 21
-345.49904199999997
 31
0.0
  0
LINE
  5
7BB
  8
DETAIL
  6
CONTINUOUS
 62
     5
 10
755.00083800000004
 20
-361.50095800000003
 30
0.0
 11
755.00083800000004
 21
-359.500719
 31
0.0
  0
POINT
  5
95F
  8
DEFPOINTS
  6
CONTINUOUS
 62
     7
 10
-807.0
 20
-252.25
 30
0.0
  0
LINE
  5
960
  8
DETAIL
  6
CONTINUOUS
 62
     5
 10
-778.00914899999964
 20
-204.68404010240371
 30
0.0
 11
-754.99999999999966
 21
-204.68404010240371
 31
0.0
  0
LINE
  5
961
  8
DETAIL
  6
CONTINUOUS
 62
     5
 10
-777.00914899999964
 20
-208.6840401024038
 30
0.0
 11
-755.0
 21
-208.6840401024038
 31
0.0
  0
LINE
  5
962
  8
DETAIL
  6
CONTINUOUS
 62
     5
 10
-777.00914899999964
 20
-189.68404010240371
 30
0.0
 11
-755.0
 21
-189.68404010240371
 31
0.0
  0
LINE
  5
963
  8
DETAIL
  6
CONTINUOUS
 62
     5
 10
-778.00914899999964
 20
-193.68404010240371
 30
0.0
 11
-754.99999999999966
 21
-193.68404010240371
 31
0.0
  0
LINE
  5
964
  8
DETAIL
  6
CONTINUOUS
 62
     5
 10
-794.00914899999998
 20
-209.68404010240371
 30
0.0
 11
-781.00914899999964
 21
-209.68404010240371
 31
0.0
  0
LINE
  5
965
  8
DETAIL
  6
CONTINUOUS
 62
     5
 10
-793.00914899999964
 20
-204.68404010240371
 30
0.0
 11
-780.00914899999964
 21
-204.68404010240371
 31
0.0
  0
LINE
  5
966
  8
DETAIL
  6
CONTINUOUS
 62
     5
 10
-780.00914899999964
 20
-208.6840401024038
 30
0.0
 11
-781.00914899999964
 21
-209.68404010240371
 31
0.0
  0
LINE
  5
967
  8
DETAIL
  6
CONTINUOUS
 62
     5
 10
-778.00914899999964
 20
-207.68404010240371
 30
0.0
 11
-777.00914899999964
 21
-208.6840401024038
 31
0.0
  0
LINE
  5
968
  8
DETAIL
  6
CONTINUOUS
 62
     5
 10
-793.00914899999964
 20
-204.68404010240371
 30
0.0
 11
-794.00914899999998
 21
-203.68404010240371
 31
0.0
  0
LINE
  5
969
  8
DETAIL
  6
CONTINUOUS
 62
     5
 10
-793.00914899999964
 20
-204.68404010240371
 30
0.0
 11
-794.00914899999998
 21
-205.68404010240371
 31
0.0
  0
LINE
  5
96A
  8
DETAIL
  6
CONTINUOUS
 62
     5
 10
-780.00914899999964
 20
-203.9440401024037
 30
0.0
 11
-778.00914899999964
 21
-203.9440401024037
 31
0.0
  0
LINE
  5
96B
  8
DETAIL
  6
CONTINUOUS
 62
     5
 10
-778.00914899999964
 20
-207.68404010240371
 30
0.0
 11
-778.00914899999964
 21
-190.68404010240371
 31
0.0
  0
LINE
  5
96C
  8
DETAIL
  6
CONTINUOUS
 62
     5
 10
-780.00914899999964
 20
-208.6840401024038
 30
0.0
 11
-780.00914899999964
 21
-189.68404010240371
 31
0.0
  0
LINE
  5
96D
  8
DETAIL
  6
CONTINUOUS
 62
     5
 10
-794.00914899999998
 20
-188.68404010240371
 30
0.0
 11
-781.00914899999964
 21
-188.68404010240371
 31
0.0
  0
LINE
  5
96E
  8
DETAIL
  6
CONTINUOUS
 62
     5
 10
-794.00914899999998
 20
-209.68404010240371
 30
0.0
 11
-794.00914899999998
 21
-188.68404010240371
 31
0.0
  0
LINE
  5
96F
  8
DETAIL
  6
CONTINUOUS
 62
     5
 10
-793.00914899999964
 20
-193.68404010240371
 30
0.0
 11
-780.00914899999964
 21
-193.68404010240371
 31
0.0
  0
LINE
  5
970
  8
DETAIL
  6
CONTINUOUS
 62
     5
 10
-781.00914899999964
 20
-188.68404010240371
 30
0.0
 11
-780.00914899999964
 21
-189.68404010240371
 31
0.0
  0
LINE
  5
971
  8
DETAIL
  6
CONTINUOUS
 62
     5
 10
-778.00914899999964
 20
-190.68404010240371
 30
0.0
 11
-777.00914899999964
 21
-189.68404010240371
 31
0.0
  0
LINE
  5
972
  8
DETAIL
  6
CONTINUOUS
 62
     5
 10
-793.00914899999964
 20
-193.68404010240371
 30
0.0
 11
-794.00914899999998
 21
-192.68404010240371
 31
0.0
  0
LINE
  5
973
  8
DETAIL
  6
CONTINUOUS
 62
     5
 10
-793.00914899999964
 20
-193.68404010240371
 30
0.0
 11
-794.00914899999998
 21
-194.68404010240371
 31
0.0
  0
LINE
  5
974
  8
DETAIL
  6
CONTINUOUS
 62
     5
 10
-780.00914899999964
 20
-194.42404010240361
 30
0.0
 11
-778.00914899999964
 21
-194.42404010240361
 31
0.0
  0
LINE
  5
975
  8
DETAIL
  6
CONTINUOUS
 62
     5
 10
-797.0
 20
-204.68404010240371
 30
0.0
 11
-797.0
 21
-193.68404010240371
 31
0.0
  0
LINE
  5
976
  8
DETAIL
  6
CONTINUOUS
 62
     5
 10
-797.0
 20
-204.68404010240371
 30
0.0
 11
-794.00914899999998
 21
-209.68404010240371
 31
0.0
  0
LINE
  5
977
  8
DETAIL
  6
CONTINUOUS
 62
     5
 10
-780.00914899999964
 20
-208.6840401024038
 30
0.0
 11
-781.00914899999964
 21
-209.68404010240371
 31
0.0
  0
LINE
  5
978
  8
DETAIL
  6
CONTINUOUS
 62
     5
 10
-797.0
 20
-193.68404010240371
 30
0.0
 11
-794.00914899999998
 21
-188.68404010240371
 31
0.0
  0
LINE
  5
979
  8
DETAIL
  6
CONTINUOUS
 62
     5
 10
-807.0
 20
-252.25
 30
0.0
 11
-807.0
 21
-274.75
 31
0.0
  0
LINE
  5
97A
  8
DETAIL
  6
CONTINUOUS
 62
     5
 10
-755.0
 20
-275.0
 30
0.0
 11
-782.00914899999964
 21
-275.0
 31
0.0
  0
LINE
  5
97B
  8
DETAIL
  6
CONTINUOUS
 62
     5
 10
-755.0
 20
-252.0
 30
0.0
 11
-782.00914899999964
 21
-252.0
 31
0.0
  0
LINE
  5
97C
  8
DETAIL
  6
CONTINUOUS
 62
     5
 10
-802.00914899999964
 20
-270.5
 30
0.0
 11
-804.00914899999964
 21
-272.5
 31
0.0
  0
LINE
  5
97D
  8
DETAIL
  6
CONTINUOUS
 62
     5
 10
-802.00914899999964
 20
-270.5
 30
0.0
 11
-804.00914899999964
 21
-268.5
 31
0.0
  0
LINE
  5
97E
  8
DETAIL
  6
CONTINUOUS
 62
     5
 10
-802.00914899999964
 20
-256.5
 30
0.0
 11
-804.00914899999964
 21
-258.5
 31
0.0
  0
LINE
  5
97F
  8
DETAIL
  6
CONTINUOUS
 62
     5
 10
-802.00914899999964
 20
-256.5
 30
0.0
 11
-804.00914899999964
 21
-254.5
 31
0.0
  0
LINE
  5
980
  8
DETAIL
  6
CONTINUOUS
 62
     5
 10
-790.00914899999964
 20
-256.5
 30
0.0
 11
-788.00914899999964
 21
-254.5
 31
0.0
  0
LINE
  5
981
  8
DETAIL
  6
CONTINUOUS
 62
     5
 10
-790.00914899999964
 20
-256.5
 30
0.0
 11
-788.00914899999964
 21
-258.5
 31
0.0
  0
LINE
  5
982
  8
DETAIL
  6
CONTINUOUS
 62
     5
 10
-790.00914899999964
 20
-270.5
 30
0.0
 11
-788.00914899999964
 21
-268.5
 31
0.0
  0
LINE
  5
983
  8
DETAIL
  6
CONTINUOUS
 62
     5
 10
-790.00914899999964
 20
-270.5
 30
0.0
 11
-788.00914899999964
 21
-272.5
 31
0.0
  0
LINE
  5
984
  8
DETAIL
  6
CONTINUOUS
 62
     5
 10
-790.00914899999964
 20
-270.5
 30
0.0
 11
-802.00914899999964
 21
-270.5
 31
0.0
  0
LINE
  5
985
  8
DETAIL
  6
CONTINUOUS
 62
     5
 10
-790.00914899999964
 20
-256.5
 30
0.0
 11
-802.00914899999964
 21
-256.5
 31
0.0
  0
LINE
  5
986
  8
DETAIL
  6
CONTINUOUS
 62
     5
 10
-788.00914899999964
 20
-274.5
 30
0.0
 11
-790.00914899999964
 21
-276.5
 31
0.0
  0
LINE
  5
987
  8
DETAIL
  6
CONTINUOUS
 62
     5
 10
-788.00914899999964
 20
-252.5
 30
0.0
 11
-790.00914899999964
 21
-250.5
 31
0.0
  0
LINE
  5
988
  8
DETAIL
  6
CONTINUOUS
 62
     5
 10
-807.0
 20
-274.75
 30
0.0
 11
-804.00914899999964
 21
-276.5
 31
0.0
  0
LINE
  5
989
  8
DETAIL
  6
CONTINUOUS
 62
     5
 10
-804.00914899999964
 20
-250.5
 30
0.0
 11
-807.0
 21
-252.25000399999999
 31
0.0
  0
LINE
  5
98A
  8
DETAIL
  6
CONTINUOUS
 62
     5
 10
-804.00914899999964
 20
-250.5
 30
0.0
 11
-804.00914899999964
 21
-276.5
 31
0.0
  0
LINE
  5
98B
  8
DETAIL
  6
CONTINUOUS
 62
     5
 10
-788.00914899999964
 20
-252.5
 30
0.0
 11
-788.00914899999964
 21
-274.5
 31
0.0
  0
LINE
  5
98C
  8
DETAIL
  6
CONTINUOUS
 62
     5
 10
-788.00914899999964
 20
-252.5
 30
0.0
 11
-788.00914899999964
 21
-274.5
 31
0.0
  0
LINE
  5
98D
  8
DETAIL
  6
CONTINUOUS
 62
     5
 10
-790.00914899999964
 20
-276.5
 30
0.0
 11
-804.00914899999964
 21
-276.5
 31
0.0
  0
LINE
  5
98E
  8
DETAIL
  6
CONTINUOUS
 62
     5
 10
-790.00914899999964
 20
-250.5
 30
0.0
 11
-804.00914899999964
 21
-250.5
 31
0.0
  0
LINE
  5
98F
  8
DETAIL
  6
CONTINUOUS
 62
     5
 10
-788.00914899999964
 20
-255.5
 30
0.0
 11
-788.00914899999964
 21
-271.5
 31
0.0
  0
LINE
  5
990
  8
DETAIL
  6
CONTINUOUS
 62
     5
 10
-788.00914899999964
 20
-271.44
 30
0.0
 11
-784.00914899999964
 21
-271.44
 31
0.0
  0
LINE
  5
991
  8
DETAIL
  6
CONTINUOUS
 62
     5
 10
-788.00914899999964
 20
-255.56
 30
0.0
 11
-784.00914899999964
 21
-255.56
 31
0.0
  0
LINE
  5
992
  8
DETAIL
  6
CONTINUOUS
 62
     5
 10
-784.00914899999964
 20
-254.0
 30
0.0
 11
-782.00914899999964
 21
-252.0
 31
0.0
  0
LINE
  5
993
  8
DETAIL
  6
CONTINUOUS
 62
     5
 10
-784.00914899999964
 20
-273.0
 30
0.0
 11
-782.00914899999964
 21
-275.0
 31
0.0
  0
LINE
  5
994
  8
DETAIL
  6
CONTINUOUS
 62
     5
 10
-784.00914899999964
 20
-254.0
 30
0.0
 11
-784.00914899999964
 21
-273.0
 31
0.0
  0
POINT
  5
995
  8
DEFPOINTS
  6
CONTINUOUS
 62
     7
 10
-797.0
 20
-199.18404010240371
 30
0.0
  0
POINT
  5
996
  8
DEFPOINTS
  6
CONTINUOUS
 62
     7
 10
-807.0
 20
-263.5
 30
0.0
  0
LINE
  5
9A5
  8
NOTE
  6
CONTINUOUS
 62
     4
 10
-789.0
 20
-114.5
 30
0.0
 11
-965.13263013018513
 21
-493.26799312656732
 31
0.0
  0
LINE
  5
9A6
  8
NOTE
  6
CONTINUOUS
 62
     4
 10
-807.0
 20
-263.5
 30
0.0
 11
-977.11961343944608
 21
-712.26476138430553
 31
0.0
  0
LINE
  5
9A7
  8
NOTE
  6
CONTINUOUS
 62
     4
 10
-797.0
 20
-199.5
 30
0.0
 11
-965.93490643944597
 21
-606.3069703843056
 31
0.0
  0
LINE
  5
EC5
  8
DETAIL
  6
CONTINUOUS
 62
     5
 10
720.0000034544546
 20
-417.49999783918332
 30
0.0
 11
-720.0
 21
-417.49999999999989
 31
0.0
  0
LINE
  5
EC6
  8
DETAIL
  6
CONTINUOUS
 62
     5
 10
-720.0
 20
-417.50000273959432
 30
0.0
 11
-720.0
 21
-387.50000052519857
 31
0.0
  0
LINE
  5
EC7
  8
DETAIL
  6
CONTINUOUS
 62
     5
 10
720.0000034544546
 20
-417.49999783918332
 30
0.0
 11
720.0000034544546
 21
-387.5
 31
0.0
  0
CIRCLE
  5
EC8
  8
DETAIL
  6
CONTINUOUS
 62
     5
 10
650.00000000001
 20
-407.5
 30
0.0
 40
1.5
  0
LINE
  5
EC9
  8
NOTE
  6
CONTINUOUS
 62
     4
 10
658.99999976322965
 20
-407.49999999999483
 30
0.0
 11
641.00000023677035
 21
-407.49999999999483
 31
0.0
  0
LINE
  5
ECA
  8
NOTE
  6
CONTINUOUS
 62
     4
 10
650.00000000001
 20
-398.50000023677421
 30
0.0
 11
650.00000000001
 21
-416.49999976322567
 31
0.0
  0
CIRCLE
  5
ECB
  8
DETAIL
  6
CONTINUOUS
 62
     5
 10
585.00000000001
 20
-407.5
 30
0.0
 40
1.5
  0
LINE
  5
ECC
  8
NOTE
  6
CONTINUOUS
 62
     4
 10
593.99999976322965
 20
-407.49999999999483
 30
0.0
 11
576.00000023677035
 21
-407.49999999999483
 31
0.0
  0
LINE
  5
ECD
  8
NOTE
  6
CONTINUOUS
 62
     4
 10
585.00000000001
 20
-398.50000023677421
 30
0.0
 11
585.00000000001
 21
-416.49999976322567
 31
0.0
  0
CIRCLE
  5
ECE
  8
DETAIL
  6
CONTINUOUS
 62
     5
 10
650.00000000001
 20
-407.5
 30
0.0
 40
1.5
  0
LINE
  5
ECF
  8
NOTE
  6
CONTINUOUS
 62
     4
 10
658.99999976322965
 20
-407.49999999999483
 30
0.0
 11
641.00000023677035
 21
-407.49999999999483
 31
0.0
  0
LINE
  5
ED0
  8
NOTE
  6
CONTINUOUS
 62
     4
 10
650.00000000001
 20
-398.50000023677421
 30
0.0
 11
650.00000000001
 21
-416.49999976322567
 31
0.0
  0
CIRCLE
  5
ED1
  8
DETAIL
  6
CONTINUOUS
 62
     5
 10
520.00000000001035
 20
-407.5
 30
0.0
 40
1.5
  0
LINE
  5
ED2
  8
NOTE
  6
CONTINUOUS
 62
     4
 10
528.99999976322943
 20
-407.49999999999483
 30
0.0
 11
511.0000002367704
 21
-407.49999999999483
 31
0.0
  0
LINE
  5
ED3
  8
NOTE
  6
CONTINUOUS
 62
     4
 10
520.00000000001035
 20
-398.50000023677421
 30
0.0
 11
520.00000000001035
 21
-416.49999976322567
 31
0.0
  0
CIRCLE
  5
ED4
  8
DETAIL
  6
CONTINUOUS
 62
     5
 10
455.00000000001
 20
-407.5
 30
0.0
 40
1.5
  0
LINE
  5
ED5
  8
NOTE
  6
CONTINUOUS
 62
     4
 10
463.99999976322943
 20
-407.49999999999483
 30
0.0
 11
446.00000023677052
 21
-407.49999999999483
 31
0.0
  0
LINE
  5
ED6
  8
NOTE
  6
CONTINUOUS
 62
     4
 10
455.00000000001
 20
-398.50000023677421
 30
0.0
 11
455.00000000001
 21
-416.49999976322567
 31
0.0
  0
CIRCLE
  5
ED7
  8
DETAIL
  6
CONTINUOUS
 62
     5
 10
455.00000000001
 20
-407.5
 30
0.0
 40
1.5
  0
LINE
  5
ED8
  8
NOTE
  6
CONTINUOUS
 62
     4
 10
463.99999976322943
 20
-407.49999999999483
 30
0.0
 11
446.00000023677052
 21
-407.49999999999483
 31
0.0
  0
LINE
  5
ED9
  8
NOTE
  6
CONTINUOUS
 62
     4
 10
455.00000000001
 20
-398.50000023677421
 30
0.0
 11
455.00000000001
 21
-416.49999976322567
 31
0.0
  0
CIRCLE
  5
EDA
  8
DETAIL
  6
CONTINUOUS
 62
     5
 10
390.00000000001
 20
-407.5
 30
0.0
 40
1.5
  0
LINE
  5
EDB
  8
NOTE
  6
CONTINUOUS
 62
     4
 10
398.99999976322943
 20
-407.49999999999483
 30
0.0
 11
381.00000023677057
 21
-407.49999999999483
 31
0.0
  0
LINE
  5
EDC
  8
NOTE
  6
CONTINUOUS
 62
     4
 10
390.00000000001
 20
-398.50000023677421
 30
0.0
 11
390.00000000001
 21
-416.49999976322567
 31
0.0
  0
CIRCLE
  5
EDD
  8
DETAIL
  6
CONTINUOUS
 62
     5
 10
390.00000000001
 20
-407.5
 30
0.0
 40
1.5
  0
LINE
  5
EDE
  8
NOTE
  6
CONTINUOUS
 62
     4
 10
398.99999976322943
 20
-407.49999999999483
 30
0.0
 11
381.00000023677057
 21
-407.49999999999483
 31
0.0
  0
LINE
  5
EDF
  8
NOTE
  6
CONTINUOUS
 62
     4
 10
390.00000000001
 20
-398.50000023677421
 30
0.0
 11
390.00000000001
 21
-416.49999976322567
 31
0.0
  0
CIRCLE
  5
EE0
  8
DETAIL
  6
CONTINUOUS
 62
     5
 10
325.00000000001052
 20
-407.5
 30
0.0
 40
1.5
  0
LINE
  5
EE1
  8
NOTE
  6
CONTINUOUS
 62
     4
 10
333.99999976322943
 20
-407.49999999999483
 30
0.0
 11
316.00000023677057
 21
-407.49999999999483
 31
0.0
  0
LINE
  5
EE2
  8
NOTE
  6
CONTINUOUS
 62
     4
 10
325.00000000001052
 20
-398.50000023677421
 30
0.0
 11
325.00000000001052
 21
-416.49999976322567
 31
0.0
  0
CIRCLE
  5
EE3
  8
DETAIL
  6
CONTINUOUS
 62
     5
 10
325.00000000001052
 20
-407.5
 30
0.0
 40
1.5
  0
LINE
  5
EE4
  8
NOTE
  6
CONTINUOUS
 62
     4
 10
333.99999976322943
 20
-407.49999999999483
 30
0.0
 11
316.00000023677057
 21
-407.49999999999483
 31
0.0
  0
LINE
  5
EE5
  8
NOTE
  6
CONTINUOUS
 62
     4
 10
325.00000000001052
 20
-398.50000023677421
 30
0.0
 11
325.00000000001052
 21
-416.49999976322567
 31
0.0
  0
CIRCLE
  5
EE6
  8
DETAIL
  6
CONTINUOUS
 62
     5
 10
260.00000000001
 20
-407.5
 30
0.0
 40
1.5
  0
LINE
  5
EE7
  8
NOTE
  6
CONTINUOUS
 62
     4
 10
268.99999976322943
 20
-407.49999999999483
 30
0.0
 11
251.0000002367706
 21
-407.49999999999483
 31
0.0
  0
LINE
  5
EE8
  8
NOTE
  6
CONTINUOUS
 62
     4
 10
260.00000000001
 20
-398.50000023677421
 30
0.0
 11
260.00000000001
 21
-416.49999976322567
 31
0.0
  0
CIRCLE
  5
EE9
  8
DETAIL
  6
CONTINUOUS
 62
     5
 10
260.00000000001
 20
-407.5
 30
0.0
 40
1.5
  0
LINE
  5
EEA
  8
NOTE
  6
CONTINUOUS
 62
     4
 10
268.99999976322943
 20
-407.49999999999483
 30
0.0
 11
251.0000002367706
 21
-407.49999999999483
 31
0.0
  0
LINE
  5
EEB
  8
NOTE
  6
CONTINUOUS
 62
     4
 10
260.00000000001
 20
-398.50000023677421
 30
0.0
 11
260.00000000001
 21
-416.49999976322567
 31
0.0
  0
CIRCLE
  5
EEC
  8
DETAIL
  6
CONTINUOUS
 62
     5
 10
195.0000000000104
 20
-407.5
 30
0.0
 40
1.5
  0
LINE
  5
EED
  8
NOTE
  6
CONTINUOUS
 62
     4
 10
203.9999997632294
 20
-407.49999999999483
 30
0.0
 11
186.00000023677049
 21
-407.49999999999483
 31
0.0
  0
LINE
  5
EEE
  8
NOTE
  6
CONTINUOUS
 62
     4
 10
195.0000000000104
 20
-398.50000023677421
 30
0.0
 11
195.0000000000104
 21
-416.49999976322567
 31
0.0
  0
CIRCLE
  5
EEF
  8
DETAIL
  6
CONTINUOUS
 62
     5
 10
195.0000000000104
 20
-407.5
 30
0.0
 40
1.5
  0
LINE
  5
EF0
  8
NOTE
  6
CONTINUOUS
 62
     4
 10
203.9999997632294
 20
-407.49999999999483
 30
0.0
 11
186.00000023677049
 21
-407.49999999999483
 31
0.0
  0
LINE
  5
EF1
  8
NOTE
  6
CONTINUOUS
 62
     4
 10
195.0000000000104
 20
-398.50000023677421
 30
0.0
 11
195.0000000000104
 21
-416.49999976322567
 31
0.0
  0
CIRCLE
  5
EF2
  8
DETAIL
  6
CONTINUOUS
 62
     5
 10
130.0000000000104
 20
-407.5
 30
0.0
 40
1.5
  0
LINE
  5
EF3
  8
NOTE
  6
CONTINUOUS
 62
     4
 10
138.9999997632294
 20
-407.49999999999483
 30
0.0
 11
121.0000002367705
 21
-407.49999999999483
 31
0.0
  0
LINE
  5
EF4
  8
NOTE
  6
CONTINUOUS
 62
     4
 10
130.0000000000104
 20
-398.50000023677421
 30
0.0
 11
130.0000000000104
 21
-416.49999976322567
 31
0.0
  0
CIRCLE
  5
EF5
  8
DETAIL
  6
CONTINUOUS
 62
     5
 10
130.0000000000104
 20
-407.5
 30
0.0
 40
1.5
  0
LINE
  5
EF6
  8
NOTE
  6
CONTINUOUS
 62
     4
 10
138.9999997632294
 20
-407.49999999999483
 30
0.0
 11
121.0000002367705
 21
-407.49999999999483
 31
0.0
  0
LINE
  5
EF7
  8
NOTE
  6
CONTINUOUS
 62
     4
 10
130.0000000000104
 20
-398.50000023677421
 30
0.0
 11
130.0000000000104
 21
-416.49999976322567
 31
0.0
  0
CIRCLE
  5
EF8
  8
DETAIL
  6
CONTINUOUS
 62
     5
 10
65.000000000010459
 20
-407.5
 30
0.0
 40
1.5
  0
LINE
  5
EF9
  8
NOTE
  6
CONTINUOUS
 62
     4
 10
73.999999763229411
 20
-407.49999999999483
 30
0.0
 11
56.000000236770582
 21
-407.49999999999483
 31
0.0
  0
LINE
  5
EFA
  8
NOTE
  6
CONTINUOUS
 62
     4
 10
65.000000000010459
 20
-398.50000023677421
 30
0.0
 11
65.000000000010459
 21
-416.49999976322567
 31
0.0
  0
CIRCLE
  5
EFB
  8
DETAIL
  6
CONTINUOUS
 62
     5
 10
65.000000000010459
 20
-407.5
 30
0.0
 40
1.5
  0
LINE
  5
EFC
  8
NOTE
  6
CONTINUOUS
 62
     4
 10
73.999999763229411
 20
-407.49999999999483
 30
0.0
 11
56.000000236770582
 21
-407.49999999999483
 31
0.0
  0
LINE
  5
EFD
  8
NOTE
  6
CONTINUOUS
 62
     4
 10
65.000000000010459
 20
-398.50000023677421
 30
0.0
 11
65.000000000010459
 21
-416.49999976322567
 31
0.0
  0
CIRCLE
  5
EFE
  8
DETAIL
  6
CONTINUOUS
 62
     5
 10
0.0000000000100044
 20
-407.5
 30
0.0
 40
1.5
  0
LINE
  5
EFF
  8
NOTE
  6
CONTINUOUS
 62
     4
 10
8.9999997632294253
 20
-407.49999999999483
 30
0.0
 11
-8.9999997632294253
 21
-407.49999999999483
 31
0.0
  0
LINE
  5
F00
  8
NOTE
  6
CONTINUOUS
 62
     4
 10
0.0000000000100044
 20
-398.50000023677421
 30
0.0
 11
0.0000000000100044
 21
-416.49999976322567
 31
0.0
  0
CIRCLE
  5
F01
  8
DETAIL
  6
CONTINUOUS
 62
     5
 10
0.0000000000100044
 20
-407.5
 30
0.0
 40
1.5
  0
LINE
  5
F02
  8
NOTE
  6
CONTINUOUS
 62
     4
 10
8.9999997632294253
 20
-407.49999999999483
 30
0.0
 11
-8.9999997632294253
 21
-407.49999999999483
 31
0.0
  0
LINE
  5
F03
  8
NOTE
  6
CONTINUOUS
 62
     4
 10
0.0000000000100044
 20
-398.50000023677421
 30
0.0
 11
0.0000000000100044
 21
-416.49999976322567
 31
0.0
  0
CIRCLE
  5
F04
  8
DETAIL
  6
CONTINUOUS
 62
     5
 10
-64.999999999989541
 20
-407.5
 30
0.0
 40
1.5
  0
LINE
  5
F05
  8
NOTE
  6
CONTINUOUS
 62
     4
 10
-56.000000236770582
 20
-407.49999999999483
 30
0.0
 11
-73.999999763229411
 21
-407.49999999999483
 31
0.0
  0
LINE
  5
F06
  8
NOTE
  6
CONTINUOUS
 62
     4
 10
-64.999999999989541
 20
-398.50000023677421
 30
0.0
 11
-64.999999999989541
 21
-416.49999976322567
 31
0.0
  0
CIRCLE
  5
F07
  8
DETAIL
  6
CONTINUOUS
 62
     5
 10
-64.999999999989541
 20
-407.5
 30
0.0
 40
1.5
  0
LINE
  5
F08
  8
NOTE
  6
CONTINUOUS
 62
     4
 10
-56.000000236770582
 20
-407.49999999999483
 30
0.0
 11
-73.999999763229411
 21
-407.49999999999483
 31
0.0
  0
LINE
  5
F09
  8
NOTE
  6
CONTINUOUS
 62
     4
 10
-64.999999999989541
 20
-398.50000023677421
 30
0.0
 11
-64.999999999989541
 21
-416.49999976322567
 31
0.0
  0
CIRCLE
  5
F0A
  8
DETAIL
  6
CONTINUOUS
 62
     5
 10
-129.99999999998951
 20
-407.5
 30
0.0
 40
1.5
  0
LINE
  5
F0B
  8
NOTE
  6
CONTINUOUS
 62
     4
 10
-121.0000002367705
 20
-407.49999999999483
 30
0.0
 11
-138.9999997632294
 21
-407.49999999999483
 31
0.0
  0
LINE
  5
F0C
  8
NOTE
  6
CONTINUOUS
 62
     4
 10
-129.99999999998951
 20
-398.50000023677421
 30
0.0
 11
-129.99999999998951
 21
-416.49999976322567
 31
0.0
  0
LINE
  5
F12
  8
SIZE
  6
CONTINUOUS
 62
    30
 10
650.00000000001
 20
-437.5
 30
0.0
 11
650.00000000001
 21
-569.66319333840602
 31
0.0
  0
LINE
  5
F13
  8
SIZE
  6
CONTINUOUS
 62
    30
 10
585.00000000001
 20
-436.49999976322567
 30
0.0
 11
585.00000000001
 21
-569.66319333840602
 31
0.0
  0
LINE
  5
F14
  8
SIZE
  6
CONTINUOUS
 62
    30
 10
640.00000000000978
 20
-539.66319333840579
 30
0.0
 11
595.00000000001035
 21
-539.66319333840579
 31
0.0
  0
LINE
  5
F15
  8
SIZE
  6
CONTINUOUS
 62
    30
 10
585.00000000001
 20
-539.66319333840579
 30
0.0
 11
458.68625834074919
 21
-539.66319333840579
 31
0.0
  0
LINE
  5
F16
  8
SIZE
  6
CONTINUOUS
 62
    30
 10
650.00000000001
 20
-436.49999976322567
 30
0.0
 11
650.00000000001
 21
-711.92308038460499
 31
0.0
  0
LINE
  5
F17
  8
SIZE
  6
CONTINUOUS
 62
    30
 10
660.00000000001
 20
-681.92308038460465
 30
0.0
 11
745.0
 21
-681.92308038460465
 31
0.0
  0
LINE
  5
F18
  8
SIZE
  6
CONTINUOUS
 62
    30
 10
755.0
 20
-681.92308038460465
 30
0.0
 11
916.19156690043008
 21
-681.92308038460465
 31
0.0
  0
LINE
  5
F19
  8
SIZE
  6
CONTINUOUS
 62
    30
 10
-649.99999999998965
 20
-436.49999976329542
 30
0.0
 11
-649.99999999998965
 21
-711.92308038467445
 31
0.0
  0
LINE
  5
F1A
  8
SIZE
  6
CONTINUOUS
 62
    30
 10
650.00000000001
 20
-436.49999976322567
 30
0.0
 11
650.00000000001
 21
-711.92308038460499
 31
0.0
  0
LINE
  5
F1B
  8
SIZE
  6
CONTINUOUS
 62
    30
 10
-639.99999999998977
 20
-681.92308038467445
 30
0.0
 11
640.00000000001057
 21
-681.92308038460465
 31
0.0
  0
LINE
  5
F1C
  8
SIZE
  6
CONTINUOUS
 62
    30
 10
-720.0
 20
-437.50000052519852
 30
0.0
 11
-720.0
 21
-818.58545745917672
 31
0.0
  0
LINE
  5
F1D
  8
SIZE
  6
CONTINUOUS
 62
    30
 10
720.0000034544546
 20
-437.49999783918332
 30
0.0
 11
720.0000034544546
 21
-818.58545693397809
 31
0.0
  0
LINE
  5
F1E
  8
SIZE
  6
CONTINUOUS
 62
    30
 10
-710.0
 20
-788.58545745917661
 30
0.0
 11
710.0000034544546
 21
-788.58545693397787
 31
0.0
  0
TEXT
  5
F1F
  8
SIZE
  6
CONTINUOUS
 62
    30
 10
473.264892318465
 20
-522.04469010789262
 30
0.0
 40
55.0
  1
65
 41
0.9
 72
     1
 11
513.33632088989361
 21
-522.04469010789262
 31
0.0
  0
CIRCLE
  5
F20
  8
SIZE
  6
CONTINUOUS
 62
    30
 10
585.00000000001
 20
-539.66319333840579
 30
0.0
 40
5.0
  0
LINE
  5
F21
  8
SIZE
  6
CONTINUOUS
 62
    30
 10
590.00000000001035
 20
-539.66319333840579
 30
0.0
 11
595.00000000001035
 21
-539.66319333840579
 31
0.0
  0
CIRCLE
  5
F22
  8
SIZE
  6
CONTINUOUS
 62
    30
 10
650.00000000001
 20
-539.66319333840579
 30
0.0
 40
5.0
  0
LINE
  5
F23
  8
SIZE
  6
CONTINUOUS
 62
    30
 10
645.00000000001
 20
-539.66319333840579
 30
0.0
 11
640.00000000000978
 21
-539.66319333840579
 31
0.0
  0
TEXT
  5
F24
  8
SIZE
  6
CONTINUOUS
 62
    30
 10
792.67969689528627
 20
-664.30457715409102
 30
0.0
 40
55.0
  1
105
 41
0.9
 72
     1
 11
851.60826832385771
 21
-664.30457715409102
 31
0.0
  0
CIRCLE
  5
F25
  8
SIZE
  6
CONTINUOUS
 62
    30
 10
755.0
 20
-681.92308038460465
 30
0.0
 40
5.0
  0
LINE
  5
F26
  8
SIZE
  6
CONTINUOUS
 62
    30
 10
750.0
 20
-681.92308038460465
 30
0.0
 11
745.0
 21
-681.92308038460465
 31
0.0
  0
CIRCLE
  5
F27
  8
SIZE
  6
CONTINUOUS
 62
    30
 10
650.00000000001
 20
-681.92308038460465
 30
0.0
 40
5.0
  0
LINE
  5
F28
  8
SIZE
  6
CONTINUOUS
 62
    30
 10
655.00000000001035
 20
-681.92308038460465
 30
0.0
 11
660.00000000001
 21
-681.92308038460465
 31
0.0
  0
TEXT
  5
F29
  8
SIZE
  6
CONTINUOUS
 62
    30
 10
-82.499999999989669
 20
-664.30457715409102
 30
0.0
 40
55.0
  1
1300
 41
0.9
 72
     1
 11
0.0000000000103455
 21
-664.30457715409102
 31
0.0
  0
CIRCLE
  5
F2A
  8
SIZE
  6
CONTINUOUS
 62
    30
 10
650.00000000001
 20
-681.92308038460465
 30
0.0
 40
5.0
  0
LINE
  5
F2B
  8
SIZE
  6
CONTINUOUS
 62
    30
 10
645.00000000001035
 20
-681.92308038460465
 30
0.0
 11
640.00000000001057
 21
-681.92308038460465
 31
0.0
  0
CIRCLE
  5
F2C
  8
SIZE
  6
CONTINUOUS
 62
    30
 10
-649.99999999998965
 20
-681.92308038467445
 30
0.0
 40
5.0
  0
LINE
  5
F2D
  8
SIZE
  6
CONTINUOUS
 62
    30
 10
-644.99999999998965
 20
-681.92308038467445
 30
0.0
 11
-639.99999999998977
 21
-681.92308038467445
 31
0.0
  0
TEXT
  5
F2E
  8
SIZE
  6
CONTINUOUS
 62
    30
 10
-102.67142684420131
 20
-770.96695370346345
 30
0.0
 40
55.0
  1
1440（ダクト外寸）
 41
0.9
 72
     1
 11
175.0000017272273
 21
-770.96695370346345
 31
0.0
  0
CIRCLE
  5
F2F
  8
SIZE
  6
CONTINUOUS
 62
    30
 10
720.0000034544546
 20
-788.58545693397787
 30
0.0
 40
5.0
  0
LINE
  5
F30
  8
SIZE
  6
CONTINUOUS
 62
    30
 10
715.0000034544546
 20
-788.58545693397787
 30
0.0
 11
710.0000034544546
 21
-788.58545693397787
 31
0.0
  0
CIRCLE
  5
F31
  8
SIZE
  6
CONTINUOUS
 62
    30
 10
-720.0
 20
-788.58545745917661
 30
0.0
 40
5.0
  0
LINE
  5
F32
  8
SIZE
  6
CONTINUOUS
 62
    30
 10
-715.0
 20
-788.58545745917661
 30
0.0
 11
-710.0
 21
-788.58545745917661
 31
0.0
  0
LINE
  5
F33
  8
SIZE
  6
CONTINUOUS
 62
    30
 10
693.99999976322965
 20
-407.49999999999483
 30
0.0
 11
881.25808089397265
 21
-407.49999999999483
 31
0.0
  0
LINE
  5
F34
  8
SIZE
  6
CONTINUOUS
 62
    30
 10
740.0
 20
-417.49999999999989
 30
0.0
 11
881.25808089397265
 21
-417.49999999999989
 31
0.0
  0
LINE
  5
F35
  8
SIZE
  6
CONTINUOUS
 62
    30
 10
851.25808089397265
 20
-427.5
 30
0.0
 11
851.25808089397265
 21
-512.68394230347565
 31
0.0
  0
LINE
  5
F36
  8
SIZE
  6
CONTINUOUS
 62
    30
 10
851.25808089397265
 20
-407.49999999999483
 30
0.0
 11
851.25808089397265
 21
-417.49999999999989
 31
0.0
  0
TEXT
  5
F37
  8
SIZE
  6
CONTINUOUS
 62
    30
 10
836.64958456859119
 20
-506.0135316730516
 30
0.0
 40
55.0
  1
10
 50
90.0
 41
0.9
 72
     1
 11
836.64958456859119
 21
-470.65638881590883
 31
0.0
  0
CIRCLE
  5
F38
  8
SIZE
  6
CONTINUOUS
 62
    30
 10
851.25808089397265
 20
-417.49999999999989
 30
0.0
 40
5.0
  0
LINE
  5
F39
  8
SIZE
  6
CONTINUOUS
 62
    30
 10
851.25808089397265
 20
-422.49999999999989
 30
0.0
 11
851.25808089397265
 21
-427.5
 31
0.0
  0
CIRCLE
  5
F3A
  8
SIZE
  6
CONTINUOUS
 62
    30
 10
851.25808089397265
 20
-407.49999999999483
 30
0.0
 40
5.0
  0
LINE
  5
F3B
  8
SIZE
  6
CONTINUOUS
 62
    30
 10
755.0000031554755
 20
-407.49999898496998
 30
0.0
 11
755.0000031554755
 21
-711.92307936957525
 31
0.0
  0
CIRCLE
  5
F3C
  8
DETAIL
  6
CONTINUOUS
 62
     5
 10
-194.99999999998951
 20
-407.5
 30
0.0
 40
1.5
  0
LINE
  5
F3D
  8
NOTE
  6
CONTINUOUS
 62
     4
 10
-186.00000023677049
 20
-407.49999999999483
 30
0.0
 11
-203.9999997632294
 21
-407.49999999999483
 31
0.0
  0
LINE
  5
F3E
  8
NOTE
  6
CONTINUOUS
 62
     4
 10
-194.99999999998951
 20
-398.50000023677421
 30
0.0
 11
-194.99999999998951
 21
-416.49999976322567
 31
0.0
  0
CIRCLE
  5
F3F
  8
DETAIL
  6
CONTINUOUS
 62
     5
 10
-194.99999999998951
 20
-407.5
 30
0.0
 40
1.5
  0
LINE
  5
F40
  8
NOTE
  6
CONTINUOUS
 62
     4
 10
-186.00000023677049
 20
-407.49999999999483
 30
0.0
 11
-203.9999997632294
 21
-407.49999999999483
 31
0.0
  0
LINE
  5
F41
  8
NOTE
  6
CONTINUOUS
 62
     4
 10
-194.99999999998951
 20
-398.50000023677421
 30
0.0
 11
-194.99999999998951
 21
-416.49999976322567
 31
0.0
  0
CIRCLE
  5
F42
  8
DETAIL
  6
CONTINUOUS
 62
     5
 10
-259.99999999998948
 20
-407.5
 30
0.0
 40
1.5
  0
LINE
  5
F43
  8
NOTE
  6
CONTINUOUS
 62
     4
 10
-251.0000002367704
 20
-407.49999999999483
 30
0.0
 11
-268.99999976322943
 21
-407.49999999999483
 31
0.0
  0
LINE
  5
F44
  8
NOTE
  6
CONTINUOUS
 62
     4
 10
-259.99999999998948
 20
-398.50000023677421
 30
0.0
 11
-259.99999999998948
 21
-416.49999976322567
 31
0.0
  0
CIRCLE
  5
F45
  8
DETAIL
  6
CONTINUOUS
 62
     5
 10
-259.99999999998948
 20
-407.5
 30
0.0
 40
1.5
  0
LINE
  5
F46
  8
NOTE
  6
CONTINUOUS
 62
     4
 10
-251.0000002367704
 20
-407.49999999999483
 30
0.0
 11
-268.99999976322943
 21
-407.49999999999483
 31
0.0
  0
LINE
  5
F47
  8
NOTE
  6
CONTINUOUS
 62
     4
 10
-259.99999999998948
 20
-398.50000023677421
 30
0.0
 11
-259.99999999998948
 21
-416.49999976322567
 31
0.0
  0
CIRCLE
  5
F48
  8
DETAIL
  6
CONTINUOUS
 62
     5
 10
-324.9999999999896
 20
-407.5
 30
0.0
 40
1.5
  0
LINE
  5
F49
  8
NOTE
  6
CONTINUOUS
 62
     4
 10
-316.00000023677057
 20
-407.49999999999483
 30
0.0
 11
-333.99999976322943
 21
-407.49999999999483
 31
0.0
  0
LINE
  5
F4A
  8
NOTE
  6
CONTINUOUS
 62
     4
 10
-324.9999999999896
 20
-398.50000023677421
 30
0.0
 11
-324.9999999999896
 21
-416.49999976322567
 31
0.0
  0
CIRCLE
  5
F4B
  8
DETAIL
  6
CONTINUOUS
 62
     5
 10
-324.9999999999896
 20
-407.5
 30
0.0
 40
1.5
  0
LINE
  5
F4C
  8
NOTE
  6
CONTINUOUS
 62
     4
 10
-316.00000023677057
 20
-407.49999999999483
 30
0.0
 11
-333.99999976322943
 21
-407.49999999999483
 31
0.0
  0
LINE
  5
F4D
  8
NOTE
  6
CONTINUOUS
 62
     4
 10
-324.9999999999896
 20
-398.50000023677421
 30
0.0
 11
-324.9999999999896
 21
-416.49999976322567
 31
0.0
  0
LINE
  5
F67
  8
DETAIL
  6
CONTINUOUS
 62
     5
 10
755.0
 20
-323.99646699999988
 30
0.0
 11
771.0
 21
-323.996467
 31
0.0
  0
LINE
  5
F69
  8
DETAIL
  6
CONTINUOUS
 62
     5
 10
755.0
 20
-383.003533
 30
0.0
 11
771.0
 21
-383.003533
 31
0.0
  0
LINE
  5
F6A
  8
DETAIL
  6
CONTINUOUS
 62
     5
 10
755.0
 20
-387.5
 30
0.0
 11
755.0
 21
-123.49999973691681
 31
0.0
  0
LINE
  5
F6D
  8
DETAIL
  6
CONTINUOUS
 62
     5
 10
755.0
 20
-370.73097742039312
 30
0.0
 11
755.0
 21
-370.50210900000002
 31
0.0
  0
LINE
  5
F9B
  8
DETAIL
  6
CONTINUOUS
 62
     5
 10
-755.0
 20
-323.996467
 30
0.0
 11
-771.0
 21
-323.996467
 31
0.0
  0
LINE
  5
F9D
  8
DETAIL
  6
CONTINUOUS
 62
     5
 10
-755.0
 20
-383.00353300000057
 30
0.0
 11
-771.0
 21
-383.003533
 31
0.0
  0
CIRCLE
  5
FA7
  8
DETAIL
  6
CONTINUOUS
 62
     5
 10
-389.99999999998948
 20
-407.5
 30
0.0
 40
1.5
  0
LINE
  5
FA8
  8
NOTE
  6
CONTINUOUS
 62
     4
 10
-381.00000023677057
 20
-407.49999999999483
 30
0.0
 11
-398.99999976322943
 21
-407.49999999999483
 31
0.0
  0
CIRCLE
  5
FA9
  8
DETAIL
  6
CONTINUOUS
 62
     5
 10
-389.99999999998948
 20
-407.5
 30
0.0
 40
1.5
  0
LINE
  5
FAA
  8
NOTE
  6
CONTINUOUS
 62
     4
 10
-381.00000023677057
 20
-407.49999999999483
 30
0.0
 11
-398.99999976322943
 21
-407.49999999999483
 31
0.0
  0
LINE
  5
FAB
  8
NOTE
  6
CONTINUOUS
 62
     4
 10
-389.99999999998948
 20
-398.50000023677421
 30
0.0
 11
-389.99999999998948
 21
-416.49999976322567
 31
0.0
  0
CIRCLE
  5
FAC
  8
DETAIL
  6
CONTINUOUS
 62
     5
 10
-454.99999999998948
 20
-407.5
 30
0.0
 40
1.5
  0
LINE
  5
FAD
  8
NOTE
  6
CONTINUOUS
 62
     4
 10
-446.00000023677052
 20
-407.49999999999483
 30
0.0
 11
-463.99999976322943
 21
-407.49999999999483
 31
0.0
  0
CIRCLE
  5
FAE
  8
DETAIL
  6
CONTINUOUS
 62
     5
 10
-454.99999999998948
 20
-407.5
 30
0.0
 40
1.5
  0
LINE
  5
FAF
  8
NOTE
  6
CONTINUOUS
 62
     4
 10
-446.00000023677052
 20
-407.49999999999483
 30
0.0
 11
-463.99999976322943
 21
-407.49999999999483
 31
0.0
  0
LINE
  5
FB0
  8
NOTE
  6
CONTINUOUS
 62
     4
 10
-454.99999999998948
 20
-398.50000023677421
 30
0.0
 11
-454.99999999998948
 21
-416.49999976322567
 31
0.0
  0
CIRCLE
  5
FB1
  8
DETAIL
  6
CONTINUOUS
 62
     5
 10
-519.99999999998965
 20
-407.5
 30
0.0
 40
1.5
  0
LINE
  5
FB2
  8
NOTE
  6
CONTINUOUS
 62
     4
 10
-511.0000002367704
 20
-407.49999999999483
 30
0.0
 11
-528.99999976322943
 21
-407.49999999999483
 31
0.0
  0
CIRCLE
  5
FB3
  8
DETAIL
  6
CONTINUOUS
 62
     5
 10
-519.99999999998965
 20
-407.5
 30
0.0
 40
1.5
  0
LINE
  5
FB4
  8
NOTE
  6
CONTINUOUS
 62
     4
 10
-511.0000002367704
 20
-407.49999999999483
 30
0.0
 11
-528.99999976322943
 21
-407.49999999999483
 31
0.0
  0
LINE
  5
FB5
  8
NOTE
  6
CONTINUOUS
 62
     4
 10
-519.99999999998965
 20
-398.50000023677421
 30
0.0
 11
-519.99999999998965
 21
-416.49999976322567
 31
0.0
  0
CIRCLE
  5
FB6
  8
DETAIL
  6
CONTINUOUS
 62
     5
 10
-584.99999999998965
 20
-407.5
 30
0.0
 40
1.5
  0
LINE
  5
FB7
  8
NOTE
  6
CONTINUOUS
 62
     4
 10
-576.00000023677035
 20
-407.49999999999483
 30
0.0
 11
-593.99999976322965
 21
-407.49999999999483
 31
0.0
  0
CIRCLE
  5
FB8
  8
DETAIL
  6
CONTINUOUS
 62
     5
 10
-584.99999999998965
 20
-407.5
 30
0.0
 40
1.5
  0
LINE
  5
FB9
  8
NOTE
  6
CONTINUOUS
 62
     4
 10
-576.00000023677035
 20
-407.49999999999483
 30
0.0
 11
-593.99999976322965
 21
-407.49999999999483
 31
0.0
  0
LINE
  5
FBA
  8
NOTE
  6
CONTINUOUS
 62
     4
 10
-584.99999999998965
 20
-398.50000023677421
 30
0.0
 11
-584.99999999998965
 21
-416.49999976322567
 31
0.0
  0
CIRCLE
  5
FBB
  8
DETAIL
  6
CONTINUOUS
 62
     5
 10
-649.99999999998965
 20
-407.5
 30
0.0
 40
1.5
  0
LINE
  5
FBC
  8
NOTE
  6
CONTINUOUS
 62
     4
 10
-641.00000023677035
 20
-407.49999999999483
 30
0.0
 11
-658.99999976322965
 21
-407.49999999999483
 31
0.0
  0
CIRCLE
  5
FBD
  8
DETAIL
  6
CONTINUOUS
 62
     5
 10
-649.99999999998965
 20
-407.5
 30
0.0
 40
1.5
  0
LINE
  5
FBE
  8
NOTE
  6
CONTINUOUS
 62
     4
 10
-641.00000023677035
 20
-407.49999999999483
 30
0.0
 11
-658.99999976322965
 21
-407.49999999999483
 31
0.0
  0
LINE
  5
FBF
  8
NOTE
  6
CONTINUOUS
 62
     4
 10
-649.99999999998965
 20
-398.50000023677421
 30
0.0
 11
-649.99999999998965
 21
-416.49999976322567
 31
0.0
  0
TEXT
  5
10DB
  8
ETC
  6
CONTINUOUS
 62
    61
 10
102.4980519469373
 20
1064.9770731531571
 30
0.0
 40
80.0
  1
PD-RP112_160FA9_6
 50
0.000003
 41
0.8
  0
TEXT
  5
10DC
  8
ETC
  6
CONTINUOUS
 62
    61
 10
225.64118315404411
 20
937.33621541398725
 30
0.0
 40
80.0
  1
(後吸込・角ダクト組込)
 50
0.000003
 41
0.8
  0
LINE
  5
11DC
  8
SIZE
  6
CONTINUOUS
 62
    30
 10
-978.00000047353717
 20
536.49998316272513
 30
0.0
 11
-978.00000047353717
 21
741.79601412499267
 31
0.0
  0
LINE
  5
11DD
  8
SIZE
  6
CONTINUOUS
 62
    30
 10
786.9999991581459
 20
536.49998316272513
 30
0.0
 11
786.9999991581459
 21
741.79601412499267
 31
0.0
  0
LINE
  5
11DE
  8
SIZE
  6
CONTINUOUS
 62
    30
 10
-978.00000047353717
 20
721.79601412499267
 30
0.0
 11
786.9999991581459
 21
721.79601412499267
 31
0.0
  0
CIRCLE
  5
11DF
  8
SIZE
  6
CONTINUOUS
 62
    30
 10
-978.00000047353717
 20
721.79601412499267
 30
0.0
 40
5.0
  0
CIRCLE
  5
11E0
  8
SIZE
  6
CONTINUOUS
 62
    30
 10
786.9999991581459
 20
721.79601412499267
 30
0.0
 40
5.0
  0
TEXT
  5
11E1
  8
SIZE
  6
CONTINUOUS
 62
    30
 10
-178.00000065769569
 20
736.79601412499255
 30
0.0
 40
55.0
  1
1765
 41
0.9
 72
     1
 11
-95.500000657695637
 21
736.79601412499255
 31
0.0
  0
POINT
  5
11E4
  8
DEFPOINTS
  6
CONTINUOUS
 62
     7
 10
786.9999991581459
 20
721.79601412499267
 30
0.0
  0
LINE
  5
121F
  8
SIZE
  6
CONTINUOUS
 62
    30
 10
796.99999915814624
 20
526.49998316272286
 30
0.0
 11
1012.097109031469
 21
526.49998316272286
 31
0.0
  0
LINE
  5
1220
  8
SIZE
  6
CONTINUOUS
 62
    30
 10
796.99999915814624
 20
-123.4999997369173
 30
0.0
 11
1012.097109031468
 21
-123.4999997369173
 31
0.0
  0
LINE
  5
1221
  8
SIZE
  6
CONTINUOUS
 62
    30
 10
992.09710903146924
 20
526.49998316272286
 30
0.0
 11
992.09710903146902
 21
-123.4999997369173
 31
0.0
  0
CIRCLE
  5
1222
  8
SIZE
  6
CONTINUOUS
 62
    30
 10
992.09710903146924
 20
526.49998316272286
 30
0.0
 40
5.0
  0
CIRCLE
  5
1223
  8
SIZE
  6
CONTINUOUS
 62
    30
 10
992.09710903146902
 20
-123.4999997369173
 30
0.0
 40
5.0
  0
TEXT
  5
1224
  8
SIZE
  6
CONTINUOUS
 62
    30
 10
977.09710903146902
 20
143.64284885576009
 30
0.0
 40
50.0
  1
650
 50
90.0
 41
0.9
 72
     1
 11
977.09710903146902
 21
201.49999171290301
 31
0.0
  0
POINT
  5
1227
  8
DEFPOINTS
  6
CONTINUOUS
 62
     7
 10
992.09710903146902
 20
-123.4999997369173
 30
0.0
  0
LINE
  5
127E
  8
NOTE
  6
CONTINUOUS
 62
     4
 10
808.73044377086671
 20
-791.23652428495814
 30
0.0
 11
1290.811854825788
 21
-791.23652428496212
 31
0.0
  0
TEXT
  5
127F
  8
NOTE
  6
CONTINUOUS
 62
     4
 10
816.08411248677544
 20
-779.03398207847567
 30
0.0
 40
60.0
  1
2x21-%%C3 取付穴
 50
359.9999970000153
 41
0.7
  7
STANDARD1
  0
LINE
  5
1287
  8
NOTE
  6
CONTINUOUS
 62
     4
 10
649.99999999994361
 20
-407.49999999983942
 30
0.0
 11
808.73044377086671
 21
-791.23652428495814
 31
0.0
  0
LINE
  5
1288
  8
NOTE
  6
CONTINUOUS
 62
     4
 10
649.99999999990575
 20
-407.49999999987421
 30
0.0
 11
671.95029031970671
 21
-433.96761136938471
 31
0.0
  0
LINE
  5
1289
  8
NOTE
  6
CONTINUOUS
 62
     4
 10
649.99999999990575
 20
-407.49999999987421
 30
0.0
 11
655.77570208568977
 21
-441.39676881812312
 31
0.0
  0
LINE
  5
1502
  8
DETAIL
  6
CONTINUOUS
 62
     5
 10
-978.00000047353672
 20
-123.49999973691681
 30
0.0
 11
-978.00000047353672
 21
526.49998316272331
 31
0.0
  0
LINE
  5
1503
  8
DETAIL
  6
CONTINUOUS
 62
     5
 10
-978.00000047353672
 20
526.49998316272456
 30
0.0
 11
786.99999915814647
 21
526.49998316272456
 31
0.0
  0
LINE
  5
1504
  8
DETAIL
  6
CONTINUOUS
 62
     5
 10
786.99999915814647
 20
526.49998316272331
 30
0.0
 11
786.99999915814647
 21
-123.49999973691681
 31
0.0
  0
LINE
  5
1505
  8
DETAIL
  6
CONTINUOUS
 62
     5
 10
-978.0000004735374
 20
-123.49999973691681
 30
0.0
 11
786.99999915814647
 21
-123.49999973691681
 31
0.0
  0
LINE
  5
1507
  8
OUTLINE
  6
CONTINUOUS
 62
     3
 10
786.99999915814647
 20
-123.49999973691681
 30
0.0
 11
-978.0000004735374
 21
-123.49999973691681
 31
0.0
  0
LINE
  5
1508
  8
OUTLINE
  6
CONTINUOUS
 62
     3
 10
-978.00000047353672
 20
-123.49999973691681
 30
0.0
 11
-978.00000047353672
 21
526.49998316272331
 31
0.0
  0
LINE
  5
1509
  8
OUTLINE
  6
CONTINUOUS
 62
     3
 10
-978.00000047353672
 20
526.49998316272456
 30
0.0
 11
786.99999915814612
 21
526.49998316272456
 31
0.0
  0
LINE
  5
150A
  8
OUTLINE
  6
CONTINUOUS
 62
     3
 10
786.99999915814647
 20
526.49998316272331
 30
0.0
 11
786.99999915814647
 21
-123.49999973691681
 31
0.0
  0
LINE
  5
150B
  8
DETAIL
  6
CONTINUOUS
 62
     5
 10
742.00000034200491
 20
-86.500000710322638
 30
0.0
 11
-933.00000165741574
 21
-86.500000710322638
 31
0.0
  0
LINE
  5
150C
  8
DETAIL
  6
CONTINUOUS
 62
     5
 10
707.00000126279758
 20
-51.500001631115083
 30
0.0
 11
-898.00000257820841
 21
-51.500001631115083
 31
0.0
  0
LINE
  5
150D
  8
DETAIL
  6
CONTINUOUS
 62
     5
 10
-898.00000257820795
 20
454.49998505691252
 30
0.0
 11
707.00000126279758
 21
454.49998505691252
 31
0.0
  0
LINE
  5
150E
  8
DETAIL
  6
CONTINUOUS
 62
     5
 10
-933.00000165741574
 20
489.49998413612911
 30
0.0
 11
742.00000034200525
 21
489.49998413612911
 31
0.0
  0
LINE
  5
150F
  8
DETAIL
  6
CONTINUOUS
 62
     5
 10
-898.00000257820795
 20
454.49998505691252
 30
0.0
 11
-898.00000257820795
 21
-51.500001631115083
 31
0.0
  0
LINE
  5
1510
  8
DETAIL
  6
CONTINUOUS
 62
     5
 10
-933.00000165741574
 20
489.49998413612911
 30
0.0
 11
-933.00000165741574
 21
-86.500000710322638
 31
0.0
  0
LINE
  5
1511
  8
DETAIL
  6
CONTINUOUS
 62
     5
 10
-978.00000047353672
 20
-123.4999997369159
 30
0.0
 11
-898.00000257820795
 21
-51.500001631115083
 31
0.0
  0
LINE
  5
1512
  8
DETAIL
  6
CONTINUOUS
 62
     5
 10
-978.00000047353672
 20
526.49998316272456
 30
0.0
 11
-898.00000257820795
 21
454.49998505691252
 31
0.0
  0
LINE
  5
1513
  8
DETAIL
  6
CONTINUOUS
 62
     5
 10
707.00000126279758
 20
454.49998505691252
 30
0.0
 11
707.00000126279758
 21
-51.500001631115083
 31
0.0
  0
LINE
  5
1514
  8
DETAIL
  6
CONTINUOUS
 62
     5
 10
742.00000034200491
 20
489.49998413612911
 30
0.0
 11
742.00000034200491
 21
-86.500000710322638
 31
0.0
  0
LINE
  5
1515
  8
DETAIL
  6
CONTINUOUS
 62
     5
 10
707.00000126279758
 20
-51.500001631115083
 30
0.0
 11
786.99999915814647
 21
-123.4999997369159
 31
0.0
  0
LINE
  5
1516
  8
DETAIL
  6
CONTINUOUS
 62
     5
 10
707.00000126279758
 20
454.49998505691252
 30
0.0
 11
786.99999915814647
 21
526.49998316272456
 31
0.0
  0
LINE
  5
15A8
  8
SIZE
  6
CONTINUOUS
 62
    30
 10
-755.0
 20
-407.5
 30
0.0
 11
-755.0
 21
-750.52532360207897
 31
0.0
  0
LINE
  5
15A9
  8
SIZE
  6
CONTINUOUS
 62
    30
 10
-789.0
 20
-150.5
 30
0.0
 11
-789.0
 21
-750.52532360207897
 31
0.0
  0
LINE
  5
15AA
  8
SIZE
  6
CONTINUOUS
 62
    30
 10
-765.0
 20
-732.52532360207886
 30
0.0
 11
-779.0
 21
-732.52532360207886
 31
0.0
  0
LINE
  5
15AB
  8
SIZE
  6
CONTINUOUS
 62
    30
 10
-789.0
 20
-732.52532360207886
 30
0.0
 11
-932.48913255104492
 21
-732.52532360207886
 31
0.0
  0
LINE
  5
15AF
  8
SIZE
  6
CONTINUOUS
 62
    30
 10
-755.0
 20
-407.5
 30
0.0
 11
-755.0
 21
-855.32856874794368
 31
0.0
  0
LINE
  5
15B0
  8
SIZE
  6
CONTINUOUS
 62
    30
 10
-797.0
 20
-239.5
 30
0.0
 11
-797.0
 21
-855.32856874794368
 31
0.0
  0
LINE
  5
15B1
  8
SIZE
  6
CONTINUOUS
 62
    30
 10
-765.0
 20
-837.32856874794368
 30
0.0
 11
-787.0
 21
-837.32856874794368
 31
0.0
  0
LINE
  5
15B2
  8
SIZE
  6
CONTINUOUS
 62
    30
 10
-797.0
 20
-837.32856874794368
 30
0.0
 11
-938.13664346621874
 21
-837.32856874794368
 31
0.0
  0
TEXT
  5
15B6
  8
SIZE
  6
CONTINUOUS
 62
    30
 10
-926.20942413861485
 20
-707.67002267456348
 30
0.0
 40
55.0
  1
34
 41
0.9
  0
CIRCLE
  5
15B7
  8
SIZE
  6
CONTINUOUS
 62
    30
 10
-789.0
 20
-732.52532360207886
 30
0.0
 40
5.0
  0
LINE
  5
15B8
  8
SIZE
  6
CONTINUOUS
 62
    30
 10
-784.0
 20
-732.52532360207886
 30
0.0
 11
-779.0
 21
-732.52532360207886
 31
0.0
  0
CIRCLE
  5
15B9
  8
SIZE
  6
CONTINUOUS
 62
    30
 10
-755.0
 20
-732.52532360207886
 30
0.0
 40
5.0
  0
LINE
  5
15BA
  8
SIZE
  6
CONTINUOUS
 62
    30
 10
-760.0
 20
-732.52532360207886
 30
0.0
 11
-765.0
 21
-732.52532360207886
 31
0.0
  0
TEXT
  5
15BB
  8
SIZE
  6
CONTINUOUS
 62
    30
 10
-931.85693505378833
 20
-812.4732678204283
 30
0.0
 40
55.0
  1
42
 41
0.9
  0
CIRCLE
  5
15BC
  8
SIZE
  6
CONTINUOUS
 62
    30
 10
-797.0
 20
-837.32856874794368
 30
0.0
 40
5.0
  0
LINE
  5
15BD
  8
SIZE
  6
CONTINUOUS
 62
    30
 10
-792.0
 20
-837.32856874794368
 30
0.0
 11
-787.0
 21
-837.32856874794368
 31
0.0
  0
CIRCLE
  5
15BE
  8
SIZE
  6
CONTINUOUS
 62
    30
 10
-755.0
 20
-837.32856874794368
 30
0.0
 40
5.0
  0
LINE
  5
15BF
  8
SIZE
  6
CONTINUOUS
 62
    30
 10
-760.0
 20
-837.32856874794368
 30
0.0
 11
-765.0
 21
-837.32856874794368
 31
0.0
  0
LINE
  5
15DF
  8
SIZE
  6
CONTINUOUS
 62
    30
 10
806.99999915814647
 20
-123.49999973691681
 30
0.0
 11
1010.097109031469
 21
-123.49999973691691
 31
0.0
  0
LINE
  5
15E0
  8
SIZE
  6
CONTINUOUS
 62
    30
 10
775.0
 20
-387.5
 30
0.0
 11
1010.097109031469
 21
-387.5
 31
0.0
  0
LINE
  5
15E1
  8
SIZE
  6
CONTINUOUS
 62
    30
 10
992.09710903146902
 20
-133.49999973691689
 30
0.0
 11
992.09710903146879
 21
-377.50000000000011
 31
0.0
  0
TEXT
  5
15E5
  8
SIZE
  6
CONTINUOUS
 62
    30
 10
975.82282554286758
 20
-320.32142843988697
 30
0.0
 40
55.0
  1
264
 50
90.0
 41
0.9
 72
     1
 11
975.82282554286758
 21
-255.4999998684585
 31
0.0
  0
CIRCLE
  5
15E6
  8
SIZE
  6
CONTINUOUS
 62
    30
 10
992.09710903146879
 20
-387.5
 30
0.0
 40
5.0
  0
LINE
  5
15E7
  8
SIZE
  6
CONTINUOUS
 62
    30
 10
992.09710903146879
 20
-382.50000000000011
 30
0.0
 11
992.09710903146879
 21
-377.50000000000011
 31
0.0
  0
CIRCLE
  5
15E8
  8
SIZE
  6
CONTINUOUS
 62
    30
 10
992.09710903146902
 20
-123.49999973691691
 30
0.0
 40
5.0
  0
LINE
  5
15E9
  8
SIZE
  6
CONTINUOUS
 62
    30
 10
992.09710903146902
 20
-128.49999973691689
 30
0.0
 11
992.09710903146902
 21
-133.49999973691689
 31
0.0
  0
ENDSEC
  0
EOF
