  0
SECTION
  2
HEADER
  9
$ACADVER
  1
AC1009
  9
$INSBASE
 10
0.0
 20
0.0
 30
0.0
  9
$EXTMIN
 10
-1603.9178119846331
 20
-1517.1968096018061
 30
-0.000000000000013
  9
$EXTMAX
 10
2317.5912140777182
 20
1453.9364912220769
 30
0.0000000000000023
  9
$LIMMIN
 10
-4267.1522210604817
 20
-2696.0832101984129
  9
$LIMMAX
 10
7190.7174225864646
 20
5141.155363923066
  9
$ORTHOMODE
 70
     1
  9
$REGENMODE
 70
     1
  9
$FILLMODE
 70
     1
  9
$QTEXTMODE
 70
     0
  9
$MIRRTEXT
 70
     0
  9
$DRAGMODE
 70
     2
  9
$LTSCALE
 40
20.0
  9
$OSMODE
 70
   431
  9
$ATTMODE
 70
     1
  9
$TEXTSIZE
 40
64.0
  9
$TRACEWID
 40
0.05
  9
$TEXTSTYLE
  7
STANDARD_MODELNAME
  9
$CLAYER
  8
SYMBOLLINE
  9
$CELTYPE
  6
CONTINUOUS
  9
$CECOLOR
 62
     7
  9
$DIMSCALE
 40
1.0
  9
$DIMASZ
 40
30.0
  9
$DIMEXO
 40
20.0
  9
$DIMDLI
 40
80.0
  9
$DIMRND
 40
0.0
  9
$DIMDLE
 40
0.0
  9
$DIMEXE
 40
20.0
  9
$DIMTP
 40
0.0
  9
$DIMTM
 40
0.0
  9
$DIMTXT
 40
60.0
  9
$DIMCEN
 40
0.09
  9
$DIMTSZ
 40
0.0
  9
$DIMTOL
 70
     0
  9
$DIMLIM
 70
     0
  9
$DIMTIH
 70
     0
  9
$DIMTOH
 70
     0
  9
$DIMSE1
 70
     0
  9
$DIMSE2
 70
     0
  9
$DIMTAD
 70
     1
  9
$DIMZIN
 70
     8
  9
$DIMBLK
  1
SMALL
  9
$DIMASO
 70
     1
  9
$DIMSHO
 70
     0
  9
$DIMPOST
  1

  9
$DIMAPOST
  1

  9
$DIMALT
 70
     0
  9
$DIMALTD
 70
     2
  9
$DIMALTF
 40
25.399999999999999
  9
$DIMLFAC
 40
1.0
  9
$DIMTOFL
 70
     1
  9
$DIMTVP
 40
0.0
  9
$DIMTIX
 70
     0
  9
$DIMSOXD
 70
     0
  9
$DIMSAH
 70
     0
  9
$DIMBLK1
  1

  9
$DIMBLK2
  1

  9
$DIMSTYLE
  2
STANDARD
  9
$DIMCLRD
 70
     0
  9
$DIMCLRE
 70
     0
  9
$DIMCLRT
 70
     0
  9
$DIMTFAC
 40
1.0
  9
$DIMGAP
 40
0.09
  9
$LUNITS
 70
     2
  9
$LUPREC
 70
     4
  9
$SKETCHINC
 40
0.1
  9
$FILLETRAD
 40
0.0
  9
$AUNITS
 70
     1
  9
$AUPREC
 70
     3
  9
$MENU
  1
ACAD
  9
$ELEVATION
 40
0.0
  9
$PELEVATION
 40
0.0
  9
$THICKNESS
 40
0.0
  9
$LIMCHECK
 70
     0
  9
$BLIPMODE
 70
     0
  9
$CHAMFERA
 40
0.0
  9
$CHAMFERB
 40
0.0
  9
$SKPOLY
 70
     0
  9
$TDCREATE
 40
2450330.4399309959
  9
$TDUPDATE
 40
2457001.574535266
  9
$TDINDWG
 40
4.1474136573999996
  9
$TDUSRTIMER
 40
4.1473841435000001
  9
$USRTIMER
 70
     1
  9
$ANGBASE
 50
0.0
  9
$ANGDIR
 70
     0
  9
$PDMODE
 70
     3
  9
$PDSIZE
 40
-2.0
  9
$PLINEWID
 40
0.0
  9
$COORDS
 70
     1
  9
$SPLFRAME
 70
     0
  9
$SPLINETYPE
 70
     6
  9
$SPLINESEGS
 70
     8
  9
$ATTDIA
 70
     1
  9
$ATTREQ
 70
     1
  9
$HANDLING
 70
     1
  9
$HANDSEED
  5
3559
  9
$SURFTAB1
 70
     6
  9
$SURFTAB2
 70
     6
  9
$SURFTYPE
 70
     6
  9
$SURFU
 70
     6
  9
$SURFV
 70
     6
  9
$UCSNAME
  2

  9
$UCSORG
 10
0.0
 20
0.0
 30
0.0
  9
$UCSXDIR
 10
1.0
 20
0.0
 30
0.0
  9
$UCSYDIR
 10
0.0
 20
1.0
 30
0.0
  9
$PUCSNAME
  2

  9
$PUCSORG
 10
0.0
 20
0.0
 30
0.0
  9
$PUCSXDIR
 10
1.0
 20
0.0
 30
0.0
  9
$PUCSYDIR
 10
0.0
 20
1.0
 30
0.0
  9
$USERI1
 70
     0
  9
$USERI2
 70
     0
  9
$USERI3
 70
     0
  9
$USERI4
 70
     0
  9
$USERI5
 70
     0
  9
$USERR1
 40
20.0
  9
$USERR2
 40
0.0
  9
$USERR3
 40
0.0
  9
$USERR4
 40
0.0
  9
$USERR5
 40
0.0
  9
$WORLDVIEW
 70
     1
  9
$SHADEDGE
 70
     3
  9
$SHADEDIF
 70
    70
  9
$TILEMODE
 70
     1
  9
$MAXACTVP
 70
    64
  9
$PLIMCHECK
 70
     0
  9
$PEXTMIN
 10
1.0000000000000000E+020
 20
1.0000000000000000E+020
 30
1.0000000000000000E+020
  9
$PEXTMAX
 10
-1.0000000000000000E+020
 20
-1.0000000000000000E+020
 30
-1.0000000000000000E+020
  9
$PLIMMIN
 10
0.0
 20
0.0
  9
$PLIMMAX
 10
12.0
 20
9.0
  9
$UNITMODE
 70
     0
  9
$VISRETAIN
 70
     1
  9
$PLINEGEN
 70
     0
  9
$PSLTSCALE
 70
     1
  0
ENDSEC
  0
SECTION
  2
TABLES
  0
TABLE
  2
VPORT
 70
     1
  0
VPORT
  2
*ACTIVE
 70
     0
 10
0.0
 20
0.0
 11
1.0
 21
1.0
 12
356.8367010465426
 22
-31.630159189864571
 13
0.0
 23
0.0
 14
50.0
 24
50.0
 15
100.0
 25
100.0
 16
0.0
 26
0.0
 36
1.0
 17
0.0
 27
0.0
 37
0.0
 40
2994.466808421977
 41
1.6159895150720831
 42
50.0
 43
0.0
 44
0.0
 50
0.0
 51
0.0
 71
     0
 72
  1000
 73
     1
 74
     0
 75
     0
 76
     0
 77
     0
 78
     0
  0
ENDTAB
  0
TABLE
  2
LTYPE
 70
     3
  0
LTYPE
  2
CONTINUOUS
 70
     0
  3
実線
 72
    65
 73
     0
 40
0.0
  0
LTYPE
  2
DASHDOT
 70
     0
  3
____ _ ____ _ ____ _ ____ _ ____ _ ____ _ ____
 72
    65
 73
     4
 40
5.5
 49
4.0
 49
-0.6
 49
0.3
 49
-0.6
  0
ENDTAB
  0
TABLE
  2
LAYER
 70
    12
  0
LAYER
  2
0
 70
     0
 62
     7
  6
CONTINUOUS
  0
LAYER
  2
SYMBOLLINE
 70
     0
 62
    15
  6
CONTINUOUS
  0
LAYER
  2
SIZE
 70
     0
 62
    30
  6
CONTINUOUS
  0
LAYER
  2
OUTLINE
 70
     0
 62
     3
  6
CONTINUOUS
  0
LAYER
  2
DETAIL
 70
     0
 62
     5
  6
CONTINUOUS
  0
LAYER
  2
BASIS
 70
     0
 62
     6
  6
DASHDOT
  0
LAYER
  2
NOTE
 70
     0
 62
     4
  6
CONTINUOUS
  0
LAYER
  2
ARRANGE
 70
     0
 62
     1
  6
CONTINUOUS
  0
LAYER
  2
FIX
 70
     0
 62
    11
  6
CONTINUOUS
  0
LAYER
  2
SERVICESPACE
 70
     0
 62
     2
  6
DASHDOT
  0
LAYER
  2
ETC
 70
     0
 62
    61
  6
CONTINUOUS
  0
LAYER
  2
DEFPOINTS
 70
     0
 62
     7
  6
CONTINUOUS
  0
ENDTAB
  0
TABLE
  2
STYLE
 70
     4
  0
STYLE
  2
STANDARD
 70
     0
 40
0.0
 41
0.9
 50
0.0
 71
     0
 42
64.0
  3
SIMPLEX
  4
BIGFONT
  0
STYLE
  2
ANNOTATIVE
 70
     0
 40
0.0
 41
1.0
 50
0.0
 71
     0
 42
0.2
  3
txt
  4

  0
STYLE
  2
STANDARD_MODELNAME
 70
     0
 40
80.0
 41
0.8
 50
0.0
 71
     0
 42
64.0
  3
MONOTXT.shx
  4
BIGFONT.shx
  0
STYLE
  2
STANDARD1
 70
     0
 40
60.0
 41
0.7
 50
0.0
 71
     0
 42
64.0
  3
MONOTXT.shx
  4
BIGFONT.shx
  0
ENDTAB
  0
TABLE
  2
VIEW
 70
     1
  0
VIEW
  2
ALL
 70
     0
 40
9000.0
 10
241.50664699999999
 20
0.0
 41
12483.01
 11
0.0
 21
0.0
 31
1.0
 12
0.0
 22
0.0
 32
0.0
 42
50.0
 43
0.0
 44
0.0
 50
0.0
 71
     0
  0
ENDTAB
  0
TABLE
  2
UCS
 70
     0
  0
ENDTAB
  0
TABLE
  2
APPID
 70
     5
  0
APPID
  2
ACAD
 70
     0
  0
APPID
  2
ACADANNOTATIVE
 70
     0
  0
APPID
  2
ACAD_MLEADERVER
 70
     0
  0
APPID
  2
ACAD_EXEMPT_FROM_CAD_STANDARDS
 70
     0
  0
APPID
  2
ACAD_NAV_VCDISPLAY
 70
     0
  0
ENDTAB
  0
TABLE
  2
DIMSTYLE
 70
     2
  0
DIMSTYLE
  2
STANDARD
 70
     0
  3

  4

  5

  6

  7

 40
1.0
 41
0.18
 42
0.0625
 43
0.38
 44
0.18
 45
0.0
 46
0.0
 47
0.0
 48
0.0
140
0.18
141
0.09
142
0.0
143
25.399999999999999
144
1.0
145
0.0
146
1.0
147
0.09
 71
     0
 72
     0
 73
     1
 74
     1
 75
     0
 76
     0
 77
     0
 78
     0
170
     0
171
     2
172
     0
173
     0
174
     0
175
     0
176
     0
177
     0
178
     0
  0
DIMSTYLE
  2
ANNOTATIVE
 70
     0
  3

  4

  5

  6

  7

 40
1.0
 41
0.18
 42
0.0625
 43
0.38
 44
0.18
 45
0.0
 46
0.0
 47
0.0
 48
0.0
140
0.18
141
0.09
142
0.0
143
25.399999999999999
144
1.0
145
0.0
146
1.0
147
0.09
 71
     0
 72
     0
 73
     1
 74
     1
 75
     0
 76
     0
 77
     0
 78
     0
170
     0
171
     2
172
     0
173
     0
174
     0
175
     0
176
     0
177
     0
178
     0
  0
ENDTAB
  0
ENDSEC
  0
SECTION
  2
BLOCKS
  0
BLOCK
  8
0
  2
$MODEL_SPACE
 70
     0
 10
0.0
 20
0.0
 30
0.0
  3
$MODEL_SPACE
  1

  0
ENDBLK
  5
3433
  8
0
  0
BLOCK
 67
     1
  8
0
  2
$PAPER_SPACE
 70
     0
 10
0.0
 20
0.0
 30
0.0
  3
$PAPER_SPACE
  1

  0
ENDBLK
  5
342F
 67
     1
  8
0
  0
BLOCK
  8
0
  2
_SMALL
 70
     0
 10
0.0
 20
0.0
 30
0.0
  3
_SMALL
  1

  0
CIRCLE
  5
8D
  8
0
  6
CONTINUOUS
 62
     7
 10
0.0
 20
0.0
 30
0.0
 40
0.25
  0
ENDBLK
  5
8E
  8
0
  0
BLOCK
  8
0
 62
     7
  2
A$C73625002
 70
     0
 10
0.0
 20
0.0
 30
0.0
  3
A$C73625002
  1

  0
LINE
  5
23A1
  8
DETAIL
  6
CONTINUOUS
 62
     5
 10
1.49999551817558
 20
-0.0000032120642572
 30
0.0
 11
1.49999551817558
 21
21.999996787935721
 31
0.0
  0
LINE
  5
23A2
  8
DETAIL
  6
CONTINUOUS
 62
     5
 10
-0.0000044818243623
 20
3.0599967879352881
 30
0.0
 11
1.49999551817558
 21
3.0599967879352881
 31
0.0
  0
LINE
  5
23A3
  8
DETAIL
  6
CONTINUOUS
 62
     5
 10
-0.0000044818243623
 20
18.93999678793628
 30
0.0
 11
1.49999551817558
 21
18.93999678793628
 31
0.0
  0
ENDBLK
  5
23A7
  8
0
 62
     7
  0
BLOCK
  8
0
  2
_DOTBLANK
 70
     0
 10
0.0
 20
0.0
 30
0.0
  3
_DOTBLANK
  1

  0
CIRCLE
  5
23AA
  8
0
  6
CONTINUOUS
 62
     7
 10
0.0
 20
0.0
 30
0.0
 40
0.5
  0
LINE
  5
23AB
  8
0
  6
CONTINUOUS
 62
     7
 10
-0.5
 20
0.0
 30
0.0
 11
-1.0
 21
0.0
 31
0.0
  0
ENDBLK
  5
23AC
  8
0
  0
ENDSEC
  0
SECTION
  2
ENTITIES
  0
LINE
  5
8F
  8
DETAIL
  6
CONTINUOUS
 62
     5
 10
-689.51553199999967
 20
-365.96508899999941
 30
0.0
 11
-689.24559500000032
 21
-382.60187200000109
 31
0.0
  0
LINE
  5
90
  8
DETAIL
  6
CONTINUOUS
 62
     5
 10
-679.51705700000002
 20
-365.96509499999962
 30
0.0
 11
-679.27404500000011
 21
-382.60187200000109
 31
0.0
  0
ARC
  5
92
  8
DETAIL
  6
CONTINUOUS
 62
     5
 10
265.13499815216642
 20
-397.44296500817518
 30
0.0
 40
5.1262576528349513
 50
89.931677163265789
 51
177.94589559154079
  0
ARC
  5
94
  8
DETAIL
  6
CONTINUOUS
 62
     5
 10
54.867933425597101
 20
-397.4356212807732
 30
0.0
 40
5.118918297434341
 50
1.808565971290031
 51
90.101401720506558
  0
LINE
  5
95
  8
DETAIL
  6
CONTINUOUS
 62
     5
 10
679.51705700000002
 20
-365.96509499999962
 30
0.0
 11
679.27404699999988
 21
-382.60187200000109
 31
0.0
  0
ARC
  5
96
  8
DETAIL
  6
CONTINUOUS
 62
     5
 10
678.98033199999975
 20
-382.14099800000082
 30
0.0
 40
10.175713999999999
 50
270.0
 51
357.40409500000231
  0
ARC
  5
97
  8
DETAIL
  6
CONTINUOUS
 62
     5
 10
-679.08032300000002
 20
-382.14099800000082
 30
0.0
 40
10.175713999999999
 50
182.5959049999976
 51
270.0
  0
LINE
  5
98
  8
DETAIL
  6
CONTINUOUS
 62
     5
 10
689.14835200000005
 20
-382.60187200000109
 30
0.0
 11
689.51553099999967
 21
-365.96509499999962
 31
0.0
  0
LINE
  5
99
  8
DETAIL
  6
CONTINUOUS
 62
     5
 10
-700.0
 20
-175.5
 30
0.0
 11
-744.00024699999983
 21
-175.5
 31
0.0
  0
LINE
  5
9A
  8
DETAIL
  6
CONTINUOUS
 62
     5
 10
-760.0
 20
-159.5
 30
0.0
 11
-760.0
 21
408.49999999999989
 31
0.0
  0
LINE
  5
9B
  8
DETAIL
  6
CONTINUOUS
 62
     5
 10
1140.0
 20
408.49999999999989
 30
0.0
 11
1140.0
 21
-159.5
 31
0.0
  0
LINE
  5
9C
  8
DETAIL
  6
CONTINUOUS
 62
     5
 10
-728.4699999999998
 20
302.6560900000004
 30
0.0
 11
-728.4699999999998
 21
332.3439099999996
 31
0.0
  0
LINE
  5
9D
  8
DETAIL
  6
CONTINUOUS
 62
     5
 10
-728.4699999999998
 20
342.5
 30
0.0
 11
-728.4699999999998
 21
392.9699999999994
 31
0.0
  0
LINE
  5
9E
  8
DETAIL
  6
CONTINUOUS
 62
     5
 10
778.0
 20
-143.96999999999929
 30
0.0
 11
1108.47
 21
-143.96999999999929
 31
0.0
  0
LINE
  5
9F
  8
NOTE
  6
DASHDOT
 62
     4
 10
-740.0
 20
407.5
 30
0.0
 11
-739.99999999999955
 21
-158.5
 31
0.0
  0
LINE
  5
A0
  8
NOTE
  6
DASHDOT
 62
     4
 10
1120.0
 20
-158.5
 30
0.0
 11
1120.0
 21
407.5
 31
0.0
  0
LINE
  5
A1
  8
DETAIL
  6
CONTINUOUS
 62
     5
 10
-728.4699999999998
 20
392.9699999999994
 30
0.0
 11
1108.47
 21
392.9699999999994
 31
0.0
  0
LINE
  5
A2
  8
DETAIL
  6
CONTINUOUS
 62
     5
 10
-728.4699999999998
 20
-143.96999999999929
 30
0.0
 11
-700.0
 21
-143.96999999999929
 31
0.0
  0
LINE
  5
A3
  8
DETAIL
  6
CONTINUOUS
 62
     5
 10
-728.4699999999998
 20
-143.96999999999929
 30
0.0
 11
-728.4699999999998
 21
292.5
 31
0.0
  0
LINE
  5
A4
  8
DETAIL
  6
CONTINUOUS
 62
     5
 10
1108.47
 20
-143.96999999999929
 30
0.0
 11
1108.47
 21
392.9699999999994
 31
0.0
  0
ARC
  5
A6
  8
DETAIL
  6
CONTINUOUS
 62
     5
 10
199.57837099999941
 20
-336.3713360000001
 30
0.0
 40
60.858113000000003
 50
229.43287500001
 51
270.0
  0
ARC
  5
A8
  8
DETAIL
  6
CONTINUOUS
 62
     5
 10
120.4216279999996
 20
-336.3713360000001
 30
0.0
 40
60.858113000000003
 50
270.0
 51
310.56712499999003
  0
ARC
  5
AA
  8
DETAIL
  6
CONTINUOUS
 62
     5
 10
206.02672299999961
 20
-397.45269999999982
 30
0.0
 40
6.452214999999998
 50
127.24982000004481
 51
178.01713699994301
  0
ARC
  5
AC
  8
DETAIL
  6
CONTINUOUS
 62
     5
 10
113.9732769999997
 20
-397.45269999999982
 30
0.0
 40
6.452214999999998
 50
1.982862999952671
 51
52.750179999955101
  0
ARC
  5
AE
  8
DETAIL
  6
CONTINUOUS
 62
     5
 10
117.8787479999996
 20
-296.14538499999981
 30
0.0
 40
96.171327000000005
 50
270.0
 51
295.97515700001338
  0
ARC
  5
B0
  8
DETAIL
  6
CONTINUOUS
 62
     5
 10
202.12125200000031
 20
-296.14538499999981
 30
0.0
 40
96.171327000000005
 50
244.0248429999865
 51
270.0
  0
LINE
  5
B1
  8
DETAIL
  6
CONTINUOUS
 62
     5
 10
699.5
 20
-357.5
 30
0.0
 11
699.5
 21
-350.5
 31
0.0
  0
LINE
  5
B2
  8
DETAIL
  6
CONTINUOUS
 62
     5
 10
-699.5
 20
-357.5
 30
0.0
 11
-699.5
 21
-350.5
 31
0.0
  0
LINE
  5
B3
  8
DETAIL
  6
CONTINUOUS
 62
     5
 10
700.0
 20
-350.4999987272285
 30
0.0
 11
-700.0
 21
-350.5
 31
0.0
  0
LINE
  5
B4
  8
DETAIL
  6
CONTINUOUS
 62
     5
 10
699.5
 20
-357.5
 30
0.0
 11
-699.5
 21
-357.5
 31
0.0
  0
LINE
  5
B5
  8
NOTE
  6
CONTINUOUS
 62
     4
 10
479.99999572256598
 20
-491.85746950000078
 30
0.0
 11
479.99999572256598
 21
-373.14253049999922
 31
0.0
  0
LINE
  5
B6
  8
NOTE
  6
CONTINUOUS
 62
     4
 10
159.9999999999996
 20
-491.8574695000006
 30
0.0
 11
159.9999999999996
 21
-373.14253049999922
 31
0.0
  0
LINE
  5
B7
  8
NOTE
  6
CONTINUOUS
 62
     4
 10
-707.80000000000018
 20
-325.5
 30
0.0
 11
-746.1999999999997
 21
-325.5
 31
0.0
  0
LINE
  5
B8
  8
NOTE
  6
CONTINUOUS
 62
     4
 10
-707.80000000000018
 20
317.5
 30
0.0
 11
-746.1999999999997
 21
317.5
 31
0.0
  0
LINE
  5
B9
  8
NOTE
  6
CONTINUOUS
 62
     4
 10
707.80000000000018
 20
317.5
 30
0.0
 11
746.1999999999997
 21
317.5
 31
0.0
  0
LINE
  5
BA
  8
NOTE
  6
CONTINUOUS
 62
     4
 10
707.80000000000018
 20
-325.5
 30
0.0
 11
746.1999999999997
 21
-325.5
 31
0.0
  0
LINE
  5
BB
  8
NOTE
  6
CONTINUOUS
 62
     4
 10
-727.0
 20
-306.30000000000109
 30
0.0
 11
-727.0
 21
-344.69999999999879
 31
0.0
  0
LINE
  5
BC
  8
NOTE
  6
CONTINUOUS
 62
     4
 10
-727.0
 20
336.69999999999891
 30
0.0
 11
-727.0
 21
298.30000000000109
 31
0.0
  0
LINE
  5
BD
  8
NOTE
  6
CONTINUOUS
 62
     4
 10
727.0
 20
336.69999999999891
 30
0.0
 11
727.0
 21
298.30000000000109
 31
0.0
  0
LINE
  5
BE
  8
NOTE
  6
CONTINUOUS
 62
     4
 10
727.0
 20
-306.30000000000109
 30
0.0
 11
727.0
 21
-344.69999999999879
 31
0.0
  0
ARC
  5
BF
  8
DETAIL
  6
CONTINUOUS
 62
     5
 10
1124.0
 20
-159.5
 30
0.0
 40
16.0
 50
270.0
 51
0.0
  0
ARC
  5
C0
  8
DETAIL
  6
CONTINUOUS
 62
     5
 10
1124.0
 20
408.49999999999989
 30
0.0
 40
16.0
 50
0.0
 51
90.0
  0
ARC
  5
C1
  8
DETAIL
  6
CONTINUOUS
 62
     5
 10
-744.0
 20
-159.5
 30
0.0
 40
16.0
 50
180.0
 51
270.0
  0
ARC
  5
C2
  8
DETAIL
  6
CONTINUOUS
 62
     5
 10
-744.0
 20
408.49999999999989
 30
0.0
 40
16.0
 50
90.0
 51
180.0
  0
LINE
  5
C3
  8
NOTE
  6
DASHDOT
 62
     4
 10
1120.0
 20
-158.5
 30
0.0
 11
700.0
 21
-158.5
 31
0.0
  0
LINE
  5
C4
  8
NOTE
  6
DASHDOT
 62
     4
 10
1120.0
 20
407.5
 30
0.0
 11
-740.0
 21
407.5
 31
0.0
  0
LINE
  5
C5
  8
DETAIL
  6
CONTINUOUS
 62
     5
 10
1124.0
 20
424.5
 30
0.0
 11
-744.00024699999983
 21
424.5
 31
0.0
  0
LINE
  5
C6
  8
DETAIL
  6
CONTINUOUS
 62
     5
 10
1124.0
 20
-175.5
 30
0.0
 11
700.0
 21
-175.5
 31
0.0
  0
LINE
  5
C7
  8
DETAIL
  6
CONTINUOUS
 62
     5
 10
-699.5
 20
-357.5
 30
0.0
 11
-699.46493800000019
 21
-359.50872600000002
 31
0.0
  0
LINE
  5
C8
  8
DETAIL
  6
CONTINUOUS
 62
     5
 10
-678.98034000000018
 20
-392.31621999999879
 30
0.0
 11
-679.27404500000011
 21
-382.60187200000109
 31
0.0
  0
LINE
  5
C9
  8
DETAIL
  6
CONTINUOUS
 62
     5
 10
-750.0
 20
342.5
 30
0.0
 11
-750.0
 21
323.5
 31
0.0
  0
LINE
  5
CA
  8
DETAIL
  6
CONTINUOUS
 62
     5
 10
-750.0
 20
311.5
 30
0.0
 11
-750.0
 21
292.5
 31
0.0
  0
LINE
  5
CB
  8
DETAIL
  6
CONTINUOUS
 62
     5
 10
-750.0
 20
-300.5
 30
0.0
 11
-750.0
 21
-319.5
 31
0.0
  0
LINE
  5
CC
  8
DETAIL
  6
CONTINUOUS
 62
     5
 10
-750.0
 20
-331.5
 30
0.0
 11
-750.0
 21
-350.5
 31
0.0
  0
LINE
  5
CD
  8
DETAIL
  6
CONTINUOUS
 62
     5
 10
-734.0
 20
325.5
 30
0.0
 11
-734.0
 21
323.5
 31
0.0
  0
LINE
  5
CE
  8
DETAIL
  6
CONTINUOUS
 62
     5
 10
-734.0
 20
311.5
 30
0.0
 11
-734.0
 21
309.5
 31
0.0
  0
LINE
  5
CF
  8
DETAIL
  6
CONTINUOUS
 62
     5
 10
-734.0
 20
-317.5
 30
0.0
 11
-734.0
 21
-319.5
 31
0.0
  0
LINE
  5
D0
  8
DETAIL
  6
CONTINUOUS
 62
     5
 10
-734.0
 20
-331.5
 30
0.0
 11
-734.0
 21
-333.5
 31
0.0
  0
LINE
  5
D1
  8
DETAIL
  6
CONTINUOUS
 62
     5
 10
-720.0
 20
-333.5
 30
0.0
 11
-720.0
 21
-317.5
 31
0.0
  0
LINE
  5
D2
  8
DETAIL
  6
CONTINUOUS
 62
     5
 10
-720.0
 20
309.5
 30
0.0
 11
-720.0
 21
325.5
 31
0.0
  0
LINE
  5
D4
  8
DETAIL
  6
CONTINUOUS
 62
     5
 10
-700.0
 20
348.70000000000078
 30
0.0
 11
-700.0
 21
-350.5
 31
0.0
  0
LINE
  5
D6
  8
DETAIL
  6
CONTINUOUS
 62
     5
 10
-700.0
 20
348.70000000000078
 30
0.0
 11
-700.0
 21
349.2999999999991
 31
0.0
  0
LINE
  5
D8
  8
DETAIL
  6
CONTINUOUS
 62
     5
 10
-699.39999999999975
 20
292.5
 30
0.0
 11
-699.39999999999975
 21
277.5
 31
0.0
  0
LINE
  5
D9
  8
DETAIL
  6
CONTINUOUS
 62
     5
 10
-699.39999999999975
 20
-194.80000000000109
 30
0.0
 11
-699.39999999999975
 21
-132.80000000000109
 31
0.0
  0
LINE
  5
DA
  8
DETAIL
  6
CONTINUOUS
 62
     5
 10
-699.39999999999975
 20
11.70000000000072
 30
0.0
 11
-699.39999999999975
 21
72.168628999999783
 31
0.0
  0
LINE
  5
DB
  8
DETAIL
  6
CONTINUOUS
 62
     5
 10
-699.39999999999975
 20
348.70000000000078
 30
0.0
 11
-699.39999999999975
 21
349.2999999999991
 31
0.0
  0
LINE
  5
DC
  8
DETAIL
  6
CONTINUOUS
 62
     5
 10
-699.19999999999982
 20
73.700000000000699
 30
0.0
 11
-699.19999999999982
 21
72.310051000000371
 31
0.0
  0
LINE
  5
DD
  8
DETAIL
  6
CONTINUOUS
 62
     5
 10
-699.19999999999982
 20
72.30541300000003
 30
0.0
 11
-699.19999999999982
 21
72.168628999999783
 31
0.0
  0
LINE
  5
DE
  8
DETAIL
  6
CONTINUOUS
 62
     5
 10
-699.19999999999982
 20
-349.69999999999891
 30
0.0
 11
-699.19999999999982
 21
-350.5
 31
0.0
  0
LINE
  5
DF
  8
DETAIL
  6
CONTINUOUS
 62
     5
 10
-699.19999999999982
 20
-349.69999999999891
 30
0.0
 11
-699.19999999999982
 21
72.168628999999783
 31
0.0
  0
LINE
  5
E0
  8
DETAIL
  6
CONTINUOUS
 62
     5
 10
-699.19999999999982
 20
73.700000000000699
 30
0.0
 11
-699.19999999999982
 21
292.5
 31
0.0
  0
LINE
  5
E1
  8
DETAIL
  6
CONTINUOUS
 62
     5
 10
-699.19999999999982
 20
329.5
 30
0.0
 11
-699.19999999999982
 21
348.70000000000078
 31
0.0
  0
LINE
  5
E2
  8
DETAIL
  6
CONTINUOUS
 62
     5
 10
-699.19999999999982
 20
348.70000000000078
 30
0.0
 11
-699.19999999999982
 21
350.5
 31
0.0
  0
LINE
  5
E3
  8
DETAIL
  6
CONTINUOUS
 62
     5
 10
-699.0
 20
11.70000000000072
 30
0.0
 11
-699.0
 21
73.700000000000699
 31
0.0
  0
LINE
  5
E4
  8
DETAIL
  6
CONTINUOUS
 62
     5
 10
-699.0
 20
277.5
 30
0.0
 11
-699.0
 21
329.5
 31
0.0
  0
LINE
  5
E5
  8
DETAIL
  6
CONTINUOUS
 62
     5
 10
-698.0
 20
-194.80000000000109
 30
0.0
 11
-698.0
 21
-132.80000000000109
 31
0.0
  0
LINE
  5
E6
  8
DETAIL
  6
CONTINUOUS
 62
     5
 10
-698.0
 20
11.70000000000072
 30
0.0
 11
-698.0
 21
73.700000000000699
 31
0.0
  0
LINE
  5
E7
  8
DETAIL
  6
CONTINUOUS
 62
     5
 10
-698.0
 20
277.5
 30
0.0
 11
-698.0
 21
329.5
 31
0.0
  0
LINE
  5
E8
  8
DETAIL
  6
CONTINUOUS
 62
     5
 10
-694.5
 20
-360.0
 30
0.0
 11
-694.5
 21
-357.5
 31
0.0
  0
LINE
  5
E9
  8
DETAIL
  6
CONTINUOUS
 62
     5
 10
-689.0
 20
-194.80000000000109
 30
0.0
 11
-689.0
 21
-132.80000000000109
 31
0.0
  0
LINE
  5
EA
  8
DETAIL
  6
CONTINUOUS
 62
     5
 10
-689.0
 20
277.5
 30
0.0
 11
-689.0
 21
329.5
 31
0.0
  0
LINE
  5
EB
  8
DETAIL
  6
CONTINUOUS
 62
     5
 10
-688.49999999999966
 20
278.7343149999997
 30
0.0
 11
-688.49999999999966
 21
277.5
 31
0.0
  0
LINE
  5
EC
  8
DETAIL
  6
CONTINUOUS
 62
     5
 10
-688.49999999999966
 20
-194.80000000000109
 30
0.0
 11
-688.49999999999966
 21
-132.80000000000109
 31
0.0
  0
LINE
  5
ED
  8
DETAIL
  6
CONTINUOUS
 62
     5
 10
-688.49999999999966
 20
11.70000000000072
 30
0.0
 11
-688.49999999999966
 21
73.700000000000699
 31
0.0
  0
LINE
  5
EE
  8
DETAIL
  6
CONTINUOUS
 62
     5
 10
-688.49999999999966
 20
328.47303800000009
 30
0.0
 11
-688.49999999999966
 21
329.5
 31
0.0
  0
LINE
  5
EF
  8
DETAIL
  6
CONTINUOUS
 62
     5
 10
-679.51705700000002
 20
-364.11098700000002
 30
0.0
 11
-679.51705700000002
 21
-365.96509499999962
 31
0.0
  0
LINE
  5
F0
  8
DETAIL
  6
CONTINUOUS
 62
     5
 10
-658.52930099999912
 20
-361.96470899999991
 30
0.0
 11
-658.53961499999934
 21
-365.96509499999962
 31
0.0
  0
LINE
  5
F4
  8
DETAIL
  6
CONTINUOUS
 62
     5
 10
-691.14579699999967
 20
-364.0
 30
0.0
 11
-691.00126399999965
 21
-364.05664300000001
 31
0.0
  0
LINE
  5
F5
  8
DETAIL
  6
CONTINUOUS
 62
     5
 10
-691.00126399999965
 20
-364.05664300000001
 30
0.0
 11
-690.82847099999981
 21
-364.1216050000001
 31
0.0
  0
LINE
  5
F7
  8
DETAIL
  6
CONTINUOUS
 62
     5
 10
257.02572599999991
 20
-432.5
 30
0.0
 11
62.974273999999639
 21
-432.5
 31
0.0
  0
LINE
  5
FB
  8
DETAIL
  6
CONTINUOUS
 62
     5
 10
259.9999999999996
 20
-397.5294489999996
 30
0.0
 11
59.999999999999602
 21
-397.5294489999996
 31
0.0
  0
LINE
  5
FE
  8
DETAIL
  6
CONTINUOUS
 62
     5
 10
-117.8787478139008
 20
-392.31671166979521
 30
0.0
 11
117.8455303780365
 21
-392.31671130542009
 31
0.0
  0
LINE
  5
FF
  8
DETAIL
  6
CONTINUOUS
 62
     5
 10
-437.8787478139007
 20
-392.31671166979521
 30
0.0
 11
-202.1073832443808
 21
-392.31671100000119
 31
0.0
  0
LINE
  5
100
  8
DETAIL
  6
CONTINUOUS
 62
     5
 10
689.14835200000005
 20
-382.60187200000109
 30
0.0
 11
-689.24834300000032
 21
-382.60187200000109
 31
0.0
  0
LINE
  5
101
  8
DETAIL
  6
CONTINUOUS
 62
     5
 10
689.51553083793272
 20
-365.96508211340438
 30
0.0
 11
658.43961499999989
 21
-365.96509499999962
 31
0.0
  0
LINE
  5
102
  8
DETAIL
  6
CONTINUOUS
 62
     5
 10
-658.53961499999934
 20
-365.96509499999962
 30
0.0
 11
-689.515534
 21
-365.96509499999962
 31
0.0
  0
LINE
  5
105
  8
DETAIL
  6
CONTINUOUS
 62
     5
 10
-683.6239919999997
 20
-364.0
 30
0.0
 11
-692.16920699999969
 21
-364.0
 31
0.0
  0
LINE
  5
108
  8
DETAIL
  6
CONTINUOUS
 62
     5
 10
698.96501399999988
 20
-360.0
 30
0.0
 11
-698.96501399999988
 21
-360.0
 31
0.0
  0
LINE
  5
109
  8
DETAIL
  6
CONTINUOUS
 62
     5
 10
699.46493800000019
 20
-359.50872600000002
 30
0.0
 11
-699.46493800000019
 21
-359.50872600000002
 31
0.0
  0
LINE
  5
10D
  8
DETAIL
  6
CONTINUOUS
 62
     5
 10
750.0
 20
-350.5
 30
0.0
 11
700.0
 21
-350.4999987272285
 31
0.0
  0
LINE
  5
110
  8
DETAIL
  6
CONTINUOUS
 62
     5
 10
-700.0
 20
-350.5
 30
0.0
 11
-750.0
 21
-350.5
 31
0.0
  0
LINE
  5
111
  8
DETAIL
  6
CONTINUOUS
 62
     5
 10
699.19999999999982
 20
-349.69999999999891
 30
0.0
 11
700.0
 21
-349.69999999999891
 31
0.0
  0
LINE
  5
112
  8
DETAIL
  6
CONTINUOUS
 62
     5
 10
699.19999999999982
 20
-349.69999999999891
 30
0.0
 11
-699.19999999999982
 21
-349.69999999999891
 31
0.0
  0
LINE
  5
113
  8
DETAIL
  6
CONTINUOUS
 62
     5
 10
-699.19999999999982
 20
-349.69999999999891
 30
0.0
 11
-700.0
 21
-349.69999999999891
 31
0.0
  0
LINE
  5
114
  8
DETAIL
  6
CONTINUOUS
 62
     5
 10
-750.0
 20
-331.5
 30
0.0
 11
-734.0
 21
-331.5
 31
0.0
  0
LINE
  5
115
  8
DETAIL
  6
CONTINUOUS
 62
     5
 10
750.0
 20
-331.5
 30
0.0
 11
734.0
 21
-331.5
 31
0.0
  0
LINE
  5
11A
  8
DETAIL
  6
CONTINUOUS
 62
     5
 10
-750.0
 20
-319.5
 30
0.0
 11
-734.0
 21
-319.5
 31
0.0
  0
LINE
  5
11B
  8
DETAIL
  6
CONTINUOUS
 62
     5
 10
750.0
 20
-319.5
 30
0.0
 11
734.0
 21
-319.5
 31
0.0
  0
LINE
  5
11C
  8
DETAIL
  6
CONTINUOUS
 62
     5
 10
750.0
 20
-300.5
 30
0.0
 11
700.0
 21
-300.5
 31
0.0
  0
LINE
  5
11D
  8
DETAIL
  6
CONTINUOUS
 62
     5
 10
-700.0
 20
-300.5
 30
0.0
 11
-750.0
 21
-300.5
 31
0.0
  0
LINE
  5
121
  8
DETAIL
  6
CONTINUOUS
 62
     5
 10
-700.0
 20
-194.80000000000109
 30
0.0
 11
-688.49999999999966
 21
-194.80000000000109
 31
0.0
  0
LINE
  5
122
  8
DETAIL
  6
CONTINUOUS
 62
     5
 10
700.0
 20
-194.80000000000109
 30
0.0
 11
688.49999999999966
 21
-194.80000000000109
 31
0.0
  0
LINE
  5
123
  8
DETAIL
  6
CONTINUOUS
 62
     5
 10
688.49999999999966
 20
-194.13137100000131
 30
0.0
 11
-688.49999999999966
 21
-194.13137100000131
 31
0.0
  0
LINE
  5
124
  8
DETAIL
  6
CONTINUOUS
 62
     5
 10
688.49999999999966
 20
-193.56568499999921
 30
0.0
 11
-688.49999999999966
 21
-193.56568499999921
 31
0.0
  0
LINE
  5
125
  8
DETAIL
  6
CONTINUOUS
 62
     5
 10
688.49999999999966
 20
-184.45857899999999
 30
0.0
 11
-688.49999999999966
 21
-184.45857899999999
 31
0.0
  0
LINE
  5
127
  8
DETAIL
  6
CONTINUOUS
 62
     5
 10
259.98796549999958
 20
-397.79967449999992
 30
0.0
 11
257.52443699999969
 21
-432.03574900000052
 31
0.0
  0
LINE
  5
128
  8
DETAIL
  6
CONTINUOUS
 62
     5
 10
60.015698249999581
 20
-397.7848307499998
 30
0.0
 11
62.475562999999561
 21
-432.03574900000052
 31
0.0
  0
LINE
  5
12A
  8
DETAIL
  6
CONTINUOUS
 62
     5
 10
703.98254799999995
 20
-129.25650200000021
 30
0.0
 11
733.0
 21
-128.75
 31
0.0
  0
LINE
  5
12F
  8
DETAIL
  6
CONTINUOUS
 62
     5
 10
699.39999999999975
 20
-144.15099999999981
 30
0.0
 11
700.0
 21
-144.15099999999981
 31
0.0
  0
LINE
  5
130
  8
DETAIL
  6
CONTINUOUS
 62
     5
 10
688.49999999999966
 20
-143.14142100000021
 30
0.0
 11
-688.49999999999966
 21
-143.14142100000021
 31
0.0
  0
LINE
  5
131
  8
DETAIL
  6
CONTINUOUS
 62
     5
 10
699.39999999999975
 20
-137.15099999999981
 30
0.0
 11
700.0
 21
-137.15099999999981
 31
0.0
  0
LINE
  5
133
  8
DETAIL
  6
CONTINUOUS
 62
     5
 10
688.49999999999966
 20
-134.034314999999
 30
0.0
 11
-688.49999999999966
 21
-134.034314999999
 31
0.0
  0
LINE
  5
134
  8
DETAIL
  6
CONTINUOUS
 62
     5
 10
688.49999999999966
 20
-133.46862900000079
 30
0.0
 11
-688.49999999999966
 21
-133.46862900000079
 31
0.0
  0
LINE
  5
135
  8
DETAIL
  6
CONTINUOUS
 62
     5
 10
-700.0
 20
-132.80000000000109
 30
0.0
 11
-688.49999999999966
 21
-132.80000000000109
 31
0.0
  0
LINE
  5
136
  8
DETAIL
  6
CONTINUOUS
 62
     5
 10
700.0
 20
-132.80000000000109
 30
0.0
 11
688.49999999999966
 21
-132.80000000000109
 31
0.0
  0
LINE
  5
138
  8
DETAIL
  6
CONTINUOUS
 62
     5
 10
703.0
 20
-132.5
 30
0.0
 11
700.0
 21
-132.5
 31
0.0
  0
LINE
  5
139
  8
DETAIL
  6
CONTINUOUS
 62
     5
 10
703.0
 20
-129.5
 30
0.0
 11
700.0
 21
-129.5
 31
0.0
  0
LINE
  5
13A
  8
DETAIL
  6
CONTINUOUS
 62
     5
 10
703.0
 20
-95.5
 30
0.0
 11
700.0
 21
-95.5
 31
0.0
  0
LINE
  5
13B
  8
DETAIL
  6
CONTINUOUS
 62
     5
 10
703.0
 20
-92.5
 30
0.0
 11
700.0
 21
-92.5
 31
0.0
  0
LINE
  5
13C
  8
DETAIL
  6
CONTINUOUS
 62
     5
 10
700.79999999999995
 20
-86.0
 30
0.0
 11
705.79999999999973
 21
-86.0
 31
0.0
  0
LINE
  5
13D
  8
DETAIL
  6
CONTINUOUS
 62
     5
 10
700.79999999999995
 20
-85.0
 30
0.0
 11
700.0
 21
-85.0
 31
0.0
  0
LINE
  5
13E
  8
DETAIL
  6
CONTINUOUS
 62
     5
 10
700.79999999999995
 20
-81.0
 30
0.0
 11
705.79999999999973
 21
-81.0
 31
0.0
  0
LINE
  5
13F
  8
DETAIL
  6
CONTINUOUS
 62
     5
 10
-700.0
 20
11.70000000000072
 30
0.0
 11
-688.49999999999966
 21
11.70000000000072
 31
0.0
  0
LINE
  5
140
  8
DETAIL
  6
CONTINUOUS
 62
     5
 10
700.0
 20
11.70000000000072
 30
0.0
 11
688.49999999999966
 21
11.70000000000072
 31
0.0
  0
LINE
  5
141
  8
DETAIL
  6
CONTINUOUS
 62
     5
 10
688.49999999999966
 20
12.934315000000421
 30
0.0
 11
-688.49999999999966
 21
12.934315000000421
 31
0.0
  0
LINE
  5
142
  8
DETAIL
  6
CONTINUOUS
 62
     5
 10
703.98254799999995
 20
-95.743497999999775
 30
0.0
 11
733.0
 21
-96.25
 31
0.0
  0
LINE
  5
147
  8
DETAIL
  6
CONTINUOUS
 62
     5
 10
688.49999999999966
 20
22.0414209999999
 30
0.0
 11
-688.49999999999966
 21
22.0414209999999
 31
0.0
  0
LINE
  5
148
  8
DETAIL
  6
CONTINUOUS
 62
     5
 10
688.49999999999966
 20
63.358578999999722
 30
0.0
 11
-688.49999999999966
 21
63.358578999999722
 31
0.0
  0
LINE
  5
149
  8
DETAIL
  6
CONTINUOUS
 62
     5
 10
700.79999999999995
 20
68.0
 30
0.0
 11
705.79999999999973
 21
68.0
 31
0.0
  0
LINE
  5
14A
  8
DETAIL
  6
CONTINUOUS
 62
     5
 10
699.0
 20
69.799999999999272
 30
0.0
 11
699.80000000000007
 21
69.799999999999272
 31
0.0
  0
LINE
  5
14B
  8
DETAIL
  6
CONTINUOUS
 62
     5
 10
-699.19999999999982
 20
72.168628999999783
 30
0.0
 11
-699.0
 21
72.168628999999783
 31
0.0
  0
LINE
  5
14C
  8
DETAIL
  6
CONTINUOUS
 62
     5
 10
699.0
 20
72.168628999999783
 30
0.0
 11
699.19999999999982
 21
72.168628999999783
 31
0.0
  0
LINE
  5
14D
  8
DETAIL
  6
CONTINUOUS
 62
     5
 10
700.0
 20
72.168628999999783
 30
0.0
 11
699.19999999999982
 21
72.168628999999783
 31
0.0
  0
LINE
  5
14E
  8
DETAIL
  6
CONTINUOUS
 62
     5
 10
-699.19999999999982
 20
72.168628999999783
 30
0.0
 11
-700.0
 21
72.168628999999783
 31
0.0
  0
LINE
  5
14F
  8
DETAIL
  6
CONTINUOUS
 62
     5
 10
688.49999999999966
 20
72.465684999999212
 30
0.0
 11
-688.49999999999966
 21
72.465684999999212
 31
0.0
  0
LINE
  5
150
  8
DETAIL
  6
CONTINUOUS
 62
     5
 10
688.49999999999966
 20
73.031370999999126
 30
0.0
 11
-688.49999999999966
 21
73.031370999999126
 31
0.0
  0
LINE
  5
151
  8
DETAIL
  6
CONTINUOUS
 62
     5
 10
-700.0
 20
73.700000000000699
 30
0.0
 11
-688.49999999999966
 21
73.700000000000699
 31
0.0
  0
LINE
  5
152
  8
DETAIL
  6
CONTINUOUS
 62
     5
 10
700.0
 20
73.700000000000699
 30
0.0
 11
688.49999999999966
 21
73.700000000000699
 31
0.0
  0
LINE
  5
155
  8
DETAIL
  6
CONTINUOUS
 62
     5
 10
658.43961499999989
 20
-365.96509499999962
 30
0.0
 11
658.43178199999977
 21
-360.0476849999996
 31
0.0
  0
LINE
  5
156
  8
DETAIL
  6
CONTINUOUS
 62
     5
 10
679.51705700000002
 20
-364.10749399999992
 30
0.0
 11
679.51705700000002
 21
-365.96509499999962
 31
0.0
  0
LINE
  5
157
  8
DETAIL
  6
CONTINUOUS
 62
     5
 10
688.49999999999966
 20
278.7343149999997
 30
0.0
 11
688.49999999999966
 21
277.5
 31
0.0
  0
LINE
  5
158
  8
DETAIL
  6
CONTINUOUS
 62
     5
 10
688.49999999999966
 20
12.934315000000421
 30
0.0
 11
688.49999999999966
 21
11.70000000000072
 31
0.0
  0
LINE
  5
159
  8
DETAIL
  6
CONTINUOUS
 62
     5
 10
688.49999999999966
 20
-193.56568499999921
 30
0.0
 11
688.49999999999966
 21
-194.80000000000109
 31
0.0
  0
LINE
  5
15A
  8
DETAIL
  6
CONTINUOUS
 62
     5
 10
688.49999999999966
 20
-134.034314999999
 30
0.0
 11
688.49999999999966
 21
-132.80000000000109
 31
0.0
  0
LINE
  5
15B
  8
DETAIL
  6
CONTINUOUS
 62
     5
 10
688.49999999999966
 20
63.358578999999722
 30
0.0
 11
688.49999999999966
 21
73.700000000000699
 31
0.0
  0
LINE
  5
15C
  8
DETAIL
  6
CONTINUOUS
 62
     5
 10
688.49999999999966
 20
328.47303800000009
 30
0.0
 11
688.49999999999966
 21
329.5
 31
0.0
  0
LINE
  5
15D
  8
DETAIL
  6
CONTINUOUS
 62
     5
 10
689.0
 20
329.5
 30
0.0
 11
689.0
 21
277.5
 31
0.0
  0
LINE
  5
15E
  8
DETAIL
  6
CONTINUOUS
 62
     5
 10
689.0
 20
73.700000000000699
 30
0.0
 11
689.0
 21
11.70000000000072
 31
0.0
  0
LINE
  5
15F
  8
DETAIL
  6
CONTINUOUS
 62
     5
 10
689.0
 20
-132.80000000000109
 30
0.0
 11
689.0
 21
-194.80000000000109
 31
0.0
  0
LINE
  5
160
  8
DETAIL
  6
CONTINUOUS
 62
     5
 10
678.98033199999975
 20
-392.31671100000119
 30
0.0
 11
679.27404699999988
 21
-382.60187200000109
 31
0.0
  0
LINE
  5
162
  8
DETAIL
  6
CONTINUOUS
 62
     5
 10
260.01203449999957
 20
-397.25922349999928
 30
0.0
 11
259.98796549999958
 21
-397.79967449999992
 31
0.0
  0
LINE
  5
164
  8
DETAIL
  6
CONTINUOUS
 62
     5
 10
59.984301749999602
 20
-397.27406724999929
 30
0.0
 11
60.015698249999581
 21
-397.7848307499998
 31
0.0
  0
LINE
  5
166
  8
DETAIL
  6
CONTINUOUS
 62
     5
 10
-700.0
 20
277.5
 30
0.0
 11
-688.49999999999966
 21
277.5
 31
0.0
  0
LINE
  5
167
  8
DETAIL
  6
CONTINUOUS
 62
     5
 10
700.0
 20
277.5
 30
0.0
 11
688.49999999999966
 21
277.5
 31
0.0
  0
LINE
  5
168
  8
DETAIL
  6
CONTINUOUS
 62
     5
 10
688.49999999999966
 20
278.7343149999997
 30
0.0
 11
-688.49999999999966
 21
278.7343149999997
 31
0.0
  0
LINE
  5
169
  8
DETAIL
  6
CONTINUOUS
 62
     5
 10
699.0
 20
280.5
 30
0.0
 11
699.80000000000007
 21
280.5
 31
0.0
  0
LINE
  5
16A
  8
DETAIL
  6
CONTINUOUS
 62
     5
 10
688.1999999999997
 20
287.84142099999917
 30
0.0
 11
-688.1999999999997
 21
287.84142099999917
 31
0.0
  0
LINE
  5
16B
  8
DETAIL
  6
CONTINUOUS
 62
     5
 10
699.0
 20
291.29999999999922
 30
0.0
 11
699.80000000000007
 21
291.29999999999922
 31
0.0
  0
LINE
  5
16C
  8
DETAIL
  6
CONTINUOUS
 62
     5
 10
750.0
 20
292.5
 30
0.0
 11
699.0
 21
292.5
 31
0.0
  0
LINE
  5
16D
  8
DETAIL
  6
CONTINUOUS
 62
     5
 10
-699.0
 20
292.5
 30
0.0
 11
-750.0
 21
292.5
 31
0.0
  0
LINE
  5
16E
  8
DETAIL
  6
CONTINUOUS
 62
     5
 10
-750.0
 20
311.5
 30
0.0
 11
-734.0
 21
311.5
 31
0.0
  0
LINE
  5
16F
  8
DETAIL
  6
CONTINUOUS
 62
     5
 10
750.0
 20
311.5
 30
0.0
 11
734.0
 21
311.5
 31
0.0
  0
LINE
  5
174
  8
DETAIL
  6
CONTINUOUS
 62
     5
 10
-750.0
 20
323.5
 30
0.0
 11
-734.0
 21
323.5
 31
0.0
  0
LINE
  5
175
  8
DETAIL
  6
CONTINUOUS
 62
     5
 10
750.0
 20
323.5
 30
0.0
 11
734.0
 21
323.5
 31
0.0
  0
LINE
  5
176
  8
DETAIL
  6
CONTINUOUS
 62
     5
 10
688.49999999999966
 20
328.47303800000009
 30
0.0
 11
-688.49999999999966
 21
328.47303800000009
 31
0.0
  0
LINE
  5
177
  8
DETAIL
  6
CONTINUOUS
 62
     5
 10
688.49999999999966
 20
329.27255100000002
 30
0.0
 11
-688.49999999999966
 21
329.27255100000002
 31
0.0
  0
LINE
  5
178
  8
DETAIL
  6
CONTINUOUS
 62
     5
 10
-700.0
 20
329.5
 30
0.0
 11
-688.49999999999966
 21
329.5
 31
0.0
  0
LINE
  5
179
  8
DETAIL
  6
CONTINUOUS
 62
     5
 10
700.0
 20
329.5
 30
0.0
 11
688.49999999999966
 21
329.5
 31
0.0
  0
LINE
  5
17A
  8
DETAIL
  6
CONTINUOUS
 62
     5
 10
750.0
 20
342.5
 30
0.0
 11
700.0
 21
342.5
 31
0.0
  0
LINE
  5
17B
  8
DETAIL
  6
CONTINUOUS
 62
     5
 10
-700.0
 20
342.5
 30
0.0
 11
-750.0
 21
342.5
 31
0.0
  0
LINE
  5
17C
  8
DETAIL
  6
CONTINUOUS
 62
     5
 10
-700.0
 20
348.70000000000078
 30
0.0
 11
-699.19999999999982
 21
348.70000000000078
 31
0.0
  0
LINE
  5
17D
  8
DETAIL
  6
CONTINUOUS
 62
     5
 10
700.0
 20
348.70000000000078
 30
0.0
 11
699.19999999999982
 21
348.70000000000078
 31
0.0
  0
LINE
  5
17E
  8
DETAIL
  6
CONTINUOUS
 62
     5
 10
699.19999999999982
 20
348.70000000000078
 30
0.0
 11
-699.19999999999982
 21
348.70000000000078
 31
0.0
  0
LINE
  5
17F
  8
DETAIL
  6
CONTINUOUS
 62
     5
 10
699.39999999999975
 20
349.2999999999991
 30
0.0
 11
700.0
 21
349.2999999999991
 31
0.0
  0
LINE
  5
180
  8
DETAIL
  6
CONTINUOUS
 62
     5
 10
-699.39999999999975
 20
349.2999999999991
 30
0.0
 11
-700.0
 21
349.2999999999991
 31
0.0
  0
LINE
  5
181
  8
DETAIL
  6
CONTINUOUS
 62
     5
 10
-699.19999999999982
 20
349.5
 30
0.0
 11
699.19999999999982
 21
349.5
 31
0.0
  0
LINE
  5
182
  8
DETAIL
  6
CONTINUOUS
 62
     5
 10
699.19999999999925
 20
350.5
 30
0.0
 11
-699.19999999999982
 21
350.5
 31
0.0
  0
LINE
  5
183
  8
DETAIL
  6
CONTINUOUS
 62
     5
 10
694.5
 20
-360.0
 30
0.0
 11
694.5
 21
-357.5
 31
0.0
  0
LINE
  5
184
  8
DETAIL
  6
CONTINUOUS
 62
     5
 10
698.0
 20
329.5
 30
0.0
 11
698.0
 21
277.5
 31
0.0
  0
LINE
  5
185
  8
DETAIL
  6
CONTINUOUS
 62
     5
 10
698.0
 20
73.700000000000699
 30
0.0
 11
698.0
 21
11.70000000000072
 31
0.0
  0
LINE
  5
186
  8
DETAIL
  6
CONTINUOUS
 62
     5
 10
698.0
 20
-132.80000000000109
 30
0.0
 11
698.0
 21
-194.80000000000109
 31
0.0
  0
LINE
  5
187
  8
DETAIL
  6
CONTINUOUS
 62
     5
 10
699.0
 20
329.5
 30
0.0
 11
699.0
 21
277.5
 31
0.0
  0
LINE
  5
188
  8
DETAIL
  6
CONTINUOUS
 62
     5
 10
699.0
 20
73.700000000000699
 30
0.0
 11
699.0
 21
11.70000000000072
 31
0.0
  0
LINE
  5
189
  8
DETAIL
  6
CONTINUOUS
 62
     5
 10
699.0
 20
-132.80000000000109
 30
0.0
 11
699.0
 21
-194.80000000000109
 31
0.0
  0
LINE
  5
18B
  8
DETAIL
  6
CONTINUOUS
 62
     5
 10
699.19999999999982
 20
72.168628999999783
 30
0.0
 11
699.19999999999982
 21
69.799999999999272
 31
0.0
  0
LINE
  5
18C
  8
DETAIL
  6
CONTINUOUS
 62
     5
 10
699.19999999999982
 20
-349.69999999999891
 30
0.0
 11
699.19999999999982
 21
-350.5
 31
0.0
  0
LINE
  5
18D
  8
DETAIL
  6
CONTINUOUS
 62
     5
 10
699.19999999999982
 20
-349.69999999999891
 30
0.0
 11
699.19999999999982
 21
-166.15099999999981
 31
0.0
  0
LINE
  5
18E
  8
DETAIL
  6
CONTINUOUS
 62
     5
 10
699.19999999999982
 20
-132.80000000000109
 30
0.0
 11
699.19999999999982
 21
11.70000000000072
 31
0.0
  0
LINE
  5
18F
  8
DETAIL
  6
CONTINUOUS
 62
     5
 10
699.19999999999982
 20
72.168628999999783
 30
0.0
 11
699.19999999999982
 21
73.700000000000699
 31
0.0
  0
LINE
  5
190
  8
DETAIL
  6
CONTINUOUS
 62
     5
 10
699.19999999999982
 20
73.700000000000699
 30
0.0
 11
699.19999999999982
 21
277.5
 31
0.0
  0
LINE
  5
191
  8
DETAIL
  6
CONTINUOUS
 62
     5
 10
699.19999999999982
 20
329.5
 30
0.0
 11
699.19999999999982
 21
348.70000000000078
 31
0.0
  0
LINE
  5
192
  8
DETAIL
  6
CONTINUOUS
 62
     5
 10
699.19999999999982
 20
348.70000000000078
 30
0.0
 11
699.19999999999925
 21
350.5
 31
0.0
  0
LINE
  5
193
  8
DETAIL
  6
CONTINUOUS
 62
     5
 10
699.39999999999975
 20
-194.80000000000109
 30
0.0
 11
699.39999999999975
 21
-132.80000000000109
 31
0.0
  0
LINE
  5
194
  8
DETAIL
  6
CONTINUOUS
 62
     5
 10
699.39999999999975
 20
348.70000000000078
 30
0.0
 11
699.39999999999975
 21
349.2999999999991
 31
0.0
  0
LINE
  5
195
  8
DETAIL
  6
CONTINUOUS
 62
     5
 10
699.80000000000007
 20
69.799999999999272
 30
0.0
 11
699.80000000000007
 21
59.0
 31
0.0
  0
LINE
  5
196
  8
DETAIL
  6
CONTINUOUS
 62
     5
 10
699.80000000000007
 20
11.70000000000072
 30
0.0
 11
699.80000000000007
 21
59.0
 31
0.0
  0
LINE
  5
197
  8
DETAIL
  6
CONTINUOUS
 62
     5
 10
700.0
 20
348.70000000000078
 30
0.0
 11
700.0
 21
329.5
 31
0.0
  0
LINE
  5
198
  8
DETAIL
  6
CONTINUOUS
 62
     5
 10
700.0
 20
277.5
 30
0.0
 11
700.0
 21
73.700000000000699
 31
0.0
  0
LINE
  5
199
  8
DETAIL
  6
CONTINUOUS
 62
     5
 10
700.0
 20
72.168628999999783
 30
0.0
 11
700.0
 21
69.777228999999352
 31
0.0
  0
LINE
  5
19A
  8
DETAIL
  6
CONTINUOUS
 62
     5
 10
700.0
 20
277.5
 30
0.0
 11
700.0
 21
-350.5
 31
0.0
  0
LINE
  5
19B
  8
DETAIL
  6
CONTINUOUS
 62
     5
 10
700.0
 20
348.70000000000078
 30
0.0
 11
700.0
 21
349.2999999999991
 31
0.0
  0
LINE
  5
19C
  8
DETAIL
  6
CONTINUOUS
 62
     5
 10
700.19999999999982
 20
291.21336999999949
 30
0.0
 11
700.19999999999982
 21
292.5
 31
0.0
  0
LINE
  5
19D
  8
DETAIL
  6
CONTINUOUS
 62
     5
 10
700.79999999999995
 20
290.29999999999922
 30
0.0
 11
700.79999999999995
 21
280.70000000000078
 31
0.0
  0
LINE
  5
19F
  8
DETAIL
  6
CONTINUOUS
 62
     5
 10
700.79999999999995
 20
68.799999999999272
 30
0.0
 11
700.79999999999995
 21
-86.800000000001091
 31
0.0
  0
LINE
  5
1A1
  8
DETAIL
  6
CONTINUOUS
 62
     5
 10
703.0
 20
-92.5
 30
0.0
 11
703.0
 21
-132.5
 31
0.0
  0
LINE
  5
1A2
  8
DETAIL
  6
CONTINUOUS
 62
     5
 10
703.98254799999995
 20
-95.743497999999775
 30
0.0
 11
703.98254799999995
 21
-129.25650200000021
 31
0.0
  0
LINE
  5
1A3
  8
DETAIL
  6
CONTINUOUS
 62
     5
 10
705.79999999999973
 20
-86.0
 30
0.0
 11
705.79999999999973
 21
68.0
 31
0.0
  0
LINE
  5
1A4
  8
DETAIL
  6
CONTINUOUS
 62
     5
 10
720.0
 20
325.5
 30
0.0
 11
720.0
 21
309.5
 31
0.0
  0
LINE
  5
1A5
  8
DETAIL
  6
CONTINUOUS
 62
     5
 10
720.0
 20
-317.5
 30
0.0
 11
720.0
 21
-333.5
 31
0.0
  0
LINE
  5
1A6
  8
DETAIL
  6
CONTINUOUS
 62
     5
 10
733.0
 20
-96.25
 30
0.0
 11
733.0
 21
-128.75
 31
0.0
  0
LINE
  5
1A7
  8
DETAIL
  6
CONTINUOUS
 62
     5
 10
734.0
 20
-333.5
 30
0.0
 11
734.0
 21
-331.5
 31
0.0
  0
LINE
  5
1A8
  8
DETAIL
  6
CONTINUOUS
 62
     5
 10
734.0
 20
-319.5
 30
0.0
 11
734.0
 21
-317.5
 31
0.0
  0
LINE
  5
1A9
  8
DETAIL
  6
CONTINUOUS
 62
     5
 10
734.0
 20
309.5
 30
0.0
 11
734.0
 21
311.5
 31
0.0
  0
LINE
  5
1AA
  8
DETAIL
  6
CONTINUOUS
 62
     5
 10
734.0
 20
323.5
 30
0.0
 11
734.0
 21
325.5
 31
0.0
  0
LINE
  5
1AD
  8
DETAIL
  6
CONTINUOUS
 62
     5
 10
750.0
 20
342.5
 30
0.0
 11
750.0
 21
323.5
 31
0.0
  0
LINE
  5
1AE
  8
DETAIL
  6
CONTINUOUS
 62
     5
 10
750.0
 20
311.5
 30
0.0
 11
750.0
 21
292.5
 31
0.0
  0
LINE
  5
1AF
  8
DETAIL
  6
CONTINUOUS
 62
     5
 10
750.0
 20
-300.5
 30
0.0
 11
750.0
 21
-319.5
 31
0.0
  0
LINE
  5
1B0
  8
DETAIL
  6
CONTINUOUS
 62
     5
 10
750.0
 20
-331.5
 30
0.0
 11
750.0
 21
-350.5
 31
0.0
  0
LINE
  5
1B2
  8
DETAIL
  6
CONTINUOUS
 62
     5
 10
758.0
 20
-96.999906999999425
 30
0.0
 11
758.0
 21
-128.0
 31
0.0
  0
LINE
  5
1B6
  8
DETAIL
  6
CONTINUOUS
 62
     5
 10
699.5
 20
-357.5
 30
0.0
 11
699.46493800000019
 21
-359.50872600000002
 31
0.0
  0
LINE
  5
1B8
  8
DETAIL
  6
CONTINUOUS
 62
     5
 10
690.95462499999996
 20
-364.07089599999921
 30
0.0
 11
691.12565499999982
 21
-364.0
 31
0.0
  0
LINE
  5
1B9
  8
DETAIL
  6
CONTINUOUS
 62
     5
 10
690.79489899999999
 20
-364.13422199999877
 30
0.0
 11
690.95462499999996
 21
-364.07089599999921
 31
0.0
  0
ARC
  5
1BB
  8
DETAIL
  6
CONTINUOUS
 62
     5
 10
62.974273999999639
 20
-432.0
 30
0.0
 40
0.5
 50
184.0999999999969
 51
270.0
  0
ARC
  5
1BC
  8
DETAIL
  6
CONTINUOUS
 62
     5
 10
-727.0
 20
-333.5
 30
0.0
 40
7.0
 50
180.0
 51
0.0
  0
ARC
  5
1BD
  8
DETAIL
  6
CONTINUOUS
 62
     5
 10
-727.0
 20
-317.5
 30
0.0
 40
7.0
 50
0.0
 51
180.0
  0
ARC
  5
1BE
  8
DETAIL
  6
CONTINUOUS
 62
     5
 10
-698.96501399999988
 20
-359.5
 30
0.0
 40
0.5
 50
180.9999999999757
 51
270.0
  0
ARC
  5
1BF
  8
DETAIL
  6
CONTINUOUS
 62
     5
 10
-696.64134699999966
 20
-360.5
 30
0.0
 40
0.5
 50
6.3793699999733589
 51
90.0
  0
ARC
  5
1C0
  8
DETAIL
  6
CONTINUOUS
 62
     5
 10
-691.51522699999987
 20
-366.0
 30
0.0
 40
2.0
 50
1.000001000018697
 51
69.918968999989971
  0
ARC
  5
1C1
  8
DETAIL
  6
CONTINUOUS
 62
     5
 10
-692.16921099999945
 20
-360.0
 30
0.0
 40
4.0
 50
186.37936999997331
 51
270.0
  0
ARC
  5
1C4
  8
DETAIL
  6
CONTINUOUS
 62
     5
 10
257.02572599999991
 20
-432.0
 30
0.0
 40
0.5
 50
270.0
 51
355.90000000000288
  0
ARC
  5
1C5
  8
DETAIL
  6
CONTINUOUS
 62
     5
 10
-727.0
 20
309.5
 30
0.0
 40
7.0
 50
180.0
 51
0.0
  0
ARC
  5
1C6
  8
DETAIL
  6
CONTINUOUS
 62
     5
 10
-727.0
 20
325.5
 30
0.0
 40
7.0
 50
0.0
 51
180.0
  0
ARC
  5
1C7
  8
DETAIL
  6
CONTINUOUS
 62
     5
 10
-699.19999999999982
 20
349.2999999999991
 30
0.0
 40
0.8
 50
90.0
 51
180.0
  0
ARC
  5
1C8
  8
DETAIL
  6
CONTINUOUS
 62
     5
 10
-699.19999999999982
 20
349.2999999999991
 30
0.0
 40
0.2
 50
90.0
 51
180.0
  0
ARC
  5
1CB
  8
DETAIL
  6
CONTINUOUS
 62
     5
 10
691.51522599999998
 20
-366.0
 30
0.0
 40
2.0
 50
111.1081160000152
 51
178.9999989999813
  0
ARC
  5
1CC
  8
DETAIL
  6
CONTINUOUS
 62
     5
 10
692.069211
 20
-360.0
 30
0.0
 40
4.0
 50
270.0
 51
353.62063000002678
  0
ARC
  5
1CD
  8
DETAIL
  6
CONTINUOUS
 62
     5
 10
696.54134699999975
 20
-360.5
 30
0.0
 40
0.5
 50
90.0
 51
173.62063000002661
  0
ARC
  5
1CE
  8
DETAIL
  6
CONTINUOUS
 62
     5
 10
698.96501399999988
 20
-359.5
 30
0.0
 40
0.5
 50
270.0
 51
359.00000000002427
  0
ARC
  5
1D1
  8
DETAIL
  6
CONTINUOUS
 62
     5
 10
727.0
 20
-317.5
 30
0.0
 40
7.0
 50
0.0
 51
180.0
  0
ARC
  5
1D2
  8
DETAIL
  6
CONTINUOUS
 62
     5
 10
727.0
 20
-333.5
 30
0.0
 40
7.0
 50
180.0
 51
0.0
  0
ARC
  5
1D3
  8
DETAIL
  6
CONTINUOUS
 62
     5
 10
704.0
 20
-130.25634900000111
 30
0.0
 40
1.0
 50
91.000000000002188
 51
179.99998799995711
  0
ARC
  5
1D4
  8
DETAIL
  6
CONTINUOUS
 62
     5
 10
704.0
 20
-94.743650999998835
 30
0.0
 40
1.0
 50
180.0000120000428
 51
268.99999999999773
  0
ARC
  5
1D5
  8
DETAIL
  6
CONTINUOUS
 62
     5
 10
699.80000000000007
 20
-86.800000000001091
 30
0.0
 40
1.0
 50
281.56968999998952
 51
0.0
  0
ARC
  5
1D6
  8
DETAIL
  6
CONTINUOUS
 62
     5
 10
757.5
 20
-128.0
 30
0.0
 40
0.5
 50
270.0
 51
0.0000570000213697
  0
ARC
  5
1D7
  8
DETAIL
  6
CONTINUOUS
 62
     5
 10
757.5
 20
-97.0
 30
0.0
 40
0.5
 50
359.99994299997871
 51
90.0
  0
ARC
  5
1D8
  8
DETAIL
  6
CONTINUOUS
 62
     5
 10
727.0
 20
325.5
 30
0.0
 40
7.0
 50
0.0
 51
180.0
  0
ARC
  5
1D9
  8
DETAIL
  6
CONTINUOUS
 62
     5
 10
727.0
 20
309.5
 30
0.0
 40
7.0
 50
180.0
 51
0.0
  0
ARC
  5
1DA
  8
DETAIL
  6
CONTINUOUS
 62
     5
 10
699.80000000000007
 20
68.799999999999272
 30
0.0
 40
1.0
 50
0.0
 51
90.0
  0
ARC
  5
1DB
  8
DETAIL
  6
CONTINUOUS
 62
     5
 10
699.80000000000007
 20
290.29999999999922
 30
0.0
 40
1.0
 50
0.0
 51
90.0
  0
ARC
  5
1DC
  8
DETAIL
  6
CONTINUOUS
 62
     5
 10
699.19999999999982
 20
349.2999999999991
 30
0.0
 40
0.8
 50
0.0
 51
90.0
  0
ARC
  5
1DD
  8
DETAIL
  6
CONTINUOUS
 62
     5
 10
699.19999999999982
 20
349.2999999999991
 30
0.0
 40
0.2
 50
0.0
 51
90.0
  0
POLYLINE
  5
1DA3
  8
DETAIL
  6
CONTINUOUS
 62
     5
 66
     1
 10
0.0
 20
0.0
 30
0.0
  0
VERTEX
  5
3482
  8
DETAIL
  6
CONTINUOUS
 62
     5
 10
700.79999999999995
 20
280.70000000000078
 30
0.0
  0
VERTEX
  5
3483
  8
DETAIL
  6
CONTINUOUS
 62
     5
 10
700.79978000000006
 20
280.69657999999981
 30
0.0
  0
VERTEX
  5
3484
  8
DETAIL
  6
CONTINUOUS
 62
     5
 10
700.79937199999995
 20
280.69317799999948
 30
0.0
  0
VERTEX
  5
3485
  8
DETAIL
  6
CONTINUOUS
 62
     5
 10
700.79937199999995
 20
280.69317799999948
 30
0.0
  0
VERTEX
  5
3486
  8
DETAIL
  6
CONTINUOUS
 62
     5
 10
700.79863599999999
 20
280.68981200000047
 30
0.0
  0
VERTEX
  5
3487
  8
DETAIL
  6
CONTINUOUS
 62
     5
 10
700.79761400000018
 20
280.6864989999994
 30
0.0
  0
VERTEX
  5
3488
  8
DETAIL
  6
CONTINUOUS
 62
     5
 10
700.79761400000018
 20
280.6864989999994
 30
0.0
  0
VERTEX
  5
3489
  8
DETAIL
  6
CONTINUOUS
 62
     5
 10
700.79637499999956
 20
280.68324899999971
 30
0.0
  0
VERTEX
  5
348A
  8
DETAIL
  6
CONTINUOUS
 62
     5
 10
700.79491000000019
 20
280.68003599999969
 30
0.0
  0
VERTEX
  5
348B
  8
DETAIL
  6
CONTINUOUS
 62
     5
 10
700.79491000000019
 20
280.68003599999969
 30
0.0
  0
VERTEX
  5
348C
  8
DETAIL
  6
CONTINUOUS
 62
     5
 10
700.79322300000001
 20
280.67686099999992
 30
0.0
  0
VERTEX
  5
348D
  8
DETAIL
  6
CONTINUOUS
 62
     5
 10
700.79144700000018
 20
280.67386099999919
 30
0.0
  0
VERTEX
  5
348E
  8
DETAIL
  6
CONTINUOUS
 62
     5
 10
700.79144700000018
 20
280.67386099999919
 30
0.0
  0
VERTEX
  5
348F
  8
DETAIL
  6
CONTINUOUS
 62
     5
 10
700.78963899999985
 20
280.67108000000007
 30
0.0
  0
VERTEX
  5
3490
  8
DETAIL
  6
CONTINUOUS
 62
     5
 10
700.78741200000013
 20
280.66804700000102
 30
0.0
  0
VERTEX
  5
3491
  8
DETAIL
  6
CONTINUOUS
 62
     5
 10
700.78741200000013
 20
280.66804700000102
 30
0.0
  0
VERTEX
  5
3492
  8
DETAIL
  6
CONTINUOUS
 62
     5
 10
700.78443100000004
 20
280.66437500000029
 30
0.0
  0
VERTEX
  5
3493
  8
DETAIL
  6
CONTINUOUS
 62
     5
 10
700.78100400000005
 20
280.660514000001
 30
0.0
  0
VERTEX
  5
3494
  8
DETAIL
  6
CONTINUOUS
 62
     5
 10
700.78100400000005
 20
280.660514000001
 30
0.0
  0
VERTEX
  5
3495
  8
DETAIL
  6
CONTINUOUS
 62
     5
 10
700.77750800000001
 20
280.65698200000043
 30
0.0
  0
VERTEX
  5
3496
  8
DETAIL
  6
CONTINUOUS
 62
     5
 10
700.77394399999969
 20
280.65373600000021
 30
0.0
  0
VERTEX
  5
3497
  8
DETAIL
  6
CONTINUOUS
 62
     5
 10
700.77394399999969
 20
280.65373600000021
 30
0.0
  0
VERTEX
  5
3498
  8
DETAIL
  6
CONTINUOUS
 62
     5
 10
700.77023700000018
 20
280.65061900000001
 30
0.0
  0
VERTEX
  5
3499
  8
DETAIL
  6
CONTINUOUS
 62
     5
 10
700.76635699999997
 20
280.64759700000093
 30
0.0
  0
VERTEX
  5
349A
  8
DETAIL
  6
CONTINUOUS
 62
     5
 10
700.76635699999997
 20
280.64759700000093
 30
0.0
  0
VERTEX
  5
349B
  8
DETAIL
  6
CONTINUOUS
 62
     5
 10
700.76233200000001
 20
280.64468699999998
 30
0.0
  0
VERTEX
  5
349C
  8
DETAIL
  6
CONTINUOUS
 62
     5
 10
700.75836699999968
 20
280.64198000000039
 30
0.0
  0
VERTEX
  5
349D
  8
DETAIL
  6
CONTINUOUS
 62
     5
 10
700.75836699999968
 20
280.64198000000039
 30
0.0
  0
VERTEX
  5
349E
  8
DETAIL
  6
CONTINUOUS
 62
     5
 10
700.75452199999995
 20
280.6394820000005
 30
0.0
  0
VERTEX
  5
349F
  8
DETAIL
  6
CONTINUOUS
 62
     5
 10
700.75010000000032
 20
280.6367680000003
 30
0.0
  0
VERTEX
  5
34A0
  8
DETAIL
  6
CONTINUOUS
 62
     5
 10
700.75010000000032
 20
280.6367680000003
 30
0.0
  0
VERTEX
  5
34A1
  8
DETAIL
  6
CONTINUOUS
 62
     5
 10
700.744508
 20
280.63348899999983
 30
0.0
  0
VERTEX
  5
34A2
  8
DETAIL
  6
CONTINUOUS
 62
     5
 10
700.73833400000001
 20
280.63001799999972
 30
0.0
  0
VERTEX
  5
34A3
  8
DETAIL
  6
CONTINUOUS
 62
     5
 10
700.73833400000001
 20
280.63001799999972
 30
0.0
  0
VERTEX
  5
34A4
  8
DETAIL
  6
CONTINUOUS
 62
     5
 10
700.73227799999995
 20
280.62679000000031
 30
0.0
  0
VERTEX
  5
34A5
  8
DETAIL
  6
CONTINUOUS
 62
     5
 10
700.72631000000001
 20
280.62377100000037
 30
0.0
  0
VERTEX
  5
34A6
  8
DETAIL
  6
CONTINUOUS
 62
     5
 10
700.72631000000001
 20
280.62377100000037
 30
0.0
  0
VERTEX
  5
34A7
  8
DETAIL
  6
CONTINUOUS
 62
     5
 10
700.72025299999973
 20
280.62083900000113
 30
0.0
  0
VERTEX
  5
34A8
  8
DETAIL
  6
CONTINUOUS
 62
     5
 10
700.71406699999989
 20
280.61797499999921
 30
0.0
  0
VERTEX
  5
34A9
  8
DETAIL
  6
CONTINUOUS
 62
     5
 10
700.71406699999989
 20
280.61797499999921
 30
0.0
  0
VERTEX
  5
34AA
  8
DETAIL
  6
CONTINUOUS
 62
     5
 10
700.70779300000004
 20
280.6151989999999
 30
0.0
  0
VERTEX
  5
34AB
  8
DETAIL
  6
CONTINUOUS
 62
     5
 10
700.70164199999999
 20
280.61257900000061
 30
0.0
  0
VERTEX
  5
34AC
  8
DETAIL
  6
CONTINUOUS
 62
     5
 10
700.70164199999999
 20
280.61257900000061
 30
0.0
  0
VERTEX
  5
34AD
  8
DETAIL
  6
CONTINUOUS
 62
     5
 10
700.69566200000031
 20
280.61012199999999
 30
0.0
  0
VERTEX
  5
34AE
  8
DETAIL
  6
CONTINUOUS
 62
     5
 10
700.68907200000001
 20
280.60753099999971
 30
0.0
  0
VERTEX
  5
34AF
  8
DETAIL
  6
CONTINUOUS
 62
     5
 10
700.68907200000001
 20
280.60753099999971
 30
0.0
  0
VERTEX
  5
34B0
  8
DETAIL
  6
CONTINUOUS
 62
     5
 10
700.68121299999984
 20
280.60455999999982
 30
0.0
  0
VERTEX
  5
34B1
  8
DETAIL
  6
CONTINUOUS
 62
     5
 10
700.67273999999986
 20
280.60147499999948
 30
0.0
  0
VERTEX
  5
34B2
  8
DETAIL
  6
CONTINUOUS
 62
     5
 10
700.67273999999986
 20
280.60147499999948
 30
0.0
  0
VERTEX
  5
34B3
  8
DETAIL
  6
CONTINUOUS
 62
     5
 10
700.66443400000003
 20
280.59858200000048
 30
0.0
  0
VERTEX
  5
34B4
  8
DETAIL
  6
CONTINUOUS
 62
     5
 10
700.65625499999987
 20
280.59585800000059
 30
0.0
  0
VERTEX
  5
34B5
  8
DETAIL
  6
CONTINUOUS
 62
     5
 10
700.65625499999987
 20
280.59585800000059
 30
0.0
  0
VERTEX
  5
34B6
  8
DETAIL
  6
CONTINUOUS
 62
     5
 10
700.64800300000002
 20
280.59321199999982
 30
0.0
  0
VERTEX
  5
34B7
  8
DETAIL
  6
CONTINUOUS
 62
     5
 10
700.63963999999964
 20
280.59063100000088
 30
0.0
  0
VERTEX
  5
34B8
  8
DETAIL
  6
CONTINUOUS
 62
     5
 10
700.63963999999964
 20
280.59063100000088
 30
0.0
  0
VERTEX
  5
34B9
  8
DETAIL
  6
CONTINUOUS
 62
     5
 10
700.63121099999955
 20
280.58812600000061
 30
0.0
  0
VERTEX
  5
34BA
  8
DETAIL
  6
CONTINUOUS
 62
     5
 10
700.62291899999968
 20
280.58574299999958
 30
0.0
  0
VERTEX
  5
34BB
  8
DETAIL
  6
CONTINUOUS
 62
     5
 10
700.62291899999968
 20
280.58574299999958
 30
0.0
  0
VERTEX
  5
34BC
  8
DETAIL
  6
CONTINUOUS
 62
     5
 10
700.61480899999981
 20
280.583482
 30
0.0
  0
VERTEX
  5
34BD
  8
DETAIL
  6
CONTINUOUS
 62
     5
 10
700.60611599999982
 20
280.58114299999937
 30
0.0
  0
VERTEX
  5
34BE
  8
DETAIL
  6
CONTINUOUS
 62
     5
 10
700.60611599999982
 20
280.58114299999937
 30
0.0
  0
VERTEX
  5
34BF
  8
DETAIL
  6
CONTINUOUS
 62
     5
 10
700.59619800000019
 20
280.57855700000079
 30
0.0
  0
VERTEX
  5
34C0
  8
DETAIL
  6
CONTINUOUS
 62
     5
 10
700.58569699999987
 20
280.57589999999982
 30
0.0
  0
VERTEX
  5
34C1
  8
DETAIL
  6
CONTINUOUS
 62
     5
 10
700.58569699999987
 20
280.57589999999982
 30
0.0
  0
VERTEX
  5
34C2
  8
DETAIL
  6
CONTINUOUS
 62
     5
 10
700.57537899999988
 20
280.57337999999987
 30
0.0
  0
VERTEX
  5
34C3
  8
DETAIL
  6
CONTINUOUS
 62
     5
 10
700.56520200000011
 20
280.57098000000042
 30
0.0
  0
VERTEX
  5
34C4
  8
DETAIL
  6
CONTINUOUS
 62
     5
 10
700.56520200000011
 20
280.57098000000042
 30
0.0
  0
VERTEX
  5
34C5
  8
DETAIL
  6
CONTINUOUS
 62
     5
 10
700.55496599999981
 20
280.56864200000012
 30
0.0
  0
VERTEX
  5
34C6
  8
DETAIL
  6
CONTINUOUS
 62
     5
 10
700.54463900000019
 20
280.56635799999998
 30
0.0
  0
VERTEX
  5
34C7
  8
DETAIL
  6
CONTINUOUS
 62
     5
 10
700.54463900000019
 20
280.56635799999998
 30
0.0
  0
VERTEX
  5
34C8
  8
DETAIL
  6
CONTINUOUS
 62
     5
 10
700.53426399999989
 20
280.56413699999939
 30
0.0
  0
VERTEX
  5
34C9
  8
DETAIL
  6
CONTINUOUS
 62
     5
 10
700.52401699999984
 20
280.56200899999919
 30
0.0
  0
VERTEX
  5
34CA
  8
DETAIL
  6
CONTINUOUS
 62
     5
 10
700.52401699999984
 20
280.56200899999919
 30
0.0
  0
VERTEX
  5
34CB
  8
DETAIL
  6
CONTINUOUS
 62
     5
 10
700.51393499999995
 20
280.55997500000012
 30
0.0
  0
VERTEX
  5
34CC
  8
DETAIL
  6
CONTINUOUS
 62
     5
 10
700.50334499999985
 20
280.557906
 30
0.0
  0
VERTEX
  5
34CD
  8
DETAIL
  6
CONTINUOUS
 62
     5
 10
700.50334499999985
 20
280.557906
 30
0.0
  0
VERTEX
  5
34CE
  8
DETAIL
  6
CONTINUOUS
 62
     5
 10
700.49168299999985
 20
280.55569800000012
 30
0.0
  0
VERTEX
  5
34CF
  8
DETAIL
  6
CONTINUOUS
 62
     5
 10
700.47951399999965
 20
280.55346300000008
 30
0.0
  0
VERTEX
  5
34D0
  8
DETAIL
  6
CONTINUOUS
 62
     5
 10
700.47951399999965
 20
280.55346300000008
 30
0.0
  0
VERTEX
  5
34D1
  8
DETAIL
  6
CONTINUOUS
 62
     5
 10
700.46750999999995
 20
280.55133100000052
 30
0.0
  0
VERTEX
  5
34D2
  8
DETAIL
  6
CONTINUOUS
 62
     5
 10
700.45563399999969
 20
280.54929299999998
 30
0.0
  0
VERTEX
  5
34D3
  8
DETAIL
  6
CONTINUOUS
 62
     5
 10
700.45563399999969
 20
280.54929299999998
 30
0.0
  0
VERTEX
  5
34D4
  8
DETAIL
  6
CONTINUOUS
 62
     5
 10
700.44371000000001
 20
280.54730999999998
 30
0.0
  0
VERTEX
  5
34D5
  8
DETAIL
  6
CONTINUOUS
 62
     5
 10
700.43170999999973
 20
280.54537700000043
 30
0.0
  0
VERTEX
  5
34D6
  8
DETAIL
  6
CONTINUOUS
 62
     5
 10
700.43170999999973
 20
280.54537700000043
 30
0.0
  0
VERTEX
  5
34D7
  8
DETAIL
  6
CONTINUOUS
 62
     5
 10
700.41967199999999
 20
280.54349999999982
 30
0.0
  0
VERTEX
  5
34D8
  8
DETAIL
  6
CONTINUOUS
 62
     5
 10
700.40774899999997
 20
280.54169600000017
 30
0.0
  0
VERTEX
  5
34D9
  8
DETAIL
  6
CONTINUOUS
 62
     5
 10
700.40774899999997
 20
280.54169600000017
 30
0.0
  0
VERTEX
  5
34DA
  8
DETAIL
  6
CONTINUOUS
 62
     5
 10
700.39597000000003
 20
280.53996600000022
 30
0.0
  0
VERTEX
  5
34DB
  8
DETAIL
  6
CONTINUOUS
 62
     5
 10
700.38375599999995
 20
280.53823000000011
 30
0.0
  0
VERTEX
  5
34DC
  8
DETAIL
  6
CONTINUOUS
 62
     5
 10
700.38375599999995
 20
280.53823000000011
 30
0.0
  0
VERTEX
  5
34DD
  8
DETAIL
  6
CONTINUOUS
 62
     5
 10
700.37061700000004
 20
280.53642000000042
 30
0.0
  0
VERTEX
  5
34DE
  8
DETAIL
  6
CONTINUOUS
 62
     5
 10
700.35704299999986
 20
280.5346069999996
 30
0.0
  0
VERTEX
  5
34DF
  8
DETAIL
  6
CONTINUOUS
 62
     5
 10
700.35704299999986
 20
280.5346069999996
 30
0.0
  0
VERTEX
  5
34E0
  8
DETAIL
  6
CONTINUOUS
 62
     5
 10
700.34361599999966
 20
280.53287300000011
 30
0.0
  0
VERTEX
  5
34E1
  8
DETAIL
  6
CONTINUOUS
 62
     5
 10
700.33030099999974
 20
280.53121199999998
 30
0.0
  0
VERTEX
  5
34E2
  8
DETAIL
  6
CONTINUOUS
 62
     5
 10
700.33030099999974
 20
280.53121199999998
 30
0.0
  0
VERTEX
  5
34E3
  8
DETAIL
  6
CONTINUOUS
 62
     5
 10
700.31694700000003
 20
280.52960100000013
 30
0.0
  0
VERTEX
  5
34E4
  8
DETAIL
  6
CONTINUOUS
 62
     5
 10
700.30353300000002
 20
280.52803499999942
 30
0.0
  0
VERTEX
  5
34E5
  8
DETAIL
  6
CONTINUOUS
 62
     5
 10
700.30353300000002
 20
280.52803499999942
 30
0.0
  0
VERTEX
  5
34E6
  8
DETAIL
  6
CONTINUOUS
 62
     5
 10
700.29009399999973
 20
280.5265190000008
 30
0.0
  0
VERTEX
  5
34E7
  8
DETAIL
  6
CONTINUOUS
 62
     5
 10
700.27674100000002
 20
280.52506200000062
 30
0.0
  0
VERTEX
  5
34E8
  8
DETAIL
  6
CONTINUOUS
 62
     5
 10
700.27674100000002
 20
280.52506200000062
 30
0.0
  0
VERTEX
  5
34E9
  8
DETAIL
  6
CONTINUOUS
 62
     5
 10
700.26349499999981
 20
280.52366299999989
 30
0.0
  0
VERTEX
  5
34EA
  8
DETAIL
  6
CONTINUOUS
 62
     5
 10
700.24992900000018
 20
280.52227899999889
 30
0.0
  0
VERTEX
  5
34EB
  8
DETAIL
  6
CONTINUOUS
 62
     5
 10
700.24992900000018
 20
280.52227899999889
 30
0.0
  0
VERTEX
  5
34EC
  8
DETAIL
  6
CONTINUOUS
 62
     5
 10
700.23568399999999
 20
280.52087700000089
 30
0.0
  0
VERTEX
  5
34ED
  8
DETAIL
  6
CONTINUOUS
 62
     5
 10
700.22112099999981
 20
280.51949199999939
 30
0.0
  0
VERTEX
  5
34EE
  8
DETAIL
  6
CONTINUOUS
 62
     5
 10
700.22112099999981
 20
280.51949199999939
 30
0.0
  0
VERTEX
  5
34EF
  8
DETAIL
  6
CONTINUOUS
 62
     5
 10
700.2066659999997
 20
280.51816999999937
 30
0.0
  0
VERTEX
  5
34F0
  8
DETAIL
  6
CONTINUOUS
 62
     5
 10
700.19229399999995
 20
280.51690600000069
 30
0.0
  0
VERTEX
  5
34F1
  8
DETAIL
  6
CONTINUOUS
 62
     5
 10
700.19229399999995
 20
280.51690600000069
 30
0.0
  0
VERTEX
  5
34F2
  8
DETAIL
  6
CONTINUOUS
 62
     5
 10
700.17789399999981
 20
280.5156879999995
 30
0.0
  0
VERTEX
  5
34F3
  8
DETAIL
  6
CONTINUOUS
 62
     5
 10
700.16345099999967
 20
280.51451500000081
 30
0.0
  0
VERTEX
  5
34F4
  8
DETAIL
  6
CONTINUOUS
 62
     5
 10
700.16345099999967
 20
280.51451500000081
 30
0.0
  0
VERTEX
  5
34F5
  8
DETAIL
  6
CONTINUOUS
 62
     5
 10
700.14899199999968
 20
280.5133879999994
 30
0.0
  0
VERTEX
  5
34F6
  8
DETAIL
  6
CONTINUOUS
 62
     5
 10
700.13459300000011
 20
280.51231300000109
 30
0.0
  0
VERTEX
  5
34F7
  8
DETAIL
  6
CONTINUOUS
 62
     5
 10
700.13459300000011
 20
280.51231300000109
 30
0.0
  0
VERTEX
  5
34F8
  8
DETAIL
  6
CONTINUOUS
 62
     5
 10
700.12026800000001
 20
280.51128899999998
 30
0.0
  0
VERTEX
  5
34F9
  8
DETAIL
  6
CONTINUOUS
 62
     5
 10
700.10572099999968
 20
280.51029600000038
 30
0.0
  0
VERTEX
  5
34FA
  8
DETAIL
  6
CONTINUOUS
 62
     5
 10
700.10572099999968
 20
280.51029600000038
 30
0.0
  0
VERTEX
  5
34FB
  8
DETAIL
  6
CONTINUOUS
 62
     5
 10
700.09070199999974
 20
280.50931900000069
 30
0.0
  0
VERTEX
  5
34FC
  8
DETAIL
  6
CONTINUOUS
 62
     5
 10
700.07546300000013
 20
280.508377
 30
0.0
  0
VERTEX
  5
34FD
  8
DETAIL
  6
CONTINUOUS
 62
     5
 10
700.07546300000013
 20
280.508377
 30
0.0
  0
VERTEX
  5
34FE
  8
DETAIL
  6
CONTINUOUS
 62
     5
 10
700.06029999999987
 20
280.5074880000011
 30
0.0
  0
VERTEX
  5
34FF
  8
DETAIL
  6
CONTINUOUS
 62
     5
 10
700.04519299999959
 20
280.50665300000043
 30
0.0
  0
VERTEX
  5
3500
  8
DETAIL
  6
CONTINUOUS
 62
     5
 10
700.04519299999959
 20
280.50665300000043
 30
0.0
  0
VERTEX
  5
3501
  8
DETAIL
  6
CONTINUOUS
 62
     5
 10
700.03006499999981
 20
280.50586599999951
 30
0.0
  0
VERTEX
  5
3502
  8
DETAIL
  6
CONTINUOUS
 62
     5
 10
700.01491299999975
 20
280.5051270000003
 30
0.0
  0
VERTEX
  5
3503
  8
DETAIL
  6
CONTINUOUS
 62
     5
 10
700.01491299999975
 20
280.5051270000003
 30
0.0
  0
VERTEX
  5
3504
  8
DETAIL
  6
CONTINUOUS
 62
     5
 10
699.99975499999982
 20
280.5044369999996
 30
0.0
  0
VERTEX
  5
3505
  8
DETAIL
  6
CONTINUOUS
 62
     5
 10
699.98462300000006
 20
280.50379699999939
 30
0.0
  0
VERTEX
  5
3506
  8
DETAIL
  6
CONTINUOUS
 62
     5
 10
699.98462300000006
 20
280.50379699999939
 30
0.0
  0
VERTEX
  5
3507
  8
DETAIL
  6
CONTINUOUS
 62
     5
 10
699.9695200000001
 20
280.50320699999969
 30
0.0
  0
VERTEX
  5
3508
  8
DETAIL
  6
CONTINUOUS
 62
     5
 10
699.95432500000015
 20
280.50266399999958
 30
0.0
  0
VERTEX
  5
3509
  8
DETAIL
  6
CONTINUOUS
 62
     5
 10
699.95432500000015
 20
280.50266399999958
 30
0.0
  0
VERTEX
  5
350A
  8
DETAIL
  6
CONTINUOUS
 62
     5
 10
699.93894099999989
 20
280.5021639999996
 30
0.0
  0
VERTEX
  5
350B
  8
DETAIL
  6
CONTINUOUS
 62
     5
 10
699.92346799999973
 20
280.50171199999932
 30
0.0
  0
VERTEX
  5
350C
  8
DETAIL
  6
CONTINUOUS
 62
     5
 10
699.92346799999973
 20
280.50171199999932
 30
0.0
  0
VERTEX
  5
350D
  8
DETAIL
  6
CONTINUOUS
 62
     5
 10
699.90802599999995
 20
280.50131300000061
 30
0.0
  0
VERTEX
  5
350E
  8
DETAIL
  6
CONTINUOUS
 62
     5
 10
699.89260599999955
 20
280.500967
 30
0.0
  0
VERTEX
  5
350F
  8
DETAIL
  6
CONTINUOUS
 62
     5
 10
699.89260599999955
 20
280.500967
 30
0.0
  0
VERTEX
  5
3510
  8
DETAIL
  6
CONTINUOUS
 62
     5
 10
699.87717599999985
 20
280.5006740000008
 30
0.0
  0
VERTEX
  5
3511
  8
DETAIL
  6
CONTINUOUS
 62
     5
 10
699.86173899999994
 20
280.50043200000079
 30
0.0
  0
VERTEX
  5
3512
  8
DETAIL
  6
CONTINUOUS
 62
     5
 10
699.86173899999994
 20
280.50043200000079
 30
0.0
  0
VERTEX
  5
3513
  8
DETAIL
  6
CONTINUOUS
 62
     5
 10
699.84630399999969
 20
280.50024099999979
 30
0.0
  0
VERTEX
  5
3514
  8
DETAIL
  6
CONTINUOUS
 62
     5
 10
699.83086999999989
 20
280.50010800000013
 30
0.0
  0
VERTEX
  5
3515
  8
DETAIL
  6
CONTINUOUS
 62
     5
 10
699.83086999999989
 20
280.50010800000013
 30
0.0
  0
VERTEX
  5
3516
  8
DETAIL
  6
CONTINUOUS
 62
     5
 10
699.81543499999998
 20
280.50003699999979
 30
0.0
  0
VERTEX
  5
3517
  8
DETAIL
  6
CONTINUOUS
 62
     5
 10
699.80000000000007
 20
280.5
 30
0.0
  0
SEQEND
  5
3518
  8
DETAIL
  6
CONTINUOUS
 62
     5
  0
LINE
  5
1EC4
  8
DETAIL
  6
CONTINUOUS
 62
     5
 10
700.0
 20
-231.0
 30
0.0
 11
723.0
 21
-231.0
 31
0.0
  0
LINE
  5
1EC8
  8
DETAIL
  6
CONTINUOUS
 62
     5
 10
700.0
 20
-198.0
 30
0.0
 11
723.0
 21
-198.0
 31
0.0
  0
LINE
  5
1EC9
  8
DETAIL
  6
CONTINUOUS
 62
     5
 10
699.0
 20
-166.15099999999981
 30
0.0
 11
699.39999999999975
 21
-166.15099999999981
 31
0.0
  0
LINE
  5
1ECA
  8
DETAIL
  6
CONTINUOUS
 62
     5
 10
700.0
 20
-166.5
 30
0.0
 11
730.0
 21
-166.5
 31
0.0
  0
LINE
  5
1ECB
  8
DETAIL
  6
CONTINUOUS
 62
     5
 10
733.0
 20
-128.5
 30
0.0
 11
757.5
 21
-128.5
 31
0.0
  0
LINE
  5
1ECC
  8
DETAIL
  6
CONTINUOUS
 62
     5
 10
733.0
 20
-96.5
 30
0.0
 11
757.5
 21
-96.5
 31
0.0
  0
LINE
  5
1ECD
  8
DETAIL
  6
CONTINUOUS
 62
     5
 10
705.79999999999973
 20
-10.5
 30
0.0
 11
740.0
 21
-10.5
 31
0.0
  0
LINE
  5
1ECE
  8
DETAIL
  6
CONTINUOUS
 62
     5
 10
705.79999999999973
 20
21.5
 30
0.0
 11
740.0
 21
21.5
 31
0.0
  0
LINE
  5
1ECF
  8
DETAIL
  6
CONTINUOUS
 62
     5
 10
723.0
 20
-198.0
 30
0.0
 11
723.0
 21
-231.0
 31
0.0
  0
LINE
  5
1ED0
  8
DETAIL
  6
CONTINUOUS
 62
     5
 10
730.0
 20
-129.15136499999971
 30
0.0
 11
730.0
 21
-166.5
 31
0.0
  0
LINE
  5
1ED2
  8
DETAIL
  6
CONTINUOUS
 62
     5
 10
740.0
 20
21.5
 30
0.0
 11
740.0
 21
-10.5
 31
0.0
  0
LINE
  5
210F
  8
SIZE
  6
CONTINUOUS
 62
    30
 10
1120.0
 20
427.5
 30
0.0
 11
1120.0
 21
949.66199359520169
 31
0.0
  0
LINE
  5
2110
  8
SIZE
  6
CONTINUOUS
 62
    30
 10
-740.0
 20
427.5
 30
0.0
 11
-740.0
 21
949.66199359520169
 31
0.0
  0
LINE
  5
2111
  8
SIZE
  6
CONTINUOUS
 62
    30
 10
1120.0
 20
929.66199359520192
 30
0.0
 11
-740.0
 21
929.66199359520192
 31
0.0
  0
CIRCLE
  5
2112
  8
SIZE
  6
CONTINUOUS
 62
    30
 10
1120.0
 20
929.66199359520192
 30
0.0
 40
7.5
  0
CIRCLE
  5
2113
  8
SIZE
  6
CONTINUOUS
 62
    30
 10
-740.0
 20
929.66199359520192
 30
0.0
 40
7.5
  0
TEXT
  5
2114
  8
SIZE
  6
CONTINUOUS
 62
    30
 10
-116.7600150379665
 20
965.37627930948804
 30
0.0
 40
60.0
  1
1860(天井開口寸法)
 41
0.9
 72
     1
 11
202.3542706763192
 21
965.37627930948804
 31
0.0
  0
POINT
  5
2115
  8
DEFPOINTS
  6
CONTINUOUS
 62
     7
 10
1120.0
 20
407.5
 30
0.0
  0
POINT
  5
2116
  8
DEFPOINTS
  6
CONTINUOUS
 62
     7
 10
-740.0
 20
407.5
 30
0.0
  0
POINT
  5
2117
  8
DEFPOINTS
  6
CONTINUOUS
 62
     7
 10
-740.0
 20
929.66199359520192
 30
0.0
  0
LINE
  5
2118
  8
SIZE
  6
CONTINUOUS
 62
    30
 10
1140.0
 20
428.5
 30
0.0
 11
1140.0
 21
949.66199359520169
 31
0.0
  0
LINE
  5
2119
  8
SIZE
  6
CONTINUOUS
 62
    30
 10
1120.0
 20
427.5
 30
0.0
 11
1120.0
 21
949.66199359520169
 31
0.0
  0
LINE
  5
211A
  8
SIZE
  6
CONTINUOUS
 62
    30
 10
1120.0
 20
929.66199359520192
 30
0.0
 11
1090.0
 21
929.66199359520192
 31
0.0
  0
LINE
  5
211B
  8
SIZE
  6
CONTINUOUS
 62
    30
 10
1140.0
 20
929.66199359520192
 30
0.0
 11
1327.4285714285711
 21
929.66199359520192
 31
0.0
  0
LINE
  5
211C
  8
SIZE
  6
CONTINUOUS
 62
    30
 10
1120.0
 20
929.66199359520192
 30
0.0
 11
1140.0
 21
929.66199359520192
 31
0.0
  0
CIRCLE
  5
211D
  8
SIZE
  6
CONTINUOUS
 62
    30
 10
1120.0
 20
929.66199359520192
 30
0.0
 40
7.5
  0
CIRCLE
  5
211E
  8
SIZE
  6
CONTINUOUS
 62
    30
 10
1140.0
 20
929.66199359520192
 30
0.0
 40
7.5
  0
TEXT
  5
211F
  8
SIZE
  6
CONTINUOUS
 62
    30
 10
1220.0
 20
949.66199359520169
 30
0.0
 40
60.0
  1
20
 41
0.9
 72
     1
 11
1263.714285714286
 21
949.66199359520169
 31
0.0
  0
POINT
  5
2120
  8
DEFPOINTS
  6
CONTINUOUS
 62
     7
 10
1140.0
 20
408.49999999999989
 30
0.0
  0
POINT
  5
2121
  8
DEFPOINTS
  6
CONTINUOUS
 62
     7
 10
1120.0
 20
407.5
 30
0.0
  0
POINT
  5
2122
  8
DEFPOINTS
  6
CONTINUOUS
 62
     7
 10
1120.0
 20
929.66199359520192
 30
0.0
  0
LINE
  5
2123
  8
SIZE
  6
CONTINUOUS
 62
    30
 10
700.0
 20
-369.69999999999879
 30
0.0
 11
700.0
 21
-1241.037251782004
 31
0.0
  0
LINE
  5
2124
  8
SIZE
  6
CONTINUOUS
 62
    30
 10
750.0
 20
-370.5
 30
0.0
 11
750.0
 21
-1241.037251782004
 31
0.0
  0
LINE
  5
2125
  8
SIZE
  6
CONTINUOUS
 62
    30
 10
700.0
 20
-1221.0372517820049
 30
0.0
 11
750.0
 21
-1221.0372517820049
 31
0.0
  0
LINE
  5
2126
  8
SIZE
  6
CONTINUOUS
 62
    30
 10
750.0
 20
-1221.0372517820049
 30
0.0
 11
907.42857142857122
 21
-1221.0372517820049
 31
0.0
  0
CIRCLE
  5
2127
  8
SIZE
  6
CONTINUOUS
 62
    30
 10
700.0
 20
-1221.0372517820049
 30
0.0
 40
7.5
  0
CIRCLE
  5
2128
  8
SIZE
  6
CONTINUOUS
 62
    30
 10
750.0
 20
-1221.0372517820049
 30
0.0
 40
7.5
  0
TEXT
  5
2129
  8
SIZE
  6
CONTINUOUS
 62
    30
 10
799.99999999999977
 20
-1201.037251782004
 30
0.0
 40
60.0
  1
50
 41
0.9
 72
     1
 11
843.71428571428544
 21
-1201.037251782004
 31
0.0
  0
POINT
  5
212A
  8
DEFPOINTS
  6
CONTINUOUS
 62
     7
 10
700.0
 20
-349.69999999999891
 30
0.0
  0
POINT
  5
212B
  8
DEFPOINTS
  6
CONTINUOUS
 62
     7
 10
750.0
 20
-350.5
 30
0.0
  0
POINT
  5
212C
  8
DEFPOINTS
  6
CONTINUOUS
 62
     7
 10
750.0
 20
-1221.0372517820049
 30
0.0
  0
LINE
  5
212D
  8
SIZE
  6
CONTINUOUS
 62
    30
 10
-760.0
 20
428.5
 30
0.0
 11
-760.0
 21
949.66199359520169
 31
0.0
  0
LINE
  5
212E
  8
SIZE
  6
CONTINUOUS
 62
    30
 10
-740.0
 20
427.5
 30
0.0
 11
-740.0
 21
949.66199359520169
 31
0.0
  0
LINE
  5
212F
  8
SIZE
  6
CONTINUOUS
 62
    30
 10
-740.0
 20
929.66199359520192
 30
0.0
 11
-710.0
 21
929.66199359520192
 31
0.0
  0
LINE
  5
2130
  8
SIZE
  6
CONTINUOUS
 62
    30
 10
-760.0
 20
929.66199359520192
 30
0.0
 11
-947.42857142857133
 21
929.66199359520192
 31
0.0
  0
LINE
  5
2131
  8
SIZE
  6
CONTINUOUS
 62
    30
 10
-740.0
 20
929.66199359520192
 30
0.0
 11
-760.0
 21
929.66199359520192
 31
0.0
  0
CIRCLE
  5
2132
  8
SIZE
  6
CONTINUOUS
 62
    30
 10
-740.0
 20
929.66199359520192
 30
0.0
 40
7.5
  0
CIRCLE
  5
2133
  8
SIZE
  6
CONTINUOUS
 62
    30
 10
-760.0
 20
929.66199359520192
 30
0.0
 40
7.5
  0
TEXT
  5
2134
  8
SIZE
  6
CONTINUOUS
 62
    30
 10
-927.42857142857144
 20
949.66199359520169
 30
0.0
 40
60.0
  1
20
 41
0.9
 72
     1
 11
-883.71428571428578
 21
949.66199359520169
 31
0.0
  0
POINT
  5
2135
  8
DEFPOINTS
  6
CONTINUOUS
 62
     7
 10
-760.0
 20
408.49999999999989
 30
0.0
  0
POINT
  5
2136
  8
DEFPOINTS
  6
CONTINUOUS
 62
     7
 10
-740.0
 20
407.5
 30
0.0
  0
POINT
  5
2137
  8
DEFPOINTS
  6
CONTINUOUS
 62
     7
 10
-740.0
 20
929.66199359520192
 30
0.0
  0
LINE
  5
2138
  8
SIZE
  6
CONTINUOUS
 62
    30
 10
750.0
 20
-370.5
 30
0.0
 11
750.0
 21
-1395.3490706323969
 31
0.0
  0
LINE
  5
2139
  8
SIZE
  6
CONTINUOUS
 62
    30
 10
727.0
 20
-364.69999999999891
 30
0.0
 11
727.0
 21
-1395.3490706323969
 31
0.0
  0
LINE
  5
213A
  8
SIZE
  6
CONTINUOUS
 62
    30
 10
727.0
 20
-1375.3490706323969
 30
0.0
 11
697.0
 21
-1375.3490706323969
 31
0.0
  0
LINE
  5
213C
  8
SIZE
  6
CONTINUOUS
 62
    30
 10
727.0
 20
-1375.3490706323969
 30
0.0
 11
750.0
 21
-1375.3490706323969
 31
0.0
  0
CIRCLE
  5
213D
  8
SIZE
  6
CONTINUOUS
 62
    30
 10
727.0
 20
-1375.3490706323969
 30
0.0
 40
7.5
  0
CIRCLE
  5
213E
  8
SIZE
  6
CONTINUOUS
 62
    30
 10
750.0
 20
-1375.3490706323969
 30
0.0
 40
7.5
  0
TEXT
  5
213F
  8
SIZE
  6
CONTINUOUS
 62
    30
 10
801.25268911689284
 20
-1355.349070632396
 30
0.0
 40
60.0
  1
23
 41
0.9
 72
     1
 11
844.96697483117839
 21
-1355.349070632396
 31
0.0
  0
POINT
  5
2140
  8
DEFPOINTS
  6
CONTINUOUS
 62
     7
 10
750.0
 20
-350.5
 30
0.0
  0
POINT
  5
2141
  8
DEFPOINTS
  6
CONTINUOUS
 62
     7
 10
727.0
 20
-344.69999999999879
 30
0.0
  0
POINT
  5
2142
  8
DEFPOINTS
  6
CONTINUOUS
 62
     7
 10
727.0
 20
-1375.3490706323969
 30
0.0
  0
LINE
  5
2143
  8
SIZE
  6
CONTINUOUS
 62
    30
 10
-727.0
 20
-364.69999999999891
 30
0.0
 11
-727.0
 21
-1395.3490706323969
 31
0.0
  0
LINE
  5
2144
  8
SIZE
  6
CONTINUOUS
 62
    30
 10
-750.0
 20
-370.5
 30
0.0
 11
-750.0
 21
-1395.3490706323969
 31
0.0
  0
LINE
  5
2145
  8
SIZE
  6
CONTINUOUS
 62
    30
 10
-727.0
 20
-1375.3490706323969
 30
0.0
 11
-697.0
 21
-1375.3490706323969
 31
0.0
  0
LINE
  5
2147
  8
SIZE
  6
CONTINUOUS
 62
    30
 10
-727.0
 20
-1375.3490706323969
 30
0.0
 11
-750.0
 21
-1375.3490706323969
 31
0.0
  0
CIRCLE
  5
2148
  8
SIZE
  6
CONTINUOUS
 62
    30
 10
-727.0
 20
-1375.3490706323969
 30
0.0
 40
7.5
  0
CIRCLE
  5
2149
  8
SIZE
  6
CONTINUOUS
 62
    30
 10
-750.0
 20
-1375.3490706323969
 30
0.0
 40
7.5
  0
TEXT
  5
214A
  8
SIZE
  6
CONTINUOUS
 62
    30
 10
-892.72005684552971
 20
-1355.349070632396
 30
0.0
 40
60.0
  1
23
 41
0.9
 72
     1
 11
-849.00577113124405
 21
-1355.349070632396
 31
0.0
  0
POINT
  5
214D
  8
DEFPOINTS
  6
CONTINUOUS
 62
     7
 10
-750.0
 20
-1375.3490706323969
 30
0.0
  0
LINE
  5
214E
  8
SIZE
  6
CONTINUOUS
 62
    30
 10
818.6539878445119
 20
-350.5
 30
0.0
 11
2097.8315329996281
 21
-350.50000000000028
 31
0.0
  0
LINE
  5
214F
  8
SIZE
  6
CONTINUOUS
 62
    30
 10
592.02572600000019
 20
-432.5
 30
0.0
 11
2097.8315329996281
 21
-432.50000000000011
 31
0.0
  0
LINE
  5
2150
  8
SIZE
  6
CONTINUOUS
 62
    30
 10
2077.8315329996281
 20
-350.50000000000028
 30
0.0
 11
2077.8315329996281
 21
-432.50000000000011
 31
0.0
  0
LINE
  5
2151
  8
SIZE
  6
CONTINUOUS
 62
    30
 10
2077.8315329996281
 20
-432.50000000000011
 30
0.0
 11
2077.831532999624
 21
-589.92857142857395
 31
0.0
  0
CIRCLE
  5
2152
  8
SIZE
  6
CONTINUOUS
 62
    30
 10
2077.8315329996281
 20
-350.50000000000028
 30
0.0
 40
7.5
  0
CIRCLE
  5
2153
  8
SIZE
  6
CONTINUOUS
 62
    30
 10
2077.8315329996281
 20
-432.50000000000011
 30
0.0
 40
7.5
  0
TEXT
  5
2154
  8
SIZE
  6
CONTINUOUS
 62
    30
 10
2057.8315329996281
 20
-569.9285714285736
 30
0.0
 40
60.0
  1
82
 50
90.0
 41
0.9
 72
     1
 11
2057.8315329996281
 21
-526.21428571428805
 31
0.0
  0
POINT
  5
2155
  8
DEFPOINTS
  6
CONTINUOUS
 62
     7
 10
798.65398784451145
 20
-350.5
 30
0.0
  0
POINT
  5
2157
  8
DEFPOINTS
  6
CONTINUOUS
 62
     7
 10
2077.8315329996281
 20
-432.50000000000011
 30
0.0
  0
LINE
  5
2158
  8
SIZE
  6
CONTINUOUS
 62
    30
 10
700.0
 20
369.29999999999922
 30
0.0
 11
700.0
 21
570.32198775021959
 31
0.0
  0
LINE
  5
2159
  8
SIZE
  6
CONTINUOUS
 62
    30
 10
740.0
 20
45.499454999999202
 30
0.0
 11
740.0
 21
570.32198775021959
 31
0.0
  0
LINE
  5
215A
  8
SIZE
  6
CONTINUOUS
 62
    30
 10
740.0
 20
550.32198775021959
 30
0.0
 11
700.0
 21
550.32198775021959
 31
0.0
  0
LINE
  5
215B
  8
SIZE
  6
CONTINUOUS
 62
    30
 10
700.0
 20
550.32198775021959
 30
0.0
 11
542.57142857142867
 21
550.32198775021959
 31
0.0
  0
CIRCLE
  5
215C
  8
SIZE
  6
CONTINUOUS
 62
    30
 10
740.0
 20
550.32198775021959
 30
0.0
 40
7.5
  0
CIRCLE
  5
215D
  8
SIZE
  6
CONTINUOUS
 62
    30
 10
700.0
 20
550.32198775021959
 30
0.0
 40
7.5
  0
TEXT
  5
215E
  8
SIZE
  6
CONTINUOUS
 62
    30
 10
562.57142857142867
 20
570.32198775021959
 30
0.0
 40
60.0
  1
40
 41
0.9
 72
     1
 11
606.28571428571433
 21
570.32198775021959
 31
0.0
  0
POINT
  5
215F
  8
DEFPOINTS
  6
CONTINUOUS
 62
     7
 10
700.0
 20
349.2999999999991
 30
0.0
  0
POINT
  5
2160
  8
DEFPOINTS
  6
CONTINUOUS
 62
     7
 10
740.0
 20
25.499454999999219
 30
0.0
  0
POINT
  5
2161
  8
DEFPOINTS
  6
CONTINUOUS
 62
     7
 10
740.0
 20
550.32198775021959
 30
0.0
  0
LINE
  5
2162
  8
SIZE
  6
CONTINUOUS
 62
    30
 10
700.0
 20
369.29999999999922
 30
0.0
 11
700.0
 21
697.8774091934938
 31
0.0
  0
LINE
  5
2163
  8
SIZE
  6
CONTINUOUS
 62
    30
 10
758.0
 20
-73.29995350000172
 30
0.0
 11
758.0
 21
697.8774091934938
 31
0.0
  0
LINE
  5
2164
  8
SIZE
  6
CONTINUOUS
 62
    30
 10
758.0
 20
677.87740919349369
 30
0.0
 11
700.0
 21
677.87740919349369
 31
0.0
  0
LINE
  5
2165
  8
SIZE
  6
CONTINUOUS
 62
    30
 10
700.0
 20
677.87740919349369
 30
0.0
 11
542.57142857142867
 21
677.87740919349369
 31
0.0
  0
CIRCLE
  5
2166
  8
SIZE
  6
CONTINUOUS
 62
    30
 10
758.0
 20
677.87740919349369
 30
0.0
 40
7.5
  0
CIRCLE
  5
2167
  8
SIZE
  6
CONTINUOUS
 62
    30
 10
700.0
 20
677.87740919349369
 30
0.0
 40
7.5
  0
TEXT
  5
2168
  8
SIZE
  6
CONTINUOUS
 62
    30
 10
562.57142857142867
 20
697.8774091934938
 30
0.0
 40
60.0
  1
58
 41
0.9
 72
     1
 11
606.28571428571433
 21
697.8774091934938
 31
0.0
  0
POINT
  5
2169
  8
DEFPOINTS
  6
CONTINUOUS
 62
     7
 10
700.0
 20
349.2999999999991
 30
0.0
  0
POINT
  5
216A
  8
DEFPOINTS
  6
CONTINUOUS
 62
     7
 10
758.0
 20
-93.299953500001735
 30
0.0
  0
POINT
  5
216B
  8
DEFPOINTS
  6
CONTINUOUS
 62
     7
 10
758.0
 20
677.87740919349369
 30
0.0
  0
LINE
  5
216C
  8
SIZE
  6
CONTINUOUS
 62
    30
 10
778.0
 20
-186.69999999999891
 30
0.0
 11
778.0
 21
-844.5194396428833
 31
0.0
  0
LINE
  5
216D
  8
SIZE
  6
CONTINUOUS
 62
    30
 10
700.0
 20
-369.69999999999879
 30
0.0
 11
700.0
 21
-844.5194396428833
 31
0.0
  0
LINE
  5
216E
  8
SIZE
  6
CONTINUOUS
 62
    30
 10
700.0
 20
-824.51943964288319
 30
0.0
 11
778.0
 21
-824.51943964288319
 31
0.0
  0
LINE
  5
216F
  8
SIZE
  6
CONTINUOUS
 62
    30
 10
778.0
 20
-824.51943964288319
 30
0.0
 11
935.42857142857144
 21
-824.51943964288319
 31
0.0
  0
CIRCLE
  5
2170
  8
SIZE
  6
CONTINUOUS
 62
    30
 10
700.0
 20
-824.51943964288319
 30
0.0
 40
7.5
  0
CIRCLE
  5
2171
  8
SIZE
  6
CONTINUOUS
 62
    30
 10
778.0
 20
-824.51943964288319
 30
0.0
 40
7.5
  0
TEXT
  5
2172
  8
SIZE
  6
CONTINUOUS
 62
    30
 10
827.99999999999966
 20
-804.5194396428833
 30
0.0
 40
60.0
  1
78
 41
0.9
 72
     1
 11
871.71428571428555
 21
-804.5194396428833
 31
0.0
  0
POINT
  5
2173
  8
DEFPOINTS
  6
CONTINUOUS
 62
     7
 10
778.0
 20
-166.69999999999891
 30
0.0
  0
POINT
  5
2174
  8
DEFPOINTS
  6
CONTINUOUS
 62
     7
 10
700.0
 20
-349.69999999999891
 30
0.0
  0
POINT
  5
2175
  8
DEFPOINTS
  6
CONTINUOUS
 62
     7
 10
700.0
 20
-824.51943964288319
 30
0.0
  0
LINE
  5
2176
  8
SIZE
  6
CONTINUOUS
 62
    30
 10
757.0
 20
-253.69999999999891
 30
0.0
 11
757.0
 21
-970.23048959192033
 31
0.0
  0
LINE
  5
2177
  8
SIZE
  6
CONTINUOUS
 62
    30
 10
700.0
 20
-369.69999999999879
 30
0.0
 11
700.0
 21
-970.23048959192033
 31
0.0
  0
LINE
  5
2178
  8
SIZE
  6
CONTINUOUS
 62
    30
 10
700.0
 20
-950.23048959192045
 30
0.0
 11
757.0
 21
-950.23048959192045
 31
0.0
  0
LINE
  5
2179
  8
SIZE
  6
CONTINUOUS
 62
    30
 10
757.0
 20
-950.23048959192045
 30
0.0
 11
914.42857142857133
 21
-950.23048959192045
 31
0.0
  0
CIRCLE
  5
217A
  8
SIZE
  6
CONTINUOUS
 62
    30
 10
700.0
 20
-950.23048959192045
 30
0.0
 40
7.5
  0
CIRCLE
  5
217B
  8
SIZE
  6
CONTINUOUS
 62
    30
 10
757.0
 20
-950.23048959192045
 30
0.0
 40
7.5
  0
TEXT
  5
217C
  8
SIZE
  6
CONTINUOUS
 62
    30
 10
807.0
 20
-930.23048959192033
 30
0.0
 40
60.0
  1
57
 41
0.9
 72
     1
 11
850.71428571428578
 21
-930.23048959192033
 31
0.0
  0
POINT
  5
217D
  8
DEFPOINTS
  6
CONTINUOUS
 62
     7
 10
757.0
 20
-233.69999999999891
 30
0.0
  0
POINT
  5
217E
  8
DEFPOINTS
  6
CONTINUOUS
 62
     7
 10
700.0
 20
-349.69999999999891
 30
0.0
  0
POINT
  5
217F
  8
DEFPOINTS
  6
CONTINUOUS
 62
     7
 10
700.0
 20
-950.23048959192045
 30
0.0
  0
LINE
  5
2180
  8
SIZE
  6
CONTINUOUS
 62
    30
 10
796.1999999999997
 20
-214.5
 30
0.0
 11
1650.1386615372171
 21
-214.50000000000031
 31
0.0
  0
LINE
  5
2181
  8
SIZE
  6
CONTINUOUS
 62
    30
 10
817.19999999999982
 20
-147.5
 30
0.0
 11
1650.1386615372171
 21
-147.5000000000002
 31
0.0
  0
LINE
  5
2182
  8
SIZE
  6
CONTINUOUS
 62
    30
 10
1630.1386615372171
 20
-214.50000000000031
 30
0.0
 11
1630.1386615372171
 21
-147.5000000000002
 31
0.0
  0
LINE
  5
2183
  8
SIZE
  6
CONTINUOUS
 62
    30
 10
1630.1386615372171
 20
-147.5000000000002
 30
0.0
 11
1630.1386615372171
 21
149.31029743053941
 31
0.0
  0
CIRCLE
  5
2184
  8
SIZE
  6
CONTINUOUS
 62
    30
 10
1630.1386615372171
 20
-214.50000000000031
 30
0.0
 40
7.5
  0
CIRCLE
  5
2185
  8
SIZE
  6
CONTINUOUS
 62
    30
 10
1630.1386615372171
 20
-147.5000000000002
 30
0.0
 40
7.5
  0
TEXT
  5
2186
  8
SIZE
  6
CONTINUOUS
 62
    30
 10
1610.1386615372171
 20
41.881726001968268
 30
0.0
 40
60.0
  1
67
 50
90.0
 41
0.9
 72
     1
 11
1610.1386615372171
 21
85.596011716253983
 31
0.0
  0
POINT
  5
2187
  8
DEFPOINTS
  6
CONTINUOUS
 62
     7
 10
776.19999999999982
 20
-214.5
 30
0.0
  0
POINT
  5
2188
  8
DEFPOINTS
  6
CONTINUOUS
 62
     7
 10
797.19999999999982
 20
-147.5
 30
0.0
  0
POINT
  5
2189
  8
DEFPOINTS
  6
CONTINUOUS
 62
     7
 10
1630.1386615372171
 20
-147.5000000000002
 30
0.0
  0
LINE
  5
218A
  8
SIZE
  6
CONTINUOUS
 62
    30
 10
796.1999999999997
 20
-214.5
 30
0.0
 11
1650.138661537218
 21
-214.50000000000031
 31
0.0
  0
LINE
  5
218B
  8
SIZE
  6
CONTINUOUS
 62
    30
 10
770.0
 20
-350.5
 30
0.0
 11
1650.138661537218
 21
-350.50000000000028
 31
0.0
  0
LINE
  5
218C
  8
SIZE
  6
CONTINUOUS
 62
    30
 10
1630.138661537218
 20
-214.50000000000031
 30
0.0
 11
1630.138661537218
 21
-350.50000000000028
 31
0.0
  0
LINE
  5
218D
  8
SIZE
  6
CONTINUOUS
 62
    30
 10
1630.138661537218
 20
-350.50000000000028
 30
0.0
 11
1630.138661537218
 21
-613.70258963849312
 31
0.0
  0
CIRCLE
  5
218E
  8
SIZE
  6
CONTINUOUS
 62
    30
 10
1630.138661537218
 20
-214.50000000000031
 30
0.0
 40
7.5
  0
CIRCLE
  5
218F
  8
SIZE
  6
CONTINUOUS
 62
    30
 10
1630.138661537218
 20
-350.50000000000028
 30
0.0
 40
7.5
  0
TEXT
  5
2190
  8
SIZE
  6
CONTINUOUS
 62
    30
 10
1610.138661537218
 20
-593.70258963849301
 30
0.0
 40
60.0
  1
136
 50
90.0
 41
0.9
 72
     1
 11
1610.138661537218
 21
-530.70258963849301
 31
0.0
  0
POINT
  5
2191
  8
DEFPOINTS
  6
CONTINUOUS
 62
     7
 10
776.19999999999982
 20
-214.5
 30
0.0
  0
POINT
  5
2192
  8
DEFPOINTS
  6
CONTINUOUS
 62
     7
 10
750.0
 20
-350.5
 30
0.0
  0
POINT
  5
2193
  8
DEFPOINTS
  6
CONTINUOUS
 62
     7
 10
1630.138661537218
 20
-350.50000000000028
 30
0.0
  0
LINE
  5
2194
  8
NOTE
  6
CONTINUOUS
 62
     4
 10
100.64253050000021
 20
-432.5
 30
0.0
 11
219.3574694999997
 21
-432.5
 31
0.0
  0
LINE
  5
2195
  8
NOTE
  6
CONTINUOUS
 62
     4
 10
420.64252622256652
 20
-432.50000000000011
 30
0.0
 11
539.35746522256602
 21
-432.50000000000011
 31
0.0
  0
LINE
  5
2196
  8
SIZE
  6
CONTINUOUS
 62
    30
 10
770.0
 20
-350.5
 30
0.0
 11
2097.8315329996281
 21
-350.50000000000028
 31
0.0
  0
LINE
  5
2197
  8
SIZE
  6
CONTINUOUS
 62
    30
 10
719.19999999999925
 20
350.5
 30
0.0
 11
2097.8315329996281
 21
350.4999999999996
 31
0.0
  0
LINE
  5
2198
  8
SIZE
  6
CONTINUOUS
 62
    30
 10
2077.8315329996281
 20
-350.50000000000028
 30
0.0
 11
2077.8315329996281
 21
350.49999999999972
 31
0.0
  0
CIRCLE
  5
2199
  8
SIZE
  6
CONTINUOUS
 62
    30
 10
2077.8315329996281
 20
-350.50000000000028
 30
0.0
 40
7.5
  0
CIRCLE
  5
219A
  8
SIZE
  6
CONTINUOUS
 62
    30
 10
2077.8315329996281
 20
350.49999999999972
 30
0.0
 40
7.5
  0
TEXT
  5
219B
  8
SIZE
  6
CONTINUOUS
 62
    30
 10
2057.8315329996281
 20
-57.85714285714284
 30
0.0
 40
60.0
  1
701
 50
90.0
 41
0.9
 72
     1
 11
2057.8315329996281
 21
0.0000000000000043
 31
0.0
  0
POINT
  5
219C
  8
DEFPOINTS
  6
CONTINUOUS
 62
     7
 10
750.0
 20
-350.5
 30
0.0
  0
POINT
  5
219D
  8
DEFPOINTS
  6
CONTINUOUS
 62
     7
 10
699.19999999999925
 20
350.5
 30
0.0
  0
POINT
  5
219E
  8
DEFPOINTS
  6
CONTINUOUS
 62
     7
 10
2077.8315329996281
 20
350.49999999999972
 30
0.0
  0
LINE
  5
219F
  8
SIZE
  6
CONTINUOUS
 62
    30
 10
719.19999999999925
 20
350.5
 30
0.0
 11
2246.6372117451542
 21
350.49999999999949
 31
0.0
  0
LINE
  5
21A0
  8
SIZE
  6
CONTINUOUS
 62
    30
 10
1140.0
 20
407.5
 30
0.0
 11
2246.6372117451542
 21
407.49999999999932
 31
0.0
  0
LINE
  5
21A1
  8
SIZE
  6
CONTINUOUS
 62
    30
 10
2226.6372117451542
 20
350.49999999999949
 30
0.0
 11
2226.6372117451542
 21
407.49999999999932
 31
0.0
  0
LINE
  5
21A2
  8
SIZE
  6
CONTINUOUS
 62
    30
 10
2226.6372117451542
 20
407.49999999999932
 30
0.0
 11
2226.6372117451542
 21
564.9285714285711
 31
0.0
  0
CIRCLE
  5
21A3
  8
SIZE
  6
CONTINUOUS
 62
    30
 10
2226.6372117451542
 20
350.49999999999949
 30
0.0
 40
7.5
  0
CIRCLE
  5
21A4
  8
SIZE
  6
CONTINUOUS
 62
    30
 10
2226.6372117451542
 20
407.49999999999932
 30
0.0
 40
7.5
  0
TEXT
  5
21A5
  8
SIZE
  6
CONTINUOUS
 62
    30
 10
2206.6372117451551
 20
457.49999999999989
 30
0.0
 40
60.0
  1
57
 50
90.0
 41
0.9
 72
     1
 11
2206.6372117451551
 21
501.21428571428572
 31
0.0
  0
POINT
  5
21A6
  8
DEFPOINTS
  6
CONTINUOUS
 62
     7
 10
699.19999999999925
 20
350.5
 30
0.0
  0
POINT
  5
21A7
  8
DEFPOINTS
  6
CONTINUOUS
 62
     7
 10
1120.0
 20
407.5
 30
0.0
  0
POINT
  5
21A8
  8
DEFPOINTS
  6
CONTINUOUS
 62
     7
 10
2226.6372117451542
 20
407.49999999999932
 30
0.0
  0
CIRCLE
  5
21A9
  8
FIX
  6
CONTINUOUS
 62
    11
 10
-727.0
 20
-325.5
 30
0.0
 40
12.42149793872491
  0
CIRCLE
  5
21AA
  8
FIX
  6
CONTINUOUS
 62
    11
 10
-727.0
 20
317.5
 30
0.0
 40
12.42149793872491
  0
CIRCLE
  5
21AB
  8
FIX
  6
CONTINUOUS
 62
    11
 10
727.0
 20
317.5
 30
0.0
 40
12.42149793872491
  0
CIRCLE
  5
21AC
  8
FIX
  6
CONTINUOUS
 62
    11
 10
727.0
 20
-325.5
 30
0.0
 40
12.42149793872491
  0
LINE
  5
21AD
  8
SIZE
  6
CONTINUOUS
 62
    30
 10
-700.0
 20
369.29999999999922
 30
0.0
 11
-700.0
 21
828.30164792886922
 31
0.0
  0
LINE
  5
21AE
  8
SIZE
  6
CONTINUOUS
 62
    30
 10
-740.0
 20
427.5
 30
0.0
 11
-740.0
 21
828.30164792886922
 31
0.0
  0
LINE
  5
21AF
  8
SIZE
  6
CONTINUOUS
 62
    30
 10
-700.0
 20
808.30164792886853
 30
0.0
 11
-740.0
 21
808.30164792886853
 31
0.0
  0
LINE
  5
21B0
  8
SIZE
  6
CONTINUOUS
 62
    30
 10
-740.0
 20
808.30164792886853
 30
0.0
 11
-907.69908274329896
 21
808.30164792886853
 31
0.0
  0
CIRCLE
  5
21B1
  8
SIZE
  6
CONTINUOUS
 62
    30
 10
-700.0
 20
808.30164792886853
 30
0.0
 40
7.5
  0
CIRCLE
  5
21B2
  8
SIZE
  6
CONTINUOUS
 62
    30
 10
-740.0
 20
808.30164792886853
 30
0.0
 40
7.5
  0
TEXT
  5
21B3
  8
SIZE
  6
CONTINUOUS
 62
    30
 10
-887.69908274329873
 20
828.30164792886853
 30
0.0
 40
60.0
  1
40
 41
0.9
 72
     1
 11
-843.98479702901307
 21
828.30164792886853
 31
0.0
  0
POINT
  5
21B4
  8
DEFPOINTS
  6
CONTINUOUS
 62
     7
 10
-700.0
 20
349.2999999999991
 30
0.0
  0
POINT
  5
21B5
  8
DEFPOINTS
  6
CONTINUOUS
 62
     7
 10
-740.0
 20
407.5
 30
0.0
  0
POINT
  5
21B6
  8
DEFPOINTS
  6
CONTINUOUS
 62
     7
 10
-740.0
 20
808.30164792886853
 30
0.0
  0
LINE
  5
21B7
  8
SIZE
  6
CONTINUOUS
 62
    30
 10
700.0
 20
369.29999999999922
 30
0.0
 11
700.0
 21
828.30164792886922
 31
0.0
  0
LINE
  5
21B8
  8
SIZE
  6
CONTINUOUS
 62
    30
 10
1120.0
 20
427.5
 30
0.0
 11
1120.0
 21
828.30164792886922
 31
0.0
  0
LINE
  5
21B9
  8
SIZE
  6
CONTINUOUS
 62
    30
 10
700.0
 20
808.30164792886853
 30
0.0
 11
1120.0
 21
808.30164792886853
 31
0.0
  0
CIRCLE
  5
21BA
  8
SIZE
  6
CONTINUOUS
 62
    30
 10
700.0
 20
808.30164792886853
 30
0.0
 40
7.5
  0
CIRCLE
  5
21BB
  8
SIZE
  6
CONTINUOUS
 62
    30
 10
1120.0
 20
808.30164792886853
 30
0.0
 40
7.5
  0
TEXT
  5
21BC
  8
SIZE
  6
CONTINUOUS
 62
    30
 10
840.57142857142856
 20
828.30164792886853
 30
0.0
 40
60.0
  1
420
 41
0.9
 72
     1
 11
910.0
 21
828.30164792886853
 31
0.0
  0
POINT
  5
21BD
  8
DEFPOINTS
  6
CONTINUOUS
 62
     7
 10
700.0
 20
349.2999999999991
 30
0.0
  0
POINT
  5
21BE
  8
DEFPOINTS
  6
CONTINUOUS
 62
     7
 10
1120.0
 20
407.5
 30
0.0
  0
POINT
  5
21BF
  8
DEFPOINTS
  6
CONTINUOUS
 62
     7
 10
1120.0
 20
808.30164792886853
 30
0.0
  0
LINE
  5
21C0
  8
SIZE
  6
CONTINUOUS
 62
    30
 10
727.0
 20
-364.69999999999891
 30
0.0
 11
727.0
 21
-1395.3490706323969
 31
0.0
  0
LINE
  5
21C1
  8
SIZE
  6
CONTINUOUS
 62
    30
 10
-727.0
 20
-364.69999999999891
 30
0.0
 11
-727.0
 21
-1395.3490706323969
 31
0.0
  0
LINE
  5
21C2
  8
SIZE
  6
CONTINUOUS
 62
    30
 10
727.0
 20
-1375.3490706323969
 30
0.0
 11
-727.0
 21
-1375.3490706323969
 31
0.0
  0
CIRCLE
  5
21C3
  8
SIZE
  6
CONTINUOUS
 62
    30
 10
727.0
 20
-1375.3490706323969
 30
0.0
 40
7.5
  0
CIRCLE
  5
21C4
  8
SIZE
  6
CONTINUOUS
 62
    30
 10
-727.0
 20
-1375.3490706323969
 30
0.0
 40
7.5
  0
TEXT
  5
21C5
  8
SIZE
  6
CONTINUOUS
 62
    30
 10
-383.91428571428582
 20
-1339.634784918112
 30
0.0
 40
60.0
  1
1454(吊りボルトピッチ)
 41
0.9
 72
     1
 11
-0.0000000000000568
 21
-1339.634784918112
 31
0.0
  0
POINT
  5
21C6
  8
DEFPOINTS
  6
CONTINUOUS
 62
     7
 10
727.0
 20
-344.69999999999879
 30
0.0
  0
POINT
  5
21C8
  8
DEFPOINTS
  6
CONTINUOUS
 62
     7
 10
-727.0
 20
-1375.3490706323969
 30
0.0
  0
LINE
  5
21C9
  8
SIZE
  6
CONTINUOUS
 62
    30
 10
700.0
 20
-369.69999999999879
 30
0.0
 11
700.0
 21
-1241.037251782004
 31
0.0
  0
LINE
  5
21CA
  8
SIZE
  6
CONTINUOUS
 62
    30
 10
-700.0
 20
-369.69999999999879
 30
0.0
 11
-700.0
 21
-1241.037251782004
 31
0.0
  0
LINE
  5
21CB
  8
SIZE
  6
CONTINUOUS
 62
    30
 10
700.0
 20
-1221.0372517820049
 30
0.0
 11
-700.0
 21
-1221.0372517820049
 31
0.0
  0
CIRCLE
  5
21CC
  8
SIZE
  6
CONTINUOUS
 62
    30
 10
700.0
 20
-1221.0372517820049
 30
0.0
 40
7.5
  0
CIRCLE
  5
21CD
  8
SIZE
  6
CONTINUOUS
 62
    30
 10
-700.0
 20
-1221.0372517820049
 30
0.0
 40
7.5
  0
TEXT
  5
21CE
  8
SIZE
  6
CONTINUOUS
 62
    30
 10
-90.000000000000057
 20
-1201.037251782004
 30
0.0
 40
60.0
  1
1400
 41
0.9
 72
     1
 11
-0.0000000000000568
 21
-1201.037251782004
 31
0.0
  0
POINT
  5
21CF
  8
DEFPOINTS
  6
CONTINUOUS
 62
     7
 10
700.0
 20
-349.69999999999891
 30
0.0
  0
POINT
  5
21D0
  8
DEFPOINTS
  6
CONTINUOUS
 62
     7
 10
-700.0
 20
-349.69999999999891
 30
0.0
  0
POINT
  5
21D1
  8
DEFPOINTS
  6
CONTINUOUS
 62
     7
 10
-700.0
 20
-1221.0372517820049
 30
0.0
  0
LINE
  5
21D2
  8
SIZE
  6
CONTINUOUS
 62
    30
 10
-700.0
 20
-369.69999999999879
 30
0.0
 11
-700.0
 21
-1241.037251782004
 31
0.0
  0
LINE
  5
21D3
  8
SIZE
  6
CONTINUOUS
 62
    30
 10
-750.0
 20
-370.5
 30
0.0
 11
-750.0
 21
-1241.037251782004
 31
0.0
  0
LINE
  5
21D4
  8
SIZE
  6
CONTINUOUS
 62
    30
 10
-700.0
 20
-1221.0372517820049
 30
0.0
 11
-750.0
 21
-1221.0372517820049
 31
0.0
  0
LINE
  5
21D5
  8
SIZE
  6
CONTINUOUS
 62
    30
 10
-750.0
 20
-1221.0372517820049
 30
0.0
 11
-907.42857142857122
 21
-1221.0372517820049
 31
0.0
  0
CIRCLE
  5
21D6
  8
SIZE
  6
CONTINUOUS
 62
    30
 10
-700.0
 20
-1221.0372517820049
 30
0.0
 40
7.5
  0
CIRCLE
  5
21D7
  8
SIZE
  6
CONTINUOUS
 62
    30
 10
-750.0
 20
-1221.0372517820049
 30
0.0
 40
7.5
  0
TEXT
  5
21D8
  8
SIZE
  6
CONTINUOUS
 62
    30
 10
-887.4285714285711
 20
-1201.037251782004
 30
0.0
 40
60.0
  1
50
 41
0.9
 72
     1
 11
-843.71428571428544
 21
-1201.037251782004
 31
0.0
  0
POINT
  5
21D9
  8
DEFPOINTS
  6
CONTINUOUS
 62
     7
 10
-700.0
 20
-349.69999999999891
 30
0.0
  0
POINT
  5
21DB
  8
DEFPOINTS
  6
CONTINUOUS
 62
     7
 10
-750.0
 20
-1221.0372517820049
 30
0.0
  0
LINE
  5
21DC
  8
SIZE
  6
CONTINUOUS
 62
    30
 10
480.0
 20
-511.85746950000049
 30
0.0
 11
480.00000199999988
 21
-1111.052959928775
 31
0.0
  0
LINE
  5
21DD
  8
SIZE
  6
CONTINUOUS
 62
    30
 10
160.0
 20
-511.85746950000049
 30
0.0
 11
159.9999999999998
 21
-1111.052959928775
 31
0.0
  0
LINE
  5
21DE
  8
SIZE
  6
CONTINUOUS
 62
    30
 10
480.00000199999988
 20
-1091.052959928775
 30
0.0
 11
160.0
 21
-1091.052959928775
 31
0.0
  0
CIRCLE
  5
21DF
  8
SIZE
  6
CONTINUOUS
 62
    30
 10
480.00000199999988
 20
-1091.052959928775
 30
0.0
 40
7.5
  0
CIRCLE
  5
21E0
  8
SIZE
  6
CONTINUOUS
 62
    30
 10
159.9999999999998
 20
-1091.052959928775
 30
0.0
 40
7.5
  0
TEXT
  5
21E1
  8
SIZE
  6
CONTINUOUS
 62
    30
 10
250.57142957142861
 20
-1071.052959928775
 30
0.0
 40
60.0
  1
320
 41
0.9
 72
     1
 11
320.000001
 21
-1071.052959928775
 31
0.0
  0
POINT
  5
21E3
  8
DEFPOINTS
  6
CONTINUOUS
 62
     7
 10
159.9999999999996
 20
-491.8574695000006
 30
0.0
  0
POINT
  5
21E4
  8
DEFPOINTS
  6
CONTINUOUS
 62
     7
 10
159.9999999999998
 20
-1091.052959928775
 30
0.0
  0
LINE
  5
21E5
  8
SIZE
  6
CONTINUOUS
 62
    30
 10
700.0
 20
-369.69999999999879
 30
0.0
 11
700.0
 21
-1111.052959928775
 31
0.0
  0
LINE
  5
21E6
  8
SIZE
  6
CONTINUOUS
 62
    30
 10
480.0
 20
-511.85746950000049
 30
0.0
 11
480.00000199999988
 21
-1111.052959928775
 31
0.0
  0
LINE
  5
21E7
  8
SIZE
  6
CONTINUOUS
 62
    30
 10
700.0
 20
-1091.052959928775
 30
0.0
 11
480.0000019332436
 21
-1091.052959895397
 31
0.0
  0
CIRCLE
  5
21E8
  8
SIZE
  6
CONTINUOUS
 62
    30
 10
700.0
 20
-1091.052959928775
 30
0.0
 40
7.5
  0
CIRCLE
  5
21E9
  8
SIZE
  6
CONTINUOUS
 62
    30
 10
480.00000199999988
 20
-1091.052959928775
 30
0.0
 40
7.5
  0
TEXT
  5
21EA
  8
SIZE
  6
CONTINUOUS
 62
    30
 10
520.57142953805044
 20
-1071.052959928775
 30
0.0
 40
60.0
  1
220
 41
0.9
 72
     1
 11
590.00000096662188
 21
-1071.052959928775
 31
0.0
  0
POINT
  5
21EB
  8
DEFPOINTS
  6
CONTINUOUS
 62
     7
 10
700.0
 20
-349.69999999999891
 30
0.0
  0
POINT
  5
21ED
  8
DEFPOINTS
  6
CONTINUOUS
 62
     7
 10
480.00000199999988
 20
-1091.052959928775
 30
0.0
  0
LINE
  5
21EE
  8
NOTE
  6
CONTINUOUS
 62
     4
 10
737.79999999999984
 20
-214.5
 30
0.0
 11
776.19999999999982
 21
-214.5
 31
0.0
  0
LINE
  5
21EF
  8
NOTE
  6
CONTINUOUS
 62
     4
 10
757.0
 20
-195.30000000000109
 30
0.0
 11
757.0
 21
-233.69999999999891
 31
0.0
  0
LINE
  5
21F0
  8
NOTE
  6
CONTINUOUS
 62
     4
 10
758.79999999999984
 20
-147.5
 30
0.0
 11
797.19999999999982
 21
-147.5
 31
0.0
  0
LINE
  5
21F1
  8
NOTE
  6
CONTINUOUS
 62
     4
 10
778.0
 20
-128.30000000000109
 30
0.0
 11
778.0
 21
-166.69999999999891
 31
0.0
  0
LINE
  5
21F2
  8
NOTE
  6
CONTINUOUS
 62
     4
 10
738.79999999999973
 20
-112.4999535000006
 30
0.0
 11
777.19999999999982
 21
-112.4999535000006
 31
0.0
  0
LINE
  5
21F3
  8
NOTE
  6
CONTINUOUS
 62
     4
 10
758.0
 20
-93.299953500001735
 30
0.0
 11
758.0
 21
-131.69995349999951
 31
0.0
  0
LINE
  5
21F4
  8
NOTE
  6
CONTINUOUS
 62
     4
 10
720.79999999999984
 20
5.5
 30
0.0
 11
759.19999999999959
 21
5.5
 31
0.0
  0
LINE
  5
21F5
  8
NOTE
  6
CONTINUOUS
 62
     4
 10
740.0
 20
24.699999999998909
 30
0.0
 11
740.0
 21
-13.69999999999891
 31
0.0
  0
LINE
  5
21F6
  8
SIZE
  6
CONTINUOUS
 62
    30
 10
-766.19999999999982
 20
-325.5
 30
0.0
 11
-1543.509023011886
 21
-325.49999999999972
 31
0.0
  0
LINE
  5
21F7
  8
SIZE
  6
CONTINUOUS
 62
    30
 10
-766.19999999999982
 20
317.5
 30
0.0
 11
-1543.509023011886
 21
317.50000000000028
 31
0.0
  0
LINE
  5
21F8
  8
SIZE
  6
CONTINUOUS
 62
    30
 10
-1523.5090230118869
 20
-325.49999999999972
 30
0.0
 11
-1523.5090230118869
 21
317.50000000000028
 31
0.0
  0
CIRCLE
  5
21F9
  8
SIZE
  6
CONTINUOUS
 62
    30
 10
-1523.5090230118869
 20
-325.49999999999972
 30
0.0
 40
7.5
  0
CIRCLE
  5
21FA
  8
SIZE
  6
CONTINUOUS
 62
    30
 10
-1523.5090230118869
 20
317.50000000000028
 30
0.0
 40
7.5
  0
TEXT
  5
21FB
  8
SIZE
  6
CONTINUOUS
 62
    30
 10
-1543.509023011886
 20
-73.428571428571615
 30
0.0
 40
60.0
  1
643
 50
90.0
 41
0.9
 72
     1
 11
-1543.509023011886
 21
-4.0000000000001981
 31
0.0
  0
POINT
  5
21FC
  8
DEFPOINTS
  6
CONTINUOUS
 62
     7
 10
-746.1999999999997
 20
-325.5
 30
0.0
  0
POINT
  5
21FD
  8
DEFPOINTS
  6
CONTINUOUS
 62
     7
 10
-746.1999999999997
 20
317.5
 30
0.0
  0
POINT
  5
21FE
  8
DEFPOINTS
  6
CONTINUOUS
 62
     7
 10
-1523.5090230118869
 20
317.50000000000028
 30
0.0
  0
LINE
  5
21FF
  8
SIZE
  6
CONTINUOUS
 62
    30
 10
-719.19999999999982
 20
350.5
 30
0.0
 11
-1543.5090230118881
 21
350.50000000000028
 31
0.0
  0
LINE
  5
2200
  8
SIZE
  6
CONTINUOUS
 62
    30
 10
-766.19999999999982
 20
317.5
 30
0.0
 11
-1543.5090230118881
 21
317.50000000000028
 31
0.0
  0
LINE
  5
2201
  8
SIZE
  6
CONTINUOUS
 62
    30
 10
-1523.5090230118881
 20
317.50000000000028
 30
0.0
 11
-1523.5090230118881
 21
287.50000000000028
 31
0.0
  0
LINE
  5
2202
  8
SIZE
  6
CONTINUOUS
 62
    30
 10
-1523.5090230118881
 20
350.50000000000028
 30
0.0
 11
-1523.5090230118881
 21
486.18773410120127
 31
0.0
  0
LINE
  5
2203
  8
SIZE
  6
CONTINUOUS
 62
    30
 10
-1523.5090230118881
 20
317.50000000000028
 30
0.0
 11
-1523.5090230118881
 21
350.50000000000028
 31
0.0
  0
CIRCLE
  5
2204
  8
SIZE
  6
CONTINUOUS
 62
    30
 10
-1523.5090230118881
 20
317.50000000000028
 30
0.0
 40
7.5
  0
CIRCLE
  5
2205
  8
SIZE
  6
CONTINUOUS
 62
    30
 10
-1523.5090230118881
 20
350.50000000000028
 30
0.0
 40
7.5
  0
TEXT
  5
2206
  8
SIZE
  6
CONTINUOUS
 62
    30
 10
-1543.5090230118881
 20
381.02738354462679
 30
0.0
 40
60.0
  1
33
 50
90.0
 41
0.9
 72
     1
 11
-1543.5090230118881
 21
424.74166925891251
 31
0.0
  0
POINT
  5
2207
  8
DEFPOINTS
  6
CONTINUOUS
 62
     7
 10
-699.19999999999982
 20
350.5
 30
0.0
  0
POINT
  5
2208
  8
DEFPOINTS
  6
CONTINUOUS
 62
     7
 10
-746.1999999999997
 20
317.5
 30
0.0
  0
POINT
  5
2209
  8
DEFPOINTS
  6
CONTINUOUS
 62
     7
 10
-1523.5090230118881
 20
317.50000000000028
 30
0.0
  0
LINE
  5
220A
  8
SIZE
  6
CONTINUOUS
 62
    30
 10
1140.0
 20
428.5
 30
0.0
 11
1140.0
 21
1109.8804053487911
 31
0.0
  0
LINE
  5
220B
  8
SIZE
  6
CONTINUOUS
 62
    30
 10
-760.0
 20
428.5
 30
0.0
 11
-760.0
 21
1109.8804053487911
 31
0.0
  0
LINE
  5
220C
  8
SIZE
  6
CONTINUOUS
 62
    30
 10
1140.0
 20
1089.8804053487911
 30
0.0
 11
-760.0
 21
1089.8804053487911
 31
0.0
  0
CIRCLE
  5
220D
  8
SIZE
  6
CONTINUOUS
 62
    30
 10
1140.0
 20
1089.8804053487911
 30
0.0
 40
7.5
  0
CIRCLE
  5
220E
  8
SIZE
  6
CONTINUOUS
 62
    30
 10
-760.0
 20
1089.8804053487911
 30
0.0
 40
7.5
  0
TEXT
  5
220F
  8
SIZE
  6
CONTINUOUS
 62
    30
 10
100.0
 20
1109.8804053487911
 30
0.0
 40
60.0
  1
1900
 41
0.9
 72
     1
 11
190.0
 21
1109.8804053487911
 31
0.0
  0
POINT
  5
2210
  8
DEFPOINTS
  6
CONTINUOUS
 62
     7
 10
1140.0
 20
408.49999999999989
 30
0.0
  0
POINT
  5
2211
  8
DEFPOINTS
  6
CONTINUOUS
 62
     7
 10
-760.0
 20
408.49999999999989
 30
0.0
  0
POINT
  5
2212
  8
DEFPOINTS
  6
CONTINUOUS
 62
     7
 10
-760.0
 20
1089.8804053487911
 30
0.0
  0
LINE
  5
2213
  8
SIZE
  6
CONTINUOUS
 62
    30
 10
-750.0
 20
-370.5
 30
0.0
 11
-750.0
 21
-1517.1878913417279
 31
0.0
  0
LINE
  5
2214
  8
SIZE
  6
CONTINUOUS
 62
    30
 10
750.0
 20
-370.5
 30
0.0
 11
750.0
 21
-1517.1878913417279
 31
0.0
  0
LINE
  5
2215
  8
SIZE
  6
CONTINUOUS
 62
    30
 10
-750.0
 20
-1497.187891341727
 30
0.0
 11
750.0
 21
-1497.187891341727
 31
0.0
  0
CIRCLE
  5
2216
  8
SIZE
  6
CONTINUOUS
 62
    30
 10
-750.0
 20
-1497.187891341727
 30
0.0
 40
7.5
  0
CIRCLE
  5
2217
  8
SIZE
  6
CONTINUOUS
 62
    30
 10
750.0
 20
-1497.187891341727
 30
0.0
 40
7.5
  0
TEXT
  5
2218
  8
SIZE
  6
CONTINUOUS
 62
    30
 10
-90.000000000000057
 20
-1477.187891341727
 30
0.0
 40
60.0
  1
1500
 41
0.9
 72
     1
 11
-0.0000000000000568
 21
-1477.187891341727
 31
0.0
  0
POINT
  5
221A
  8
DEFPOINTS
  6
CONTINUOUS
 62
     7
 10
750.0
 20
-350.5
 30
0.0
  0
POINT
  5
221B
  8
DEFPOINTS
  6
CONTINUOUS
 62
     7
 10
750.0
 20
-1497.187891341727
 30
0.0
  0
LINE
  5
221C
  8
BASIS
  6
DASHDOT
 62
     6
 10
0.0
 20
500.0
 30
0.0
 11
0.0
 21
-500.0
 31
0.0
  0
LINE
  5
221D
  8
BASIS
  6
DASHDOT
 62
     6
 10
1250.0
 20
0.0
 30
0.0
 11
-850.0
 21
0.0
 31
0.0
  0
CIRCLE
  5
221E
  8
ARRANGE
  6
CONTINUOUS
 62
     1
 10
0.0
 20
0.0
 30
0.0
 40
50.0
  0
LINE
  5
221F
  8
ARRANGE
  6
CONTINUOUS
 62
     1
 10
50.037350031328963
 20
-49.522353150325202
 30
0.0
 11
-50.037350031328963
 21
49.522353150325202
 31
0.0
  0
LINE
  5
2220
  8
ARRANGE
  6
CONTINUOUS
 62
     1
 10
49.963763310501221
 20
49.596594797985738
 30
0.0
 11
-49.963763310501221
 21
-49.5965947979821
 31
0.0
  0
TEXT
  5
2221
  8
SIZE
  6
CONTINUOUS
 62
    30
 10
-1443.022156323849
 20
-233.2807514986925
 30
0.0
 40
60.0
  1
(吊りボルトピッチ)
 50
90.000002504416585
 41
0.7
  7
STANDARD1
  0
TEXT
  5
2222
  8
SIZE
  6
CONTINUOUS
 62
    30
 10
-964.20550464062853
 20
-68.524056926264166
 30
0.0
 40
60.0
  1
(天井開口寸法)
 50
90.000002504416585
 41
0.7
  7
STANDARD1
  0
TEXT
  5
2223
  8
NOTE
  6
CONTINUOUS
 62
     4
 10
-1408.8909598693949
 20
-743.6926169266244
 30
0.0
 40
60.0
  1
%%C200 吹出円形フランジ
 50
359.99999749558327
 41
0.7
  7
STANDARD1
  0
TEXT
  5
2224
  8
NOTE
  6
CONTINUOUS
 62
     4
 10
1148.1879043619711
 20
-764.03172501202243
 30
0.0
 40
60.0
  1
RL %%C9.52
 50
0.0000025044165917
 41
0.7
  7
STANDARD1
  0
TEXT
  5
2225
  8
NOTE
  6
CONTINUOUS
 62
     4
 10
1142.817956326563
 20
-612.98751813195292
 30
0.0
 40
60.0
  1
RG %%C15.88
 50
0.0000025044165917
 41
0.7
  7
STANDARD1
  0
TEXT
  5
2226
  8
NOTE
  6
CONTINUOUS
 62
     4
 10
1362.732480993117
 20
584.37978559106875
 30
0.0
 40
60.0
  1
D1 O.D. %%C32
 50
0.0000025044165917
 41
0.7
  7
STANDARD1
  0
TEXT
  5
2227
  8
NOTE
  6
CONTINUOUS
 62
     4
 10
1364.1261794523459
 20
822.25561848882921
 30
0.0
 40
60.0
  1
D2 O.D. %%C32
 50
0.0000025044165917
 41
0.7
  7
STANDARD1
  0
TEXT
  5
2228
  8
NOTE
  6
CONTINUOUS
 62
     4
 10
1362.2926091424531
 20
704.96277064526112
 30
0.0
 40
60.0
  1
(自然排水用)
 50
0.0000025044165917
 41
0.7
  7
STANDARD1
  0
LINE
  5
2229
  8
SIZE
  6
CONTINUOUS
 62
    30
 10
-770.00000000000011
 20
-350.5
 30
0.0
 11
-1070.870731606648
 21
-350.49999999999989
 31
0.0
  0
LINE
  5
222A
  8
SIZE
  6
CONTINUOUS
 62
    30
 10
-759.99999999999955
 20
-158.5
 30
0.0
 11
-1070.870731606647
 21
-158.4999999999998
 31
0.0
  0
LINE
  5
222B
  8
SIZE
  6
CONTINUOUS
 62
    30
 10
-1050.870731606647
 20
-158.4999999999998
 30
0.0
 11
-1050.870731606648
 21
-350.49999999999989
 31
0.0
  0
LINE
  5
222C
  8
SIZE
  6
CONTINUOUS
 62
    30
 10
-1050.870731606648
 20
-350.49999999999989
 30
0.0
 11
-1050.870731606648
 21
-549.07142857142856
 31
0.0
  0
CIRCLE
  5
222D
  8
SIZE
  6
CONTINUOUS
 62
    30
 10
-1050.870731606647
 20
-158.4999999999998
 30
0.0
 40
7.5
  0
CIRCLE
  5
222E
  8
SIZE
  6
CONTINUOUS
 62
    30
 10
-1050.870731606648
 20
-350.49999999999989
 30
0.0
 40
7.5
  0
TEXT
  5
222F
  8
SIZE
  6
CONTINUOUS
 62
    30
 10
-1070.870731606647
 20
-529.07142857142856
 30
0.0
 40
60.0
  1
192
 50
90.0
 41
0.9
 72
     1
 11
-1070.870731606647
 21
-464.78571428571428
 31
0.0
  0
POINT
  5
2231
  8
DEFPOINTS
  6
CONTINUOUS
 62
     7
 10
-739.99999999999955
 20
-158.5
 30
0.0
  0
POINT
  5
2232
  8
DEFPOINTS
  6
CONTINUOUS
 62
     7
 10
-1050.870731606647
 20
-158.4999999999998
 30
0.0
  0
LINE
  5
2233
  8
SIZE
  6
CONTINUOUS
 62
    30
 10
-759.99999999999955
 20
-158.5
 30
0.0
 11
-1070.870731606648
 21
-158.4999999999998
 31
0.0
  0
LINE
  5
2234
  8
SIZE
  6
CONTINUOUS
 62
    30
 10
-760.0
 20
407.5
 30
0.0
 11
-1070.870731606647
 21
407.50000000000011
 31
0.0
  0
LINE
  5
2235
  8
SIZE
  6
CONTINUOUS
 62
    30
 10
-1050.870731606648
 20
-158.4999999999998
 30
0.0
 11
-1050.870731606647
 21
407.50000000000011
 31
0.0
  0
CIRCLE
  5
2236
  8
SIZE
  6
CONTINUOUS
 62
    30
 10
-1050.870731606648
 20
-158.4999999999998
 30
0.0
 40
7.5
  0
CIRCLE
  5
2237
  8
SIZE
  6
CONTINUOUS
 62
    30
 10
-1050.870731606647
 20
407.50000000000011
 30
0.0
 40
7.5
  0
TEXT
  5
2238
  8
SIZE
  6
CONTINUOUS
 62
    30
 10
-1070.870731606648
 20
56.357142857142762
 30
0.0
 40
60.0
  1
566
 50
90.0
 41
0.9
 72
     1
 11
-1070.870731606648
 21
124.4999999999999
 31
0.0
  0
POINT
  5
2239
  8
DEFPOINTS
  6
CONTINUOUS
 62
     7
 10
-739.99999999999955
 20
-158.5
 30
0.0
  0
POINT
  5
223A
  8
DEFPOINTS
  6
CONTINUOUS
 62
     7
 10
-740.0
 20
407.5
 30
0.0
  0
POINT
  5
223B
  8
DEFPOINTS
  6
CONTINUOUS
 62
     7
 10
-1050.870731606647
 20
407.50000000000011
 30
0.0
  0
LINE
  5
223C
  8
SIZE
  6
CONTINUOUS
 62
    30
 10
797.19999999999982
 20
-112.4999535000006
 30
0.0
 11
1797.4064688463991
 21
-112.4999535000009
 31
0.0
  0
LINE
  5
223D
  8
SIZE
  6
CONTINUOUS
 62
    30
 10
770.0
 20
-350.5
 30
0.0
 11
1797.4064688463991
 21
-350.50000000000028
 31
0.0
  0
LINE
  5
223E
  8
SIZE
  6
CONTINUOUS
 62
    30
 10
1777.4064688463991
 20
-112.4999535000009
 30
0.0
 11
1777.4064688463991
 21
-350.50000000000028
 31
0.0
  0
CIRCLE
  5
223F
  8
SIZE
  6
CONTINUOUS
 62
    30
 10
1777.4064688463991
 20
-112.4999535000009
 30
0.0
 40
7.5
  0
CIRCLE
  5
2240
  8
SIZE
  6
CONTINUOUS
 62
    30
 10
1777.4064688463991
 20
-350.50000000000028
 30
0.0
 40
7.5
  0
TEXT
  5
2241
  8
SIZE
  6
CONTINUOUS
 62
    30
 10
1757.4064688463991
 20
-300.92854817857159
 30
0.0
 40
60.0
  1
238
 50
90.0
 41
0.9
 72
     1
 11
1757.4064688463991
 21
-231.4999767500002
 31
0.0
  0
POINT
  5
2242
  8
DEFPOINTS
  6
CONTINUOUS
 62
     7
 10
777.19999999999982
 20
-112.4999535000006
 30
0.0
  0
POINT
  5
2243
  8
DEFPOINTS
  6
CONTINUOUS
 62
     7
 10
750.0
 20
-350.5
 30
0.0
  0
POINT
  5
2244
  8
DEFPOINTS
  6
CONTINUOUS
 62
     7
 10
1777.4064688463991
 20
-350.50000000000028
 30
0.0
  0
LINE
  5
2289
  8
OUTLINE
  6
CONTINUOUS
 62
     3
 10
700.0
 20
277.5
 30
0.0
 11
700.0
 21
-350.5
 31
0.0
  0
LINE
  5
22A8
  8
OUTLINE
  6
CONTINUOUS
 62
     3
 10
-700.0
 20
348.70000000000078
 30
0.0
 11
-700.0
 21
-350.5
 31
0.0
  0
LINE
  5
22AF
  8
OUTLINE
  6
CONTINUOUS
 62
     3
 10
1124.0
 20
-175.5
 30
0.0
 11
700.0
 21
-175.5
 31
0.0
  0
LINE
  5
22B0
  8
OUTLINE
  6
CONTINUOUS
 62
     3
 10
1124.0
 20
424.5
 30
0.0
 11
-744.00024699999983
 21
424.5
 31
0.0
  0
ARC
  5
22B1
  8
OUTLINE
  6
CONTINUOUS
 62
     3
 10
-744.0
 20
408.49999999999989
 30
0.0
 40
16.0
 50
90.0
 51
180.0
  0
ARC
  5
22B2
  8
OUTLINE
  6
CONTINUOUS
 62
     3
 10
-744.0
 20
-159.5
 30
0.0
 40
16.0
 50
180.0
 51
270.0
  0
ARC
  5
22B3
  8
OUTLINE
  6
CONTINUOUS
 62
     3
 10
1124.0
 20
408.49999999999989
 30
0.0
 40
16.0
 50
0.0
 51
90.0
  0
ARC
  5
22B4
  8
OUTLINE
  6
CONTINUOUS
 62
     3
 10
1124.0
 20
-159.5
 30
0.0
 40
16.0
 50
270.0
 51
0.0
  0
LINE
  5
22B7
  8
OUTLINE
  6
CONTINUOUS
 62
     3
 10
1140.0
 20
408.49999999999989
 30
0.0
 11
1140.0
 21
-159.5
 31
0.0
  0
LINE
  5
22B8
  8
OUTLINE
  6
CONTINUOUS
 62
     3
 10
-760.0
 20
-159.5
 30
0.0
 11
-760.0
 21
408.49999999999989
 31
0.0
  0
LINE
  5
22C9
  8
SIZE
  6
CONTINUOUS
 62
    30
 10
779.19999999999982
 20
5.499999999999992
 30
0.0
 11
1948.3735920244651
 21
5.4999999999996572
 31
0.0
  0
LINE
  5
22CA
  8
SIZE
  6
CONTINUOUS
 62
    30
 10
770.0
 20
-350.5
 30
0.0
 11
1948.3735920244651
 21
-350.50000000000028
 31
0.0
  0
LINE
  5
22CB
  8
SIZE
  6
CONTINUOUS
 62
    30
 10
1928.3735920244651
 20
5.499999999999666
 30
0.0
 11
1928.3735920244651
 21
-350.50000000000028
 31
0.0
  0
CIRCLE
  5
22CC
  8
SIZE
  6
CONTINUOUS
 62
    30
 10
1928.3735920244651
 20
5.499999999999666
 30
0.0
 40
7.5
  0
CIRCLE
  5
22CD
  8
SIZE
  6
CONTINUOUS
 62
    30
 10
1928.3735920244651
 20
-350.50000000000028
 30
0.0
 40
7.5
  0
TEXT
  5
22CE
  8
SIZE
  6
CONTINUOUS
 62
    30
 10
1908.373592024464
 20
-240.6428571428572
 30
0.0
 40
60.0
  1
356
 50
90.0
 41
0.9
 72
     1
 11
1908.373592024464
 21
-172.5
 31
0.0
  0
POINT
  5
22CF
  8
DEFPOINTS
  6
CONTINUOUS
 62
     7
 10
759.19999999999959
 20
5.5
 30
0.0
  0
POINT
  5
22D0
  8
DEFPOINTS
  6
CONTINUOUS
 62
     7
 10
750.0
 20
-350.5
 30
0.0
  0
POINT
  5
22D1
  8
DEFPOINTS
  6
CONTINUOUS
 62
     7
 10
1928.3735920244651
 20
-350.50000000000028
 30
0.0
  0
LINE
  5
22D2
  8
SIZE
  6
CONTINUOUS
 62
    30
 10
592.02572600000019
 20
-432.5
 30
0.0
 11
2246.6372117451542
 21
-432.50000000000051
 31
0.0
  0
LINE
  5
22D3
  8
SIZE
  6
CONTINUOUS
 62
    30
 10
719.19999999999925
 20
350.5
 30
0.0
 11
2246.6372117451542
 21
350.49999999999949
 31
0.0
  0
LINE
  5
22D4
  8
SIZE
  6
CONTINUOUS
 62
    30
 10
2226.6372117451542
 20
-432.50000000000051
 30
0.0
 11
2226.6372117451542
 21
350.49999999999949
 31
0.0
  0
CIRCLE
  5
22D5
  8
SIZE
  6
CONTINUOUS
 62
    30
 10
2226.6372117451542
 20
-432.50000000000051
 30
0.0
 40
7.5
  0
CIRCLE
  5
22D6
  8
SIZE
  6
CONTINUOUS
 62
    30
 10
2226.6372117451542
 20
350.49999999999949
 30
0.0
 40
7.5
  0
TEXT
  5
22D7
  8
SIZE
  6
CONTINUOUS
 62
    30
 10
2206.6372117451551
 20
-110.4285714285716
 30
0.0
 40
60.0
  1
783
 50
90.0
 41
0.9
 72
     1
 11
2206.6372117451551
 21
-41.000000000000142
 31
0.0
  0
POINT
  5
22D9
  8
DEFPOINTS
  6
CONTINUOUS
 62
     7
 10
699.19999999999925
 20
350.5
 30
0.0
  0
POINT
  5
22DA
  8
DEFPOINTS
  6
CONTINUOUS
 62
     7
 10
2226.6372117451542
 20
350.49999999999949
 30
0.0
  0
LINE
  5
22DB
  8
SIZE
  6
CONTINUOUS
 62
    30
 10
-760.0
 20
407.5
 30
0.0
 11
-1208.176723748823
 21
407.50000000000011
 31
0.0
  0
LINE
  5
22DC
  8
SIZE
  6
CONTINUOUS
 62
    30
 10
-764.00024699999983
 20
424.5
 30
0.0
 11
-1208.176723748823
 21
424.5
 31
0.0
  0
LINE
  5
22DD
  8
SIZE
  6
CONTINUOUS
 62
    30
 10
-1188.1767237488241
 20
407.50000000000011
 30
0.0
 11
-1188.1767237488241
 21
377.50000000000011
 31
0.0
  0
LINE
  5
22DE
  8
SIZE
  6
CONTINUOUS
 62
    30
 10
-1188.1767237488241
 20
424.5
 30
0.0
 11
-1188.1767237488241
 21
558.44327188094849
 31
0.0
  0
LINE
  5
22DF
  8
SIZE
  6
CONTINUOUS
 62
    30
 10
-1188.1767237488241
 20
407.50000000000011
 30
0.0
 11
-1188.1767237488241
 21
424.5
 31
0.0
  0
CIRCLE
  5
22E0
  8
SIZE
  6
CONTINUOUS
 62
    30
 10
-1188.1767237488241
 20
407.50000000000011
 30
0.0
 40
7.5
  0
CIRCLE
  5
22E1
  8
SIZE
  6
CONTINUOUS
 62
    30
 10
-1188.1767237488241
 20
424.5
 30
0.0
 40
7.5
  0
TEXT
  5
22E2
  8
SIZE
  6
CONTINUOUS
 62
    30
 10
-1208.176723748823
 20
466.10718939165139
 30
0.0
 40
60.0
  1
17
 50
90.0
 41
0.9
 72
     1
 11
-1208.176723748823
 21
504.67861796308
 31
0.0
  0
POINT
  5
22E3
  8
DEFPOINTS
  6
CONTINUOUS
 62
     7
 10
-740.0
 20
407.5
 30
0.0
  0
POINT
  5
22E4
  8
DEFPOINTS
  6
CONTINUOUS
 62
     7
 10
-744.00024699999983
 20
424.5
 30
0.0
  0
POINT
  5
22E5
  8
DEFPOINTS
  6
CONTINUOUS
 62
     7
 10
-1188.1767237488241
 20
424.5
 30
0.0
  0
LINE
  5
22E6
  8
SIZE
  6
CONTINUOUS
 62
    30
 10
-759.99999999999955
 20
-158.5
 30
0.0
 11
-1208.1430587718639
 21
-158.4999999999998
 31
0.0
  0
LINE
  5
22E7
  8
SIZE
  6
CONTINUOUS
 62
    30
 10
-764.00024699999983
 20
-175.5
 30
0.0
 11
-1208.1430587718639
 21
-175.49999999999989
 31
0.0
  0
LINE
  5
22E8
  8
SIZE
  6
CONTINUOUS
 62
    30
 10
-1188.1430587718639
 20
-175.49999999999989
 30
0.0
 11
-1188.1430587718639
 21
-205.49999999999989
 31
0.0
  0
LINE
  5
22EA
  8
SIZE
  6
CONTINUOUS
 62
    30
 10
-1188.1430587718639
 20
-175.49999999999989
 30
0.0
 11
-1188.1430587718639
 21
-158.4999999999998
 31
0.0
  0
CIRCLE
  5
22EB
  8
SIZE
  6
CONTINUOUS
 62
    30
 10
-1188.1430587718639
 20
-175.49999999999989
 30
0.0
 40
7.5
  0
CIRCLE
  5
22EC
  8
SIZE
  6
CONTINUOUS
 62
    30
 10
-1188.1430587718639
 20
-158.4999999999998
 30
0.0
 40
7.5
  0
POINT
  5
22EE
  8
DEFPOINTS
  6
CONTINUOUS
 62
     7
 10
-739.99999999999955
 20
-158.5
 30
0.0
  0
POINT
  5
22EF
  8
DEFPOINTS
  6
CONTINUOUS
 62
     7
 10
-744.00024699999983
 20
-175.5
 30
0.0
  0
POINT
  5
22F0
  8
DEFPOINTS
  6
CONTINUOUS
 62
     7
 10
-1188.1430587718639
 20
-175.49999999999989
 30
0.0
  0
LINE
  5
22F1
  8
SIZE
  6
CONTINUOUS
 62
    30
 10
-764.00024699999983
 20
424.5
 30
0.0
 11
-1339.397278143558
 21
424.5
 31
0.0
  0
LINE
  5
22F2
  8
SIZE
  6
CONTINUOUS
 62
    30
 10
-764.00024699999983
 20
-175.5
 30
0.0
 11
-1339.397278143558
 21
-175.4999999999998
 31
0.0
  0
LINE
  5
22F3
  8
SIZE
  6
CONTINUOUS
 62
    30
 10
-1319.3972781435591
 20
424.5
 30
0.0
 11
-1319.3972781435591
 21
-175.4999999999998
 31
0.0
  0
CIRCLE
  5
22F4
  8
SIZE
  6
CONTINUOUS
 62
    30
 10
-1319.3972781435591
 20
424.5
 30
0.0
 40
7.5
  0
CIRCLE
  5
22F5
  8
SIZE
  6
CONTINUOUS
 62
    30
 10
-1319.3972781435591
 20
-175.4999999999998
 30
0.0
 40
7.5
  0
TEXT
  5
22F6
  8
SIZE
  6
CONTINUOUS
 62
    30
 10
-1339.3972781435591
 20
51.78347171766756
 30
0.0
 40
60.0
  1
600
 50
90.0
 41
0.9
 72
     1
 11
-1339.3972781435591
 21
121.212043146239
 31
0.0
  0
POINT
  5
22F7
  8
DEFPOINTS
  6
CONTINUOUS
 62
     7
 10
-744.00024699999983
 20
424.5
 30
0.0
  0
POINT
  5
22F8
  8
DEFPOINTS
  6
CONTINUOUS
 62
     7
 10
-744.00024699999983
 20
-175.5
 30
0.0
  0
POINT
  5
22F9
  8
DEFPOINTS
  6
CONTINUOUS
 62
     7
 10
-1319.3972781435591
 20
-175.4999999999998
 30
0.0
  0
LINE
  5
22FA
  8
NOTE
  6
CONTINUOUS
 62
     4
 10
740.0
 20
5.5
 30
0.0
 11
1337.194490268718
 21
793.74608446572904
 31
0.0
  0
LINE
  5
22FB
  8
NOTE
  6
CONTINUOUS
 62
     4
 10
1337.194490268718
 20
793.74608446572904
 30
0.0
 11
1797.1873025913881
 21
793.74608446572904
 31
0.0
  0
LINE
  5
22FC
  8
NOTE
  6
CONTINUOUS
 62
     4
 10
764.52372585147009
 20
24.557910744397301
 30
0.0
 11
740.0
 21
5.5
 31
0.0
  0
LINE
  5
22FD
  8
NOTE
  6
CONTINUOUS
 62
     4
 10
740.0
 20
5.5
 30
0.0
 11
751.70921434111983
 21
34.266497720320331
 31
0.0
  0
LINE
  5
22FE
  8
NOTE
  6
CONTINUOUS
 62
     4
 10
758.0
 20
-112.4999535000006
 30
0.0
 11
1335.8007918094891
 21
555.87025156796881
 31
0.0
  0
LINE
  5
22FF
  8
NOTE
  6
CONTINUOUS
 62
     4
 10
1335.8007918094891
 20
555.87025156796881
 30
0.0
 11
1795.79360413216
 21
555.87025156796881
 31
0.0
  0
LINE
  5
2300
  8
NOTE
  6
CONTINUOUS
 62
     4
 10
783.70084660234727
 20
-95.061961198645804
 30
0.0
 11
758.0
 21
-112.4999535000006
 31
0.0
  0
LINE
  5
2301
  8
NOTE
  6
CONTINUOUS
 62
     4
 10
758.0
 20
-112.4999535000006
 30
0.0
 11
771.53859003252785
 21
-84.547785936274522
 31
0.0
  0
LINE
  5
2302
  8
NOTE
  6
CONTINUOUS
 62
     4
 10
757.0
 20
-214.5
 30
0.0
 11
1121.256215178342
 21
-792.54125903512249
 31
0.0
  0
LINE
  5
2303
  8
NOTE
  6
CONTINUOUS
 62
     4
 10
1121.256215178342
 20
-792.54125903512249
 30
0.0
 11
1476.027400313965
 21
-792.54125903512249
 31
0.0
  0
LINE
  5
2304
  8
NOTE
  6
CONTINUOUS
 62
     4
 10
766.19315818916925
 20
-244.16652885135679
 30
0.0
 11
757.0
 21
-214.5
 31
0.0
  0
LINE
  5
2305
  8
NOTE
  6
CONTINUOUS
 62
     4
 10
757.0
 20
-214.5
 30
0.0
 11
779.79477286280803
 21
-235.59538863620361
 31
0.0
  0
LINE
  5
2306
  8
NOTE
  6
CONTINUOUS
 62
     4
 10
778.0
 20
-147.5
 30
0.0
 11
1122.499875559319
 21
-640.44176891855022
 31
0.0
  0
LINE
  5
2307
  8
NOTE
  6
CONTINUOUS
 62
     4
 10
1122.499875559319
 20
-640.44176891855022
 30
0.0
 11
1521.568233058277
 21
-640.44176891855022
 31
0.0
  0
LINE
  5
2308
  8
NOTE
  6
CONTINUOUS
 62
     4
 10
788.5962516912416
 20
-176.69480333339061
 30
0.0
 11
778.0
 21
-147.5
 31
0.0
  0
LINE
  5
2309
  8
NOTE
  6
CONTINUOUS
 62
     4
 10
778.0
 20
-147.5
 30
0.0
 11
801.77402472554013
 21
-167.4853156074378
 31
0.0
  0
LINE
  5
230A
  8
NOTE
  6
CONTINUOUS
 62
     4
 10
-480.00000000000051
 20
-432.5
 30
0.0
 11
-810.58660434329363
 21
-771.81292135962758
 31
0.0
  0
LINE
  5
230B
  8
NOTE
  6
CONTINUOUS
 62
     4
 10
-810.58660434329363
 20
-771.81292135962758
 30
0.0
 11
-1423.8412641642651
 21
-771.81292135962758
 31
0.0
  0
LINE
  5
230E
  8
SIZE
  6
CONTINUOUS
 62
    30
 10
-596.00226846634553
 20
-397.5
 30
0.0
 11
-933.5818197618056
 21
-397.5
 31
0.0
  0
LINE
  5
230F
  8
SIZE
  6
CONTINUOUS
 62
    30
 10
-590.31599926897775
 20
-432.5
 30
0.0
 11
-933.5818197618056
 21
-432.49999999999989
 31
0.0
  0
LINE
  5
2310
  8
SIZE
  6
CONTINUOUS
 62
    30
 10
-913.58181976180549
 20
-397.5
 30
0.0
 11
-913.58181976180549
 21
-367.49999999999989
 31
0.0
  0
LINE
  5
2311
  8
SIZE
  6
CONTINUOUS
 62
    30
 10
-913.58181976180549
 20
-432.49999999999989
 30
0.0
 11
-913.58181976180549
 21
-565.70675138139518
 31
0.0
  0
LINE
  5
2312
  8
SIZE
  6
CONTINUOUS
 62
    30
 10
-913.58181976180549
 20
-397.5
 30
0.0
 11
-913.58181976180549
 21
-432.49999999999989
 31
0.0
  0
CIRCLE
  5
2313
  8
SIZE
  6
CONTINUOUS
 62
    30
 10
-913.58181976180549
 20
-397.5
 30
0.0
 40
7.5
  0
CIRCLE
  5
2314
  8
SIZE
  6
CONTINUOUS
 62
    30
 10
-913.58181976180549
 20
-432.49999999999989
 30
0.0
 40
7.5
  0
TEXT
  5
2315
  8
SIZE
  6
CONTINUOUS
 62
    30
 10
-933.5818197618056
 20
-550.83152235152227
 30
0.0
 40
60.0
  1
35
 50
90.0
 41
0.9
 72
     1
 11
-933.5818197618056
 21
-507.1172366372366
 31
0.0
  0
POINT
  5
2317
  8
DEFPOINTS
  6
CONTINUOUS
 62
     7
 10
62.974273999999639
 20
-432.5
 30
0.0
  0
POINT
  5
2318
  8
DEFPOINTS
  6
CONTINUOUS
 62
     7
 10
-913.58181976180549
 20
-432.49999999999989
 30
0.0
  0
LINE
  5
232E
  8
DETAIL
  6
CONTINUOUS
 62
     5
 10
-679.51705700000002
 20
-364.11098700000002
 30
0.0
 11
-683.62399798650927
 21
-364.00000034054761
 31
0.0
  0
LINE
  5
233B
  8
DETAIL
  6
CONTINUOUS
 62
     5
 10
-658.53961499999934
 20
-365.96509499999962
 30
0.0
 11
-679.51706298650936
 21
-364.11098734054758
 31
0.0
  0
LINE
  5
2343
  8
DETAIL
  6
CONTINUOUS
 62
     5
 10
683.52399200000002
 20
-364.0
 30
0.0
 11
692.06920700000012
 21
-364.0
 31
0.0
  0
LINE
  5
2344
  8
DETAIL
  6
CONTINUOUS
 62
     5
 10
679.41705700000011
 20
-364.11098700000002
 30
0.0
 11
683.52399798650981
 21
-364.00000034054761
 31
0.0
  0
LINE
  5
2345
  8
DETAIL
  6
CONTINUOUS
 62
     5
 10
658.43961499999989
 20
-365.96509499999962
 30
0.0
 11
679.41706298650979
 21
-364.11098734054758
 31
0.0
  0
LINE
  5
234D
  8
DETAIL
  6
CONTINUOUS
 62
     5
 10
658.42930200000001
 20
-361.96509499999962
 30
0.0
 11
-658.52930099999912
 21
-361.96470899999991
 31
0.0
  0
ARC
  5
2379
  8
DETAIL
  6
CONTINUOUS
 62
     5
 10
585.13499387473291
 20
-397.44296500817529
 30
0.0
 40
5.1262576528349513
 50
89.931677163264141
 51
177.9458955915407
  0
ARC
  5
237A
  8
DETAIL
  6
CONTINUOUS
 62
     5
 10
374.86792914816363
 20
-397.43562128077349
 30
0.0
 40
5.118918297434341
 50
1.8085659712867801
 51
90.10140172050491
  0
ARC
  5
237B
  8
DETAIL
  6
CONTINUOUS
 62
     5
 10
519.57836672256599
 20
-336.37133600000021
 30
0.0
 40
60.858113000000003
 50
229.4328750000096
 51
270.0
  0
ARC
  5
237C
  8
DETAIL
  6
CONTINUOUS
 62
     5
 10
440.42162372256621
 20
-336.37133600000021
 30
0.0
 40
60.858113000000003
 50
270.0
 51
310.56712499999031
  0
ARC
  5
237D
  8
DETAIL
  6
CONTINUOUS
 62
     5
 10
526.02671872256622
 20
-397.45269999999988
 30
0.0
 40
6.452214999999998
 50
127.2498200000455
 51
178.01713699994289
  0
ARC
  5
237E
  8
DETAIL
  6
CONTINUOUS
 62
     5
 10
433.97327272256621
 20
-397.45269999999988
 30
0.0
 40
6.452214999999998
 50
1.982862999952681
 51
52.750179999954433
  0
ARC
  5
237F
  8
DETAIL
  6
CONTINUOUS
 62
     5
 10
437.87874372256601
 20
-296.14538499999992
 30
0.0
 40
96.171327000000005
 50
270.0
 51
295.97515700001082
  0
ARC
  5
2380
  8
DETAIL
  6
CONTINUOUS
 62
     5
 10
522.12124772256652
 20
-296.14538499999992
 30
0.0
 40
96.171327000000005
 50
244.0248429999892
 51
270.0
  0
LINE
  5
2382
  8
DETAIL
  6
CONTINUOUS
 62
     5
 10
577.02572172256635
 20
-432.50000000000011
 30
0.0
 11
382.97426972256608
 21
-432.50000000000011
 31
0.0
  0
LINE
  5
2383
  8
DETAIL
  6
CONTINUOUS
 62
     5
 10
579.99999572256615
 20
-397.52944899999972
 30
0.0
 11
379.9999957225661
 21
-397.52944899999972
 31
0.0
  0
LINE
  5
2384
  8
DETAIL
  6
CONTINUOUS
 62
     5
 10
579.98796122256601
 20
-397.79967449999998
 30
0.0
 11
577.52443272256619
 21
-432.03574900000052
 31
0.0
  0
LINE
  5
2385
  8
DETAIL
  6
CONTINUOUS
 62
     5
 10
380.01569397256611
 20
-397.78483075000003
 30
0.0
 11
382.47555872256618
 21
-432.03574900000052
 31
0.0
  0
LINE
  5
2386
  8
DETAIL
  6
CONTINUOUS
 62
     5
 10
580.01203022256595
 20
-397.25922349999928
 30
0.0
 11
579.98796122256601
 21
-397.79967449999998
 31
0.0
  0
LINE
  5
2387
  8
DETAIL
  6
CONTINUOUS
 62
     5
 10
379.98429747256608
 20
-397.27406724999929
 30
0.0
 11
380.01569397256611
 21
-397.78483075000003
 31
0.0
  0
ARC
  5
2388
  8
DETAIL
  6
CONTINUOUS
 62
     5
 10
382.97426972256608
 20
-432.0
 30
0.0
 40
0.5
 50
184.09999999999681
 51
270.0
  0
ARC
  5
2389
  8
DETAIL
  6
CONTINUOUS
 62
     5
 10
577.02572172256635
 20
-432.0
 30
0.0
 40
0.5
 50
270.0
 51
355.90000000000288
  0
POINT
  5
238A
  8
DEFPOINTS
  6
CONTINUOUS
 62
     7
 10
382.97426972256608
 20
-397.50000000000011
 30
0.0
  0
POINT
  5
238B
  8
DEFPOINTS
  6
CONTINUOUS
 62
     7
 10
382.97426972256608
 20
-432.50000000000011
 30
0.0
  0
LINE
  5
238E
  8
DETAIL
  6
CONTINUOUS
 62
     5
 10
522.11246599026765
 20
-392.31671159905488
 30
0.0
 11
678.98033199999975
 21
-392.31671100000119
 31
0.0
  0
POINT
  5
24B5
  8
DEFPOINTS
  6
CONTINUOUS
 62
     7
 10
778.0
 20
-147.5
 30
0.0
 50
180.0
  0
LINE
  5
24B6
  8
DETAIL
  6
CONTINUOUS
 62
     5
 10
778.0
 20
-136.25
 30
0.0
 11
778.0
 21
-158.75
 31
0.0
  0
LINE
  5
24B7
  8
DETAIL
  6
CONTINUOUS
 62
     5
 10
730.0
 20
-159.0
 30
0.0
 11
753.01829699999973
 21
-159.0
 31
0.0
  0
LINE
  5
24B8
  8
DETAIL
  6
CONTINUOUS
 62
     5
 10
730.0
 20
-135.9999999999998
 30
0.0
 11
753.01829699999973
 21
-136.0
 31
0.0
  0
LINE
  5
24CD
  8
DETAIL
  6
CONTINUOUS
 62
     5
 10
759.01829699999985
 20
-158.5
 30
0.0
 11
761.01829699999939
 21
-160.5
 31
0.0
  0
LINE
  5
24CE
  8
DETAIL
  6
CONTINUOUS
 62
     5
 10
759.01829699999985
 20
-158.5
 30
0.0
 11
761.01829699999939
 21
-160.5
 31
0.0
  0
LINE
  5
24CF
  8
DETAIL
  6
CONTINUOUS
 62
     5
 10
759.01829699999985
 20
-136.5
 30
0.0
 11
761.01829699999939
 21
-134.5
 31
0.0
  0
LINE
  5
24D0
  8
DETAIL
  6
CONTINUOUS
 62
     5
 10
759.01829699999985
 20
-136.5
 30
0.0
 11
761.01829699999939
 21
-134.5
 31
0.0
  0
LINE
  5
24D1
  8
DETAIL
  6
CONTINUOUS
 62
     5
 10
778.0
 20
-158.75
 30
0.0
 11
775.01829699999985
 21
-160.5
 31
0.0
  0
LINE
  5
24D2
  8
DETAIL
  6
CONTINUOUS
 62
     5
 10
775.01829699999985
 20
-134.5
 30
0.0
 11
778.0
 21
-136.25000399999999
 31
0.0
  0
LINE
  5
24D3
  8
DETAIL
  6
CONTINUOUS
 62
     5
 10
775.01829699999985
 20
-134.5
 30
0.0
 11
775.01829699999985
 21
-160.5
 31
0.0
  0
LINE
  5
24D4
  8
DETAIL
  6
CONTINUOUS
 62
     5
 10
775.01829699999985
 20
-134.5
 30
0.0
 11
775.01829699999985
 21
-160.5
 31
0.0
  0
LINE
  5
24D5
  8
DETAIL
  6
CONTINUOUS
 62
     5
 10
759.01829699999985
 20
-136.5
 30
0.0
 11
759.01829699999985
 21
-158.5
 31
0.0
  0
LINE
  5
24D6
  8
DETAIL
  6
CONTINUOUS
 62
     5
 10
759.01829699999985
 20
-136.5
 30
0.0
 11
759.01829699999985
 21
-158.5
 31
0.0
  0
LINE
  5
24D7
  8
DETAIL
  6
CONTINUOUS
 62
     5
 10
761.01829699999939
 20
-160.5
 30
0.0
 11
775.01829699999985
 21
-160.5
 31
0.0
  0
LINE
  5
24D8
  8
DETAIL
  6
CONTINUOUS
 62
     5
 10
761.01829699999939
 20
-160.5
 30
0.0
 11
775.01829699999985
 21
-160.5
 31
0.0
  0
LINE
  5
24D9
  8
DETAIL
  6
CONTINUOUS
 62
     5
 10
761.01829699999939
 20
-134.5
 30
0.0
 11
775.01829699999985
 21
-134.5
 31
0.0
  0
LINE
  5
24DA
  8
DETAIL
  6
CONTINUOUS
 62
     5
 10
761.01829699999939
 20
-134.5
 30
0.0
 11
775.01829699999985
 21
-134.5
 31
0.0
  0
LINE
  5
24DB
  8
DETAIL
  6
CONTINUOUS
 62
     5
 10
759.01829699999985
 20
-139.5
 30
0.0
 11
759.01829699999985
 21
-155.5
 31
0.0
  0
LINE
  5
24DE
  8
DETAIL
  6
CONTINUOUS
 62
     5
 10
755.01829699999985
 20
-138.0
 30
0.0
 11
753.01829699999973
 21
-136.0
 31
0.0
  0
LINE
  5
24DF
  8
DETAIL
  6
CONTINUOUS
 62
     5
 10
755.01829699999985
 20
-157.0
 30
0.0
 11
753.01829699999973
 21
-159.0
 31
0.0
  0
LINE
  5
24E0
  8
DETAIL
  6
CONTINUOUS
 62
     5
 10
755.01829699999985
 20
-138.0
 30
0.0
 11
755.01829699999985
 21
-157.0
 31
0.0
  0
LINE
  5
24EF
  8
DETAIL
  6
CONTINUOUS
 62
     5
 10
759.01829699999985
 20
-158.5
 30
0.0
 11
761.01829699999939
 21
-160.5
 31
0.0
  0
LINE
  5
24F0
  8
DETAIL
  6
CONTINUOUS
 62
     5
 10
759.01829699999985
 20
-136.5
 30
0.0
 11
761.01829699999939
 21
-134.5
 31
0.0
  0
LINE
  5
24F1
  8
DETAIL
  6
CONTINUOUS
 62
     5
 10
775.01829699999985
 20
-134.5
 30
0.0
 11
775.01829699999985
 21
-160.5
 31
0.0
  0
LINE
  5
24F2
  8
DETAIL
  6
CONTINUOUS
 62
     5
 10
759.01829699999985
 20
-136.5
 30
0.0
 11
759.01829699999985
 21
-158.5
 31
0.0
  0
LINE
  5
24F3
  8
DETAIL
  6
CONTINUOUS
 62
     5
 10
759.01829699999985
 20
-136.5
 30
0.0
 11
759.01829699999985
 21
-158.5
 31
0.0
  0
LINE
  5
24F4
  8
DETAIL
  6
CONTINUOUS
 62
     5
 10
761.01829699999939
 20
-160.5
 30
0.0
 11
775.01829699999985
 21
-160.5
 31
0.0
  0
LINE
  5
24F5
  8
DETAIL
  6
CONTINUOUS
 62
     5
 10
761.01829699999939
 20
-134.5
 30
0.0
 11
775.01829699999985
 21
-134.5
 31
0.0
  0
LINE
  5
24F6
  8
DETAIL
  6
CONTINUOUS
 62
     5
 10
759.01829699999985
 20
-139.5
 30
0.0
 11
759.01829699999985
 21
-155.5
 31
0.0
  0
LINE
  5
2525
  8
DETAIL
  6
CONTINUOUS
 62
     5
 10
735.49999978722644
 20
-224.00000658773661
 30
0.0
 11
723.0
 21
-224.00000658773661
 31
0.0
  0
LINE
  5
2526
  8
DETAIL
  6
CONTINUOUS
 62
     5
 10
735.49999978722644
 20
-205.00000658773661
 30
0.0
 11
723.0
 21
-205.00000658773661
 31
0.0
  0
LINE
  5
252A
  8
DETAIL
  6
CONTINUOUS
 62
     5
 10
736.49999978722644
 20
-223.00000658773661
 30
0.0
 11
735.49999978722644
 21
-224.00000658773661
 31
0.0
  0
LINE
  5
252C
  8
DETAIL
  6
CONTINUOUS
 62
     5
 10
736.49999978722644
 20
-223.00000658773661
 30
0.0
 11
736.49999978722644
 21
-206.00000658773661
 31
0.0
  0
LINE
  5
252E
  8
DETAIL
  6
CONTINUOUS
 62
     5
 10
757.0
 20
-204.0
 30
0.0
 11
738.49999978722656
 21
-204.00000658773661
 31
0.0
  0
LINE
  5
2531
  8
DETAIL
  6
CONTINUOUS
 62
     5
 10
736.49999978722644
 20
-206.00000658773661
 30
0.0
 11
735.49999978722644
 21
-205.00000658773661
 31
0.0
  0
LINE
  5
2535
  8
DETAIL
  6
CONTINUOUS
 62
     5
 10
736.49999978722644
 20
-223.00000658773661
 30
0.0
 11
736.49999978722644
 21
-206.00000658773661
 31
0.0
  0
LINE
  5
2536
  8
DETAIL
  6
CONTINUOUS
 62
     5
 10
738.49999978722656
 20
-225.00000658773661
 30
0.0
 11
738.49999978722656
 21
-204.00000658773661
 31
0.0
  0
LINE
  5
253E
  8
DETAIL
  6
CONTINUOUS
 62
     5
 10
756.99999953117845
 20
-225.00000023770281
 30
0.0
 11
738.49999953117845
 21
-225.00000023770281
 31
0.0
  0
LINE
  5
2547
  8
DETAIL
  6
CONTINUOUS
 62
     5
 10
757.0
 20
-225.0
 30
0.0
 11
757.0
 21
-204.0
 31
0.0
  0
LINE
  5
2565
  8
OUTLINE
  6
CONTINUOUS
 62
     3
 10
700.0
 20
-350.4999987272285
 30
0.0
 11
-699.99999680961105
 21
-350.4999987272285
 31
0.0
  0
LINE
  5
257F
  8
OUTLINE
  6
CONTINUOUS
 62
     3
 10
-700.0
 20
-175.5
 30
0.0
 11
-744.0
 21
-175.5
 31
0.0
  0
LINE
  5
2589
  8
OUTLINE
  6
CONTINUOUS
 62
     3
 10
699.19999999999925
 20
350.5
 30
0.0
 11
-699.20000135357918
 21
350.49999781380308
 31
0.0
  0
LINE
  5
2591
  8
OUTLINE
  6
CONTINUOUS
 62
     3
 10
-699.19999999999982
 20
350.5
 30
0.0
 11
-699.19999999999982
 21
348.70000000000078
 31
0.0
  0
LINE
  5
2599
  8
OUTLINE
  6
CONTINUOUS
 62
     3
 10
-699.19999999999982
 20
348.70000000000078
 30
0.0
 11
-700.00000299605085
 21
348.69999873825071
 31
0.0
  0
LINE
  5
25A1
  8
OUTLINE
  6
CONTINUOUS
 62
     3
 10
699.19999700394885
 20
350.49999873824987
 30
0.0
 11
699.19999700394885
 21
348.69999873825071
 31
0.0
  0
LINE
  5
25A9
  8
OUTLINE
  6
CONTINUOUS
 62
     3
 10
699.19999700394885
 20
348.70000000000078
 30
0.0
 11
699.99999700394881
 21
348.69999873825071
 31
0.0
  0
LINE
  5
25BF
  8
OUTLINE
  6
CONTINUOUS
 62
     3
 10
699.99999700394881
 20
348.69999873825071
 30
0.0
 11
699.99999784845897
 21
329.49999747649969
 31
0.0
  0
LINE
  5
25C7
  8
OUTLINE
  6
CONTINUOUS
 62
     3
 10
698.9999978484592
 20
329.5
 30
0.0
 11
698.9999978484592
 21
277.49999747649969
 31
0.0
  0
LINE
  5
25CF
  8
OUTLINE
  6
CONTINUOUS
 62
     3
 10
698.9999978484592
 20
277.49999747649969
 30
0.0
 11
700.0
 21
277.5
 31
0.0
  0
LINE
  5
25D7
  8
OUTLINE
  6
CONTINUOUS
 62
     3
 10
699.99999784845897
 20
329.49999747649969
 30
0.0
 11
698.9999978484592
 21
329.49999747649969
 31
0.0
  0
LINE
  5
2619
  8
OUTLINE
  6
CONTINUOUS
 62
     3
 10
-728.4699999999998
 20
392.9699999999994
 30
0.0
 11
1108.47
 21
392.9699999999994
 31
0.0
  0
LINE
  5
2621
  8
OUTLINE
  6
CONTINUOUS
 62
     3
 10
-728.4699999999998
 20
-143.96999999999929
 30
0.0
 11
-728.47000028107061
 21
392.97000112966089
 31
0.0
  0
LINE
  5
2629
  8
OUTLINE
  6
CONTINUOUS
 62
     3
 10
-728.47000028107061
 20
-143.97000080671739
 30
0.0
 11
-700.0000002810707
 21
-143.97000080671739
 31
0.0
  0
LINE
  5
2631
  8
OUTLINE
  6
CONTINUOUS
 62
     3
 10
1108.4699999598449
 20
-143.97000080671739
 30
0.0
 11
1108.4699999598449
 21
392.96999919328118
 31
0.0
  0
LINE
  5
2639
  8
OUTLINE
  6
CONTINUOUS
 62
     3
 10
700.0
 20
-143.97000080671739
 30
0.0
 11
1108.47
 21
-143.96999999999929
 31
0.0
  0
TEXT
  5
2A53
  8
NOTE
  6
CONTINUOUS
 62
     4
 10
-1302.142564279781
 20
743.34222733402271
 30
0.0
 40
60.0
  1
AH 4-M10
 50
0.0000025044165917
 41
0.7
  7
STANDARD1
  0
LINE
  5
2A54
  8
NOTE
  6
CONTINUOUS
 62
     4
 10
-1329.0742534634089
 20
714.83269331092265
 30
0.0
 11
-973.88443733888721
 21
714.83269331092265
 31
0.0
  0
LINE
  5
2A5C
  8
NOTE
  6
CONTINUOUS
 62
     4
 10
-726.99999999999955
 20
317.5
 30
0.0
 11
-973.88443733888721
 21
714.83269331092265
 31
0.0
  0
LINE
  5
2A5D
  8
NOTE
  6
CONTINUOUS
 62
     4
 10
-736.00485094554233
 20
347.22422835042209
 30
0.0
 11
-726.99999999999955
 21
317.49999999999972
 31
0.0
  0
LINE
  5
2A5E
  8
NOTE
  6
CONTINUOUS
 62
     4
 10
-726.99999999999955
 20
317.49999999999972
 30
0.0
 11
-749.66054375498913
 21
338.7395114893842
 31
0.0
  0
LINE
  5
2C78
  8
DETAIL
  6
CONTINUOUS
 62
     5
 10
-658.52639799999963
 20
-360.00117200000022
 30
0.0
 11
-658.52930099999912
 21
-361.96470899999991
 31
0.0
  0
LINE
  5
2DE1
  8
NOTE
  6
DASHDOT
 62
     4
 10
-700.0
 20
-158.5
 30
0.0
 11
-739.99999999999955
 21
-158.5
 31
0.0
  0
LINE
  5
2DFC
  8
SIZE
  6
CONTINUOUS
 62
    30
 10
-160.0
 20
-511.85746950000049
 30
0.0
 11
-160.0
 21
-1111.052959928775
 31
0.0
  0
LINE
  5
2DFD
  8
SIZE
  6
CONTINUOUS
 62
    30
 10
160.00000199999999
 20
-1091.052959928775
 30
0.0
 11
-160.0
 21
-1091.052959928775
 31
0.0
  0
CIRCLE
  5
2DFE
  8
SIZE
  6
CONTINUOUS
 62
    30
 10
-160.0
 20
-1091.052959928775
 30
0.0
 40
7.5
  0
TEXT
  5
2DFF
  8
SIZE
  6
CONTINUOUS
 62
    30
 10
-69.428570428571518
 20
-1071.052959928775
 30
0.0
 40
60.0
  1
320
 41
0.9
 72
     1
 11
0.0000009999999122
 21
-1071.052959928775
 31
0.0
  0
POINT
  5
2E00
  8
DEFPOINTS
  6
CONTINUOUS
 62
     7
 10
-160.0
 20
-1091.052959928775
 30
0.0
  0
LINE
  5
2E01
  8
SIZE
  6
CONTINUOUS
 62
    30
 10
160.0
 20
-511.85746950000049
 30
0.0
 11
160.00000199999999
 21
-1111.052959928775
 31
0.0
  0
CIRCLE
  5
2E02
  8
SIZE
  6
CONTINUOUS
 62
    30
 10
160.00000199999999
 20
-1091.052959928775
 30
0.0
 40
7.5
  0
LINE
  5
2E0B
  8
DETAIL
  6
CONTINUOUS
 62
     5
 10
202.05556115507741
 20
-392.3167114881843
 30
0.0
 11
437.8787433882901
 21
-392.316712
 31
0.0
  0
LINE
  5
2E1D
  8
SIZE
  6
CONTINUOUS
 62
    30
 10
749.99999489783102
 20
-1375.3490686434909
 30
0.0
 11
907.42856632640223
 21
-1375.3490686434909
 31
0.0
  0
LINE
  5
2E25
  8
SIZE
  6
CONTINUOUS
 62
    30
 10
-907.42857142857122
 20
-1375.3490706323969
 30
0.0
 11
-750.0
 21
-1375.3490706323969
 31
0.0
  0
LINE
  5
2E2E
  8
SIZE
  6
CONTINUOUS
 62
    30
 10
-1188.1430587718639
 20
-158.4999999999998
 30
0.0
 11
-1188.1430587718639
 21
-24.556728119051289
 31
0.0
  0
TEXT
  5
2E2F
  8
SIZE
  6
CONTINUOUS
 62
    30
 10
-1208.143058771863
 20
-116.8928106083483
 30
0.0
 40
60.0
  1
17
 50
90.0
 41
0.9
 72
     1
 11
-1208.143058771863
 21
-78.321382036919786
 31
0.0
  0
ARC
  5
2E44
  8
DETAIL
  6
CONTINUOUS
 62
     5
 10
-54.865001847833518
 20
-397.44296500817518
 30
0.0
 40
5.1262576528349513
 50
89.931677163264141
 51
177.94589559154079
  0
ARC
  5
2E45
  8
DETAIL
  6
CONTINUOUS
 62
     5
 10
-265.13206657440293
 20
-397.4356212807732
 30
0.0
 40
5.118918297434341
 50
1.808565971289992
 51
90.10140172050491
  0
ARC
  5
2E46
  8
DETAIL
  6
CONTINUOUS
 62
     5
 10
-120.42162900000029
 20
-336.3713360000001
 30
0.0
 40
60.858113000000003
 50
229.43287500001111
 51
270.0
  0
ARC
  5
2E47
  8
DETAIL
  6
CONTINUOUS
 62
     5
 10
-199.5783720000004
 20
-336.3713360000001
 30
0.0
 40
60.858113000000003
 50
270.0
 51
310.56712499998878
  0
ARC
  5
2E48
  8
DETAIL
  6
CONTINUOUS
 62
     5
 10
-113.97327700000039
 20
-397.45269999999982
 30
0.0
 40
6.452214999999998
 50
127.2498200000453
 51
178.01713699994301
  0
ARC
  5
2E49
  8
DETAIL
  6
CONTINUOUS
 62
     5
 10
-206.0267230000004
 20
-397.45269999999982
 30
0.0
 40
6.452214999999998
 50
1.9828629999526921
 51
52.750179999954717
  0
ARC
  5
2E4A
  8
DETAIL
  6
CONTINUOUS
 62
     5
 10
-202.1212520000004
 20
-296.14538499999981
 30
0.0
 40
96.171327000000005
 50
270.0
 51
295.97515700001412
  0
ARC
  5
2E4B
  8
DETAIL
  6
CONTINUOUS
 62
     5
 10
-117.8787479999996
 20
-296.14538499999981
 30
0.0
 40
96.171327000000005
 50
244.02484299998571
 51
270.0
  0
LINE
  5
2E4C
  8
NOTE
  6
CONTINUOUS
 62
     4
 10
-160.00000000000051
 20
-491.8574695000006
 30
0.0
 11
-160.00000000000051
 21
-373.14253049999922
 31
0.0
  0
LINE
  5
2E4D
  8
DETAIL
  6
CONTINUOUS
 62
     5
 10
-62.974274000000172
 20
-432.5
 30
0.0
 11
-257.0257260000003
 21
-432.5
 31
0.0
  0
LINE
  5
2E4E
  8
DETAIL
  6
CONTINUOUS
 62
     5
 10
-60.000000000000462
 20
-397.5294489999996
 30
0.0
 11
-260.00000000000028
 21
-397.5294489999996
 31
0.0
  0
LINE
  5
2E4F
  8
DETAIL
  6
CONTINUOUS
 62
     5
 10
-60.012034500000411
 20
-397.79967449999992
 30
0.0
 11
-62.475563000000079
 21
-432.03574900000052
 31
0.0
  0
LINE
  5
2E50
  8
DETAIL
  6
CONTINUOUS
 62
     5
 10
-259.98430175000038
 20
-397.7848307499998
 30
0.0
 11
-257.52443700000038
 21
-432.03574900000052
 31
0.0
  0
LINE
  5
2E51
  8
DETAIL
  6
CONTINUOUS
 62
     5
 10
-59.987965500000307
 20
-397.25922349999928
 30
0.0
 11
-60.012034500000411
 21
-397.79967449999992
 31
0.0
  0
LINE
  5
2E52
  8
DETAIL
  6
CONTINUOUS
 62
     5
 10
-260.0156982500003
 20
-397.27406724999929
 30
0.0
 11
-259.98430175000038
 21
-397.7848307499998
 31
0.0
  0
ARC
  5
2E53
  8
DETAIL
  6
CONTINUOUS
 62
     5
 10
-577.02571660853482
 20
-432.00000027783409
 30
0.0
 40
0.5
 50
184.0999999999969
 51
270.0
  0
ARC
  5
2E54
  8
DETAIL
  6
CONTINUOUS
 62
     5
 10
-62.974274000000172
 20
-432.0
 30
0.0
 40
0.5
 50
270.0
 51
355.90000000000288
  0
LINE
  5
2E55
  8
NOTE
  6
CONTINUOUS
 62
     4
 10
-219.3574694999997
 20
-432.5
 30
0.0
 11
-100.64253050000001
 21
-432.5
 31
0.0
  0
POINT
  5
2E57
  8
DEFPOINTS
  6
CONTINUOUS
 62
     7
 10
-577.02571660853482
 20
-432.50000027783409
 30
0.0
  0
LINE
  5
2FE7
  8
DETAIL
  6
CONTINUOUS
 62
     5
 10
759.01829699999985
 20
-139.56
 30
0.0
 11
755.01829699999985
 21
-139.56
 31
0.0
  0
LINE
  5
2FE8
  8
DETAIL
  6
CONTINUOUS
 62
     5
 10
759.01829699999985
 20
-155.44
 30
0.0
 11
755.01829699999985
 21
-155.44
 31
0.0
  0
LINE
  5
2FE9
  8
DETAIL
  6
CONTINUOUS
 62
     5
 10
738.49999978722656
 20
-209.74000658773659
 30
0.0
 11
736.49999978722644
 21
-209.74000658773659
 31
0.0
  0
LINE
  5
2FEA
  8
DETAIL
  6
CONTINUOUS
 62
     5
 10
738.49999978722656
 20
-219.26000658773651
 30
0.0
 11
736.49999978722644
 21
-219.26000658773651
 31
0.0
  0
LINE
  5
3152
  8
DETAIL
  6
CONTINUOUS
 62
     5
 10
-689.08032300000002
 20
-392.31671100000119
 30
0.0
 11
-522.10738324438046
 21
-392.31671100000119
 31
0.0
  0
LINE
  5
3153
  8
NOTE
  6
CONTINUOUS
 62
     4
 10
-507.04881992656681
 20
-447.76363102802452
 30
0.0
 11
-480.00000000000051
 21
-432.5
 31
0.0
  0
LINE
  5
3154
  8
NOTE
  6
CONTINUOUS
 62
     4
 10
-480.00000000000051
 20
-432.5
 30
0.0
 11
-495.79314980610633
 21
-459.24310211589858
 31
0.0
  0
ARC
  5
3155
  8
DETAIL
  6
CONTINUOUS
 62
     5
 10
-374.86500184783353
 20
-397.44296500817518
 30
0.0
 40
5.1262576528349513
 50
89.931677163264141
 51
177.9458955915407
  0
ARC
  5
3156
  8
DETAIL
  6
CONTINUOUS
 62
     5
 10
-585.13206657440287
 20
-397.4356212807732
 30
0.0
 40
5.118918297434341
 50
1.8085659712899551
 51
90.10140172050491
  0
ARC
  5
3157
  8
DETAIL
  6
CONTINUOUS
 62
     5
 10
-440.421629
 20
-336.3713360000001
 30
0.0
 40
60.858113000000003
 50
229.43287500001151
 51
270.0
  0
ARC
  5
3158
  8
DETAIL
  6
CONTINUOUS
 62
     5
 10
-519.5783720000004
 20
-336.3713360000001
 30
0.0
 40
60.858113000000003
 50
270.0
 51
310.56712499998838
  0
ARC
  5
3159
  8
DETAIL
  6
CONTINUOUS
 62
     5
 10
-433.97327700000022
 20
-397.45269999999982
 30
0.0
 40
6.452214999999998
 50
127.2498200000454
 51
178.01713699994289
  0
ARC
  5
315A
  8
DETAIL
  6
CONTINUOUS
 62
     5
 10
-526.02672300000006
 20
-397.45269999999982
 30
0.0
 40
6.452214999999998
 50
1.9828629999527101
 51
52.750179999954547
  0
ARC
  5
315B
  8
DETAIL
  6
CONTINUOUS
 62
     5
 10
-522.12125200000025
 20
-296.14538499999981
 30
0.0
 40
96.171327000000005
 50
270.0
 51
295.97515700001429
  0
ARC
  5
315C
  8
DETAIL
  6
CONTINUOUS
 62
     5
 10
-437.87874799999958
 20
-296.14538499999981
 30
0.0
 40
96.171327000000005
 50
244.02484299998571
 51
270.0
  0
LINE
  5
315D
  8
NOTE
  6
CONTINUOUS
 62
     4
 10
-480.00000000000051
 20
-491.8574695000006
 30
0.0
 11
-480.00000000000051
 21
-373.14253049999922
 31
0.0
  0
LINE
  5
315E
  8
DETAIL
  6
CONTINUOUS
 62
     5
 10
-382.97427400000021
 20
-432.5
 30
0.0
 11
-577.02572600000008
 21
-432.5
 31
0.0
  0
LINE
  5
315F
  8
DETAIL
  6
CONTINUOUS
 62
     5
 10
-380.00000000000051
 20
-397.5294489999996
 30
0.0
 11
-580.00000000000011
 21
-397.5294489999996
 31
0.0
  0
LINE
  5
3160
  8
DETAIL
  6
CONTINUOUS
 62
     5
 10
-380.01203450000042
 20
-397.79967449999992
 30
0.0
 11
-382.47556300000008
 21
-432.03574900000052
 31
0.0
  0
LINE
  5
3161
  8
DETAIL
  6
CONTINUOUS
 62
     5
 10
-579.98430175000033
 20
-397.7848307499998
 30
0.0
 11
-577.52443700000015
 21
-432.03574900000052
 31
0.0
  0
LINE
  5
3162
  8
DETAIL
  6
CONTINUOUS
 62
     5
 10
-379.98796550000031
 20
-397.25922349999928
 30
0.0
 11
-380.01203450000042
 21
-397.79967449999992
 31
0.0
  0
LINE
  5
3163
  8
DETAIL
  6
CONTINUOUS
 62
     5
 10
-580.01569825000013
 20
-397.27406724999929
 30
0.0
 11
-579.98430175000033
 21
-397.7848307499998
 31
0.0
  0
ARC
  5
3164
  8
DETAIL
  6
CONTINUOUS
 62
     5
 10
-382.97427400000021
 20
-432.0
 30
0.0
 40
0.5
 50
270.0
 51
355.90000000000288
  0
LINE
  5
3165
  8
NOTE
  6
CONTINUOUS
 62
     4
 10
-539.35746949999975
 20
-432.5
 30
0.0
 11
-420.64253050000002
 21
-432.5
 31
0.0
  0
ARC
  5
316C
  8
DETAIL
  6
CONTINUOUS
 62
     5
 10
-257.0257260000003
 20
-432.0
 30
0.0
 40
0.5
 50
184.0999999999969
 51
270.0
  0
POINT
  5
316D
  8
DEFPOINTS
  6
CONTINUOUS
 62
     7
 10
-257.0257260000003
 20
-432.5
 30
0.0
  0
LINE
  5
316E
  8
SIZE
  6
CONTINUOUS
 62
    30
 10
-480.0
 20
-511.85746950000049
 30
0.0
 11
-480.0
 21
-1111.052959928775
 31
0.0
  0
LINE
  5
316F
  8
SIZE
  6
CONTINUOUS
 62
    30
 10
-159.99999800000001
 20
-1091.052959928775
 30
0.0
 11
-480.0
 21
-1091.052959928775
 31
0.0
  0
CIRCLE
  5
3170
  8
SIZE
  6
CONTINUOUS
 62
    30
 10
-480.0
 20
-1091.052959928775
 30
0.0
 40
7.5
  0
TEXT
  5
3171
  8
SIZE
  6
CONTINUOUS
 62
    30
 10
-389.4285704285715
 20
-1071.052959928775
 30
0.0
 40
60.0
  1
320
 41
0.9
 72
     1
 11
-319.99999900000012
 21
-1071.052959928775
 31
0.0
  0
POINT
  5
3172
  8
DEFPOINTS
  6
CONTINUOUS
 62
     7
 10
-480.0
 20
-1091.052959928775
 30
0.0
  0
LINE
  5
3173
  8
SIZE
  6
CONTINUOUS
 62
    30
 10
-160.0
 20
-511.85746950000049
 30
0.0
 11
-159.99999800000001
 21
-1111.052959928775
 31
0.0
  0
CIRCLE
  5
3174
  8
SIZE
  6
CONTINUOUS
 62
    30
 10
-159.99999800000001
 20
-1091.052959928775
 30
0.0
 40
7.5
  0
TEXT
  5
32FD
  8
ETC
  6
CONTINUOUS
 62
    61
 10
1308.777024207842
 20
1389.405382836462
 30
0.0
 40
64.0
  1
PD-RP112_160GA8_1
 50
0.0000029998804485
 41
0.9
  7
STANDARD_MODELNAME
  0
TEXT
  5
32FE
  8
ETC
  6
CONTINUOUS
 62
    61
 10
1308.777024207842
 20
1263.6231557847259
 30
0.0
 40
64.0
  1
PD-RP112_160GA9_1
 50
0.0000029998804485
 41
0.9
  7
STANDARD_MODELNAME
  0
TEXT
  5
345C
  8
ETC
  6
CONTINUOUS
 62
    61
 10
1308.777024207842
 20
1148.072764602294
 30
0.0
 40
64.0
  1
PD-RP112_160GA10_1
 50
0.0000029998804485
 41
0.9
  7
STANDARD_MODELNAME
  0
ENDSEC
  0
EOF
