  0
SECTION
  2
HEADER
  9
$ACADVER
  1
AC1009
  9
$INSBASE
 10
0.0
 20
0.0
 30
0.0
  9
$EXTMIN
 10
-1483.282892805553
 20
-607.14148705395201
 30
-0.0000000000112498
  9
$EXTMAX
 10
1416.325984558661
 20
1672.7802810069079
 30
0.0000000000002956
  9
$LIMMIN
 10
-4267.1522210604817
 20
-2696.0832101984129
  9
$LIMMAX
 10
7190.7174225864646
 20
5141.155363923066
  9
$ORTHOMODE
 70
     0
  9
$REGENMODE
 70
     1
  9
$FILLMODE
 70
     1
  9
$QTEXTMODE
 70
     0
  9
$MIRRTEXT
 70
     0
  9
$DRAGMODE
 70
     2
  9
$LTSCALE
 40
20.0
  9
$OSMODE
 70
   431
  9
$ATTMODE
 70
     1
  9
$TEXTSIZE
 40
64.0
  9
$TRACEWID
 40
0.05
  9
$TEXTSTYLE
  7
STANDARD_MODELNAME
  9
$CLAYER
  8
SYMBOLLINE
  9
$CELTYPE
  6
CONTINUOUS
  9
$CECOLOR
 62
     7
  9
$DIMSCALE
 40
1.0
  9
$DIMASZ
 40
30.0
  9
$DIMEXO
 40
20.0
  9
$DIMDLI
 40
80.0
  9
$DIMRND
 40
0.0
  9
$DIMDLE
 40
0.0
  9
$DIMEXE
 40
20.0
  9
$DIMTP
 40
0.0
  9
$DIMTM
 40
0.0
  9
$DIMTXT
 40
60.0
  9
$DIMCEN
 40
0.09
  9
$DIMTSZ
 40
0.0
  9
$DIMTOL
 70
     0
  9
$DIMLIM
 70
     0
  9
$DIMTIH
 70
     0
  9
$DIMTOH
 70
     0
  9
$DIMSE1
 70
     0
  9
$DIMSE2
 70
     0
  9
$DIMTAD
 70
     1
  9
$DIMZIN
 70
     8
  9
$DIMBLK
  1
SMALL
  9
$DIMASO
 70
     1
  9
$DIMSHO
 70
     0
  9
$DIMPOST
  1

  9
$DIMAPOST
  1

  9
$DIMALT
 70
     0
  9
$DIMALTD
 70
     2
  9
$DIMALTF
 40
25.399999999999999
  9
$DIMLFAC
 40
1.0
  9
$DIMTOFL
 70
     1
  9
$DIMTVP
 40
0.0
  9
$DIMTIX
 70
     0
  9
$DIMSOXD
 70
     0
  9
$DIMSAH
 70
     0
  9
$DIMBLK1
  1

  9
$DIMBLK2
  1

  9
$DIMSTYLE
  2
STANDARD
  9
$DIMCLRD
 70
     0
  9
$DIMCLRE
 70
     0
  9
$DIMCLRT
 70
     0
  9
$DIMTFAC
 40
1.0
  9
$DIMGAP
 40
0.09
  9
$LUNITS
 70
     2
  9
$LUPREC
 70
     4
  9
$SKETCHINC
 40
0.1
  9
$FILLETRAD
 40
0.0
  9
$AUNITS
 70
     1
  9
$AUPREC
 70
     3
  9
$MENU
  1
ACAD
  9
$ELEVATION
 40
0.0
  9
$PELEVATION
 40
0.0
  9
$THICKNESS
 40
0.0
  9
$LIMCHECK
 70
     0
  9
$BLIPMODE
 70
     0
  9
$CHAMFERA
 40
0.0
  9
$CHAMFERB
 40
0.0
  9
$SKPOLY
 70
     0
  9
$TDCREATE
 40
2450330.4399309959
  9
$TDUPDATE
 40
2457001.5614960762
  9
$TDINDWG
 40
3.9944549999999999
  9
$TDUSRTIMER
 40
3.9944517130000001
  9
$USRTIMER
 70
     1
  9
$ANGBASE
 50
0.0
  9
$ANGDIR
 70
     0
  9
$PDMODE
 70
     3
  9
$PDSIZE
 40
-2.0
  9
$PLINEWID
 40
0.0
  9
$COORDS
 70
     1
  9
$SPLFRAME
 70
     0
  9
$SPLINETYPE
 70
     6
  9
$SPLINESEGS
 70
     8
  9
$ATTDIA
 70
     1
  9
$ATTREQ
 70
     1
  9
$HANDLING
 70
     1
  9
$HANDSEED
  5
1656
  9
$SURFTAB1
 70
     6
  9
$SURFTAB2
 70
     6
  9
$SURFTYPE
 70
     6
  9
$SURFU
 70
     6
  9
$SURFV
 70
     6
  9
$UCSNAME
  2

  9
$UCSORG
 10
0.0
 20
0.0
 30
0.0
  9
$UCSXDIR
 10
1.0
 20
0.0
 30
0.0
  9
$UCSYDIR
 10
0.0
 20
1.0
 30
0.0
  9
$PUCSNAME
  2

  9
$PUCSORG
 10
0.0
 20
0.0
 30
0.0
  9
$PUCSXDIR
 10
1.0
 20
0.0
 30
0.0
  9
$PUCSYDIR
 10
0.0
 20
1.0
 30
0.0
  9
$USERI1
 70
     0
  9
$USERI2
 70
     0
  9
$USERI3
 70
     0
  9
$USERI4
 70
     0
  9
$USERI5
 70
     0
  9
$USERR1
 40
20.0
  9
$USERR2
 40
0.0
  9
$USERR3
 40
0.0
  9
$USERR4
 40
0.0
  9
$USERR5
 40
0.0
  9
$WORLDVIEW
 70
     1
  9
$SHADEDGE
 70
     3
  9
$SHADEDIF
 70
    70
  9
$TILEMODE
 70
     1
  9
$MAXACTVP
 70
    64
  9
$PLIMCHECK
 70
     0
  9
$PEXTMIN
 10
1.0000000000000000E+020
 20
1.0000000000000000E+020
 30
1.0000000000000000E+020
  9
$PEXTMAX
 10
-1.0000000000000000E+020
 20
-1.0000000000000000E+020
 30
-1.0000000000000000E+020
  9
$PLIMMIN
 10
0.0
 20
0.0
  9
$PLIMMAX
 10
12.0
 20
9.0
  9
$UNITMODE
 70
     0
  9
$VISRETAIN
 70
     1
  9
$PLINEGEN
 70
     0
  9
$PSLTSCALE
 70
     1
  0
ENDSEC
  0
SECTION
  2
TABLES
  0
TABLE
  2
VPORT
 70
     1
  0
VPORT
  2
*ACTIVE
 70
     0
 10
0.0
 20
0.0
 11
1.0
 21
1.0
 12
-33.478454123445829
 22
532.81939697647806
 13
0.0
 23
0.0
 14
50.0
 24
50.0
 15
100.0
 25
100.0
 16
0.0
 26
0.0
 36
1.0
 17
0.0
 27
0.0
 37
0.0
 40
2297.8269128362072
 41
1.6159895150720831
 42
50.0
 43
0.0
 44
0.0
 50
0.0
 51
0.0
 71
     0
 72
  1000
 73
     1
 74
     0
 75
     0
 76
     0
 77
     0
 78
     0
  0
ENDTAB
  0
TABLE
  2
LTYPE
 70
     3
  0
LTYPE
  2
CONTINUOUS
 70
     0
  3
実線
 72
    65
 73
     0
 40
0.0
  0
LTYPE
  2
DASHDOT
 70
     0
  3
____ _ ____ _ ____ _ ____ _ ____ _ ____ _ ____
 72
    65
 73
     4
 40
5.5
 49
4.0
 49
-0.6
 49
0.3
 49
-0.6
  0
ENDTAB
  0
TABLE
  2
LAYER
 70
    12
  0
LAYER
  2
0
 70
     0
 62
     7
  6
CONTINUOUS
  0
LAYER
  2
SYMBOLLINE
 70
     0
 62
    15
  6
CONTINUOUS
  0
LAYER
  2
SIZE
 70
     0
 62
    30
  6
CONTINUOUS
  0
LAYER
  2
OUTLINE
 70
     0
 62
     3
  6
CONTINUOUS
  0
LAYER
  2
DETAIL
 70
     0
 62
     5
  6
CONTINUOUS
  0
LAYER
  2
BASIS
 70
     0
 62
     6
  6
DASHDOT
  0
LAYER
  2
NOTE
 70
     0
 62
     4
  6
CONTINUOUS
  0
LAYER
  2
ARRANGE
 70
     0
 62
     1
  6
CONTINUOUS
  0
LAYER
  2
FIX
 70
     0
 62
    11
  6
CONTINUOUS
  0
LAYER
  2
SERVICESPACE
 70
     0
 62
     2
  6
DASHDOT
  0
LAYER
  2
ETC
 70
     0
 62
    61
  6
CONTINUOUS
  0
LAYER
  2
DEFPOINTS
 70
     0
 62
     7
  6
CONTINUOUS
  0
ENDTAB
  0
TABLE
  2
STYLE
 70
     4
  0
STYLE
  2
STANDARD
 70
     0
 40
0.0
 41
0.9
 50
0.0
 71
     0
 42
64.0
  3
SIMPLEX
  4
BIGFONT
  0
STYLE
  2
ANNOTATIVE
 70
     0
 40
0.0
 41
1.0
 50
0.0
 71
     0
 42
0.2
  3
txt
  4

  0
STYLE
  2
STANDARD_MODELNAME
 70
     0
 40
80.0
 41
0.8
 50
0.0
 71
     0
 42
64.0
  3
MONOTXT.shx
  4
BIGFONT.shx
  0
STYLE
  2
STANDARD1
 70
     0
 40
60.0
 41
0.7
 50
0.0
 71
     0
 42
64.0
  3
MONOTXT.shx
  4
BIGFONT.shx
  0
ENDTAB
  0
TABLE
  2
VIEW
 70
     1
  0
VIEW
  2
ALL
 70
     0
 40
9000.0
 10
241.50664699999999
 20
0.0
 41
12483.01
 11
0.0
 21
0.0
 31
1.0
 12
0.0
 22
0.0
 32
0.0
 42
50.0
 43
0.0
 44
0.0
 50
0.0
 71
     0
  0
ENDTAB
  0
TABLE
  2
UCS
 70
     0
  0
ENDTAB
  0
TABLE
  2
APPID
 70
     5
  0
APPID
  2
ACAD
 70
     0
  0
APPID
  2
ACADANNOTATIVE
 70
     0
  0
APPID
  2
ACAD_MLEADERVER
 70
     0
  0
APPID
  2
ACAD_EXEMPT_FROM_CAD_STANDARDS
 70
     0
  0
APPID
  2
ACAD_NAV_VCDISPLAY
 70
     0
  0
ENDTAB
  0
TABLE
  2
DIMSTYLE
 70
     2
  0
DIMSTYLE
  2
STANDARD
 70
     0
  3

  4

  5

  6

  7

 40
1.0
 41
0.18
 42
0.0625
 43
0.38
 44
0.18
 45
0.0
 46
0.0
 47
0.0
 48
0.0
140
0.18
141
0.09
142
0.0
143
25.399999999999999
144
1.0
145
0.0
146
1.0
147
0.09
 71
     0
 72
     0
 73
     1
 74
     1
 75
     0
 76
     0
 77
     0
 78
     0
170
     0
171
     2
172
     0
173
     0
174
     0
175
     0
176
     0
177
     0
178
     0
  0
DIMSTYLE
  2
ANNOTATIVE
 70
     0
  3

  4

  5

  6

  7

 40
1.0
 41
0.18
 42
0.0625
 43
0.38
 44
0.18
 45
0.0
 46
0.0
 47
0.0
 48
0.0
140
0.18
141
0.09
142
0.0
143
25.399999999999999
144
1.0
145
0.0
146
1.0
147
0.09
 71
     0
 72
     0
 73
     1
 74
     1
 75
     0
 76
     0
 77
     0
 78
     0
170
     0
171
     2
172
     0
173
     0
174
     0
175
     0
176
     0
177
     0
178
     0
  0
ENDTAB
  0
ENDSEC
  0
SECTION
  2
BLOCKS
  0
BLOCK
  8
0
  2
$MODEL_SPACE
 70
     0
 10
0.0
 20
0.0
 30
0.0
  3
$MODEL_SPACE
  1

  0
ENDBLK
  5
15C5
  8
0
  0
BLOCK
 67
     1
  8
0
  2
$PAPER_SPACE
 70
     0
 10
0.0
 20
0.0
 30
0.0
  3
$PAPER_SPACE
  1

  0
ENDBLK
  5
15C1
 67
     1
  8
0
  0
BLOCK
  8
0
  2
_SMALL
 70
     0
 10
0.0
 20
0.0
 30
0.0
  3
_SMALL
  1

  0
CIRCLE
  5
8D
  8
0
  6
CONTINUOUS
 62
     7
 10
0.0
 20
0.0
 30
0.0
 40
0.25
  0
ENDBLK
  5
8E
  8
0
  0
BLOCK
  8
0
  2
_DOTBLANK
 70
     0
 10
0.0
 20
0.0
 30
0.0
  3
_DOTBLANK
  1

  0
CIRCLE
  5
142C
  8
0
  6
CONTINUOUS
 62
     7
 10
0.0
 20
0.0
 30
0.0
 40
0.5
  0
LINE
  5
142D
  8
0
  6
CONTINUOUS
 62
     7
 10
-0.5
 20
0.0
 30
0.0
 11
-1.0
 21
0.0
 31
0.0
  0
ENDBLK
  5
142E
  8
0
  0
ENDSEC
  0
SECTION
  2
ENTITIES
  0
CIRCLE
  5
98
  8
NOTE
  6
CONTINUOUS
 62
     4
 10
-197.5
 20
266.99999999999909
 30
0.0
 40
62.5
  0
LINE
  5
99
  8
NOTE
  6
CONTINUOUS
 62
     4
 10
-122.5
 20
266.99999999999909
 30
0.0
 11
-272.5
 21
266.99999999999909
 31
0.0
  0
LINE
  5
9A
  8
NOTE
  6
CONTINUOUS
 62
     4
 10
-197.5
 20
341.99999999999909
 30
0.0
 11
-197.5
 21
191.99999999999909
 31
0.0
  0
LINE
  5
9B
  8
NOTE
  6
CONTINUOUS
 62
     4
 10
158.5
 20
1.0
 30
0.0
 11
158.5
 21
21.0
 31
0.0
  0
LINE
  5
9C
  8
NOTE
  6
CONTINUOUS
 62
     4
 10
258.5
 20
1.0
 30
0.0
 11
158.5
 21
1.0
 31
0.0
  0
LINE
  5
9D
  8
NOTE
  6
CONTINUOUS
 62
     4
 10
258.5
 20
21.0
 30
0.0
 11
158.5
 21
21.0
 31
0.0
  0
LINE
  5
9E
  8
NOTE
  6
CONTINUOUS
 62
     4
 10
176.838346
 20
1.0
 30
0.0
 11
196.838346
 21
21.0
 31
0.0
  0
LINE
  5
9F
  8
NOTE
  6
CONTINUOUS
 62
     4
 10
216.838346
 20
1.0
 30
0.0
 11
236.838346
 21
21.0
 31
0.0
  0
LINE
  5
A0
  8
NOTE
  6
CONTINUOUS
 62
     4
 10
181.838346
 20
1.0
 30
0.0
 11
201.838346
 21
21.0
 31
0.0
  0
LINE
  5
A1
  8
NOTE
  6
CONTINUOUS
 62
     4
 10
221.838346
 20
1.0
 30
0.0
 11
241.838346
 21
21.0
 31
0.0
  0
LINE
  5
A2
  8
NOTE
  6
CONTINUOUS
 62
     4
 10
186.838346
 20
1.0
 30
0.0
 11
206.838346
 21
21.0
 31
0.0
  0
LINE
  5
A3
  8
NOTE
  6
CONTINUOUS
 62
     4
 10
226.838346
 20
1.0
 30
0.0
 11
246.838346
 21
21.0
 31
0.0
  0
LINE
  5
A4
  8
NOTE
  6
CONTINUOUS
 62
     4
 10
-479.16165399999988
 20
1.0
 30
0.0
 11
-459.161654
 21
21.0
 31
0.0
  0
LINE
  5
A5
  8
NOTE
  6
CONTINUOUS
 62
     4
 10
-484.161654
 20
1.0
 30
0.0
 11
-464.161654
 21
21.0
 31
0.0
  0
LINE
  5
A6
  8
NOTE
  6
CONTINUOUS
 62
     4
 10
-489.161654
 20
1.0
 30
0.0
 11
-469.161654
 21
21.0
 31
0.0
  0
LINE
  5
A7
  8
NOTE
  6
CONTINUOUS
 62
     4
 10
-449.16165399999988
 20
1.0
 30
0.0
 11
-429.16165399999988
 21
21.0
 31
0.0
  0
LINE
  5
A8
  8
NOTE
  6
CONTINUOUS
 62
     4
 10
-444.161654
 20
1.0
 30
0.0
 11
-424.16165399999988
 21
21.0
 31
0.0
  0
LINE
  5
A9
  8
NOTE
  6
CONTINUOUS
 62
     4
 10
-439.161654
 20
1.0
 30
0.0
 11
-419.161654
 21
21.0
 31
0.0
  0
LINE
  5
AA
  8
NOTE
  6
CONTINUOUS
 62
     4
 10
-407.5
 20
1.0
 30
0.0
 11
-407.5
 21
21.0
 31
0.0
  0
LINE
  5
AB
  8
NOTE
  6
CONTINUOUS
 62
     4
 10
-407.5
 20
21.0
 30
0.0
 11
-500.204094
 21
21.0
 31
0.0
  0
LINE
  5
AC
  8
NOTE
  6
CONTINUOUS
 62
     4
 10
-407.5
 20
1.0
 30
0.0
 11
-500.204094
 21
1.0
 31
0.0
  0
LINE
  5
FC
  8
DETAIL
  6
CONTINUOUS
 62
     5
 10
-196.0
 20
219.99999999999909
 30
0.0
 11
-199.0
 21
219.99999999999909
 31
0.0
  0
LINE
  5
FD
  8
DETAIL
  6
CONTINUOUS
 62
     5
 10
-147.52250499999991
 20
265.49999999999909
 30
0.0
 11
-150.52250499999991
 21
265.49999999999909
 31
0.0
  0
LINE
  5
FE
  8
DETAIL
  6
CONTINUOUS
 62
     5
 10
-150.52250499999991
 20
268.49999999999909
 30
0.0
 11
-147.52250499999991
 21
268.49999999999909
 31
0.0
  0
LINE
  5
104
  8
DETAIL
  6
CONTINUOUS
 62
     5
 10
-199.0
 20
313.99999999999892
 30
0.0
 11
-196.0
 21
313.99999999999892
 31
0.0
  0
LINE
  5
14D
  8
DETAIL
  6
CONTINUOUS
 62
     5
 10
-150.52250499999991
 20
265.49999999999909
 30
0.0
 11
-150.52250499999991
 21
268.49999999999909
 31
0.0
  0
LINE
  5
14E
  8
DETAIL
  6
CONTINUOUS
 62
     5
 10
-196.0
 20
217.02250499999991
 30
0.0
 11
-196.0
 21
219.99999999999909
 31
0.0
  0
LINE
  5
14F
  8
DETAIL
  6
CONTINUOUS
 62
     5
 10
-196.0
 20
313.99999999999892
 30
0.0
 11
-196.0
 21
316.97749499999918
 31
0.0
  0
LINE
  5
150
  8
DETAIL
  6
CONTINUOUS
 62
     5
 10
-199.0
 20
316.97749499999918
 30
0.0
 11
-199.0
 21
313.99999999999892
 31
0.0
  0
LINE
  5
151
  8
DETAIL
  6
CONTINUOUS
 62
     5
 10
-199.0
 20
219.99999999999909
 30
0.0
 11
-199.0
 21
217.02250499999991
 31
0.0
  0
CIRCLE
  5
1A4
  8
DETAIL
  6
CONTINUOUS
 62
     5
 10
-143.3734119999998
 20
235.74999999999909
 30
0.0
 40
1.45
  0
ARC
  5
1A5
  8
DETAIL
  6
CONTINUOUS
 62
     5
 10
-197.5
 20
266.99999999999909
 30
0.0
 40
50.0
 50
1.719130999980657
 51
88.280868999993459
  0
ARC
  5
1A6
  8
DETAIL
  6
CONTINUOUS
 62
     5
 10
-197.5
 20
266.99999999999909
 30
0.0
 40
50.0
 50
91.719131000006527
 51
268.28086899999352
  0
ARC
  5
1A7
  8
DETAIL
  6
CONTINUOUS
 62
     5
 10
-197.5
 20
266.99999999999909
 30
0.0
 40
50.0
 50
271.71913100000648
 51
358.28086900001921
  0
CIRCLE
  5
1A8
  8
DETAIL
  6
CONTINUOUS
 62
     5
 10
-251.62658800000011
 20
235.74999999999909
 30
0.0
 40
1.45
  0
CIRCLE
  5
1BE
  8
DETAIL
  6
CONTINUOUS
 62
     5
 10
-197.5
 20
329.49999999999909
 30
0.0
 40
1.45
  0
LINE
  5
F28
  8
NOTE
  6
CONTINUOUS
 62
     4
 10
189.60000000000031
 20
280.0
 30
0.0
 11
239.39999999999969
 21
280.0
 31
0.0
  0
LINE
  5
F29
  8
NOTE
  6
CONTINUOUS
 62
     4
 10
214.5
 20
304.90000000000049
 30
0.0
 11
214.5
 21
255.10000000000031
 31
0.0
  0
LINE
  5
F2A
  8
NOTE
  6
CONTINUOUS
 62
     4
 10
121.10000000000031
 20
247.0
 30
0.0
 11
173.89999999999961
 21
247.0
 31
0.0
  0
LINE
  5
F2B
  8
NOTE
  6
CONTINUOUS
 62
     4
 10
147.5
 20
273.39999999999958
 30
0.0
 11
147.5
 21
220.60000000000039
 31
0.0
  0
CIRCLE
  5
F2D
  8
FIX
  6
CONTINUOUS
 62
    11
 10
325.5
 20
390.0
 30
0.0
 40
12.42149793872491
  0
CIRCLE
  5
F2F
  8
FIX
  6
CONTINUOUS
 62
    11
 10
-317.5
 20
387.0
 30
0.0
 40
12.42149793872491
  0
LINE
  5
F30
  8
NOTE
  6
CONTINUOUS
 62
     4
 10
432.5
 20
226.63590849999949
 30
0.0
 11
432.5
 21
345.35084750000078
 31
0.0
  0
LINE
  5
F31
  8
NOTE
  6
CONTINUOUS
 62
     4
 10
373.1425305000007
 20
285.99337800000012
 30
0.0
 11
491.85746950000009
 21
285.99337800000012
 31
0.0
  0
LINE
  5
F32
  8
SIZE
  6
CONTINUOUS
 62
    30
 10
-336.25
 20
130.0
 30
0.0
 11
-1423.059653616325
 21
130.00000000000031
 31
0.0
  0
LINE
  5
F33
  8
SIZE
  6
CONTINUOUS
 62
    30
 10
-368.69999999999987
 20
402.0
 30
0.0
 11
-1423.059653616325
 21
402.0
 31
0.0
  0
LINE
  5
F34
  8
SIZE
  6
CONTINUOUS
 62
    30
 10
-1403.059653616325
 20
130.00000000000031
 30
0.0
 11
-1403.059653616325
 21
402.0
 31
0.0
  0
CIRCLE
  5
F35
  8
SIZE
  6
CONTINUOUS
 62
    30
 10
-1403.059653616325
 20
130.00000000000031
 30
0.0
 40
7.5
  0
CIRCLE
  5
F36
  8
SIZE
  6
CONTINUOUS
 62
    30
 10
-1403.059653616325
 20
402.0
 30
0.0
 40
7.5
  0
TEXT
  5
F37
  8
SIZE
  6
CONTINUOUS
 62
    30
 10
-1423.059653616325
 20
196.5714285714285
 30
0.0
 40
60.0
  1
272
 50
90.0
 41
0.9
 72
     1
 11
-1423.059653616325
 21
266.0
 31
0.0
  0
POINT
  5
F38
  8
DEFPOINTS
  6
CONTINUOUS
 62
     7
 10
-316.25
 20
131.0
 30
0.0
  0
POINT
  5
F3A
  8
DEFPOINTS
  6
CONTINUOUS
 62
     7
 10
-1403.059653616325
 20
402.0
 30
0.0
  0
LINE
  5
F3B
  8
SIZE
  6
CONTINUOUS
 62
    30
 10
-368.69999999999987
 20
402.0
 30
0.0
 11
-1293.012322913823
 21
402.0
 31
0.0
  0
LINE
  5
F3C
  8
SIZE
  6
CONTINUOUS
 62
    30
 10
-292.5
 20
266.99999999999909
 30
0.0
 11
-1293.012322913823
 21
266.99999999999937
 31
0.0
  0
LINE
  5
F3D
  8
SIZE
  6
CONTINUOUS
 62
    30
 10
-1273.0123229138219
 20
266.99999999999937
 30
0.0
 11
-1273.0123229138219
 21
402.0
 31
0.0
  0
LINE
  5
F3E
  8
SIZE
  6
CONTINUOUS
 62
    30
 10
-1273.0123229138219
 20
402.0
 30
0.0
 11
-1273.0123229138219
 21
600.57142857142901
 31
0.0
  0
CIRCLE
  5
F3F
  8
SIZE
  6
CONTINUOUS
 62
    30
 10
-1273.0123229138219
 20
266.99999999999937
 30
0.0
 40
7.5
  0
CIRCLE
  5
F40
  8
SIZE
  6
CONTINUOUS
 62
    30
 10
-1273.0123229138219
 20
402.0
 30
0.0
 40
7.5
  0
TEXT
  5
F41
  8
SIZE
  6
CONTINUOUS
 62
    30
 10
-1293.0123229138219
 20
452.0000000000004
 30
0.0
 40
60.0
  1
135
 50
90.0
 41
0.9
 72
     1
 11
-1293.0123229138219
 21
516.28571428571468
 31
0.0
  0
POINT
  5
F43
  8
DEFPOINTS
  6
CONTINUOUS
 62
     7
 10
-272.5
 20
266.99999999999909
 30
0.0
  0
POINT
  5
F44
  8
DEFPOINTS
  6
CONTINUOUS
 62
     7
 10
-1273.0123229138219
 20
266.99999999999937
 30
0.0
  0
LINE
  5
F45
  8
SIZE
  6
CONTINUOUS
 62
    30
 10
-197.5
 20
362.99999999999909
 30
0.0
 11
-197.5
 21
638.12339266850154
 31
0.0
  0
LINE
  5
F46
  8
SIZE
  6
CONTINUOUS
 62
    30
 10
-350.5
 20
421.39999999999958
 30
0.0
 11
-350.5
 21
638.12339266850154
 31
0.0
  0
LINE
  5
F47
  8
SIZE
  6
CONTINUOUS
 62
    30
 10
-197.5
 20
618.12339266850154
 30
0.0
 11
-350.5
 21
618.12339266850154
 31
0.0
  0
LINE
  5
F48
  8
SIZE
  6
CONTINUOUS
 62
    30
 10
-350.5
 20
618.12339266850154
 30
0.0
 11
-549.07142857142856
 21
618.12339266850154
 31
0.0
  0
CIRCLE
  5
F49
  8
SIZE
  6
CONTINUOUS
 62
    30
 10
-197.5
 20
618.12339266850154
 30
0.0
 40
7.5
  0
CIRCLE
  5
F4A
  8
SIZE
  6
CONTINUOUS
 62
    30
 10
-350.5
 20
618.12339266850154
 30
0.0
 40
7.5
  0
TEXT
  5
F4B
  8
SIZE
  6
CONTINUOUS
 62
    30
 10
-529.07142857142856
 20
638.12339266850154
 30
0.0
 40
60.0
  1
153
 41
0.9
 72
     1
 11
-464.78571428571428
 21
638.12339266850154
 31
0.0
  0
POINT
  5
F4E
  8
DEFPOINTS
  6
CONTINUOUS
 62
     7
 10
-350.5
 20
618.12339266850154
 30
0.0
  0
LINE
  5
F5B
  8
SIZE
  6
CONTINUOUS
 62
    30
 10
350.5
 20
423.0
 30
0.0
 11
350.50000000000011
 21
1118.723433078507
 31
0.0
  0
LINE
  5
F5C
  8
SIZE
  6
CONTINUOUS
 62
    30
 10
432.5
 20
404.025732
 30
0.0
 11
432.50000000000011
 21
1118.723433078507
 31
0.0
  0
LINE
  5
F5D
  8
SIZE
  6
CONTINUOUS
 62
    30
 10
350.50000000000011
 20
1098.7234330785061
 30
0.0
 11
432.50000000000011
 21
1098.7234330785061
 31
0.0
  0
LINE
  5
F5E
  8
SIZE
  6
CONTINUOUS
 62
    30
 10
432.50000000000011
 20
1098.7234330785061
 30
0.0
 11
589.92857142857144
 21
1098.7234330785061
 31
0.0
  0
CIRCLE
  5
F5F
  8
SIZE
  6
CONTINUOUS
 62
    30
 10
350.50000000000011
 20
1098.7234330785061
 30
0.0
 40
7.5
  0
CIRCLE
  5
F60
  8
SIZE
  6
CONTINUOUS
 62
    30
 10
432.50000000000011
 20
1098.7234330785061
 30
0.0
 40
7.5
  0
TEXT
  5
F61
  8
SIZE
  6
CONTINUOUS
 62
    30
 10
482.49999999999989
 20
1118.7234330785061
 30
0.0
 40
60.0
  1
82
 41
0.9
 72
     1
 11
526.21428571428567
 21
1118.7234330785061
 31
0.0
  0
POINT
  5
F64
  8
DEFPOINTS
  6
CONTINUOUS
 62
     7
 10
432.50000000000011
 20
1098.7234330785061
 30
0.0
  0
LINE
  5
F65
  8
SIZE
  6
CONTINUOUS
 62
    30
 10
147.5
 20
294.39999999999958
 30
0.0
 11
147.5
 21
773.92646953582334
 31
0.0
  0
LINE
  5
F66
  8
SIZE
  6
CONTINUOUS
 62
    30
 10
214.5
 20
325.9000000000006
 30
0.0
 11
214.5
 21
773.92646953582334
 31
0.0
  0
LINE
  5
F67
  8
SIZE
  6
CONTINUOUS
 62
    30
 10
214.5
 20
753.92646953582334
 30
0.0
 11
147.5
 21
753.92646953582334
 31
0.0
  0
LINE
  5
F68
  8
SIZE
  6
CONTINUOUS
 62
    30
 10
147.5
 20
753.92646953582334
 30
0.0
 11
-9.9285714285714874
 21
753.92646953582334
 31
0.0
  0
CIRCLE
  5
F69
  8
SIZE
  6
CONTINUOUS
 62
    30
 10
214.5
 20
753.92646953582334
 30
0.0
 40
7.5
  0
CIRCLE
  5
F6A
  8
SIZE
  6
CONTINUOUS
 62
    30
 10
147.5
 20
753.92646953582334
 30
0.0
 40
7.5
  0
TEXT
  5
F6B
  8
SIZE
  6
CONTINUOUS
 62
    30
 10
10.071428571428489
 20
773.92646953582334
 30
0.0
 40
60.0
  1
67
 41
0.9
 72
     1
 11
53.785714285714207
 21
773.92646953582334
 31
0.0
  0
POINT
  5
F6C
  8
DEFPOINTS
  6
CONTINUOUS
 62
     7
 10
147.5
 20
273.39999999999958
 30
0.0
  0
POINT
  5
F6D
  8
DEFPOINTS
  6
CONTINUOUS
 62
     7
 10
214.5
 20
304.90000000000049
 30
0.0
  0
POINT
  5
F6E
  8
DEFPOINTS
  6
CONTINUOUS
 62
     7
 10
214.5
 20
753.92646953582334
 30
0.0
  0
LINE
  5
F6F
  8
SIZE
  6
CONTINUOUS
 62
    30
 10
214.5
 20
325.9000000000006
 30
0.0
 11
214.5
 21
773.92646953582334
 31
0.0
  0
LINE
  5
F70
  8
SIZE
  6
CONTINUOUS
 62
    30
 10
350.5
 20
423.0
 30
0.0
 11
350.5
 21
773.92646953582334
 31
0.0
  0
LINE
  5
F71
  8
SIZE
  6
CONTINUOUS
 62
    30
 10
214.5
 20
753.92646953582334
 30
0.0
 11
350.5
 21
753.92646953582334
 31
0.0
  0
LINE
  5
F72
  8
SIZE
  6
CONTINUOUS
 62
    30
 10
350.5
 20
753.92646953582334
 30
0.0
 11
629.49999999999989
 21
753.92646953582334
 31
0.0
  0
CIRCLE
  5
F73
  8
SIZE
  6
CONTINUOUS
 62
    30
 10
214.5
 20
753.92646953582334
 30
0.0
 40
7.5
  0
CIRCLE
  5
F74
  8
SIZE
  6
CONTINUOUS
 62
    30
 10
350.5
 20
753.92646953582334
 30
0.0
 40
7.5
  0
TEXT
  5
F75
  8
SIZE
  6
CONTINUOUS
 62
    30
 10
483.49999999999977
 20
773.92646953582334
 30
0.0
 40
60.0
  1
136
 41
0.9
 72
     1
 11
546.49999999999977
 21
773.92646953582334
 31
0.0
  0
POINT
  5
F76
  8
DEFPOINTS
  6
CONTINUOUS
 62
     7
 10
214.5
 20
304.90000000000049
 30
0.0
  0
POINT
  5
F78
  8
DEFPOINTS
  6
CONTINUOUS
 62
     7
 10
350.5
 20
753.92646953582334
 30
0.0
  0
LINE
  5
F79
  8
SIZE
  6
CONTINUOUS
 62
    30
 10
101.10000000000031
 20
247.0
 30
0.0
 11
-1022.319694134425
 21
247.00000000000031
 31
0.0
  0
LINE
  5
F7A
  8
SIZE
  6
CONTINUOUS
 62
    30
 10
169.60000000000031
 20
280.0
 30
0.0
 11
-1022.319694134425
 21
280.0000000000004
 31
0.0
  0
LINE
  5
F7B
  8
SIZE
  6
CONTINUOUS
 62
    30
 10
-1002.319694134425
 20
247.00000000000031
 30
0.0
 11
-1002.319694134425
 21
217.00000000000031
 31
0.0
  0
LINE
  5
F7C
  8
SIZE
  6
CONTINUOUS
 62
    30
 10
-1002.319694134425
 20
280.0000000000004
 30
0.0
 11
-1002.319694134425
 21
540.40261893014713
 31
0.0
  0
LINE
  5
F7D
  8
SIZE
  6
CONTINUOUS
 62
    30
 10
-1002.319694134425
 20
247.00000000000031
 30
0.0
 11
-1002.319694134425
 21
280.0000000000004
 31
0.0
  0
CIRCLE
  5
F7E
  8
SIZE
  6
CONTINUOUS
 62
    30
 10
-1002.319694134425
 20
247.00000000000031
 30
0.0
 40
7.5
  0
CIRCLE
  5
F7F
  8
SIZE
  6
CONTINUOUS
 62
    30
 10
-1002.319694134425
 20
280.0000000000004
 30
0.0
 40
7.5
  0
TEXT
  5
F80
  8
SIZE
  6
CONTINUOUS
 62
    30
 10
-1022.319694134425
 20
432.97404750157528
 30
0.0
 40
60.0
  1
33
 50
90.0
 41
0.9
 72
     1
 11
-1022.319694134425
 21
476.68833321586112
 31
0.0
  0
POINT
  5
F81
  8
DEFPOINTS
  6
CONTINUOUS
 62
     7
 10
121.10000000000031
 20
247.0
 30
0.0
  0
POINT
  5
F82
  8
DEFPOINTS
  6
CONTINUOUS
 62
     7
 10
189.60000000000031
 20
280.0
 30
0.0
  0
POINT
  5
F83
  8
DEFPOINTS
  6
CONTINUOUS
 62
     7
 10
-1002.319694134425
 20
280.0000000000004
 30
0.0
  0
LINE
  5
F84
  8
SIZE
  6
CONTINUOUS
 62
    30
 10
169.60000000000031
 20
280.0
 30
0.0
 11
-1159.5545719931099
 21
280.0000000000004
 31
0.0
  0
LINE
  5
F85
  8
SIZE
  6
CONTINUOUS
 62
    30
 10
-368.70000000000078
 20
402.0
 30
0.0
 11
-1159.5545719931099
 21
402.0
 31
0.0
  0
LINE
  5
F86
  8
SIZE
  6
CONTINUOUS
 62
    30
 10
-1139.5545719931099
 20
280.0000000000004
 30
0.0
 11
-1139.5545719931099
 21
402.0
 31
0.0
  0
LINE
  5
F87
  8
SIZE
  6
CONTINUOUS
 62
    30
 10
-1139.5545719931099
 20
402.0
 30
0.0
 11
-1139.5545719931099
 21
600.57142857142912
 31
0.0
  0
CIRCLE
  5
F88
  8
SIZE
  6
CONTINUOUS
 62
    30
 10
-1139.5545719931099
 20
280.0000000000004
 30
0.0
 40
7.5
  0
CIRCLE
  5
F89
  8
SIZE
  6
CONTINUOUS
 62
    30
 10
-1139.5545719931099
 20
402.0
 30
0.0
 40
7.5
  0
TEXT
  5
F8A
  8
SIZE
  6
CONTINUOUS
 62
    30
 10
-1159.5545719931099
 20
452.0000000000004
 30
0.0
 40
60.0
  1
122
 50
90.0
 41
0.9
 72
     1
 11
-1159.5545719931099
 21
516.28571428571468
 31
0.0
  0
POINT
  5
F8B
  8
DEFPOINTS
  6
CONTINUOUS
 62
     7
 10
189.60000000000031
 20
280.0
 30
0.0
  0
POINT
  5
F8D
  8
DEFPOINTS
  6
CONTINUOUS
 62
     7
 10
-1139.5545719931099
 20
402.0
 30
0.0
  0
LINE
  5
F8E
  8
SIZE
  6
CONTINUOUS
 62
    30
 10
350.5
 20
423.0
 30
0.0
 11
350.50000000000011
 21
1118.723433078507
 31
0.0
  0
LINE
  5
F8F
  8
SIZE
  6
CONTINUOUS
 62
    30
 10
-350.50000000000091
 20
421.39999999999958
 30
0.0
 11
-350.50000000000091
 21
1118.723433078507
 31
0.0
  0
LINE
  5
F90
  8
SIZE
  6
CONTINUOUS
 62
    30
 10
350.50000000000011
 20
1098.7234330785061
 30
0.0
 11
-350.50000000000091
 21
1098.7234330785061
 31
0.0
  0
CIRCLE
  5
F91
  8
SIZE
  6
CONTINUOUS
 62
    30
 10
350.50000000000011
 20
1098.7234330785061
 30
0.0
 40
7.5
  0
CIRCLE
  5
F92
  8
SIZE
  6
CONTINUOUS
 62
    30
 10
-350.50000000000091
 20
1098.7234330785061
 30
0.0
 40
7.5
  0
TEXT
  5
F93
  8
SIZE
  6
CONTINUOUS
 62
    30
 10
-57.85714285714284
 20
1118.7234330785061
 30
0.0
 40
60.0
  1
701
 41
0.9
 72
     1
 11
0.0
 21
1118.7234330785061
 31
0.0
  0
POINT
  5
F96
  8
DEFPOINTS
  6
CONTINUOUS
 62
     7
 10
-350.50000000000091
 20
1098.7234330785061
 30
0.0
  0
LINE
  5
F97
  8
SIZE
  6
CONTINUOUS
 62
    30
 10
377.5
 20
402.0
 30
0.0
 11
832.029674912823
 21
401.9999999999996
 31
0.0
  0
LINE
  5
F98
  8
SIZE
  6
CONTINUOUS
 62
    30
 10
511.8574694999985
 20
286.0
 30
0.0
 11
832.029674912823
 21
286.0
 31
0.0
  0
LINE
  5
F99
  8
SIZE
  6
CONTINUOUS
 62
    30
 10
812.02967491282254
 20
286.0
 30
0.0
 11
812.02967491282254
 21
401.99999999999989
 31
0.0
  0
LINE
  5
F9A
  8
SIZE
  6
CONTINUOUS
 62
    30
 10
812.02967491282254
 20
401.99999999999989
 30
0.0
 11
812.02967491282254
 21
587.71428571428635
 31
0.0
  0
CIRCLE
  5
F9B
  8
SIZE
  6
CONTINUOUS
 62
    30
 10
812.02967491282254
 20
286.0
 30
0.0
 40
7.5
  0
CIRCLE
  5
F9C
  8
SIZE
  6
CONTINUOUS
 62
    30
 10
812.02967491282254
 20
401.99999999999989
 30
0.0
 40
7.5
  0
TEXT
  5
F9D
  8
SIZE
  6
CONTINUOUS
 62
    30
 10
792.02967491282254
 20
452.00000000000119
 30
0.0
 40
60.0
  1
116
 50
90.0
 41
0.9
 72
     1
 11
792.02967491282254
 21
509.85714285714403
 31
0.0
  0
POINT
  5
FA0
  8
DEFPOINTS
  6
CONTINUOUS
 62
     7
 10
812.02967491282254
 20
286.0
 30
0.0
  0
LINE
  5
FA1
  8
SIZE
  6
CONTINUOUS
 62
    30
 10
-407.5
 20
-19.0
 30
0.0
 11
-407.5
 21
-373.02431405107018
 31
0.0
  0
LINE
  5
FA2
  8
SIZE
  6
CONTINUOUS
 62
    30
 10
-424.5
 20
-24.006508000000402
 30
0.0
 11
-424.5
 21
-373.02431405107018
 31
0.0
  0
LINE
  5
FA3
  8
SIZE
  6
CONTINUOUS
 62
    30
 10
-407.5
 20
-353.02431405107018
 30
0.0
 11
-377.5
 21
-353.02431405107018
 31
0.0
  0
LINE
  5
FA4
  8
SIZE
  6
CONTINUOUS
 62
    30
 10
-424.5
 20
-353.02431405107018
 30
0.0
 11
-601.64285714285711
 21
-353.02431405107018
 31
0.0
  0
LINE
  5
FA5
  8
SIZE
  6
CONTINUOUS
 62
    30
 10
-407.5
 20
-353.02431405107018
 30
0.0
 11
-424.5
 21
-353.02431405107018
 31
0.0
  0
CIRCLE
  5
FA6
  8
SIZE
  6
CONTINUOUS
 62
    30
 10
-407.5
 20
-353.02431405107018
 30
0.0
 40
7.5
  0
CIRCLE
  5
FA7
  8
SIZE
  6
CONTINUOUS
 62
    30
 10
-424.5
 20
-353.02431405107018
 30
0.0
 40
7.5
  0
TEXT
  5
FA8
  8
SIZE
  6
CONTINUOUS
 62
    30
 10
-581.64285714285711
 20
-333.02431405107018
 30
0.0
 40
60.0
  1
17
 41
0.9
 72
     1
 11
-543.07142857142856
 21
-333.02431405107018
 31
0.0
  0
POINT
  5
FA9
  8
DEFPOINTS
  6
CONTINUOUS
 62
     7
 10
-407.5
 20
1.0
 30
0.0
  0
POINT
  5
FAA
  8
DEFPOINTS
  6
CONTINUOUS
 62
     7
 10
-424.5
 20
-4.006508000000391
 30
0.0
  0
POINT
  5
FAB
  8
DEFPOINTS
  6
CONTINUOUS
 62
     7
 10
-424.5
 20
-353.02431405107018
 30
0.0
  0
LINE
  5
FAC
  8
SIZE
  6
CONTINUOUS
 62
    30
 10
-407.5
 20
-19.0
 30
0.0
 11
-407.5
 21
-373.02431405107018
 31
0.0
  0
LINE
  5
FAD
  8
SIZE
  6
CONTINUOUS
 62
    30
 10
158.5
 20
-19.0
 30
0.0
 11
158.4999999999998
 21
-373.02431405107018
 31
0.0
  0
LINE
  5
FAE
  8
SIZE
  6
CONTINUOUS
 62
    30
 10
-407.5
 20
-353.02431405107018
 30
0.0
 11
158.4999999999998
 21
-353.02431405107018
 31
0.0
  0
CIRCLE
  5
FAF
  8
SIZE
  6
CONTINUOUS
 62
    30
 10
-407.5
 20
-353.02431405107018
 30
0.0
 40
7.5
  0
CIRCLE
  5
FB0
  8
SIZE
  6
CONTINUOUS
 62
    30
 10
158.4999999999998
 20
-353.02431405107018
 30
0.0
 40
7.5
  0
TEXT
  5
FB1
  8
SIZE
  6
CONTINUOUS
 62
    30
 10
-192.64285714285711
 20
-333.02431405107018
 30
0.0
 40
60.0
  1
566
 41
0.9
 72
     1
 11
-124.5
 21
-333.02431405107018
 31
0.0
  0
POINT
  5
FB2
  8
DEFPOINTS
  6
CONTINUOUS
 62
     7
 10
-407.5
 20
1.0
 30
0.0
  0
POINT
  5
FB3
  8
DEFPOINTS
  6
CONTINUOUS
 62
     7
 10
158.5
 20
1.0
 30
0.0
  0
POINT
  5
FB4
  8
DEFPOINTS
  6
CONTINUOUS
 62
     7
 10
158.4999999999998
 20
-353.02431405107018
 30
0.0
  0
LINE
  5
FB5
  8
SIZE
  6
CONTINUOUS
 62
    30
 10
158.5
 20
-19.0
 30
0.0
 11
158.4999999999998
 21
-373.02431405107018
 31
0.0
  0
LINE
  5
FB6
  8
SIZE
  6
CONTINUOUS
 62
    30
 10
175.5
 20
-24.006508000000402
 30
0.0
 11
175.49999999999989
 21
-373.02431405107018
 31
0.0
  0
LINE
  5
FB7
  8
SIZE
  6
CONTINUOUS
 62
    30
 10
158.4999999999998
 20
-353.02431405107018
 30
0.0
 11
128.4999999999998
 21
-353.02431405107018
 31
0.0
  0
LINE
  5
FB8
  8
SIZE
  6
CONTINUOUS
 62
    30
 10
175.49999999999989
 20
-353.02431405107018
 30
0.0
 11
352.64285714285711
 21
-353.02431405107018
 31
0.0
  0
LINE
  5
FB9
  8
SIZE
  6
CONTINUOUS
 62
    30
 10
158.4999999999998
 20
-353.02431405107018
 30
0.0
 11
175.49999999999989
 21
-353.02431405107018
 31
0.0
  0
CIRCLE
  5
FBA
  8
SIZE
  6
CONTINUOUS
 62
    30
 10
158.4999999999998
 20
-353.02431405107018
 30
0.0
 40
7.5
  0
CIRCLE
  5
FBB
  8
SIZE
  6
CONTINUOUS
 62
    30
 10
175.49999999999989
 20
-353.02431405107018
 30
0.0
 40
7.5
  0
TEXT
  5
FBC
  8
SIZE
  6
CONTINUOUS
 62
    30
 10
255.49999999999989
 20
-333.02431405107018
 30
0.0
 40
60.0
  1
17
 41
0.9
 72
     1
 11
294.0714285714285
 21
-333.02431405107018
 31
0.0
  0
POINT
  5
FBD
  8
DEFPOINTS
  6
CONTINUOUS
 62
     7
 10
158.5
 20
1.0
 30
0.0
  0
POINT
  5
FBE
  8
DEFPOINTS
  6
CONTINUOUS
 62
     7
 10
175.5
 20
-4.006508000000391
 30
0.0
  0
POINT
  5
FBF
  8
DEFPOINTS
  6
CONTINUOUS
 62
     7
 10
175.49999999999989
 20
-353.02431405107018
 30
0.0
  0
LINE
  5
FC0
  8
SIZE
  6
CONTINUOUS
 62
    30
 10
175.5
 20
-24.006508000000402
 30
0.0
 11
175.49999999999989
 21
-606.93985206522302
 31
0.0
  0
LINE
  5
FC1
  8
SIZE
  6
CONTINUOUS
 62
    30
 10
-424.5
 20
-24.006508000000402
 30
0.0
 11
-424.5
 21
-606.93985206522302
 31
0.0
  0
LINE
  5
FC2
  8
SIZE
  6
CONTINUOUS
 62
    30
 10
175.49999999999989
 20
-586.93985206522302
 30
0.0
 11
-424.5
 21
-586.93985206522302
 31
0.0
  0
CIRCLE
  5
FC3
  8
SIZE
  6
CONTINUOUS
 62
    30
 10
175.49999999999989
 20
-586.93985206522302
 30
0.0
 40
7.5
  0
CIRCLE
  5
FC4
  8
SIZE
  6
CONTINUOUS
 62
    30
 10
-424.5
 20
-586.93985206522302
 30
0.0
 40
7.5
  0
TEXT
  5
FC5
  8
SIZE
  6
CONTINUOUS
 62
    30
 10
-193.92857142857139
 20
-566.93985206522291
 30
0.0
 40
60.0
  1
600
 41
0.9
 72
     1
 11
-124.5
 21
-566.93985206522291
 31
0.0
  0
POINT
  5
FC6
  8
DEFPOINTS
  6
CONTINUOUS
 62
     7
 10
175.5
 20
-4.006508000000391
 30
0.0
  0
POINT
  5
FC7
  8
DEFPOINTS
  6
CONTINUOUS
 62
     7
 10
-424.5
 20
-4.006508000000391
 30
0.0
  0
POINT
  5
FC8
  8
DEFPOINTS
  6
CONTINUOUS
 62
     7
 10
-424.5
 20
-586.93985206522302
 30
0.0
  0
LINE
  5
FC9
  8
SIZE
  6
CONTINUOUS
 62
    30
 10
-350.50000000000091
 20
138.89999999999961
 30
0.0
 11
-350.50000000000091
 21
-247.02481264564091
 31
0.0
  0
LINE
  5
FCA
  8
SIZE
  6
CONTINUOUS
 62
    30
 10
-407.5
 20
-19.0
 30
0.0
 11
-407.5
 21
-247.02481264564091
 31
0.0
  0
LINE
  5
FCB
  8
SIZE
  6
CONTINUOUS
 62
    30
 10
-350.50000000000091
 20
-227.02481264564079
 30
0.0
 11
-407.5
 21
-227.02481264564079
 31
0.0
  0
LINE
  5
FCC
  8
SIZE
  6
CONTINUOUS
 62
    30
 10
-407.5
 20
-227.02481264564079
 30
0.0
 11
-564.92857142857144
 21
-227.02481264564079
 31
0.0
  0
CIRCLE
  5
FCD
  8
SIZE
  6
CONTINUOUS
 62
    30
 10
-350.50000000000091
 20
-227.02481264564079
 30
0.0
 40
7.5
  0
CIRCLE
  5
FCE
  8
SIZE
  6
CONTINUOUS
 62
    30
 10
-407.5
 20
-227.02481264564079
 30
0.0
 40
7.5
  0
TEXT
  5
FCF
  8
SIZE
  6
CONTINUOUS
 62
    30
 10
-544.92857142857133
 20
-207.02481264564079
 30
0.0
 40
60.0
  1
57
 41
0.9
 72
     1
 11
-501.21428571428572
 21
-207.02481264564079
 31
0.0
  0
POINT
  5
FD0
  8
DEFPOINTS
  6
CONTINUOUS
 62
     7
 10
-350.50000000000091
 20
158.89999999999961
 30
0.0
  0
POINT
  5
FD1
  8
DEFPOINTS
  6
CONTINUOUS
 62
     7
 10
-407.5
 20
1.0
 30
0.0
  0
POINT
  5
FD2
  8
DEFPOINTS
  6
CONTINUOUS
 62
     7
 10
-407.5
 20
-227.02481264564079
 30
0.0
  0
LINE
  5
FD3
  8
SIZE
  6
CONTINUOUS
 62
    30
 10
158.5
 20
-19.0
 30
0.0
 11
158.4999999999998
 21
-235.959908300747
 31
0.0
  0
LINE
  5
FD4
  8
SIZE
  6
CONTINUOUS
 62
    30
 10
350.5
 20
152.0
 30
0.0
 11
350.5
 21
-235.959908300747
 31
0.0
  0
LINE
  5
FD5
  8
SIZE
  6
CONTINUOUS
 62
    30
 10
158.5
 20
-215.959908300747
 30
0.0
 11
350.5
 21
-215.959908300747
 31
0.0
  0
CIRCLE
  5
FD6
  8
SIZE
  6
CONTINUOUS
 62
    30
 10
158.5
 20
-215.959908300747
 30
0.0
 40
7.5
  0
CIRCLE
  5
FD7
  8
SIZE
  6
CONTINUOUS
 62
    30
 10
350.5
 20
-215.959908300747
 30
0.0
 40
7.5
  0
TEXT
  5
FD8
  8
SIZE
  6
CONTINUOUS
 62
    30
 10
199.37181198776071
 20
-195.959908300747
 30
0.0
 40
60.0
  1
192
 41
0.9
 72
     1
 11
263.65752627347501
 21
-195.959908300747
 31
0.0
  0
POINT
  5
FD9
  8
DEFPOINTS
  6
CONTINUOUS
 62
     7
 10
158.5
 20
1.0
 30
0.0
  0
POINT
  5
FDA
  8
DEFPOINTS
  6
CONTINUOUS
 62
     7
 10
350.5
 20
172.0
 30
0.0
  0
POINT
  5
FDB
  8
DEFPOINTS
  6
CONTINUOUS
 62
     7
 10
350.5
 20
-215.959908300747
 30
0.0
  0
LINE
  5
FDC
  8
SIZE
  6
CONTINUOUS
 62
    30
 10
164.7999999999993
 20
-9.0000000000000053
 30
0.0
 11
1101.481714034298
 21
-9.0000000000002718
 31
0.0
  0
LINE
  5
FDD
  8
SIZE
  6
CONTINUOUS
 62
    30
 10
195.5
 20
-1.0000000000000051
 30
0.0
 11
1101.481714034298
 21
-1.000000000000262
 31
0.0
  0
LINE
  5
FDE
  8
SIZE
  6
CONTINUOUS
 62
    30
 10
1081.481714034298
 20
-1.000000000000256
 30
0.0
 11
1081.481714034298
 21
28.999999999999741
 31
0.0
  0
LINE
  5
FDF
  8
SIZE
  6
CONTINUOUS
 62
    30
 10
1081.481714034298
 20
-9.0000000000002647
 30
0.0
 11
1081.481714034298
 21
-145.00000000000071
 31
0.0
  0
LINE
  5
FE0
  8
SIZE
  6
CONTINUOUS
 62
    30
 10
1081.481714034298
 20
-1.000000000000256
 30
0.0
 11
1081.481714034298
 21
-9.0000000000002647
 31
0.0
  0
CIRCLE
  5
FE1
  8
SIZE
  6
CONTINUOUS
 62
    30
 10
1081.481714034298
 20
-1.000000000000256
 30
0.0
 40
7.5
  0
CIRCLE
  5
FE2
  8
SIZE
  6
CONTINUOUS
 62
    30
 10
1081.481714034298
 20
-9.0000000000002647
 30
0.0
 40
7.5
  0
TEXT
  5
FE3
  8
SIZE
  6
CONTINUOUS
 62
    30
 10
1061.481714034298
 20
-125.0000000000005
 30
0.0
 40
60.0
  1
8
 50
90.0
 41
0.9
 72
     1
 11
1061.481714034298
 21
-107.0000000000005
 31
0.0
  0
POINT
  5
FE4
  8
DEFPOINTS
  6
CONTINUOUS
 62
     7
 10
144.7999999999993
 20
-8.0
 30
0.0
  0
POINT
  5
FE5
  8
DEFPOINTS
  6
CONTINUOUS
 62
     7
 10
175.5
 20
0.0
 30
0.0
  0
POINT
  5
FE6
  8
DEFPOINTS
  6
CONTINUOUS
 62
     7
 10
1081.481714034298
 20
-1.000000000000256
 30
0.0
  0
LINE
  5
FE7
  8
SIZE
  6
CONTINUOUS
 62
    30
 10
195.5
 20
-1.0000000000000051
 30
0.0
 11
1101.4817140342959
 21
-1.000000000000262
 31
0.0
  0
LINE
  5
FE8
  8
SIZE
  6
CONTINUOUS
 62
    30
 10
163.96999999999929
 20
45.999999999999993
 30
0.0
 11
1101.4817140342959
 21
45.999999999999723
 31
0.0
  0
LINE
  5
FE9
  8
SIZE
  6
CONTINUOUS
 62
    30
 10
1081.4817140342959
 20
-1.000000000000256
 30
0.0
 11
1081.4817140342959
 21
45.999999999999723
 31
0.0
  0
LINE
  5
FEA
  8
SIZE
  6
CONTINUOUS
 62
    30
 10
1081.4817140342959
 20
45.999999999999723
 30
0.0
 11
1081.4817140342959
 21
203.42857142857119
 31
0.0
  0
CIRCLE
  5
FEB
  8
SIZE
  6
CONTINUOUS
 62
    30
 10
1081.4817140342959
 20
-1.000000000000256
 30
0.0
 40
7.5
  0
CIRCLE
  5
FEC
  8
SIZE
  6
CONTINUOUS
 62
    30
 10
1081.4817140342959
 20
45.999999999999723
 30
0.0
 40
7.5
  0
TEXT
  5
FED
  8
SIZE
  6
CONTINUOUS
 62
    30
 10
1061.4817140342959
 20
95.999999999999886
 30
0.0
 40
60.0
  1
47
 50
90.0
 41
0.9
 72
     1
 11
1061.4817140342959
 21
139.71428571428561
 31
0.0
  0
POINT
  5
FEE
  8
DEFPOINTS
  6
CONTINUOUS
 62
     7
 10
175.5
 20
0.0
 30
0.0
  0
POINT
  5
FEF
  8
DEFPOINTS
  6
CONTINUOUS
 62
     7
 10
143.96999999999929
 20
47.0
 30
0.0
  0
POINT
  5
FF0
  8
DEFPOINTS
  6
CONTINUOUS
 62
     7
 10
1081.4817140342959
 20
45.999999999999723
 30
0.0
  0
LINE
  5
FF1
  8
SIZE
  6
CONTINUOUS
 62
    30
 10
325.5
 20
424.70000000000061
 30
0.0
 11
325.50000000000011
 21
980.79939070095315
 31
0.0
  0
LINE
  5
FF2
  8
SIZE
  6
CONTINUOUS
 62
    30
 10
-317.5
 20
424.70000000000061
 30
0.0
 11
-317.49999999999989
 21
980.79939070095315
 31
0.0
  0
LINE
  5
FF3
  8
SIZE
  6
CONTINUOUS
 62
    30
 10
325.50000000000011
 20
960.79939070095315
 30
0.0
 11
-317.49999999999989
 21
960.79939070095315
 31
0.0
  0
CIRCLE
  5
FF4
  8
SIZE
  6
CONTINUOUS
 62
    30
 10
325.50000000000011
 20
960.79939070095315
 30
0.0
 40
7.5
  0
CIRCLE
  5
FF5
  8
SIZE
  6
CONTINUOUS
 62
    30
 10
-317.49999999999989
 20
960.79939070095315
 30
0.0
 40
7.5
  0
TEXT
  5
FF6
  8
SIZE
  6
CONTINUOUS
 62
    30
 10
-65.428571428571374
 20
980.79939070095315
 30
0.0
 40
60.0
  1
643
 41
0.9
 72
     1
 11
4.0000000000000551
 21
980.79939070095315
 31
0.0
  0
POINT
  5
FF9
  8
DEFPOINTS
  6
CONTINUOUS
 62
     7
 10
-317.49999999999989
 20
960.79939070095315
 30
0.0
  0
LINE
  5
FFA
  8
SIZE
  6
CONTINUOUS
 62
    30
 10
-317.5
 20
424.70000000000061
 30
0.0
 11
-317.49999999999989
 21
980.79939070095315
 31
0.0
  0
LINE
  5
FFB
  8
SIZE
  6
CONTINUOUS
 62
    30
 10
-350.50000000000091
 20
421.39999999999958
 30
0.0
 11
-350.50000000000091
 21
980.79939070095315
 31
0.0
  0
LINE
  5
FFC
  8
SIZE
  6
CONTINUOUS
 62
    30
 10
-317.49999999999989
 20
960.79939070095315
 30
0.0
 11
-287.5
 21
960.79939070095315
 31
0.0
  0
LINE
  5
FFD
  8
SIZE
  6
CONTINUOUS
 62
    30
 10
-350.50000000000091
 20
960.79939070095315
 30
0.0
 11
-537.92857142857213
 21
960.79939070095315
 31
0.0
  0
LINE
  5
FFE
  8
SIZE
  6
CONTINUOUS
 62
    30
 10
-317.49999999999989
 20
960.79939070095315
 30
0.0
 11
-350.50000000000091
 21
960.79939070095315
 31
0.0
  0
CIRCLE
  5
FFF
  8
SIZE
  6
CONTINUOUS
 62
    30
 10
-317.49999999999989
 20
960.79939070095315
 30
0.0
 40
7.5
  0
CIRCLE
  5
1000
  8
SIZE
  6
CONTINUOUS
 62
    30
 10
-350.50000000000091
 20
960.79939070095315
 30
0.0
 40
7.5
  0
TEXT
  5
1001
  8
SIZE
  6
CONTINUOUS
 62
    30
 10
-517.92857142857224
 20
980.79939070095315
 30
0.0
 40
60.0
  1
33
 41
0.9
 72
     1
 11
-474.21428571428652
 21
980.79939070095315
 31
0.0
  0
POINT
  5
1004
  8
DEFPOINTS
  6
CONTINUOUS
 62
     7
 10
-350.50000000000091
 20
960.79939070095315
 30
0.0
  0
LINE
  5
1005
  8
SIZE
  6
CONTINUOUS
 62
    30
 10
432.5
 20
404.025732
 30
0.0
 11
432.50000000000011
 21
1249.8543691027301
 31
0.0
  0
LINE
  5
1006
  8
SIZE
  6
CONTINUOUS
 62
    30
 10
-350.50000000000091
 20
421.39999999999958
 30
0.0
 11
-350.50000000000091
 21
1249.8543691027301
 31
0.0
  0
LINE
  5
1007
  8
SIZE
  6
CONTINUOUS
 62
    30
 10
432.50000000000011
 20
1229.8543691027301
 30
0.0
 11
-350.50000000000091
 21
1229.8543691027301
 31
0.0
  0
CIRCLE
  5
1008
  8
SIZE
  6
CONTINUOUS
 62
    30
 10
432.50000000000011
 20
1229.8543691027301
 30
0.0
 40
7.5
  0
CIRCLE
  5
1009
  8
SIZE
  6
CONTINUOUS
 62
    30
 10
-350.50000000000091
 20
1229.8543691027301
 30
0.0
 40
7.5
  0
TEXT
  5
100A
  8
SIZE
  6
CONTINUOUS
 62
    30
 10
-28.428571428571829
 20
1249.8543691027301
 30
0.0
 40
60.0
  1
783
 41
0.9
 72
     1
 11
40.999999999999602
 21
1249.8543691027301
 31
0.0
  0
POINT
  5
100D
  8
DEFPOINTS
  6
CONTINUOUS
 62
     7
 10
-350.50000000000091
 20
1229.8543691027301
 30
0.0
  0
LINE
  5
100E
  8
SIZE
  6
CONTINUOUS
 62
    30
 10
377.5
 20
402.0
 30
0.0
 11
966.39280083863207
 21
401.9999999999996
 31
0.0
  0
LINE
  5
100F
  8
SIZE
  6
CONTINUOUS
 62
    30
 10
370.69999999999987
 20
152.0
 30
0.0
 11
966.39280083863207
 21
151.9999999999998
 31
0.0
  0
LINE
  5
1010
  8
SIZE
  6
CONTINUOUS
 62
    30
 10
946.39280083863196
 20
401.9999999999996
 30
0.0
 11
946.39280083863196
 21
151.9999999999998
 31
0.0
  0
CIRCLE
  5
1011
  8
SIZE
  6
CONTINUOUS
 62
    30
 10
946.39280083863196
 20
401.9999999999996
 30
0.0
 40
7.5
  0
CIRCLE
  5
1012
  8
SIZE
  6
CONTINUOUS
 62
    30
 10
946.39280083863196
 20
151.9999999999998
 30
0.0
 40
7.5
  0
TEXT
  5
1013
  8
SIZE
  6
CONTINUOUS
 62
    30
 10
926.39280083863196
 20
207.57142857142841
 30
0.0
 40
60.0
  1
250
 50
90.0
 41
0.9
 72
     1
 11
926.39280083863196
 21
276.99999999999989
 31
0.0
  0
POINT
  5
1015
  8
DEFPOINTS
  6
CONTINUOUS
 62
     7
 10
350.69999999999987
 20
153.0
 30
0.0
  0
POINT
  5
1016
  8
DEFPOINTS
  6
CONTINUOUS
 62
     7
 10
946.39280083863196
 20
151.9999999999998
 30
0.0
  0
LINE
  5
1017
  8
SIZE
  6
CONTINUOUS
 62
    30
 10
-520.20409400000005
 20
0.0000000000000051
 30
0.0
 11
-1423.059653616325
 21
0.0000000000002609
 31
0.0
  0
LINE
  5
1018
  8
SIZE
  6
CONTINUOUS
 62
    30
 10
-336.25
 20
130.0
 30
0.0
 11
-1423.059653616325
 21
130.00000000000031
 31
0.0
  0
LINE
  5
1019
  8
SIZE
  6
CONTINUOUS
 62
    30
 10
-1403.059653616325
 20
130.00000000000031
 30
0.0
 11
-1403.059653616325
 21
0.0000000000002549
 31
0.0
  0
LINE
  5
101A
  8
SIZE
  6
CONTINUOUS
 62
    30
 10
-1403.059653616325
 20
0.0000000000002549
 30
0.0
 11
-1403.059653616325
 21
-419.71428571428572
 31
0.0
  0
CIRCLE
  5
101B
  8
SIZE
  6
CONTINUOUS
 62
    30
 10
-1403.059653616325
 20
130.00000000000031
 30
0.0
 40
7.5
  0
CIRCLE
  5
101C
  8
SIZE
  6
CONTINUOUS
 62
    30
 10
-1403.059653616325
 20
0.0000000000002549
 30
0.0
 40
7.5
  0
TEXT
  5
101D
  8
SIZE
  6
CONTINUOUS
 62
    30
 10
-1423.059653616325
 20
-399.71428571428629
 30
0.0
 40
60.0
  1
130~280
 50
90.0
 41
0.9
 72
     1
 11
-1423.059653616325
 21
-224.8571428571434
 31
0.0
  0
POINT
  5
101E
  8
DEFPOINTS
  6
CONTINUOUS
 62
     7
 10
-500.204094
 20
1.0
 30
0.0
  0
POINT
  5
101F
  8
DEFPOINTS
  6
CONTINUOUS
 62
     7
 10
-316.25
 20
131.0
 30
0.0
  0
POINT
  5
1020
  8
DEFPOINTS
  6
CONTINUOUS
 62
     7
 10
-1403.059653616325
 20
130.00000000000031
 30
0.0
  0
LINE
  5
1021
  8
SIZE
  6
CONTINUOUS
 62
    30
 10
77.058857102887103
 20
547.00738371563875
 30
0.0
 11
-153.74213889281779
 21
311.62622089449712
 31
0.0
  0
TEXT
  5
1022
  8
SIZE
  6
CONTINUOUS
 62
    30
 10
-75.44636569792543
 20
420.04204263863039
 30
0.0
 40
60.0
  1
%%c125
 50
45.562903964397719
 41
0.9
 72
     1
 11
-13.33520741778802
 21
483.38577561116398
 31
0.0
  0
LINE
  5
1023
  8
SIZE
  6
CONTINUOUS
 62
    30
 10
-241.25786110718221
 20
222.37377910550029
 30
0.0
 11
-153.74213889281779
 21
311.62622089449712
 31
0.0
  0
CIRCLE
  5
1024
  8
SIZE
  6
CONTINUOUS
 62
    30
 10
-241.25786110718221
 20
222.37377910550029
 30
0.0
 40
7.5
  0
CIRCLE
  5
1025
  8
SIZE
  6
CONTINUOUS
 62
    30
 10
-153.74213889281779
 20
311.62622089449712
 30
0.0
 40
7.5
  0
POINT
  5
1026
  8
DEFPOINTS
  6
CONTINUOUS
 62
     7
 10
-153.74213889281779
 20
311.62622089449712
 30
0.0
  0
POINT
  5
1027
  8
DEFPOINTS
  6
CONTINUOUS
 62
     7
 10
-241.25786110718221
 20
222.37377910550029
 30
0.0
  0
TEXT
  5
1028
  8
NOTE
  6
CONTINUOUS
 62
     4
 10
-1015.894100449848
 20
-108.52780006160719
 30
0.0
 40
60.0
  1
取付穴 3-%%C2.9
 50
0.0000025044165917
 41
0.7
  7
STANDARD1
  0
TEXT
  5
1029
  8
NOTE
  6
CONTINUOUS
 62
     4
 10
709.77269851908216
 20
-401.30032610946512
 30
0.0
 40
60.0
  1
RL %%C6.35
 50
0.0000025044165917
 41
0.7
  7
STANDARD1
  0
TEXT
  5
102A
  8
NOTE
  6
CONTINUOUS
 62
     4
 10
634.66668902374295
 20
-549.13050608554295
 30
0.0
 40
60.0
  1
RG %%C12.7
 50
0.0000025044165917
 41
0.7
  7
STANDARD1
  0
TEXT
  5
102C
  8
NOTE
  6
CONTINUOUS
 62
     4
 10
-1199.7068454491009
 20
739.60846647082678
 30
0.0
 40
60.0
  1
外気取入口
 50
0.0000025044165917
 41
0.7
  7
STANDARD1
  0
TEXT
  5
102D
  8
SIZE
  6
CONTINUOUS
 62
    30
 10
-223.8945853370497
 20
874.1885848385225
 30
0.0
 40
60.0
  1
(吊りボルトピッチ)
 50
0.0000025044165917
 41
0.7
  7
STANDARD1
  0
LINE
  5
102E
  8
BASIS
  6
DASHDOT
 62
     6
 10
0.0
 20
439.36138963353
 30
0.0
 11
0.0
 21
-79.252679068620623
 31
0.0
  0
CIRCLE
  5
102F
  8
ARRANGE
  6
CONTINUOUS
 62
     1
 10
0.0
 20
0.0
 30
0.0
 40
50.0
  0
LINE
  5
1030
  8
ARRANGE
  6
CONTINUOUS
 62
     1
 10
50.037350031328963
 20
-49.522353150325202
 30
0.0
 11
-50.037350031328963
 21
49.522353150325202
 31
0.0
  0
LINE
  5
1031
  8
ARRANGE
  6
CONTINUOUS
 62
     1
 10
49.963763310501221
 20
49.596594797985738
 30
0.0
 11
-49.963763310501221
 21
-49.5965947979821
 31
0.0
  0
TEXT
  5
1032
  8
SIZE
  6
CONTINUOUS
 62
    30
 10
-303.59651535152437
 20
-433.29026713260282
 30
0.0
 40
60.0
  1
(天井開口寸法)
 50
0.0000025044165917
 41
0.7
  7
STANDARD1
  0
LINE
  5
10A2
  8
NOTE
  6
CONTINUOUS
 62
     4
 10
-197.5
 20
266.99999999999909
 30
0.0
 11
-684.80973239048581
 21
714.40318376295147
 31
0.0
  0
LINE
  5
10A3
  8
NOTE
  6
CONTINUOUS
 62
     4
 10
-684.80973239048581
 20
714.40318376295147
 30
0.0
 11
-1233.580593748866
 21
714.40318376295147
 31
0.0
  0
LINE
  5
10A4
  8
NOTE
  6
CONTINUOUS
 62
     4
 10
-215.68077691635921
 20
292.18087453399932
 30
0.0
 11
-197.5
 21
266.99999999999909
 31
0.0
  0
LINE
  5
10A5
  8
NOTE
  6
CONTINUOUS
 62
     4
 10
-197.5
 20
266.99999999999909
 30
0.0
 11
-225.83545187941451
 21
279.71688870631698
 31
0.0
  0
LINE
  5
10A6
  8
NOTE
  6
CONTINUOUS
 62
     4
 10
432.5
 20
285.99337800000012
 30
0.0
 11
803.05021806207503
 21
-279.89689459569848
 31
0.0
  0
LINE
  5
10A8
  8
NOTE
  6
CONTINUOUS
 62
     4
 10
442.20941935469801
 20
256.49178029116229
 30
0.0
 11
432.5
 21
285.99337800000012
 31
0.0
  0
LINE
  5
10A9
  8
NOTE
  6
CONTINUOUS
 62
     4
 10
432.5
 20
285.99337800000012
 30
0.0
 11
455.65940257770251
 21
265.29895450420338
 31
0.0
  0
LINE
  5
10AA
  8
NOTE
  6
CONTINUOUS
 62
     4
 10
214.5
 20
280.0
 30
0.0
 11
682.84100933545415
 21
-429.80986013256552
 31
0.0
  0
LINE
  5
10AB
  8
NOTE
  6
CONTINUOUS
 62
     4
 10
682.84100933545415
 20
-429.80986013256552
 30
0.0
 11
1037.612194471076
 21
-429.80986013256552
 31
0.0
  0
LINE
  5
10AC
  8
NOTE
  6
CONTINUOUS
 62
     4
 10
224.3124180652936
 20
250.53250021987961
 30
0.0
 11
214.5
 21
280.0
 31
0.0
  0
LINE
  5
10AD
  8
NOTE
  6
CONTINUOUS
 62
     4
 10
214.5
 20
280.0
 30
0.0
 11
237.7315531136442
 21
259.3866055316592
 31
0.0
  0
LINE
  5
10AE
  8
NOTE
  6
CONTINUOUS
 62
     4
 10
147.5
 20
247.0
 30
0.0
 11
614.34860825649946
 21
-576.58475687214013
 31
0.0
  0
LINE
  5
10AF
  8
NOTE
  6
CONTINUOUS
 62
     4
 10
614.34860825649946
 20
-576.58475687214013
 30
0.0
 11
963.21375571372482
 21
-576.58475687214013
 31
0.0
  0
LINE
  5
10B0
  8
NOTE
  6
CONTINUOUS
 62
     4
 10
155.30088520486009
 20
216.9373440694259
 30
0.0
 11
147.5
 21
247.0
 31
0.0
  0
LINE
  5
10B1
  8
NOTE
  6
CONTINUOUS
 62
     4
 10
147.5
 20
247.0
 30
0.0
 11
169.2870926242876
 21
224.8654187624841
 31
0.0
  0
LINE
  5
10B2
  8
NOTE
  6
CONTINUOUS
 62
     4
 10
-251.62658800000011
 20
235.74999999999909
 30
0.0
 11
-578.64582327410585
 21
-132.4907497999337
 31
0.0
  0
LINE
  5
10B3
  8
NOTE
  6
CONTINUOUS
 62
     4
 10
-578.64582327410585
 20
-132.4907497999337
 30
0.0
 11
-1035.2754992162911
 21
-132.4907497999337
 31
0.0
  0
LINE
  5
10B4
  8
NOTE
  6
CONTINUOUS
 62
     4
 10
-277.90928595649439
 20
219.20198260494001
 30
0.0
 11
-251.62658800000011
 21
235.74999999999909
 31
0.0
  0
LINE
  5
10B5
  8
NOTE
  6
CONTINUOUS
 62
     4
 10
-251.62658800000011
 20
235.74999999999909
 30
0.0
 11
-266.11406353741722
 21
208.2776476410869
 31
0.0
  0
LINE
  5
10B6
  8
SIZE
  6
CONTINUOUS
 62
    30
 10
397.5
 20
404.025732
 30
0.0
 11
397.5
 21
638.16491188286091
 31
0.0
  0
LINE
  5
10B7
  8
SIZE
  6
CONTINUOUS
 62
    30
 10
432.5
 20
404.025732
 30
0.0
 11
432.5
 21
638.16491188286091
 31
0.0
  0
LINE
  5
10B8
  8
SIZE
  6
CONTINUOUS
 62
    30
 10
397.5
 20
618.16491188286091
 30
0.0
 11
367.5
 21
618.16491188286091
 31
0.0
  0
LINE
  5
10B9
  8
SIZE
  6
CONTINUOUS
 62
    30
 10
432.5
 20
618.16491188286091
 30
0.0
 11
619.92857142857144
 21
618.16491188286091
 31
0.0
  0
LINE
  5
10BA
  8
SIZE
  6
CONTINUOUS
 62
    30
 10
397.5
 20
618.16491188286091
 30
0.0
 11
432.5
 21
618.16491188286091
 31
0.0
  0
CIRCLE
  5
10BB
  8
SIZE
  6
CONTINUOUS
 62
    30
 10
397.5
 20
618.16491188286091
 30
0.0
 40
7.5
  0
CIRCLE
  5
10BC
  8
SIZE
  6
CONTINUOUS
 62
    30
 10
432.5
 20
618.16491188286091
 30
0.0
 40
7.5
  0
TEXT
  5
10BD
  8
SIZE
  6
CONTINUOUS
 62
    30
 10
512.5
 20
638.16491188286091
 30
0.0
 40
60.0
  1
35
 41
0.9
 72
     1
 11
556.21428571428555
 21
638.16491188286091
 31
0.0
  0
POINT
  5
10C0
  8
DEFPOINTS
  6
CONTINUOUS
 62
     7
 10
432.5
 20
618.16491188286091
 30
0.0
  0
ARC
  5
1273
  8
DETAIL
  6
CONTINUOUS
 62
     5
 10
382.05442099999982
 20
200.79992399999989
 30
0.0
 40
15.175027999999999
 50
271.41566499999021
 51
0.0
  0
ARC
  5
1274
  8
DETAIL
  6
CONTINUOUS
 62
     5
 10
382.18107799999962
 20
195.67483200000061
 30
0.0
 40
10.048372000000001
 50
271.41566499999021
 51
0.0
  0
ARC
  5
1275
  8
DETAIL
  6
CONTINUOUS
 62
     5
 10
382.15466799999911
 20
371.297888
 30
0.0
 40
15.074781
 50
0.0
 51
88.584335000009787
  0
ARC
  5
1276
  8
DETAIL
  6
CONTINUOUS
 62
     5
 10
382.28132399999959
 20
376.42298000000022
 30
0.0
 40
9.9481249999999992
 50
0.0000320000449087
 51
88.584335000009787
  0
LINE
  5
1277
  8
DETAIL
  6
CONTINUOUS
 62
     5
 10
143.96999999999929
 20
47.0
 30
0.0
 11
-392.97000000000031
 21
47.0
 31
0.0
  0
LINE
  5
1278
  8
DETAIL
  6
CONTINUOUS
 62
     5
 10
397.22944899999948
 20
200.66506900000061
 30
0.0
 11
397.22944899999948
 21
371.33494299999978
 31
0.0
  0
LINE
  5
1279
  8
DETAIL
  6
CONTINUOUS
 62
     5
 10
350.5
 20
171.0
 30
0.0
 11
357.5
 21
171.0
 31
0.0
  0
LINE
  5
127A
  8
DETAIL
  6
CONTINUOUS
 62
     5
 10
350.5
 20
402.0
 30
0.0
 11
357.5
 21
402.0
 31
0.0
  0
LINE
  5
127B
  8
DETAIL
  6
CONTINUOUS
 62
     5
 10
357.5
 20
402.0
 30
0.0
 11
357.5
 21
171.0
 31
0.0
  0
LINE
  5
127C
  8
DETAIL
  6
CONTINUOUS
 62
     5
 10
350.5
 20
402.0
 30
0.0
 11
350.5
 21
165.0
 31
0.0
  0
LINE
  5
127D
  8
DETAIL
  6
CONTINUOUS
 62
     5
 10
-392.97000000000031
 20
0.0
 30
0.0
 11
-392.97000000000031
 21
47.0
 31
0.0
  0
LINE
  5
127E
  8
DETAIL
  6
CONTINUOUS
 62
     5
 10
143.96999999999929
 20
0.0
 30
0.0
 11
-424.5
 21
0.0
 31
0.0
  0
LINE
  5
127F
  8
DETAIL
  6
CONTINUOUS
 62
     5
 10
-424.5
 20
-4.0065080000003919
 30
0.0
 11
-424.5
 21
0.0
 31
0.0
  0
ARC
  5
1280
  8
DETAIL
  6
CONTINUOUS
 62
     5
 10
-393.80000000000018
 20
112.0
 30
0.0
 40
120.0
 50
255.17703000003061
 51
270.0
  0
ARC
  5
1281
  8
DETAIL
  6
CONTINUOUS
 62
     5
 10
144.7999999999993
 20
112.0
 30
0.0
 40
120.0
 50
270.0
 51
284.82297000000119
  0
LINE
  5
1282
  8
DETAIL
  6
CONTINUOUS
 62
     5
 10
143.96999999999929
 20
0.0
 30
0.0
 11
175.5
 21
0.0
 31
0.0
  0
LINE
  5
1283
  8
DETAIL
  6
CONTINUOUS
 62
     5
 10
-393.80000000000018
 20
-8.0
 30
0.0
 11
144.7999999999993
 21
-8.0
 31
0.0
  0
LINE
  5
1284
  8
DETAIL
  6
CONTINUOUS
 62
     5
 10
143.96999999999929
 20
0.0
 30
0.0
 11
143.96999999999929
 21
47.0
 31
0.0
  0
LINE
  5
1285
  8
DETAIL
  6
CONTINUOUS
 62
     5
 10
175.5
 20
-4.0065080000003919
 30
0.0
 11
175.5
 21
0.0
 31
0.0
  0
LINE
  5
1286
  8
DETAIL
  6
CONTINUOUS
 62
     5
 10
432.5
 20
188.97428000000031
 30
0.0
 11
432.5
 21
383.02573200000012
 31
0.0
  0
LINE
  5
1287
  8
DETAIL
  6
CONTINUOUS
 62
     5
 10
397.5294489999996
 20
186.0
 30
0.0
 11
397.5294489999996
 21
386.0
 31
0.0
  0
LINE
  5
1288
  8
DETAIL
  6
CONTINUOUS
 62
     5
 10
365.96509499999962
 20
195.22118299999951
 30
0.0
 11
365.96509499999962
 21
215.75172800000021
 31
0.0
  0
LINE
  5
1289
  8
DETAIL
  6
CONTINUOUS
 62
     5
 10
365.96509499999962
 20
356.2482840000003
 30
0.0
 11
365.96509499999962
 21
376.77883200000002
 31
0.0
  0
LINE
  5
128A
  8
DETAIL
  6
CONTINUOUS
 62
     5
 10
364.0
 20
182.4307969999999
 30
0.0
 11
364.0
 21
190.77116799999999
 31
0.0
  0
LINE
  5
128B
  8
DETAIL
  6
CONTINUOUS
 62
     5
 10
364.13419599999997
 20
376.77888900000022
 30
0.0
 11
364.0
 21
388.43331300000051
 31
0.0
  0
LINE
  5
128C
  8
DETAIL
  6
CONTINUOUS
 62
     5
 10
360.0
 20
171.53498600000049
 30
0.0
 11
360.0
 21
401.46501399999909
 31
0.0
  0
LINE
  5
128D
  8
DETAIL
  6
CONTINUOUS
 62
     5
 10
359.50872600000002
 20
171.0350619999999
 30
0.0
 11
359.50872600000002
 21
401.96493800000002
 31
0.0
  0
LINE
  5
128E
  8
DETAIL
  6
CONTINUOUS
 62
     5
 10
351.5
 20
152.80000000000021
 30
0.0
 11
351.5
 21
165.0
 31
0.0
  0
LINE
  5
128F
  8
DETAIL
  6
CONTINUOUS
 62
     5
 10
350.89999999999958
 20
165.0
 30
0.0
 11
350.89999999999958
 21
152.80000000000021
 31
0.0
  0
LINE
  5
1290
  8
DETAIL
  6
CONTINUOUS
 62
     5
 10
350.69999999999987
 20
164.0
 30
0.0
 11
350.69999999999987
 21
152.0
 31
0.0
  0
LINE
  5
1291
  8
DETAIL
  6
CONTINUOUS
 62
     5
 10
350.5
 20
398.6982710000002
 30
0.0
 11
350.5
 21
401.19999999999982
 31
0.0
  0
LINE
  5
1292
  8
DETAIL
  6
CONTINUOUS
 62
     5
 10
350.5
 20
398.6982710000002
 30
0.0
 11
350.5
 21
387.0
 31
0.0
  0
LINE
  5
1293
  8
DETAIL
  6
CONTINUOUS
 62
     5
 10
350.5
 20
387.0
 30
0.0
 11
350.5
 21
330.0
 31
0.0
  0
LINE
  5
1294
  8
DETAIL
  6
CONTINUOUS
 62
     5
 10
357.5
 20
402.0
 30
0.0
 11
357.5
 21
171.0
 31
0.0
  0
LINE
  5
1295
  8
DETAIL
  6
CONTINUOUS
 62
     5
 10
349.89999999999969
 20
401.19999999999982
 30
0.0
 11
349.89999999999969
 21
387.0
 31
0.0
  0
LINE
  5
1296
  8
DETAIL
  6
CONTINUOUS
 62
     5
 10
349.69999999999987
 20
402.0
 30
0.0
 11
349.69999999999987
 21
387.0
 31
0.0
  0
LINE
  5
1297
  8
DETAIL
  6
CONTINUOUS
 62
     5
 10
349.69999999999987
 20
327.97080199999982
 30
0.0
 11
349.69999999999987
 21
165.0
 31
0.0
  0
LINE
  5
1298
  8
DETAIL
  6
CONTINUOUS
 62
     5
 10
348.69999999999987
 20
390.0
 30
0.0
 11
348.69999999999987
 21
387.0
 31
0.0
  0
LINE
  5
1299
  8
DETAIL
  6
CONTINUOUS
 62
     5
 10
348.69999999999987
 20
327.25989000000038
 30
0.0
 11
348.69999999999987
 21
165.0
 31
0.0
  0
LINE
  5
129A
  8
DETAIL
  6
CONTINUOUS
 62
     5
 10
336.5
 20
342.0
 30
0.0
 11
336.5
 21
334.77506199999971
 31
0.0
  0
LINE
  5
129B
  8
DETAIL
  6
CONTINUOUS
 62
     5
 10
335.5
 20
341.99254200000001
 30
0.0
 11
335.5
 21
337.0
 31
0.0
  0
LINE
  5
129C
  8
DETAIL
  6
CONTINUOUS
 62
     5
 10
331.5
 20
387.0
 30
0.0
 11
331.5
 21
378.0
 31
0.0
  0
LINE
  5
129D
  8
DETAIL
  6
CONTINUOUS
 62
     5
 10
319.5
 20
387.0
 30
0.0
 11
319.5
 21
378.0
 31
0.0
  0
LINE
  5
129E
  8
DETAIL
  6
CONTINUOUS
 62
     5
 10
315.5
 20
337.0
 30
0.0
 11
315.5
 21
341.99254200000001
 31
0.0
  0
LINE
  5
129F
  8
DETAIL
  6
CONTINUOUS
 62
     5
 10
314.5
 20
334.77506199999971
 30
0.0
 11
314.5
 21
342.0
 31
0.0
  0
LINE
  5
12A0
  8
DETAIL
  6
CONTINUOUS
 62
     5
 10
300.5
 20
330.0
 30
0.0
 11
300.5
 21
378.0
 31
0.0
  0
LINE
  5
12A1
  8
DETAIL
  6
CONTINUOUS
 62
     5
 10
300.5
 20
387.0
 30
0.0
 11
300.5
 21
378.0
 31
0.0
  0
LINE
  5
12A2
  8
DETAIL
  6
CONTINUOUS
 62
     5
 10
364.0
 20
388.43331300000051
 30
0.0
 11
364.047439
 21
388.30172800000042
 31
0.0
  0
LINE
  5
12A3
  8
DETAIL
  6
CONTINUOUS
 62
     5
 10
364.047439
 20
388.30172800000042
 30
0.0
 11
364.10750799999909
 21
388.13016400000009
 31
0.0
  0
LINE
  5
12A4
  8
DETAIL
  6
CONTINUOUS
 62
     5
 10
-278.7343149999997
 20
401.7656850000003
 30
0.0
 11
-279.30000000000013
 21
401.19999999999982
 31
0.0
  0
LINE
  5
12A5
  8
DETAIL
  6
CONTINUOUS
 62
     5
 10
-278.3100510000005
 20
401.34142100000003
 30
0.0
 11
-278.45147200000059
 21
401.19999999999982
 31
0.0
  0
LINE
  5
12A6
  8
DETAIL
  6
CONTINUOUS
 62
     5
 10
194.7999999999993
 20
393.0
 30
0.0
 11
194.7999999999993
 21
402.0
 31
0.0
  0
LINE
  5
12A7
  8
DETAIL
  6
CONTINUOUS
 62
     5
 10
397.5294489999996
 20
386.0
 30
0.0
 11
432.03574899999961
 21
383.52445299999999
 31
0.0
  0
LINE
  5
12A8
  8
DETAIL
  6
CONTINUOUS
 62
     5
 10
132.79999999999919
 20
393.0
 30
0.0
 11
132.79999999999919
 21
402.0
 31
0.0
  0
LINE
  5
12A9
  8
DETAIL
  6
CONTINUOUS
 62
     5
 10
77.5
 20
151.39999999999961
 30
0.0
 11
77.5
 21
152.0
 31
0.0
  0
LINE
  5
12AA
  8
DETAIL
  6
CONTINUOUS
 62
     5
 10
134.5999999999994
 20
401.19999999999982
 30
0.0
 11
134.03431499999979
 21
401.7656850000003
 31
0.0
  0
LINE
  5
12AB
  8
DETAIL
  6
CONTINUOUS
 62
     5
 10
133.75147199999969
 20
401.19999999999982
 30
0.0
 11
133.6100509999996
 21
401.34142100000003
 31
0.0
  0
LINE
  5
12AC
  8
DETAIL
  6
CONTINUOUS
 62
     5
 10
357.5
 20
402.0
 30
0.0
 11
359.50872600000002
 21
401.96493800000002
 31
0.0
  0
LINE
  5
12AD
  8
DETAIL
  6
CONTINUOUS
 62
     5
 10
397.5294489999996
 20
386.0
 30
0.0
 11
365.96509499999962
 21
386.77736600000009
 31
0.0
  0
LINE
  5
12AE
  8
DETAIL
  6
CONTINUOUS
 62
     5
 10
349.69999999999987
 20
402.0
 30
0.0
 11
194.13137099999929
 21
402.0
 31
0.0
  0
LINE
  5
12AF
  8
DETAIL
  6
CONTINUOUS
 62
     5
 10
133.468628999999
 20
402.0
 30
0.0
 11
-12.36862900000051
 21
402.0
 31
0.0
  0
LINE
  5
12B0
  8
DETAIL
  6
CONTINUOUS
 62
     5
 10
-73.031371000000931
 20
402.0
 30
0.0
 11
-278.16862899999973
 21
402.0
 31
0.0
  0
LINE
  5
12B1
  8
DETAIL
  6
CONTINUOUS
 62
     5
 10
-329.27255100000002
 20
402.0
 30
0.0
 11
-348.70000000000078
 21
402.0
 31
0.0
  0
LINE
  5
12B2
  8
DETAIL
  6
CONTINUOUS
 62
     5
 10
-278.16862899999973
 20
401.39999999999958
 30
0.0
 11
-277.5
 21
401.39999999999958
 31
0.0
  0
LINE
  5
12B3
  8
DETAIL
  6
CONTINUOUS
 62
     5
 10
-12.36862900000051
 20
401.39999999999958
 30
0.0
 11
-11.70000000000072
 21
401.39999999999958
 31
0.0
  0
LINE
  5
12B4
  8
DETAIL
  6
CONTINUOUS
 62
     5
 10
194.13137099999929
 20
401.39999999999958
 30
0.0
 11
194.7999999999993
 21
401.39999999999958
 31
0.0
  0
LINE
  5
12B5
  8
DETAIL
  6
CONTINUOUS
 62
     5
 10
133.468628999999
 20
401.39999999999958
 30
0.0
 11
132.79999999999919
 21
401.39999999999958
 31
0.0
  0
LINE
  5
12B6
  8
DETAIL
  6
CONTINUOUS
 62
     5
 10
-73.031371000000931
 20
401.39999999999958
 30
0.0
 11
-73.700000000000699
 21
401.39999999999958
 31
0.0
  0
LINE
  5
12B7
  8
DETAIL
  6
CONTINUOUS
 62
     5
 10
-329.27255100000002
 20
401.39999999999958
 30
0.0
 11
-329.5
 21
401.39999999999958
 31
0.0
  0
LINE
  5
12B8
  8
DETAIL
  6
CONTINUOUS
 62
     5
 10
-329.5
 20
401.19999999999982
 30
0.0
 11
-277.5
 21
401.19999999999982
 31
0.0
  0
LINE
  5
12B9
  8
DETAIL
  6
CONTINUOUS
 62
     5
 10
-73.700000000000699
 20
401.19999999999982
 30
0.0
 11
-11.70000000000072
 21
401.19999999999982
 31
0.0
  0
LINE
  5
12BA
  8
DETAIL
  6
CONTINUOUS
 62
     5
 10
132.79999999999919
 20
401.19999999999982
 30
0.0
 11
194.7999999999993
 21
401.19999999999982
 31
0.0
  0
LINE
  5
12BB
  8
DETAIL
  6
CONTINUOUS
 62
     5
 10
-329.5
 20
400.19999999999982
 30
0.0
 11
-277.5
 21
400.19999999999982
 31
0.0
  0
LINE
  5
12BC
  8
DETAIL
  6
CONTINUOUS
 62
     5
 10
-73.700000000000699
 20
400.19999999999982
 30
0.0
 11
-11.70000000000072
 21
400.19999999999982
 31
0.0
  0
LINE
  5
12BD
  8
DETAIL
  6
CONTINUOUS
 62
     5
 10
132.79999999999919
 20
400.19999999999982
 30
0.0
 11
194.7999999999993
 21
400.19999999999982
 31
0.0
  0
LINE
  5
12BE
  8
DETAIL
  6
CONTINUOUS
 62
     5
 10
-348.70000000000078
 20
390.0
 30
0.0
 11
-332.5
 21
390.0
 31
0.0
  0
LINE
  5
12BF
  8
DETAIL
  6
CONTINUOUS
 62
     5
 10
-274.5
 20
390.0
 30
0.0
 11
-76.700000000000699
 21
390.0
 31
0.0
  0
LINE
  5
12C0
  8
DETAIL
  6
CONTINUOUS
 62
     5
 10
-8.7000000000007258
 20
390.0
 30
0.0
 11
129.79999999999919
 21
390.0
 31
0.0
  0
LINE
  5
12C1
  8
DETAIL
  6
CONTINUOUS
 62
     5
 10
197.7999999999993
 20
390.0
 30
0.0
 11
349.69999999999987
 21
390.0
 31
0.0
  0
LINE
  5
12C2
  8
DETAIL
  6
CONTINUOUS
 62
     5
 10
-346.10000000000042
 20
387.89999999999958
 30
0.0
 11
-350.10000000000042
 21
387.89999999999958
 31
0.0
  0
LINE
  5
12C3
  8
DETAIL
  6
CONTINUOUS
 62
     5
 10
350.5
 20
387.0
 30
0.0
 11
300.5
 21
387.0
 31
0.0
  0
LINE
  5
12C4
  8
DETAIL
  6
CONTINUOUS
 62
     5
 10
-292.5
 20
387.0
 30
0.0
 11
-342.5
 21
387.0
 31
0.0
  0
LINE
  5
12C5
  8
DETAIL
  6
CONTINUOUS
 62
     5
 10
-350.50000000000091
 20
385.39999999999969
 30
0.0
 11
-350.10000000000042
 21
385.39999999999969
 31
0.0
  0
LINE
  5
12C6
  8
DETAIL
  6
CONTINUOUS
 62
     5
 10
-323.5
 20
384.5
 30
0.0
 11
-311.5
 21
384.5
 31
0.0
  0
LINE
  5
12C7
  8
DETAIL
  6
CONTINUOUS
 62
     5
 10
319.5
 20
384.5
 30
0.0
 11
331.5
 21
384.5
 31
0.0
  0
LINE
  5
12C8
  8
DETAIL
  6
CONTINUOUS
 62
     5
 10
364.13419599999997
 20
376.77888900000022
 30
0.0
 11
365.96509499999962
 21
376.77888900000022
 31
0.0
  0
LINE
  5
12C9
  8
DETAIL
  6
CONTINUOUS
 62
     5
 10
347.5
 20
375.0
 30
0.0
 11
334.5
 21
375.0
 31
0.0
  0
LINE
  5
12CA
  8
DETAIL
  6
CONTINUOUS
 62
     5
 10
316.5
 20
375.0
 30
0.0
 11
303.5
 21
375.0
 31
0.0
  0
LINE
  5
12CB
  8
DETAIL
  6
CONTINUOUS
 62
     5
 10
-295.5
 20
375.0
 30
0.0
 11
-308.5
 21
375.0
 31
0.0
  0
LINE
  5
12CC
  8
DETAIL
  6
CONTINUOUS
 62
     5
 10
-326.5
 20
375.0
 30
0.0
 11
-339.5
 21
375.0
 31
0.0
  0
LINE
  5
12CD
  8
DETAIL
  6
CONTINUOUS
 62
     5
 10
-328.5
 20
342.0
 30
0.0
 11
-306.5
 21
342.0
 31
0.0
  0
LINE
  5
12CE
  8
DETAIL
  6
CONTINUOUS
 62
     5
 10
314.5
 20
342.0
 30
0.0
 11
336.5
 21
342.0
 31
0.0
  0
LINE
  5
12CF
  8
DETAIL
  6
CONTINUOUS
 62
     5
 10
335.5
 20
337.38162300000027
 30
0.0
 11
315.5
 21
337.38162300000027
 31
0.0
  0
LINE
  5
12D0
  8
DETAIL
  6
CONTINUOUS
 62
     5
 10
-307.5
 20
337.38162300000027
 30
0.0
 11
-327.5
 21
337.38162300000027
 31
0.0
  0
LINE
  5
12D1
  8
DETAIL
  6
CONTINUOUS
 62
     5
 10
360.0
 20
356.23830300000009
 30
0.0
 11
365.96509499999962
 21
356.2482840000003
 31
0.0
  0
LINE
  5
12D2
  8
DETAIL
  6
CONTINUOUS
 62
     5
 10
-12.934315000000421
 20
401.7656850000003
 30
0.0
 11
-13.5
 21
401.19999999999982
 31
0.0
  0
LINE
  5
12D3
  8
DETAIL
  6
CONTINUOUS
 62
     5
 10
-12.5100510000002
 20
401.34142100000003
 30
0.0
 11
-12.65147200000046
 21
401.19999999999982
 31
0.0
  0
LINE
  5
12D4
  8
DETAIL
  6
CONTINUOUS
 62
     5
 10
68.099999999999454
 20
142.80000000000021
 30
0.0
 11
68.099999999999454
 21
151.19999999999979
 31
0.0
  0
LINE
  5
12D5
  8
DETAIL
  6
CONTINUOUS
 62
     5
 10
67.5
 20
142.80000000000021
 30
0.0
 11
67.5
 21
151.19999999999979
 31
0.0
  0
LINE
  5
12D6
  8
DETAIL
  6
CONTINUOUS
 62
     5
 10
63.849999999999447
 20
147.60000000000031
 30
0.0
 11
63.849999999999447
 21
142.60000000000031
 31
0.0
  0
LINE
  5
12D7
  8
DETAIL
  6
CONTINUOUS
 62
     5
 10
60.674999999999272
 20
147.60000000000031
 30
0.0
 11
60.674999999999272
 21
142.60000000000031
 31
0.0
  0
LINE
  5
12D8
  8
DETAIL
  6
CONTINUOUS
 62
     5
 10
54.324999999999818
 20
147.60000000000031
 30
0.0
 11
54.324999999999818
 21
142.60000000000031
 31
0.0
  0
LINE
  5
12D9
  8
DETAIL
  6
CONTINUOUS
 62
     5
 10
51.149999999999622
 20
147.60000000000031
 30
0.0
 11
51.149999999999622
 21
142.60000000000031
 31
0.0
  0
LINE
  5
12DA
  8
DETAIL
  6
CONTINUOUS
 62
     5
 10
47.5
 20
151.19999999999979
 30
0.0
 11
47.5
 21
142.80000000000021
 31
0.0
  0
LINE
  5
12DB
  8
DETAIL
  6
CONTINUOUS
 62
     5
 10
46.899999999999622
 20
151.19999999999979
 30
0.0
 11
46.899999999999622
 21
142.80000000000021
 31
0.0
  0
LINE
  5
12DC
  8
DETAIL
  6
CONTINUOUS
 62
     5
 10
37.5
 20
151.39999999999961
 30
0.0
 11
37.5
 21
152.0
 31
0.0
  0
LINE
  5
12DD
  8
DETAIL
  6
CONTINUOUS
 62
     5
 10
347.5
 20
327.0
 30
0.0
 11
303.5
 21
327.0
 31
0.0
  0
LINE
  5
12DE
  8
DETAIL
  6
CONTINUOUS
 62
     5
 10
-295.5
 20
327.0
 30
0.0
 11
-339.5
 21
327.0
 31
0.0
  0
LINE
  5
12DF
  8
DETAIL
  6
CONTINUOUS
 62
     5
 10
-11.70000000000072
 20
393.0
 30
0.0
 11
-11.70000000000072
 21
402.0
 31
0.0
  0
LINE
  5
12E0
  8
DETAIL
  6
CONTINUOUS
 62
     5
 10
-12.03725800000028
 20
401.19999999999982
 30
0.0
 11
-12.03725800000028
 21
401.39999999999958
 31
0.0
  0
LINE
  5
12E1
  8
DETAIL
  6
CONTINUOUS
 62
     5
 10
-72.168628999999783
 20
162.0
 30
0.0
 11
-72.168628999999783
 21
152.0
 31
0.0
  0
LINE
  5
12E2
  8
DETAIL
  6
CONTINUOUS
 62
     5
 10
-73.700000000000699
 20
393.0
 30
0.0
 11
-73.700000000000699
 21
402.0
 31
0.0
  0
LINE
  5
12E3
  8
DETAIL
  6
CONTINUOUS
 62
     5
 10
-78.5
 20
154.39999999999961
 30
0.0
 11
-78.5
 21
133.89999999999961
 31
0.0
  0
LINE
  5
12E4
  8
DETAIL
  6
CONTINUOUS
 62
     5
 10
-79.300000000000196
 20
154.39999999999961
 30
0.0
 11
-79.300000000000196
 21
133.89999999999961
 31
0.0
  0
LINE
  5
12E5
  8
DETAIL
  6
CONTINUOUS
 62
     5
 10
-79.5
 20
133.89999999999961
 30
0.0
 11
-79.5
 21
154.39999999999961
 31
0.0
  0
LINE
  5
12E6
  8
DETAIL
  6
CONTINUOUS
 62
     5
 10
-71.900000000000546
 20
401.19999999999982
 30
0.0
 11
-72.465685000001017
 21
401.7656850000003
 31
0.0
  0
LINE
  5
12E7
  8
DETAIL
  6
CONTINUOUS
 62
     5
 10
-72.748528000000064
 20
401.19999999999982
 30
0.0
 11
-72.889949000000342
 21
401.34142100000003
 31
0.0
  0
LINE
  5
12E8
  8
DETAIL
  6
CONTINUOUS
 62
     5
 10
365.96509499999962
 20
215.75172800000021
 30
0.0
 11
360.00037600000002
 21
215.76328199999989
 31
0.0
  0
LINE
  5
12E9
  8
DETAIL
  6
CONTINUOUS
 62
     5
 10
364.13419599999997
 20
195.22112300000029
 30
0.0
 11
365.96509499999962
 21
195.22112300000029
 31
0.0
  0
LINE
  5
12EA
  8
DETAIL
  6
CONTINUOUS
 62
     5
 10
193.56568499999929
 20
401.7656850000003
 30
0.0
 11
193.0
 21
401.19999999999982
 31
0.0
  0
LINE
  5
12EB
  8
DETAIL
  6
CONTINUOUS
 62
     5
 10
193.9899489999998
 20
401.34142100000003
 30
0.0
 11
193.8485279999995
 21
401.19999999999982
 31
0.0
  0
LINE
  5
12EC
  8
DETAIL
  6
CONTINUOUS
 62
     5
 10
-85.25
 20
130.0
 30
0.0
 11
-85.25
 21
132.80000000000021
 31
0.0
  0
LINE
  5
12ED
  8
DETAIL
  6
CONTINUOUS
 62
     5
 10
-91.5
 20
158.60000000000031
 30
0.0
 11
-91.5
 21
154.60000000000031
 31
0.0
  0
LINE
  5
12EE
  8
DETAIL
  6
CONTINUOUS
 62
     5
 10
-93.499999999999986
 20
133.89999999999961
 30
0.0
 11
-93.499999999999986
 21
132.89999999999961
 31
0.0
  0
LINE
  5
12EF
  8
DETAIL
  6
CONTINUOUS
 62
     5
 10
-95.750000000000014
 20
133.89999999999961
 30
0.0
 11
-95.750000000000014
 21
132.80000000000021
 31
0.0
  0
LINE
  5
12F0
  8
DETAIL
  6
CONTINUOUS
 62
     5
 10
-104.5
 20
151.39999999999961
 30
0.0
 11
-104.5
 21
136.89999999999961
 31
0.0
  0
LINE
  5
12F1
  8
DETAIL
  6
CONTINUOUS
 62
     5
 10
-350.50000000000091
 20
173.89999999999961
 30
0.0
 11
-350.10000000000042
 21
173.89999999999961
 31
0.0
  0
LINE
  5
12F2
  8
DETAIL
  6
CONTINUOUS
 62
     5
 10
-343.10000000000042
 20
169.39999999999961
 30
0.0
 11
-350.10000000000042
 21
169.39999999999961
 31
0.0
  0
LINE
  5
12F3
  8
DETAIL
  6
CONTINUOUS
 62
     5
 10
350.89999999999958
 20
165.0
 30
0.0
 11
351.5
 21
165.0
 31
0.0
  0
LINE
  5
12F4
  8
DETAIL
  6
CONTINUOUS
 62
     5
 10
350.5
 20
165.0
 30
0.0
 11
-5.5
 21
165.0
 31
0.0
  0
LINE
  5
12F5
  8
DETAIL
  6
CONTINUOUS
 62
     5
 10
-5.5
 20
165.0
 30
0.0
 11
-69.168628999999783
 21
165.0
 31
0.0
  0
LINE
  5
12F6
  8
DETAIL
  6
CONTINUOUS
 62
     5
 10
-94.500000000000014
 20
161.60000000000031
 30
0.0
 11
-307.0
 21
161.60000000000031
 31
0.0
  0
LINE
  5
12F7
  8
DETAIL
  6
CONTINUOUS
 62
     5
 10
-72.168628999999783
 20
157.0
 30
0.0
 11
-91.5
 21
157.0
 31
0.0
  0
LINE
  5
12F8
  8
DETAIL
  6
CONTINUOUS
 62
     5
 10
-310.0
 20
157.0
 30
0.0
 11
-330.5
 21
157.0
 31
0.0
  0
LINE
  5
12F9
  8
DETAIL
  6
CONTINUOUS
 62
     5
 10
-330.5
 20
157.0
 30
0.0
 11
-348.5
 21
157.0
 31
0.0
  0
LINE
  5
12FA
  8
DETAIL
  6
CONTINUOUS
 62
     5
 10
-330.5
 20
156.80000000000021
 30
0.0
 11
-348.5
 21
156.80000000000021
 31
0.0
  0
LINE
  5
12FB
  8
DETAIL
  6
CONTINUOUS
 62
     5
 10
-310.0
 20
156.0
 30
0.0
 11
-348.5
 21
156.0
 31
0.0
  0
LINE
  5
12FC
  8
DETAIL
  6
CONTINUOUS
 62
     5
 10
-348.5
 20
155.39999999999961
 30
0.0
 11
-310.0
 21
155.39999999999961
 31
0.0
  0
LINE
  5
12FD
  8
DETAIL
  6
CONTINUOUS
 62
     5
 10
-91.5
 20
155.39999999999961
 30
0.0
 11
-79.5
 21
155.39999999999961
 31
0.0
  0
LINE
  5
12FE
  8
DETAIL
  6
CONTINUOUS
 62
     5
 10
-72.168628999999783
 20
152.0
 30
0.0
 11
350.69999999999987
 21
152.0
 31
0.0
  0
LINE
  5
12FF
  8
DETAIL
  6
CONTINUOUS
 62
     5
 10
-322.0
 20
154.60000000000031
 30
0.0
 11
-79.5
 21
154.60000000000031
 31
0.0
  0
LINE
  5
1300
  8
DETAIL
  6
CONTINUOUS
 62
     5
 10
37.5
 20
151.39999999999961
 30
0.0
 11
46.699999999999818
 21
151.39999999999961
 31
0.0
  0
LINE
  5
1301
  8
DETAIL
  6
CONTINUOUS
 62
     5
 10
68.299999999999272
 20
151.39999999999961
 30
0.0
 11
77.5
 21
151.39999999999961
 31
0.0
  0
LINE
  5
1302
  8
DETAIL
  6
CONTINUOUS
 62
     5
 10
-79.5
 20
154.39999999999961
 30
0.0
 11
-101.5
 21
154.39999999999961
 31
0.0
  0
LINE
  5
1303
  8
DETAIL
  6
CONTINUOUS
 62
     5
 10
-300.0
 20
154.39999999999961
 30
0.0
 11
-322.0
 21
154.39999999999961
 31
0.0
  0
LINE
  5
1304
  8
DETAIL
  6
CONTINUOUS
 62
     5
 10
51.149999999999622
 20
147.60000000000031
 30
0.0
 11
63.849999999999447
 21
147.60000000000031
 31
0.0
  0
LINE
  5
1305
  8
DETAIL
  6
CONTINUOUS
 62
     5
 10
47.699999999999797
 20
142.60000000000031
 30
0.0
 11
67.299999999999272
 21
142.60000000000031
 31
0.0
  0
LINE
  5
1306
  8
DETAIL
  6
CONTINUOUS
 62
     5
 10
47.699999999999797
 20
142.0
 30
0.0
 11
67.299999999999272
 21
142.0
 31
0.0
  0
LINE
  5
1307
  8
DETAIL
  6
CONTINUOUS
 62
     5
 10
-323.0
 20
133.89999999999961
 30
0.0
 11
-322.20000000000078
 21
133.89999999999961
 31
0.0
  0
LINE
  5
1308
  8
DETAIL
  6
CONTINUOUS
 62
     5
 10
-101.5
 20
133.89999999999961
 30
0.0
 11
-79.5
 21
133.89999999999961
 31
0.0
  0
LINE
  5
1309
  8
DETAIL
  6
CONTINUOUS
 62
     5
 10
-78.5
 20
133.89999999999961
 30
0.0
 11
-79.300000000000196
 21
133.89999999999961
 31
0.0
  0
LINE
  5
130A
  8
DETAIL
  6
CONTINUOUS
 62
     5
 10
-300.0
 20
133.89999999999961
 30
0.0
 11
-322.0
 21
133.89999999999961
 31
0.0
  0
LINE
  5
130B
  8
DETAIL
  6
CONTINUOUS
 62
     5
 10
-321.0
 20
133.69999999999979
 30
0.0
 11
-308.0
 21
133.69999999999979
 31
0.0
  0
LINE
  5
130C
  8
DETAIL
  6
CONTINUOUS
 62
     5
 10
-80.5
 20
133.69999999999979
 30
0.0
 11
-93.499999999999986
 21
133.69999999999979
 31
0.0
  0
LINE
  5
130D
  8
DETAIL
  6
CONTINUOUS
 62
     5
 10
-321.0
 20
132.89999999999961
 30
0.0
 11
-308.0
 21
132.89999999999961
 31
0.0
  0
LINE
  5
130E
  8
DETAIL
  6
CONTINUOUS
 62
     5
 10
-80.5
 20
132.89999999999961
 30
0.0
 11
-93.499999999999986
 21
132.89999999999961
 31
0.0
  0
LINE
  5
130F
  8
DETAIL
  6
CONTINUOUS
 62
     5
 10
-316.25
 20
132.80000000000021
 30
0.0
 11
-305.75
 21
132.80000000000021
 31
0.0
  0
LINE
  5
1310
  8
DETAIL
  6
CONTINUOUS
 62
     5
 10
-95.750000000000014
 20
132.80000000000021
 30
0.0
 11
-85.25
 21
132.80000000000021
 31
0.0
  0
LINE
  5
1311
  8
DETAIL
  6
CONTINUOUS
 62
     5
 10
-316.25
 20
130.0
 30
0.0
 11
-85.25
 21
130.0
 31
0.0
  0
LINE
  5
1312
  8
DETAIL
  6
CONTINUOUS
 62
     5
 10
397.5294489999996
 20
186.0
 30
0.0
 11
365.96509499999962
 21
185.2226460000002
 31
0.0
  0
LINE
  5
1313
  8
DETAIL
  6
CONTINUOUS
 62
     5
 10
357.5
 20
171.0
 30
0.0
 11
359.50872600000002
 21
171.0350619999999
 31
0.0
  0
LINE
  5
1314
  8
DETAIL
  6
CONTINUOUS
 62
     5
 10
397.5294489999996
 20
186.0
 30
0.0
 11
432.03574899999961
 21
188.4755590000004
 31
0.0
  0
LINE
  5
1315
  8
DETAIL
  6
CONTINUOUS
 62
     5
 10
-277.5
 20
393.0
 30
0.0
 11
-277.5
 21
402.0
 31
0.0
  0
LINE
  5
1316
  8
DETAIL
  6
CONTINUOUS
 62
     5
 10
-292.5
 20
330.0
 30
0.0
 11
-292.5
 21
378.0
 31
0.0
  0
LINE
  5
1317
  8
DETAIL
  6
CONTINUOUS
 62
     5
 10
-292.5
 20
387.0
 30
0.0
 11
-292.5
 21
378.0
 31
0.0
  0
LINE
  5
1318
  8
DETAIL
  6
CONTINUOUS
 62
     5
 10
-297.0
 20
136.89999999999961
 30
0.0
 11
-297.0
 21
151.39999999999961
 31
0.0
  0
LINE
  5
1319
  8
DETAIL
  6
CONTINUOUS
 62
     5
 10
-305.75
 20
133.89999999999961
 30
0.0
 11
-305.75
 21
132.80000000000021
 31
0.0
  0
LINE
  5
131A
  8
DETAIL
  6
CONTINUOUS
 62
     5
 10
-343.10000000000042
 20
327.89999999999958
 30
0.0
 11
-340.10000000000042
 21
324.89999999999969
 31
0.0
  0
LINE
  5
131B
  8
DETAIL
  6
CONTINUOUS
 62
     5
 10
-306.5
 20
342.0
 30
0.0
 11
-306.5
 21
334.77506199999971
 31
0.0
  0
LINE
  5
131C
  8
DETAIL
  6
CONTINUOUS
 62
     5
 10
-307.5
 20
341.99254200000001
 30
0.0
 11
-307.5
 21
337.0
 31
0.0
  0
LINE
  5
131D
  8
DETAIL
  6
CONTINUOUS
 62
     5
 10
-308.0
 20
133.89999999999961
 30
0.0
 11
-308.0
 21
132.89999999999961
 31
0.0
  0
LINE
  5
131E
  8
DETAIL
  6
CONTINUOUS
 62
     5
 10
-310.0
 20
158.60000000000031
 30
0.0
 11
-310.0
 21
154.60000000000031
 31
0.0
  0
LINE
  5
131F
  8
DETAIL
  6
CONTINUOUS
 62
     5
 10
-311.5
 20
387.0
 30
0.0
 11
-311.5
 21
378.0
 31
0.0
  0
LINE
  5
1320
  8
DETAIL
  6
CONTINUOUS
 62
     5
 10
-316.25
 20
130.0
 30
0.0
 11
-316.25
 21
132.80000000000021
 31
0.0
  0
LINE
  5
1321
  8
DETAIL
  6
CONTINUOUS
 62
     5
 10
-322.0
 20
154.39999999999961
 30
0.0
 11
-322.0
 21
133.89999999999961
 31
0.0
  0
LINE
  5
1322
  8
DETAIL
  6
CONTINUOUS
 62
     5
 10
-322.20000000000078
 20
154.39999999999961
 30
0.0
 11
-322.20000000000078
 21
133.89999999999961
 31
0.0
  0
LINE
  5
1323
  8
DETAIL
  6
CONTINUOUS
 62
     5
 10
-323.0
 20
154.39999999999961
 30
0.0
 11
-323.0
 21
133.89999999999961
 31
0.0
  0
LINE
  5
1324
  8
DETAIL
  6
CONTINUOUS
 62
     5
 10
-323.5
 20
387.0
 30
0.0
 11
-323.5
 21
378.0
 31
0.0
  0
LINE
  5
1325
  8
DETAIL
  6
CONTINUOUS
 62
     5
 10
-327.5
 20
337.0
 30
0.0
 11
-327.5
 21
341.99254200000001
 31
0.0
  0
LINE
  5
1326
  8
DETAIL
  6
CONTINUOUS
 62
     5
 10
-328.5
 20
334.77506199999971
 30
0.0
 11
-328.5
 21
342.0
 31
0.0
  0
LINE
  5
1327
  8
DETAIL
  6
CONTINUOUS
 62
     5
 10
-329.5
 20
393.0
 30
0.0
 11
-329.5
 21
402.0
 31
0.0
  0
LINE
  5
1328
  8
DETAIL
  6
CONTINUOUS
 62
     5
 10
-330.5
 20
157.0
 30
0.0
 11
-330.5
 21
156.0
 31
0.0
  0
LINE
  5
1329
  8
DETAIL
  6
CONTINUOUS
 62
     5
 10
-340.10000000000042
 20
324.89999999999969
 30
0.0
 11
-340.10000000000042
 21
172.39999999999941
 31
0.0
  0
LINE
  5
132A
  8
DETAIL
  6
CONTINUOUS
 62
     5
 10
-342.5
 20
330.0
 30
0.0
 11
-342.5
 21
378.0
 31
0.0
  0
LINE
  5
132B
  8
DETAIL
  6
CONTINUOUS
 62
     5
 10
-342.5
 20
387.0
 30
0.0
 11
-342.5
 21
378.0
 31
0.0
  0
LINE
  5
132C
  8
DETAIL
  6
CONTINUOUS
 62
     5
 10
-343.10000000000042
 20
384.89999999999969
 30
0.0
 11
-343.10000000000042
 21
327.89999999999958
 31
0.0
  0
LINE
  5
132D
  8
DETAIL
  6
CONTINUOUS
 62
     5
 10
-347.5
 20
157.0
 30
0.0
 11
-347.5
 21
169.39999999999961
 31
0.0
  0
LINE
  5
132E
  8
DETAIL
  6
CONTINUOUS
 62
     5
 10
-347.5
 20
387.89999999999958
 30
0.0
 11
-347.5
 21
390.0
 31
0.0
  0
LINE
  5
132F
  8
DETAIL
  6
CONTINUOUS
 62
     5
 10
-348.5
 20
155.39999999999961
 30
0.0
 11
-348.5
 21
156.0
 31
0.0
  0
LINE
  5
1330
  8
DETAIL
  6
CONTINUOUS
 62
     5
 10
-348.5
 20
156.0
 30
0.0
 11
-348.5
 21
156.80000000000021
 31
0.0
  0
LINE
  5
1331
  8
DETAIL
  6
CONTINUOUS
 62
     5
 10
-348.5
 20
157.0
 30
0.0
 11
-348.5
 21
169.39999999999961
 31
0.0
  0
LINE
  5
1332
  8
DETAIL
  6
CONTINUOUS
 62
     5
 10
-348.5
 20
387.89999999999958
 30
0.0
 11
-348.5
 21
390.0
 31
0.0
  0
LINE
  5
1333
  8
DETAIL
  6
CONTINUOUS
 62
     5
 10
-348.70000000000078
 20
157.0
 30
0.0
 11
-348.70000000000078
 21
169.39999999999961
 31
0.0
  0
LINE
  5
1334
  8
DETAIL
  6
CONTINUOUS
 62
     5
 10
-348.70000000000078
 20
402.0
 30
0.0
 11
-348.70000000000078
 21
390.0
 31
0.0
  0
LINE
  5
1335
  8
DETAIL
  6
CONTINUOUS
 62
     5
 10
-348.9000000000006
 20
401.19999999999982
 30
0.0
 11
-348.9000000000006
 21
387.89999999999958
 31
0.0
  0
LINE
  5
1336
  8
DETAIL
  6
CONTINUOUS
 62
     5
 10
-349.30000000000013
 20
169.39999999999961
 30
0.0
 11
-349.30000000000013
 21
387.89999999999958
 31
0.0
  0
LINE
  5
1337
  8
DETAIL
  6
CONTINUOUS
 62
     5
 10
-349.5
 20
157.0
 30
0.0
 11
-349.5
 21
169.39999999999961
 31
0.0
  0
LINE
  5
1338
  8
DETAIL
  6
CONTINUOUS
 62
     5
 10
-349.5
 20
401.19999999999982
 30
0.0
 11
-349.5
 21
387.89999999999958
 31
0.0
  0
LINE
  5
1339
  8
DETAIL
  6
CONTINUOUS
 62
     5
 10
-350.10000000000042
 20
157.89999999999961
 30
0.0
 11
-350.10000000000042
 21
400.39999999999958
 31
0.0
  0
LINE
  5
133A
  8
DETAIL
  6
CONTINUOUS
 62
     5
 10
-350.50000000000091
 20
157.89999999999961
 30
0.0
 11
-350.50000000000091
 21
173.89999999999961
 31
0.0
  0
LINE
  5
133B
  8
DETAIL
  6
CONTINUOUS
 62
     5
 10
-350.50000000000091
 20
400.39999999999958
 30
0.0
 11
-350.50000000000091
 21
385.39999999999969
 31
0.0
  0
LINE
  5
133C
  8
DETAIL
  6
CONTINUOUS
 62
     5
 10
-328.47206300000028
 20
401.19999999999982
 30
0.0
 11
-328.47303800000009
 21
401.2279200000001
 31
0.0
  0
LINE
  5
133D
  8
DETAIL
  6
CONTINUOUS
 62
     5
 10
364.10750599999938
 20
183.86984400000071
 30
0.0
 11
364.04918699999962
 21
183.7031820000002
 31
0.0
  0
LINE
  5
133E
  8
DETAIL
  6
CONTINUOUS
 62
     5
 10
364.04918699999962
 20
183.7031820000002
 30
0.0
 11
364.0
 21
183.5667040000007
 31
0.0
  0
LINE
  5
133F
  8
DETAIL
  6
CONTINUOUS
 62
     5
 10
392.22944899999948
 20
376.42298000000022
 30
0.0
 11
392.22944899999948
 21
195.67483200000061
 31
0.0
  0
ARC
  5
1340
  8
DETAIL
  6
CONTINUOUS
 62
     5
 10
432.0
 20
383.02573200000012
 30
0.0
 40
0.5
 50
0.0
 51
85.900000000002635
  0
ARC
  5
1341
  8
DETAIL
  6
CONTINUOUS
 62
     5
 10
365.9999994991586
 20
388.7770565055398
 30
0.0
 40
1.9999984970269951
 50
198.87148294709371
 51
269.00001259869998
  0
ARC
  5
1342
  8
DETAIL
  6
CONTINUOUS
 62
     5
 10
360.0
 20
389.56921700000021
 30
0.0
 40
4.0
 50
359.9999940000306
 51
83.620630000000176
  0
ARC
  5
1343
  8
DETAIL
  6
CONTINUOUS
 62
     5
 10
347.5
 20
378.0
 30
0.0
 40
3.0
 50
270.0
 51
0.0
  0
ARC
  5
1344
  8
DETAIL
  6
CONTINUOUS
 62
     5
 10
334.5
 20
378.0
 30
0.0
 40
3.0
 50
180.0
 51
270.0
  0
ARC
  5
1345
  8
DETAIL
  6
CONTINUOUS
 62
     5
 10
316.5
 20
378.0
 30
0.0
 40
3.0
 50
270.0
 51
0.0
  0
ARC
  5
1346
  8
DETAIL
  6
CONTINUOUS
 62
     5
 10
303.5
 20
378.0
 30
0.0
 40
3.0
 50
180.0
 51
270.0
  0
ARC
  5
1347
  8
DETAIL
  6
CONTINUOUS
 62
     5
 10
349.69999999999987
 20
401.19999999999982
 30
0.0
 40
0.8
 50
0.0
 51
90.0
  0
ARC
  5
1348
  8
DETAIL
  6
CONTINUOUS
 62
     5
 10
360.5
 20
394.04135300000053
 30
0.0
 40
0.5
 50
180.0
 51
263.62063000000018
  0
ARC
  5
1349
  8
DETAIL
  6
CONTINUOUS
 62
     5
 10
359.5
 20
401.46501399999909
 30
0.0
 40
0.5
 50
0.0
 51
88.999999999998224
  0
ARC
  5
134A
  8
DETAIL
  6
CONTINUOUS
 62
     5
 10
349.69999999999987
 20
401.19999999999982
 30
0.0
 40
0.2
 50
0.0
 51
90.0
  0
ARC
  5
134B
  8
DETAIL
  6
CONTINUOUS
 62
     5
 10
197.7999999999993
 20
393.0
 30
0.0
 40
3.0
 50
180.0
 51
270.0
  0
ARC
  5
134C
  8
DETAIL
  6
CONTINUOUS
 62
     5
 10
194.13137099999929
 20
401.19999999999982
 30
0.0
 40
0.8
 50
90.0
 51
135.0
  0
ARC
  5
134D
  8
DETAIL
  6
CONTINUOUS
 62
     5
 10
194.13137099999929
 20
401.19999999999982
 30
0.0
 40
0.2
 50
90.0
 51
135.0
  0
ARC
  5
134E
  8
DETAIL
  6
CONTINUOUS
 62
     5
 10
129.79999999999919
 20
393.0
 30
0.0
 40
3.0
 50
270.0
 51
0.0
  0
ARC
  5
134F
  8
DETAIL
  6
CONTINUOUS
 62
     5
 10
133.468628999999
 20
401.19999999999982
 30
0.0
 40
0.8
 50
45.0
 51
90.0
  0
ARC
  5
1350
  8
DETAIL
  6
CONTINUOUS
 62
     5
 10
133.468628999999
 20
401.19999999999982
 30
0.0
 40
0.2
 50
45.0
 51
90.0
  0
ARC
  5
1351
  8
DETAIL
  6
CONTINUOUS
 62
     5
 10
347.5
 20
330.0
 30
0.0
 40
3.0
 50
270.0
 51
0.0
  0
ARC
  5
1352
  8
DETAIL
  6
CONTINUOUS
 62
     5
 10
303.5
 20
330.0
 30
0.0
 40
3.0
 50
180.0
 51
270.0
  0
ARC
  5
1353
  8
DETAIL
  6
CONTINUOUS
 62
     5
 10
-8.7000000000007258
 20
393.0
 30
0.0
 40
3.0
 50
180.0
 51
270.0
  0
ARC
  5
1354
  8
DETAIL
  6
CONTINUOUS
 62
     5
 10
-12.36862900000051
 20
401.19999999999982
 30
0.0
 40
0.8
 50
90.0
 51
135.0
  0
ARC
  5
1355
  8
DETAIL
  6
CONTINUOUS
 62
     5
 10
-12.36862900000051
 20
401.19999999999982
 30
0.0
 40
0.2
 50
90.0
 51
135.0
  0
ARC
  5
1356
  8
DETAIL
  6
CONTINUOUS
 62
     5
 10
-76.700000000000699
 20
393.0
 30
0.0
 40
3.0
 50
270.0
 51
0.0
  0
ARC
  5
1357
  8
DETAIL
  6
CONTINUOUS
 62
     5
 10
-73.300000000000196
 20
400.33725799999911
 30
0.0
 40
1.0
 50
59.973903999998612
 51
113.614324999991
  0
ARC
  5
1358
  8
DETAIL
  6
CONTINUOUS
 62
     5
 10
-73.031371000000931
 20
401.19999999999982
 30
0.0
 40
0.8
 50
45.0
 51
90.0
  0
ARC
  5
1359
  8
DETAIL
  6
CONTINUOUS
 62
     5
 10
-73.031371000000931
 20
401.19999999999982
 30
0.0
 40
0.2
 50
45.0
 51
90.0
  0
ARC
  5
135A
  8
DETAIL
  6
CONTINUOUS
 62
     5
 10
-346.10000000000042
 20
384.89999999999969
 30
0.0
 40
3.0
 50
0.0
 51
90.0
  0
ARC
  5
135B
  8
DETAIL
  6
CONTINUOUS
 62
     5
 10
-274.5
 20
393.0
 30
0.0
 40
3.0
 50
180.0
 51
270.0
  0
ARC
  5
135C
  8
DETAIL
  6
CONTINUOUS
 62
     5
 10
-332.5
 20
393.0
 30
0.0
 40
3.0
 50
270.0
 51
0.0
  0
ARC
  5
135D
  8
DETAIL
  6
CONTINUOUS
 62
     5
 10
-329.27255100000002
 20
401.19999999999982
 30
0.0
 40
0.8
 50
2.0000000000039511
 51
90.0
  0
ARC
  5
135E
  8
DETAIL
  6
CONTINUOUS
 62
     5
 10
-278.16862899999973
 20
401.19999999999982
 30
0.0
 40
0.8
 50
90.0
 51
135.0
  0
ARC
  5
135F
  8
DETAIL
  6
CONTINUOUS
 62
     5
 10
-348.70000000000078
 20
401.19999999999982
 30
0.0
 40
0.8
 50
90.0
 51
180.0
  0
ARC
  5
1360
  8
DETAIL
  6
CONTINUOUS
 62
     5
 10
-349.90000000000151
 20
400.40000000000049
 30
0.0
 40
0.5999999999994543
 50
48.189685104017748
 51
180.0
  0
ARC
  5
1361
  8
DETAIL
  6
CONTINUOUS
 62
     5
 10
-329.27255100000002
 20
401.19999999999982
 30
0.0
 40
0.2
 50
2.0000000000039511
 51
90.0
  0
ARC
  5
1362
  8
DETAIL
  6
CONTINUOUS
 62
     5
 10
-278.16862899999973
 20
401.19999999999982
 30
0.0
 40
0.2
 50
90.0
 51
135.0
  0
ARC
  5
1363
  8
DETAIL
  6
CONTINUOUS
 62
     5
 10
-348.70000000000078
 20
401.19999999999982
 30
0.0
 40
0.2
 50
90.0
 51
180.0
  0
ARC
  5
1364
  8
DETAIL
  6
CONTINUOUS
 62
     5
 10
-295.5
 20
378.0
 30
0.0
 40
3.0
 50
270.0
 51
0.0
  0
ARC
  5
1365
  8
DETAIL
  6
CONTINUOUS
 62
     5
 10
-308.5
 20
378.0
 30
0.0
 40
3.0
 50
180.0
 51
270.0
  0
ARC
  5
1366
  8
DETAIL
  6
CONTINUOUS
 62
     5
 10
-326.5
 20
378.0
 30
0.0
 40
3.0
 50
270.0
 51
0.0
  0
ARC
  5
1367
  8
DETAIL
  6
CONTINUOUS
 62
     5
 10
-339.5
 20
378.0
 30
0.0
 40
3.0
 50
180.0
 51
270.0
  0
ARC
  5
1368
  8
DETAIL
  6
CONTINUOUS
 62
     5
 10
-295.5
 20
330.0
 30
0.0
 40
3.0
 50
270.0
 51
0.0
  0
ARC
  5
1369
  8
DETAIL
  6
CONTINUOUS
 62
     5
 10
-339.5
 20
330.0
 30
0.0
 40
3.0
 50
180.0
 51
270.0
  0
ARC
  5
136A
  8
DETAIL
  6
CONTINUOUS
 62
     5
 10
432.0
 20
188.97428000000031
 30
0.0
 40
0.5
 50
274.09999999999741
 51
0.0
  0
ARC
  5
136B
  8
DETAIL
  6
CONTINUOUS
 62
     5
 10
366.0
 20
183.2229540000007
 30
0.0
 40
2.0
 50
91.000000999992679
 51
161.12972699996681
  0
ARC
  5
136C
  8
DETAIL
  6
CONTINUOUS
 62
     5
 10
360.0
 20
182.4307950000001
 30
0.0
 40
4.0
 50
276.37936999999982
 51
0.0000029999846689
  0
ARC
  5
136D
  8
DETAIL
  6
CONTINUOUS
 62
     5
 10
360.5
 20
177.9586589999999
 30
0.0
 40
0.5
 50
96.379369999999795
 51
179.99999900000509
  0
ARC
  5
136E
  8
DETAIL
  6
CONTINUOUS
 62
     5
 10
349.69999999999987
 20
164.0
 30
0.0
 40
1.0
 50
0.0
 51
90.0
  0
ARC
  5
136F
  8
DETAIL
  6
CONTINUOUS
 62
     5
 10
350.69999999999987
 20
152.80000000000021
 30
0.0
 40
0.8
 50
270.0
 51
0.0
  0
ARC
  5
1370
  8
DETAIL
  6
CONTINUOUS
 62
     5
 10
359.5
 20
171.53498600000049
 30
0.0
 40
0.5
 50
271.00000000000182
 51
0.0
  0
ARC
  5
1371
  8
DETAIL
  6
CONTINUOUS
 62
     5
 10
350.69999999999987
 20
152.80000000000021
 30
0.0
 40
0.2
 50
270.0
 51
0.0
  0
ARC
  5
1372
  8
DETAIL
  6
CONTINUOUS
 62
     5
 10
47.699999999999797
 20
142.80000000000021
 30
0.0
 40
0.8
 50
180.0
 51
270.0
  0
ARC
  5
1373
  8
DETAIL
  6
CONTINUOUS
 62
     5
 10
67.299999999999272
 20
142.80000000000021
 30
0.0
 40
0.8
 50
270.0
 51
0.0
  0
ARC
  5
1374
  8
DETAIL
  6
CONTINUOUS
 62
     5
 10
68.299999999999272
 20
151.19999999999979
 30
0.0
 40
0.8
 50
90.0
 51
180.0
  0
ARC
  5
1375
  8
DETAIL
  6
CONTINUOUS
 62
     5
 10
46.699999999999818
 20
151.19999999999979
 30
0.0
 40
0.8
 50
0.0
 51
90.0
  0
ARC
  5
1376
  8
DETAIL
  6
CONTINUOUS
 62
     5
 10
46.699999999999818
 20
151.19999999999979
 30
0.0
 40
0.2
 50
0.0
 51
90.0
  0
ARC
  5
1377
  8
DETAIL
  6
CONTINUOUS
 62
     5
 10
68.299999999999272
 20
151.19999999999979
 30
0.0
 40
0.2
 50
90.0
 51
180.0
  0
ARC
  5
1378
  8
DETAIL
  6
CONTINUOUS
 62
     5
 10
67.299999999999272
 20
142.80000000000021
 30
0.0
 40
0.2
 50
270.0
 51
0.0
  0
ARC
  5
1379
  8
DETAIL
  6
CONTINUOUS
 62
     5
 10
47.699999999999797
 20
142.80000000000021
 30
0.0
 40
0.2
 50
180.0
 51
270.0
  0
ARC
  5
137A
  8
DETAIL
  6
CONTINUOUS
 62
     5
 10
-94.500000000000014
 20
158.60000000000031
 30
0.0
 40
3.0
 50
0.0
 51
90.0
  0
ARC
  5
137B
  8
DETAIL
  6
CONTINUOUS
 62
     5
 10
-101.5
 20
151.39999999999961
 30
0.0
 40
3.0
 50
90.0
 51
180.0
  0
ARC
  5
137C
  8
DETAIL
  6
CONTINUOUS
 62
     5
 10
-101.5
 20
136.89999999999961
 30
0.0
 40
3.0
 50
180.0
 51
270.0
  0
ARC
  5
137D
  8
DETAIL
  6
CONTINUOUS
 62
     5
 10
-69.168628999999783
 20
162.0
 30
0.0
 40
3.0
 50
90.0
 51
180.0
  0
ARC
  5
137E
  8
DETAIL
  6
CONTINUOUS
 62
     5
 10
-80.5
 20
133.89999999999961
 30
0.0
 40
1.0
 50
270.0
 51
0.0
  0
ARC
  5
137F
  8
DETAIL
  6
CONTINUOUS
 62
     5
 10
-79.5
 20
154.39999999999961
 30
0.0
 40
1.0
 50
0.0
 51
90.0
  0
ARC
  5
1380
  8
DETAIL
  6
CONTINUOUS
 62
     5
 10
-93.499999999999986
 20
133.69999999999979
 30
0.0
 40
0.8
 50
165.4664629999935
 51
270.0
  0
ARC
  5
1381
  8
DETAIL
  6
CONTINUOUS
 62
     5
 10
-80.5
 20
133.89999999999961
 30
0.0
 40
0.2
 50
270.0
 51
0.0
  0
ARC
  5
1382
  8
DETAIL
  6
CONTINUOUS
 62
     5
 10
-79.5
 20
154.39999999999961
 30
0.0
 40
0.2
 50
0.0
 51
90.0
  0
ARC
  5
1383
  8
DETAIL
  6
CONTINUOUS
 62
     5
 10
-343.10000000000042
 20
172.39999999999941
 30
0.0
 40
3.0
 50
270.0
 51
0.0
  0
ARC
  5
1384
  8
DETAIL
  6
CONTINUOUS
 62
     5
 10
-307.0
 20
158.60000000000031
 30
0.0
 40
3.0
 50
90.0
 51
180.0
  0
ARC
  5
1385
  8
DETAIL
  6
CONTINUOUS
 62
     5
 10
-300.0
 20
136.89999999999961
 30
0.0
 40
3.0
 50
270.0
 51
0.0
  0
ARC
  5
1386
  8
DETAIL
  6
CONTINUOUS
 62
     5
 10
-300.0
 20
151.39999999999961
 30
0.0
 40
3.0
 50
0.0
 51
90.0
  0
ARC
  5
1387
  8
DETAIL
  6
CONTINUOUS
 62
     5
 10
-348.5
 20
157.0
 30
0.0
 40
1.0
 50
180.0
 51
270.0
  0
ARC
  5
1388
  8
DETAIL
  6
CONTINUOUS
 62
     5
 10
-321.0
 20
133.89999999999961
 30
0.0
 40
1.0
 50
180.0
 51
270.0
  0
ARC
  5
1389
  8
DETAIL
  6
CONTINUOUS
 62
     5
 10
-322.0
 20
154.39999999999961
 30
0.0
 40
1.0
 50
90.0
 51
180.0
  0
ARC
  5
138A
  8
DETAIL
  6
CONTINUOUS
 62
     5
 10
-308.0
 20
133.69999999999979
 30
0.0
 40
0.8
 50
270.0
 51
14.53353700000654
  0
ARC
  5
138B
  8
DETAIL
  6
CONTINUOUS
 62
     5
 10
-349.90000000000151
 20
157.89999999999961
 30
0.0
 40
0.6000000000004845
 50
180.0
 51
311.81031489594523
  0
ARC
  5
138C
  8
DETAIL
  6
CONTINUOUS
 62
     5
 10
-348.5
 20
157.0
 30
0.0
 40
0.2
 50
180.0
 51
270.0
  0
ARC
  5
138D
  8
DETAIL
  6
CONTINUOUS
 62
     5
 10
-321.0
 20
133.89999999999961
 30
0.0
 40
0.2
 50
180.0
 51
270.0
  0
ARC
  5
138E
  8
DETAIL
  6
CONTINUOUS
 62
     5
 10
-322.0
 20
154.39999999999961
 30
0.0
 40
0.2
 50
90.0
 51
180.0
  0
LINE
  5
138F
  8
DETAIL
  6
CONTINUOUS
 62
     5
 10
365.95073499999938
 20
384.27773700000012
 30
0.0
 11
365.95083299999988
 21
384.4390980000008
 31
0.0
  0
LINE
  5
1390
  8
DETAIL
  6
CONTINUOUS
 62
     5
 10
341.5
 20
337.0
 30
0.0
 11
341.5
 21
358.5
 31
0.0
  0
LINE
  5
1391
  8
DETAIL
  6
CONTINUOUS
 62
     5
 10
309.5
 20
358.5
 30
0.0
 11
309.5
 21
337.0
 31
0.0
  0
LINE
  5
1392
  8
DETAIL
  6
CONTINUOUS
 62
     5
 10
334.5
 20
365.5
 30
0.0
 11
316.5
 21
365.5
 31
0.0
  0
LINE
  5
1393
  8
DETAIL
  6
CONTINUOUS
 62
     5
 10
-308.5
 20
365.5
 30
0.0
 11
-326.5
 21
365.5
 31
0.0
  0
LINE
  5
1394
  8
DETAIL
  6
CONTINUOUS
 62
     5
 10
-301.5
 20
337.0
 30
0.0
 11
-301.5
 21
358.5
 31
0.0
  0
LINE
  5
1395
  8
DETAIL
  6
CONTINUOUS
 62
     5
 10
-333.5
 20
358.5
 30
0.0
 11
-333.5
 21
337.0
 31
0.0
  0
ARC
  5
1396
  8
DETAIL
  6
CONTINUOUS
 62
     5
 10
334.5
 20
358.5
 30
0.0
 40
7.0
 50
0.0
 51
90.0
  0
ARC
  5
1397
  8
DETAIL
  6
CONTINUOUS
 62
     5
 10
316.5
 20
358.5
 30
0.0
 40
7.0
 50
90.0
 51
180.0
  0
ARC
  5
1398
  8
DETAIL
  6
CONTINUOUS
 62
     5
 10
338.5
 20
337.0
 30
0.0
 40
3.0
 50
180.0
 51
0.0
  0
ARC
  5
1399
  8
DETAIL
  6
CONTINUOUS
 62
     5
 10
312.5
 20
337.0
 30
0.0
 40
3.0
 50
180.0
 51
0.0
  0
ARC
  5
139A
  8
DETAIL
  6
CONTINUOUS
 62
     5
 10
-308.5
 20
358.5
 30
0.0
 40
7.0
 50
0.0
 51
90.0
  0
ARC
  5
139B
  8
DETAIL
  6
CONTINUOUS
 62
     5
 10
-326.5
 20
358.5
 30
0.0
 40
7.0
 50
90.0
 51
180.0
  0
ARC
  5
139C
  8
DETAIL
  6
CONTINUOUS
 62
     5
 10
-304.5
 20
337.0
 30
0.0
 40
3.0
 50
180.0
 51
0.0
  0
ARC
  5
139D
  8
DETAIL
  6
CONTINUOUS
 62
     5
 10
-330.5
 20
337.0
 30
0.0
 40
3.0
 50
180.0
 51
0.0
  0
LINE
  5
139E
  8
DETAIL
  6
CONTINUOUS
 62
     5
 10
-297.3471570000001
 20
152.80000000000021
 30
0.0
 11
-104.15284299999981
 21
152.80000000000021
 31
0.0
  0
LINE
  5
13A0
  8
OUTLINE
  6
CONTINUOUS
 62
     3
 10
175.5
 20
-4.0065080000003919
 30
0.0
 11
175.5
 21
0.0
 31
0.0
  0
LINE
  5
13A1
  8
OUTLINE
  6
CONTINUOUS
 62
     3
 10
143.96999999999929
 20
0.0
 30
0.0
 11
143.96999999999929
 21
47.0
 31
0.0
  0
LINE
  5
13A2
  8
OUTLINE
  6
CONTINUOUS
 62
     3
 10
-393.80000000000018
 20
-8.0
 30
0.0
 11
144.7999999999993
 21
-8.0
 31
0.0
  0
ARC
  5
13A3
  8
OUTLINE
  6
CONTINUOUS
 62
     3
 10
144.7999999999993
 20
112.0
 30
0.0
 40
120.0
 50
270.0
 51
284.82297000005161
  0
ARC
  5
13A4
  8
OUTLINE
  6
CONTINUOUS
 62
     3
 10
-393.80000000000018
 20
112.0
 30
0.0
 40
120.0
 50
255.17702999994839
 51
270.0
  0
LINE
  5
13A5
  8
OUTLINE
  6
CONTINUOUS
 62
     3
 10
175.5
 20
0.0
 30
0.0
 11
-424.5
 21
0.0
 31
0.0
  0
LINE
  5
13A6
  8
OUTLINE
  6
CONTINUOUS
 62
     3
 10
-424.5
 20
-4.0065080000003919
 30
0.0
 11
-424.5
 21
0.0
 31
0.0
  0
LINE
  5
13A7
  8
OUTLINE
  6
CONTINUOUS
 62
     3
 10
-392.97000000000031
 20
0.0
 30
0.0
 11
-392.97000000000031
 21
47.0
 31
0.0
  0
LINE
  5
13A8
  8
OUTLINE
  6
CONTINUOUS
 62
     3
 10
143.96999999999929
 20
47.0
 30
0.0
 11
-392.97000000000031
 21
47.0
 31
0.0
  0
ARC
  5
13A9
  8
OUTLINE
  6
CONTINUOUS
 62
     3
 10
-349.89999999999969
 20
400.39999999999958
 30
0.0
 40
0.6000000000002908
 50
48.189685061761551
 51
180.0
  0
ARC
  5
13AA
  8
OUTLINE
  6
CONTINUOUS
 62
     3
 10
-348.69999999999987
 20
401.19999999999982
 30
0.0
 40
0.8
 50
90.0
 51
180.0
  0
ARC
  5
13AB
  8
OUTLINE
  6
CONTINUOUS
 62
     3
 10
-278.16862899999973
 20
401.19999999999982
 30
0.0
 40
0.8
 50
90.0
 51
135.0
  0
ARC
  5
13AC
  8
OUTLINE
  6
CONTINUOUS
 62
     3
 10
-329.27255100000002
 20
401.19999999999982
 30
0.0
 40
0.8
 50
0.0
 51
90.0
  0
ARC
  5
13AD
  8
OUTLINE
  6
CONTINUOUS
 62
     3
 10
-73.031371000000036
 20
401.19999999999982
 30
0.0
 40
0.8
 50
45.0
 51
90.0
  0
ARC
  5
13AE
  8
OUTLINE
  6
CONTINUOUS
 62
     3
 10
-12.368628999999601
 20
401.19999999999982
 30
0.0
 40
0.8
 50
90.0
 51
135.0
  0
ARC
  5
13AF
  8
OUTLINE
  6
CONTINUOUS
 62
     3
 10
194.1313710000004
 20
401.19999999999982
 30
0.0
 40
0.8
 50
90.0
 51
135.0
  0
ARC
  5
13B0
  8
OUTLINE
  6
CONTINUOUS
 62
     3
 10
133.46862899999991
 20
401.19999999999982
 30
0.0
 40
0.8
 50
45.0
 51
90.0
  0
ARC
  5
13B1
  8
OUTLINE
  6
CONTINUOUS
 62
     3
 10
349.69999999999987
 20
401.19999999999982
 30
0.0
 40
0.8
 50
0.0
 51
90.0
  0
ARC
  5
13B2
  8
OUTLINE
  6
CONTINUOUS
 62
     3
 10
-349.89999999999969
 20
157.89999999999861
 30
0.0
 40
0.6000000000001367
 50
179.99999999989569
 51
311.81031489572467
  0
ARC
  5
13B3
  8
OUTLINE
  6
CONTINUOUS
 62
     3
 10
-322.0
 20
154.39999999999961
 30
0.0
 40
1.0
 50
90.0
 51
180.0
  0
ARC
  5
13B4
  8
OUTLINE
  6
CONTINUOUS
 62
     3
 10
-321.0
 20
133.89999999999961
 30
0.0
 40
1.0
 50
180.0
 51
270.0
  0
ARC
  5
13B5
  8
OUTLINE
  6
CONTINUOUS
 62
     3
 10
-348.5
 20
157.0
 30
0.0
 40
1.0
 50
180.0
 51
270.0
  0
ARC
  5
13B6
  8
OUTLINE
  6
CONTINUOUS
 62
     3
 10
-79.5
 20
154.39999999999961
 30
0.0
 40
1.0
 50
0.0
 51
90.0
  0
ARC
  5
13B7
  8
OUTLINE
  6
CONTINUOUS
 62
     3
 10
-80.5
 20
133.89999999999961
 30
0.0
 40
1.0
 50
270.0
 51
0.0
  0
ARC
  5
13B8
  8
OUTLINE
  6
CONTINUOUS
 62
     3
 10
432.0
 20
188.97428000000031
 30
0.0
 40
0.5
 50
274.09999999999741
 51
0.0
  0
LINE
  5
13B9
  8
OUTLINE
  6
CONTINUOUS
 62
     3
 10
-350.5
 20
400.39999999999958
 30
0.0
 11
-350.5
 21
385.39999999999969
 31
0.0
  0
LINE
  5
13BA
  8
OUTLINE
  6
CONTINUOUS
 62
     3
 10
-350.5
 20
157.89999999999961
 30
0.0
 11
-350.5
 21
173.89999999999961
 31
0.0
  0
LINE
  5
13BB
  8
OUTLINE
  6
CONTINUOUS
 62
     3
 10
-350.10000000000042
 20
173.89999999999961
 30
0.0
 11
-350.10000000000042
 21
385.39999999999969
 31
0.0
  0
LINE
  5
13BC
  8
OUTLINE
  6
CONTINUOUS
 62
     3
 10
-349.5
 20
169.39999999999961
 30
0.0
 11
-349.5
 21
157.0
 31
0.0
  0
LINE
  5
13BD
  8
OUTLINE
  6
CONTINUOUS
 62
     3
 10
-349.5
 20
401.19999999999982
 30
0.0
 11
-349.5
 21
400.84721359483382
 31
0.0
  0
LINE
  5
13BE
  8
OUTLINE
  6
CONTINUOUS
 62
     3
 10
-348.5
 20
155.39999999999961
 30
0.0
 11
-348.5
 21
156.0
 31
0.0
  0
LINE
  5
13BF
  8
OUTLINE
  6
CONTINUOUS
 62
     3
 10
-323.0
 20
154.39999999999961
 30
0.0
 11
-323.0
 21
133.89999999999961
 31
0.0
  0
LINE
  5
13C0
  8
OUTLINE
  6
CONTINUOUS
 62
     3
 10
-316.25
 20
130.0
 30
0.0
 11
-316.25
 21
132.89999999999961
 31
0.0
  0
LINE
  5
13C1
  8
OUTLINE
  6
CONTINUOUS
 62
     3
 10
-328.47206299999931
 20
401.19999999999982
 30
0.0
 11
-328.47303800000009
 21
401.2279200000001
 31
0.0
  0
LINE
  5
13C2
  8
OUTLINE
  6
CONTINUOUS
 62
     3
 10
-278.7343149999997
 20
401.7656850000003
 30
0.0
 11
-279.29999999999927
 21
401.19999999999982
 31
0.0
  0
LINE
  5
13C3
  8
OUTLINE
  6
CONTINUOUS
 62
     3
 10
-91.5
 20
156.99999999999909
 30
0.0
 11
-91.5
 21
155.39999999999961
 31
0.0
  0
LINE
  5
13C4
  8
OUTLINE
  6
CONTINUOUS
 62
     3
 10
-85.25
 20
130.0
 30
0.0
 11
-85.25
 21
132.89999999999961
 31
0.0
  0
LINE
  5
13C5
  8
OUTLINE
  6
CONTINUOUS
 62
     3
 10
134.60000000000031
 20
401.19999999999982
 30
0.0
 11
134.03431499999979
 21
401.7656850000003
 31
0.0
  0
LINE
  5
13C6
  8
OUTLINE
  6
CONTINUOUS
 62
     3
 10
-12.93431499999951
 20
401.7656850000003
 30
0.0
 11
-13.5
 21
401.19999999999982
 31
0.0
  0
LINE
  5
13C7
  8
OUTLINE
  6
CONTINUOUS
 62
     3
 10
-78.5
 20
154.39999999999961
 30
0.0
 11
-78.5
 21
133.89999999999961
 31
0.0
  0
LINE
  5
13C8
  8
OUTLINE
  6
CONTINUOUS
 62
     3
 10
-72.168628999999783
 20
152.0
 30
0.0
 11
-72.168628999999783
 21
157.0
 31
0.0
  0
LINE
  5
13C9
  8
OUTLINE
  6
CONTINUOUS
 62
     3
 10
-329.27255100000002
 20
402.0
 30
0.0
 11
-348.69999999999987
 21
402.0
 31
0.0
  0
LINE
  5
13CA
  8
OUTLINE
  6
CONTINUOUS
 62
     3
 10
-73.031371000000036
 20
402.0
 30
0.0
 11
-278.16862899999973
 21
402.0
 31
0.0
  0
LINE
  5
13CB
  8
OUTLINE
  6
CONTINUOUS
 62
     3
 10
133.46862899999991
 20
402.0
 30
0.0
 11
-12.368628999999601
 21
402.0
 31
0.0
  0
LINE
  5
13CC
  8
OUTLINE
  6
CONTINUOUS
 62
     3
 10
349.69999999999987
 20
402.0
 30
0.0
 11
194.1313710000004
 21
402.0
 31
0.0
  0
LINE
  5
13CD
  8
OUTLINE
  6
CONTINUOUS
 62
     3
 10
-279.29999999999927
 20
401.19999999999982
 30
0.0
 11
-328.4725509996278
 21
401.19999999999982
 31
0.0
  0
LINE
  5
13CE
  8
OUTLINE
  6
CONTINUOUS
 62
     3
 10
-13.5
 20
401.19999999999982
 30
0.0
 11
-71.900000000000546
 21
401.19999999999982
 31
0.0
  0
LINE
  5
13CF
  8
OUTLINE
  6
CONTINUOUS
 62
     3
 10
193.0
 20
401.19999999999982
 30
0.0
 11
134.60000000000031
 21
401.19999999999982
 31
0.0
  0
LINE
  5
13D0
  8
OUTLINE
  6
CONTINUOUS
 62
     3
 10
-350.5
 20
385.39999999999969
 30
0.0
 11
-350.10000000000042
 21
385.39999999999969
 31
0.0
  0
LINE
  5
13D1
  8
OUTLINE
  6
CONTINUOUS
 62
     3
 10
-71.900000000000546
 20
401.19999999999982
 30
0.0
 11
-72.465685000000121
 21
401.7656850000003
 31
0.0
  0
LINE
  5
13D2
  8
OUTLINE
  6
CONTINUOUS
 62
     3
 10
193.5656850000004
 20
401.7656850000003
 30
0.0
 11
193.0
 21
401.19999999999982
 31
0.0
  0
LINE
  5
13D3
  8
OUTLINE
  6
CONTINUOUS
 62
     3
 10
-350.5
 20
173.89999999999961
 30
0.0
 11
-350.10000000000042
 21
173.89999999999961
 31
0.0
  0
LINE
  5
13D4
  8
OUTLINE
  6
CONTINUOUS
 62
     3
 10
351.5
 20
165.0
 30
0.0
 11
351.5
 21
165.0
 31
0.0
  0
LINE
  5
13D5
  8
OUTLINE
  6
CONTINUOUS
 62
     3
 10
-91.5
 20
156.99999999999909
 30
0.0
 11
-72.168628999999783
 21
157.0
 31
0.0
  0
LINE
  5
13D6
  8
OUTLINE
  6
CONTINUOUS
 62
     3
 10
-322.0
 20
155.39999999999961
 30
0.0
 11
-348.5
 21
155.39999999999961
 31
0.0
  0
LINE
  5
13D7
  8
OUTLINE
  6
CONTINUOUS
 62
     3
 10
-79.5
 20
155.39999999999961
 30
0.0
 11
-91.5
 21
155.39999999999961
 31
0.0
  0
LINE
  5
13D8
  8
OUTLINE
  6
CONTINUOUS
 62
     3
 10
-72.168628999999783
 20
152.00000000000091
 30
0.0
 11
350.69999999999987
 21
152.0
 31
0.0
  0
LINE
  5
13D9
  8
OUTLINE
  6
CONTINUOUS
 62
     3
 10
-78.5
 20
133.89999999999961
 30
0.0
 11
-79.5
 21
133.8999999999987
 31
0.0
  0
LINE
  5
13DA
  8
OUTLINE
  6
CONTINUOUS
 62
     3
 10
-323.0
 20
133.89999999999961
 30
0.0
 11
-322.0
 21
133.89999999999961
 31
0.0
  0
LINE
  5
13DB
  8
OUTLINE
  6
CONTINUOUS
 62
     3
 10
-80.5
 20
132.89999999999961
 30
0.0
 11
-85.25
 21
132.89999999999961
 31
0.0
  0
LINE
  5
13DC
  8
OUTLINE
  6
CONTINUOUS
 62
     3
 10
-321.0
 20
132.89999999999961
 30
0.0
 11
-316.25
 21
132.89999999999961
 31
0.0
  0
LINE
  5
13DD
  8
OUTLINE
  6
CONTINUOUS
 62
     3
 10
-85.25
 20
130.0
 30
0.0
 11
-316.25
 21
130.0
 31
0.0
  0
LINE
  5
13DE
  8
OUTLINE
  6
CONTINUOUS
 62
     3
 10
350.5
 20
165.0
 30
0.0
 11
350.5
 21
401.19999999999982
 31
0.0
  0
LINE
  5
13DF
  8
OUTLINE
  6
CONTINUOUS
 62
     3
 10
350.69999999999987
 20
164.0
 30
0.0
 11
350.69999999999987
 21
152.0
 31
0.0
  0
LINE
  5
13E0
  8
DETAIL
  6
CONTINUOUS
 62
     5
 10
365.96509499999962
 20
356.2482840000003
 30
0.0
 11
364.13419599999997
 21
376.77888900000022
 31
0.0
  0
LINE
  5
13E1
  8
DETAIL
  6
CONTINUOUS
 62
     5
 10
365.96509499999962
 20
376.77888900000022
 30
0.0
 11
365.96509499999962
 21
386.77736600000009
 31
0.0
  0
LINE
  5
13E2
  8
DETAIL
  6
CONTINUOUS
 62
     5
 10
364.0
 20
389.56921500000078
 30
0.0
 11
364.0
 21
388.43331300000051
 31
0.0
  0
LINE
  5
13E3
  8
DETAIL
  6
CONTINUOUS
 62
     5
 10
361.96484950902641
 20
356.24159065308021
 30
0.0
 11
361.96509499999962
 21
215.7617019999997
 31
0.0
  0
LINE
  5
13E4
  8
DETAIL
  6
CONTINUOUS
 62
     5
 10
365.96508211340279
 20
185.22264916206811
 30
0.0
 11
365.96509499999962
 21
195.22118299999951
 31
0.0
  0
LINE
  5
13E5
  8
DETAIL
  6
CONTINUOUS
 62
     5
 10
364.13419599999997
 20
195.22112300000029
 30
0.0
 11
365.96509499999962
 21
215.75172800000021
 31
0.0
  0
LINE
  5
13E6
  8
DETAIL
  6
CONTINUOUS
 62
     5
 10
364.0
 20
190.77116799999999
 30
0.0
 11
364.13419599999997
 21
195.22112300000029
 31
0.0
  0
ARC
  5
13E7
  8
OUTLINE
  6
CONTINUOUS
 62
     3
 10
349.69999999999987
 20
164.0
 30
0.0
 40
1.0
 50
0.0
 51
90.0
  0
LINE
  5
13E8
  8
OUTLINE
  6
CONTINUOUS
 62
     3
 10
350.50000186789839
 20
165.00000197223289
 30
0.0
 11
349.70000023478951
 21
165.0
 31
0.0
  0
TEXT
  5
13F9
  8
NOTE
  6
CONTINUOUS
 62
     4
 10
743.30932420719193
 20
698.15598143987324
 30
0.0
 40
60.0
  1
AH 4-M10
 50
0.0000025044165917
 41
0.7
  7
STANDARD1
  0
LINE
  5
13FA
  8
NOTE
  6
CONTINUOUS
 62
     4
 10
716.37763502356381
 20
669.64644741677319
 30
0.0
 11
1071.567451148084
 21
669.64644741677319
 31
0.0
  0
LINE
  5
13FB
  8
NOTE
  6
CONTINUOUS
 62
     4
 10
325.50000000000227
 20
390.00000000000512
 30
0.0
 11
716.37763502356381
 21
669.64644741677319
 31
0.0
  0
LINE
  5
13FC
  8
NOTE
  6
CONTINUOUS
 62
     4
 10
354.29157349826028
 20
401.64741976035992
 30
0.0
 11
325.50000000000182
 21
390.00000000000711
 31
0.0
  0
LINE
  5
13FD
  8
NOTE
  6
CONTINUOUS
 62
     4
 10
325.50000000000182
 20
390.00000000000711
 30
0.0
 11
344.6105242953106
 21
414.48274806344722
 31
0.0
  0
TEXT
  5
1404
  8
NOTE
  6
CONTINUOUS
 62
     4
 10
818.00052067928095
 20
-251.7765922219719
 30
0.0
 40
60.0
  1
%%C200 吹出円形フランジ
 50
359.99999749558327
 41
0.7
  7
STANDARD1
  0
LINE
  5
1405
  8
NOTE
  6
CONTINUOUS
 62
     4
 10
1416.304876205382
 20
-279.89689665497451
 30
0.0
 11
803.0502163844111
 21
-279.89689665497451
 31
0.0
  0
LINE
  5
140C
  8
NOTE
  6
CONTINUOUS
 62
     4
 10
-317.5
 20
406.20000000000078
 30
0.0
 11
-317.5
 21
367.7999999999991
 31
0.0
  0
LINE
  5
140D
  8
NOTE
  6
CONTINUOUS
 62
     4
 10
-336.70000000000078
 20
387.0
 30
0.0
 11
-298.29999999999922
 21
387.0
 31
0.0
  0
LINE
  5
1414
  8
NOTE
  6
CONTINUOUS
 62
     4
 10
325.5
 20
409.20000000000078
 30
0.0
 11
325.5
 21
370.79999999999922
 31
0.0
  0
LINE
  5
1415
  8
NOTE
  6
CONTINUOUS
 62
     4
 10
306.29999999999922
 20
390.0
 30
0.0
 11
344.70000000000078
 21
390.0
 31
0.0
  0
TEXT
  5
1422
  8
NOTE
  6
CONTINUOUS
 62
     4
 10
-1199.7068454491009
 20
631.75989334974997
 30
0.0
 40
60.0
  1
%%C100ノックアウト穴
 50
0.0000025044165917
 41
0.7
  7
STANDARD1
  0
LINE
  5
1435
  8
NOTE
  6
CONTINUOUS
 62
     4
 10
-251.62658800000011
 20
230.65610299999909
 30
0.0
 11
-251.62658800000011
 21
240.8438969999992
 31
0.0
  0
LINE
  5
1436
  8
NOTE
  6
CONTINUOUS
 62
     4
 10
-256.720485
 20
235.74999999999909
 30
0.0
 11
-246.532691
 21
235.74999999999909
 31
0.0
  0
LINE
  5
143D
  8
NOTE
  6
CONTINUOUS
 62
     4
 10
-197.5
 20
324.40610299999912
 30
0.0
 11
-197.5
 21
334.59389699999917
 31
0.0
  0
LINE
  5
143E
  8
NOTE
  6
CONTINUOUS
 62
     4
 10
-202.59389700000011
 20
329.49999999999909
 30
0.0
 11
-192.40610299999989
 21
329.49999999999909
 31
0.0
  0
LINE
  5
1445
  8
NOTE
  6
CONTINUOUS
 62
     4
 10
-143.3734119999998
 20
230.65610299999909
 30
0.0
 11
-143.3734119999998
 21
240.8438969999992
 31
0.0
  0
LINE
  5
1446
  8
NOTE
  6
CONTINUOUS
 62
     4
 10
-148.4673089999998
 20
235.74999999999909
 30
0.0
 11
-138.27951499999969
 21
235.74999999999909
 31
0.0
  0
TEXT
  5
15EE
  8
ETC
  6
CONTINUOUS
 62
    61
 10
398.40513061827329
 20
1608.338860915095
 30
0.0
 40
64.0
  1
PD-RP40_56GA8_5
 50
0.0000029998804485
 41
0.9
  7
STANDARD_MODELNAME
  0
TEXT
  5
15EF
  8
ETC
  6
CONTINUOUS
 62
    61
 10
398.40513061827329
 20
1482.55663386336
 30
0.0
 40
64.0
  1
PD-RP40_56GA9_5
 50
0.0000029998804485
 41
0.9
  7
STANDARD_MODELNAME
  0
TEXT
  5
15F0
  8
ETC
  6
CONTINUOUS
 62
    61
 10
398.40513061827329
 20
1358.231831451521
 30
0.0
 40
64.0
  1
PD-RP40_56GA10_5
 50
0.0000029998804485
 41
0.9
  7
STANDARD_MODELNAME
  0
ENDSEC
  0
EOF
