  0
SECTION
  2
HEADER
  9
$ACADVER
  1
AC1009
  9
$INSBASE
 10
0.0
 20
0.0
 30
0.0
  9
$EXTMIN
 10
-1152.8481140281581
 20
-372.15348310620902
 30
-0.0000000698494069
  9
$EXTMAX
 10
1300.061896016643
 20
1184.866258018322
 30
0.0000000465733773
  9
$LIMMIN
 10
-4267.1522210000003
 20
-2696.0832100000011
  9
$LIMMAX
 10
7190.7174229999991
 20
5141.1553640000002
  9
$ORTHOMODE
 70
     1
  9
$REGENMODE
 70
     1
  9
$FILLMODE
 70
     1
  9
$QTEXTMODE
 70
     0
  9
$MIRRTEXT
 70
     0
  9
$DRAGMODE
 70
     2
  9
$LTSCALE
 40
20.0
  9
$OSMODE
 70
   959
  9
$ATTMODE
 70
     1
  9
$TEXTSIZE
 40
64.0
  9
$TRACEWID
 40
0.05
  9
$TEXTSTYLE
  7
STANDARD
  9
$CLAYER
  8
SYMBOLLINE
  9
$CELTYPE
  6
CONTINUOUS
  9
$CECOLOR
 62
     7
  9
$DIMSCALE
 40
1.0
  9
$DIMASZ
 40
10.0
  9
$DIMEXO
 40
20.0
  9
$DIMDLI
 40
200.0
  9
$DIMRND
 40
0.0
  9
$DIMDLE
 40
0.0
  9
$DIMEXE
 40
30.0
  9
$DIMTP
 40
0.0
  9
$DIMTM
 40
0.0
  9
$DIMTXT
 40
55.0
  9
$DIMCEN
 40
0.0
  9
$DIMTSZ
 40
0.0
  9
$DIMTOL
 70
     0
  9
$DIMLIM
 70
     0
  9
$DIMTIH
 70
     0
  9
$DIMTOH
 70
     0
  9
$DIMSE1
 70
     0
  9
$DIMSE2
 70
     0
  9
$DIMTAD
 70
     1
  9
$DIMZIN
 70
     8
  9
$DIMBLK
  1

  9
$DIMASO
 70
     1
  9
$DIMSHO
 70
     0
  9
$DIMPOST
  1

  9
$DIMAPOST
  1

  9
$DIMALT
 70
     0
  9
$DIMALTD
 70
     2
  9
$DIMALTF
 40
25.399999999999999
  9
$DIMLFAC
 40
1.0
  9
$DIMTOFL
 70
     1
  9
$DIMTVP
 40
0.0
  9
$DIMTIX
 70
     1
  9
$DIMSOXD
 70
     0
  9
$DIMSAH
 70
     1
  9
$DIMBLK1
  1
DOTBLANK
  9
$DIMBLK2
  1
DOTBLANK
  9
$DIMSTYLE
  2
STANDARD
  9
$DIMCLRD
 70
     0
  9
$DIMCLRE
 70
     0
  9
$DIMCLRT
 70
     0
  9
$DIMTFAC
 40
1.0
  9
$DIMGAP
 40
0.09
  9
$LUNITS
 70
     2
  9
$LUPREC
 70
     4
  9
$SKETCHINC
 40
0.1
  9
$FILLETRAD
 40
30.0
  9
$AUNITS
 70
     1
  9
$AUPREC
 70
     3
  9
$MENU
  1
ACAD
  9
$ELEVATION
 40
0.0
  9
$PELEVATION
 40
0.0
  9
$THICKNESS
 40
0.0
  9
$LIMCHECK
 70
     0
  9
$BLIPMODE
 70
     0
  9
$CHAMFERA
 40
0.0
  9
$CHAMFERB
 40
0.0
  9
$SKPOLY
 70
     0
  9
$TDCREATE
 40
2450330.4399309959
  9
$TDUPDATE
 40
2455576.5687498259
  9
$TDINDWG
 40
3.6081606828999999
  9
$TDUSRTIMER
 40
3.6081605093000002
  9
$USRTIMER
 70
     1
  9
$ANGBASE
 50
0.0
  9
$ANGDIR
 70
     0
  9
$PDMODE
 70
     3
  9
$PDSIZE
 40
-2.0
  9
$PLINEWID
 40
0.0
  9
$COORDS
 70
     0
  9
$SPLFRAME
 70
     0
  9
$SPLINETYPE
 70
     6
  9
$SPLINESEGS
 70
     8
  9
$ATTDIA
 70
     0
  9
$ATTREQ
 70
     1
  9
$HANDLING
 70
     1
  9
$HANDSEED
  5
9D9
  9
$SURFTAB1
 70
     6
  9
$SURFTAB2
 70
     6
  9
$SURFTYPE
 70
     6
  9
$SURFU
 70
     6
  9
$SURFV
 70
     6
  9
$UCSNAME
  2

  9
$UCSORG
 10
0.0
 20
0.0
 30
0.0
  9
$UCSXDIR
 10
1.0
 20
0.0
 30
0.0
  9
$UCSYDIR
 10
0.0
 20
1.0
 30
0.0
  9
$PUCSNAME
  2

  9
$PUCSORG
 10
0.0
 20
0.0
 30
0.0
  9
$PUCSXDIR
 10
1.0
 20
0.0
 30
0.0
  9
$PUCSYDIR
 10
0.0
 20
1.0
 30
0.0
  9
$USERI1
 70
     0
  9
$USERI2
 70
     0
  9
$USERI3
 70
     0
  9
$USERI4
 70
     0
  9
$USERI5
 70
     0
  9
$USERR1
 40
20.0
  9
$USERR2
 40
0.0
  9
$USERR3
 40
0.0
  9
$USERR4
 40
0.0
  9
$USERR5
 40
0.0
  9
$WORLDVIEW
 70
     1
  9
$SHADEDGE
 70
     3
  9
$SHADEDIF
 70
    70
  9
$TILEMODE
 70
     1
  9
$MAXACTVP
 70
    48
  9
$PLIMCHECK
 70
     0
  9
$PEXTMIN
 10
1.0000000000000000E+020
 20
1.0000000000000000E+020
 30
1.0000000000000000E+020
  9
$PEXTMAX
 10
-1.0000000000000000E+020
 20
-1.0000000000000000E+020
 30
-1.0000000000000000E+020
  9
$PLIMMIN
 10
0.0
 20
0.0
  9
$PLIMMAX
 10
12.0
 20
9.0
  9
$UNITMODE
 70
     0
  9
$VISRETAIN
 70
     1
  9
$PLINEGEN
 70
     0
  9
$PSLTSCALE
 70
     1
  0
ENDSEC
  0
SECTION
  2
TABLES
  0
TABLE
  2
VPORT
 70
     1
  0
VPORT
  2
*ACTIVE
 70
     0
 10
0.0
 20
0.0
 11
1.0
 21
1.0
 12
1461.7826010000001
 22
1222.536077
 13
0.0
 23
0.0
 14
50.0
 24
50.0
 15
100.0
 25
100.0
 16
0.0
 26
0.0
 36
1.0
 17
0.0
 27
0.0
 37
0.0
 40
7897.2940420000004
 41
1.5639386189258311
 42
50.0
 43
0.0
 44
0.0
 50
0.0
 51
0.0
 71
     0
 72
  1000
 73
     1
 74
     0
 75
     0
 76
     0
 77
     0
 78
     0
  0
ENDTAB
  0
TABLE
  2
LTYPE
 70
     3
  0
LTYPE
  2
CONTINUOUS
 70
     0
  3
実線
 72
    65
 73
     0
 40
0.0
  0
LTYPE
  2
DASHDOT
 70
     0
  3
____ _ ____ _ ____ _ ____ _ ____ _ ____ _ ____
 72
    65
 73
     4
 40
5.5
 49
4.0
 49
-0.6
 49
0.3
 49
-0.6
  0
ENDTAB
  0
TABLE
  2
LAYER
 70
    12
  0
LAYER
  2
0
 70
     0
 62
     7
  6
CONTINUOUS
  0
LAYER
  2
SIZE
 70
     0
 62
    30
  6
CONTINUOUS
  0
LAYER
  2
OUTLINE
 70
     0
 62
     3
  6
CONTINUOUS
  0
LAYER
  2
DETAIL
 70
     0
 62
     5
  6
CONTINUOUS
  0
LAYER
  2
BASIS
 70
     0
 62
     6
  6
DASHDOT
  0
LAYER
  2
NOTE
 70
     0
 62
     4
  6
CONTINUOUS
  0
LAYER
  2
ARRANGE
 70
     0
 62
     1
  6
CONTINUOUS
  0
LAYER
  2
FIX
 70
     0
 62
    11
  6
CONTINUOUS
  0
LAYER
  2
SERVICESPACE
 70
     0
 62
     2
  6
DASHDOT
  0
LAYER
  2
ETC
 70
     0
 62
    61
  6
CONTINUOUS
  0
LAYER
  2
SYMBOLLINE
 70
     0
 62
    15
  6
CONTINUOUS
  0
LAYER
  2
DEFPOINTS
 70
     0
 62
     7
  6
CONTINUOUS
  0
ENDTAB
  0
TABLE
  2
STYLE
 70
     3
  0
STYLE
  2
STANDARD
 70
     0
 40
0.0
 41
0.9
 50
0.0
 71
     0
 42
64.0
  3
SIMPLEX
  4
BIGFONT
  0
STYLE
  2
ANNOTATIVE
 70
     0
 40
0.0
 41
1.0
 50
0.0
 71
     0
 42
0.2
  3
txt
  4

  0
STYLE
  2
STANDARD1
 70
     0
 40
0.0
 41
1.0
 50
0.0
 71
     0
 42
64.0
  3
MONOTXT
  4
BIGFONT
  0
ENDTAB
  0
TABLE
  2
VIEW
 70
    11
  0
VIEW
  2
ALL
 70
     0
 40
9000.0
 10
241.50664699999999
 20
0.0
 41
12483.01
 11
0.0
 21
0.0
 31
1.0
 12
0.0
 22
0.0
 32
0.0
 42
50.0
 43
0.0
 44
0.0
 50
0.0
 71
     0
  0
ENDTAB
  0
TABLE
  2
UCS
 70
     0
  0
ENDTAB
  0
TABLE
  2
APPID
 70
     4
  0
APPID
  2
ACAD
 70
     0
  0
APPID
  2
ACADANNOTATIVE
 70
     0
  0
APPID
  2
ACAD_MLEADERVER
 70
     0
  0
APPID
  2
ACAD_EXEMPT_FROM_CAD_STANDARDS
 70
     0
  0
ENDTAB
  0
TABLE
  2
DIMSTYLE
 70
     3
  0
DIMSTYLE
  2
STANDARD
 70
     0
  3

  4

  5

  6

  7

 40
1.0
 41
0.18
 42
0.0625
 43
0.38
 44
0.18
 45
0.0
 46
0.0
 47
0.0
 48
0.0
140
0.18
141
0.09
142
0.0
143
25.399999999999999
144
1.0
145
0.0
146
1.0
147
0.09
 71
     0
 72
     0
 73
     1
 74
     1
 75
     0
 76
     0
 77
     0
 78
     0
170
     0
171
     2
172
     0
173
     0
174
     0
175
     0
176
     0
177
     0
178
     0
  0
DIMSTYLE
  2
ANNOTATIVE
 70
     0
  3

  4

  5

  6

  7

 40
1.0
 41
0.18
 42
0.0625
 43
0.38
 44
0.18
 45
0.0
 46
0.0
 47
0.0
 48
0.0
140
0.18
141
0.09
142
0.0
143
25.399999999999999
144
1.0
145
0.0
146
1.0
147
0.09
 71
     0
 72
     0
 73
     1
 74
     1
 75
     0
 76
     0
 77
     0
 78
     0
170
     0
171
     2
172
     0
173
     0
174
     0
175
     0
176
     0
177
     0
178
     0
  0
ENDTAB
  0
ENDSEC
  0
SECTION
  2
BLOCKS
  0
BLOCK
  8
0
  2
$MODEL_SPACE
 70
     0
 10
0.0
 20
0.0
 30
0.0
  3
$MODEL_SPACE
  1

  0
ENDBLK
  5
90F
  8
0
  0
BLOCK
 67
     1
  8
0
  2
$PAPER_SPACE
 70
     0
 10
0.0
 20
0.0
 30
0.0
  3
$PAPER_SPACE
  1

  0
ENDBLK
  5
90B
 67
     1
  8
0
  0
BLOCK
  8
0
  2
_DOTBLANK
 70
     0
 10
0.0
 20
0.0
 30
0.0
  3
_DOTBLANK
  1

  0
CIRCLE
  5
32
  8
0
  6
CONTINUOUS
 62
     7
 10
0.0
 20
0.0
 30
0.0
 40
0.5
  0
LINE
  5
33
  8
0
  6
CONTINUOUS
 62
     7
 10
-0.5
 20
0.0
 30
0.0
 11
-1.0
 21
0.0
 31
0.0
  0
ENDBLK
  5
34
  8
0
  0
BLOCK
  8
0
 62
     7
  2
A$C77BA4F21
 70
     0
 10
0.0
 20
0.0
 30
0.0
  3
A$C77BA4F21
  1

  0
LINE
  5
35E
  8
OUTLINE
  6
CONTINUOUS
 62
     3
 10
1658.9978199999989
 20
371.937793
 30
0.0
 11
698.99782000000005
 21
371.937793
 31
0.0
  0
TEXT
  5
35F
  8
SIZE
  6
CONTINUOUS
 62
    30
 10
845.93353428571413
 20
1305.5049770000001
 30
0.0
 40
55.0
  1
946(吊りボルトピッチ)
 41
0.9
 72
     1
 11
1178.99782
 21
1305.5049770000001
 31
0.0
  0
LINE
  5
360
  8
SIZE
  6
CONTINUOUS
 62
    30
 10
715.99782000000005
 20
1289.1002149999999
 30
0.0
 11
1641.99782
 21
1289.1002149999999
 31
0.0
  0
LINE
  5
361
  8
SIZE
  6
CONTINUOUS
 62
    30
 10
692.99782000000005
 20
1414.875393
 30
0.0
 11
1664.99782
 21
1414.875393
 31
0.0
  0
LINE
  5
362
  8
SIZE
  6
CONTINUOUS
 62
    30
 10
708.99782000000005
 20
1172.04099
 30
0.0
 11
1648.99782
 21
1172.04099
 31
0.0
  0
LINE
  5
363
  8
SIZE
  6
CONTINUOUS
 62
    30
 10
668.99782000000005
 20
55.600923999999999
 30
0.0
 11
1688.99782
 21
55.600923999999999
 31
0.0
  0
LINE
  5
364
  8
SIZE
  6
CONTINUOUS
 62
    30
 10
688.99782000000005
 20
193.127904
 30
0.0
 11
1668.99782
 21
193.127904
 31
0.0
  0
TEXT
  5
365
  8
ETC
  6
CONTINUOUS
 62
    61
 10
0.00001
 20
1510.1073630000001
 30
0.0
 40
80.0
  1
MPD-RP56_63FA3_2
 50
0.000003
 41
0.8
  0
LINE
  5
366
  8
OUTLINE
  6
CONTINUOUS
 62
     3
 10
1658.9978199999989
 20
418.937793
 30
0.0
 11
698.99782000000005
 21
418.937793
 31
0.0
  0
LINE
  5
367
  8
OUTLINE
  6
CONTINUOUS
 62
     3
 10
1645.52782
 20
363.937793
 30
0.0
 11
712.46781999999996
 21
363.937793
 31
0.0
  0
LINE
  5
368
  8
OUTLINE
  6
CONTINUOUS
 62
     3
 10
1658.9978199999989
 20
511.93779299999989
 30
0.0
 11
698.99782000000005
 21
511.93779299999989
 31
0.0
  0
LINE
  5
369
  8
OUTLINE
  6
CONTINUOUS
 62
     3
 10
698.99782000000005
 20
804.93779300000006
 30
0.0
 11
1658.9978199999989
 21
804.93779300000006
 31
0.0
  0
LINE
  5
36A
  8
DETAIL
  6
CONTINUOUS
 62
     5
 10
698.99782000000005
 20
511.93779299999989
 30
0.0
 11
1658.9978199999989
 21
511.93779299999989
 31
0.0
  0
LINE
  5
36B
  8
DETAIL
  6
CONTINUOUS
 62
     5
 10
687.29782
 20
804.93779300000006
 30
0.0
 11
1658.9978199999989
 21
804.93779300000006
 31
0.0
  0
LINE
  5
36C
  8
DETAIL
  6
CONTINUOUS
 62
     5
 10
1653.99782
 20
539.33779299999981
 30
0.0
 11
703.99782000000005
 21
539.33779299999981
 31
0.0
  0
LINE
  5
36D
  8
DETAIL
  6
CONTINUOUS
 62
     5
 10
1616.99782
 20
779.93779299999994
 30
0.0
 11
740.99782000000005
 21
779.93779299999994
 31
0.0
  0
LINE
  5
36E
  8
DETAIL
  6
CONTINUOUS
 62
     5
 10
1616.99782
 20
563.93779299999994
 30
0.0
 11
698.99782000000005
 21
563.93779299999994
 31
0.0
  0
LINE
  5
36F
  8
DETAIL
  6
CONTINUOUS
 62
     5
 10
716.99782000000005
 20
526.93779299999994
 30
0.0
 11
1640.99782
 21
526.93779299999994
 31
0.0
  0
LINE
  5
370
  8
DETAIL
  6
CONTINUOUS
 62
     5
 10
1658.9978199999989
 20
418.937793
 30
0.0
 11
698.99782000000005
 21
418.937793
 31
0.0
  0
LINE
  5
371
  8
DETAIL
  6
CONTINUOUS
 62
     5
 10
1645.52782
 20
363.937793
 30
0.0
 11
712.46781999999996
 21
363.937793
 31
0.0
  0
LINE
  5
372
  8
DETAIL
  6
CONTINUOUS
 62
     5
 10
1658.9978199999989
 20
371.937793
 30
0.0
 11
658.99782000000005
 21
371.937793
 31
0.0
  0
LINE
  5
373
  8
OUTLINE
  6
CONTINUOUS
 62
     3
 10
658.99782000000005
 20
367.931285
 30
0.0
 11
658.99782000000005
 21
371.937793
 31
0.0
  0
LINE
  5
374
  8
NOTE
  6
CONTINUOUS
 62
     4
 10
461.51192199999991
 20
146.44386499999999
 30
0.0
 11
698.99782000000005
 21
539.93779299999994
 31
0.0
  0
LINE
  5
375
  8
NOTE
  6
CONTINUOUS
 62
     4
 10
423.61581099999989
 20
293.11296800000002
 30
0.0
 11
656.99782000000005
 21
604.93779299999994
 31
0.0
  0
LINE
  5
376
  8
DETAIL
  6
CONTINUOUS
 62
     5
 10
658.99782000000005
 20
367.931285
 30
0.0
 11
658.99782000000005
 21
371.937793
 31
0.0
  0
LINE
  5
377
  8
NOTE
  6
CONTINUOUS
 62
     4
 10
461.51192199999991
 20
146.44386499999999
 30
0.0
 11
26.581123000000002
 21
146.44386499999999
 31
0.0
  0
TEXT
  5
378
  8
NOTE
  6
CONTINUOUS
 62
     4
 10
48.256394
 20
162.27039500000001
 30
0.0
 40
60.0
  1
D2（自然排水口）
 50
0.000003
 41
0.7
  7
STANDARD1
  0
LINE
  5
379
  8
NOTE
  6
CONTINUOUS
 62
     4
 10
423.61581099999989
 20
293.11296800000002
 30
0.0
 11
54.326696999999989
 21
293.10634900000002
 31
0.0
  0
TEXT
  5
37A
  8
NOTE
  6
CONTINUOUS
 62
     4
 10
76.001968999999988
 20
308.93288000000001
 30
0.0
 40
60.0
  1
RG %%C12.7
 50
0.000003
 41
0.7
  7
STANDARD1
  0
LINE
  5
37B
  8
SIZE
  6
CONTINUOUS
 62
    30
 10
658.99782000000005
 20
347.931285
 30
0.0
 11
658.99782000000005
 21
25.600923999999999
 31
0.0
  0
LINE
  5
37C
  8
SIZE
  6
CONTINUOUS
 62
    30
 10
663.99782000000005
 20
55.600923999999999
 30
0.0
 11
668.99782000000005
 21
55.600923999999999
 31
0.0
  0
CIRCLE
  5
37D
  8
SIZE
  6
CONTINUOUS
 62
    30
 10
658.99782000000005
 20
55.600923999999999
 30
0.0
 40
5.0
  0
LINE
  5
37E
  8
SIZE
  6
CONTINUOUS
 62
    30
 10
648.99782000000005
 20
193.127904
 30
0.0
 11
522.85496299999988
 21
193.127904
 31
0.0
  0
TEXT
  5
37F
  8
SIZE
  6
CONTINUOUS
 62
    30
 10
540.85496242857141
 20
211.127904
 30
0.0
 40
55.0
  1
20
 41
0.9
 72
     1
 11
580.92639099999985
 21
211.127904
 31
0.0
  0
LINE
  5
380
  8
SIZE
  6
CONTINUOUS
 62
    30
 10
678.99782000000005
 20
352.937793
 30
0.0
 11
678.99782000000005
 21
163.127904
 31
0.0
  0
LINE
  5
381
  8
SIZE
  6
CONTINUOUS
 62
    30
 10
678.99782000000005
 20
352.937793
 30
0.0
 11
678.99782000000005
 21
163.127904
 31
0.0
  0
LINE
  5
382
  8
SIZE
  6
CONTINUOUS
 62
    30
 10
658.99782000000005
 20
347.931285
 30
0.0
 11
658.99782000000005
 21
163.127904
 31
0.0
  0
LINE
  5
383
  8
SIZE
  6
CONTINUOUS
 62
    30
 10
683.99782000000005
 20
193.127904
 30
0.0
 11
688.99782000000005
 21
193.127904
 31
0.0
  0
CIRCLE
  5
384
  8
SIZE
  6
CONTINUOUS
 62
    30
 10
678.99782000000005
 20
193.127904
 30
0.0
 40
5.0
  0
POINT
  5
385
  8
DEFPOINTS
  6
CONTINUOUS
 62
     7
 10
678.99782000000005
 20
193.127904
 30
0.0
  0
LINE
  5
386
  8
SIZE
  6
CONTINUOUS
 62
    30
 10
653.99782000000005
 20
193.127904
 30
0.0
 11
648.99782000000005
 21
193.127904
 31
0.0
  0
CIRCLE
  5
387
  8
SIZE
  6
CONTINUOUS
 62
    30
 10
658.99782000000005
 20
193.127904
 30
0.0
 40
5.0
  0
LINE
  5
388
  8
SIZE
  6
CONTINUOUS
 62
    30
 10
683.99782000000005
 20
193.127904
 30
0.0
 11
688.99782000000005
 21
193.127904
 31
0.0
  0
CIRCLE
  5
389
  8
SIZE
  6
CONTINUOUS
 62
    30
 10
678.99782000000005
 20
193.127904
 30
0.0
 40
5.0
  0
LINE
  5
38A
  8
SIZE
  6
CONTINUOUS
 62
    30
 10
678.99782000000005
 20
193.127904
 30
0.0
 11
658.99782000000005
 21
193.127904
 31
0.0
  0
LINE
  5
38B
  8
SIZE
  6
CONTINUOUS
 62
    30
 10
688.99782000000005
 20
193.127904
 30
0.0
 11
698.99782000000005
 21
193.127904
 31
0.0
  0
POINT
  5
38C
  8
DEFPOINTS
  6
CONTINUOUS
 62
     7
 10
658.99782000000005
 20
367.931285
 30
0.0
  0
POINT
  5
38D
  8
DEFPOINTS
  6
CONTINUOUS
 62
     7
 10
658.99782000000005
 20
367.931285
 30
0.0
  0
LINE
  5
38E
  8
OUTLINE
  6
CONTINUOUS
 62
     3
 10
658.99782000000005
 20
367.931285
 30
0.0
 11
712.46781999999996
 21
363.937793
 31
0.0
  0
LINE
  5
38F
  8
DETAIL
  6
CONTINUOUS
 62
     5
 10
658.99782000000005
 20
367.931285
 30
0.0
 11
712.46781999999996
 21
363.937793
 31
0.0
  0
LINE
  5
390
  8
SIZE
  6
CONTINUOUS
 62
    30
 10
698.99782000000005
 20
824.93779299999994
 30
0.0
 11
698.99782000000005
 21
1094.5738220000001
 31
0.0
  0
LINE
  5
391
  8
SIZE
  6
CONTINUOUS
 62
    30
 10
656.99782000000005
 20
624.93779299999994
 30
0.0
 11
656.99782000000005
 21
1094.5738220000001
 31
0.0
  0
LINE
  5
392
  8
SIZE
  6
CONTINUOUS
 62
    30
 10
659.99782000000005
 20
652.93779299999994
 30
0.0
 11
659.99782000000005
 21
996.61020299999996
 31
0.0
  0
LINE
  5
393
  8
SIZE
  6
CONTINUOUS
 62
    30
 10
698.99782000000005
 20
824.93779299999994
 30
0.0
 11
698.99782000000005
 21
996.61020299999996
 31
0.0
  0
LINE
  5
394
  8
SIZE
  6
CONTINUOUS
 62
    30
 10
705.99782000000005
 20
837.35929099999987
 30
0.0
 11
705.99782000000005
 21
1319.1002149999999
 31
0.0
  0
LINE
  5
395
  8
SIZE
  6
CONTINUOUS
 62
    30
 10
682.99782000000005
 20
820.63779299999999
 30
0.0
 11
682.99782000000005
 21
1444.875393
 31
0.0
  0
LINE
  5
396
  8
SIZE
  6
CONTINUOUS
 62
    30
 10
698.99782000000005
 20
824.93779299999994
 30
0.0
 11
698.99782000000005
 21
1202.04099
 31
0.0
  0
LINE
  5
397
  8
SIZE
  6
CONTINUOUS
 62
    30
 10
705.99782000000005
 20
839.93295899999998
 30
0.0
 11
705.99782000000005
 21
1319.1002149999999
 31
0.0
  0
LINE
  5
398
  8
SIZE
  6
CONTINUOUS
 62
    30
 10
682.99782000000005
 20
820.63779299999999
 30
0.0
 11
682.99782000000005
 21
1319.1002149999999
 31
0.0
  0
LINE
  5
399
  8
SIZE
  6
CONTINUOUS
 62
    30
 10
698.99782000000005
 20
824.93779299999994
 30
0.0
 11
698.99782000000005
 21
1202.04099
 31
0.0
  0
LINE
  5
39A
  8
SIZE
  6
CONTINUOUS
 62
    30
 10
682.99782000000005
 20
820.63779299999999
 30
0.0
 11
682.99782000000005
 21
1202.04099
 31
0.0
  0
LINE
  5
39B
  8
NOTE
  6
CONTINUOUS
 62
     4
 10
452.08583899999991
 20
1003.890623
 30
0.0
 11
659.99782000000005
 21
632.93779299999994
 31
0.0
  0
LINE
  5
39C
  8
NOTE
  6
CONTINUOUS
 62
     4
 10
448.55666400000001
 20
1125.335282
 30
0.0
 11
664.99782000000005
 21
696.93779299999994
 31
0.0
  0
LINE
  5
39D
  8
SIZE
  6
CONTINUOUS
 62
    30
 10
673.50696900000003
 20
539.93779299999994
 30
0.0
 11
94.438636000000002
 21
539.93779299999994
 31
0.0
  0
LINE
  5
39E
  8
SIZE
  6
CONTINUOUS
 62
    30
 10
667.29782
 20
804.93779300000006
 30
0.0
 11
94.438636000000002
 21
804.93779300000006
 31
0.0
  0
LINE
  5
39F
  8
SIZE
  6
CONTINUOUS
 62
    30
 10
631.73867099999995
 20
604.93779299999994
 30
0.0
 11
322.27775100000002
 21
604.93779299999994
 31
0.0
  0
LINE
  5
3A0
  8
SIZE
  6
CONTINUOUS
 62
    30
 10
634.49782000000005
 20
632.93779299999994
 30
0.0
 11
322.27775100000002
 21
632.93779299999994
 31
0.0
  0
LINE
  5
3A1
  8
SIZE
  6
CONTINUOUS
 62
    30
 10
634.49782000000005
 20
632.93779299999994
 30
0.0
 11
322.27775100000002
 21
632.93779299999994
 31
0.0
  0
LINE
  5
3A2
  8
SIZE
  6
CONTINUOUS
 62
    30
 10
667.29782
 20
804.93779300000006
 30
0.0
 11
322.27775100000002
 21
804.93779300000006
 31
0.0
  0
TEXT
  5
3A3
  8
SIZE
  6
CONTINUOUS
 62
    30
 10
434.4762189999999
 20
832.93779257142864
 30
0.0
 40
55.0
  1
108
 50
90.0
 41
0.9
 72
     1
 11
434.4762189999999
 21
891.86636400000009
 31
0.0
  0
TEXT
  5
3A4
  8
SIZE
  6
CONTINUOUS
 62
    30
 10
106.438636
 20
604.20937285714285
 30
0.0
 40
55.0
  1
265
 50
90.0
 41
0.9
 72
     1
 11
106.438636
 21
667.85222999999996
 31
0.0
  0
LINE
  5
3A5
  8
SIZE
  6
CONTINUOUS
 62
    30
 10
124.438636
 20
794.93779299999994
 30
0.0
 11
124.438636
 21
549.93779299999994
 31
0.0
  0
TEXT
  5
3A6
  8
SIZE
  6
CONTINUOUS
 62
    30
 10
232.07766100000001
 20
660.71725642857143
 30
0.0
 40
55.0
  1
28
 50
90.0
 41
0.9
 72
     1
 11
232.07766100000001
 21
700.78868499999999
 31
0.0
  0
LINE
  5
3A7
  8
SIZE
  6
CONTINUOUS
 62
    30
 10
250.07766100000001
 20
642.71725700000002
 30
0.0
 11
250.07766100000001
 21
758.86011399999995
 31
0.0
  0
TEXT
  5
3A8
  8
SIZE
  6
CONTINUOUS
 62
    30
 10
334.27775100000002
 20
660.00922157142838
 30
0.0
 40
55.0
  1
172
 50
90.0
 41
0.9
 72
     1
 11
334.27775100000002
 21
718.93779299999994
 31
0.0
  0
LINE
  5
3A9
  8
SIZE
  6
CONTINUOUS
 62
    30
 10
352.27775100000002
 20
794.93779299999994
 30
0.0
 11
352.27775100000002
 21
642.93779299999994
 31
0.0
  0
POINT
  5
3AA
  8
DEFPOINTS
  6
CONTINUOUS
 62
     7
 10
124.438636
 20
539.93779299999994
 30
0.0
  0
LINE
  5
3AB
  8
SIZE
  6
CONTINUOUS
 62
    30
 10
124.438636
 20
544.93779299999994
 30
0.0
 11
124.438636
 21
549.93779299999994
 31
0.0
  0
CIRCLE
  5
3AC
  8
SIZE
  6
CONTINUOUS
 62
    30
 10
124.438636
 20
539.93779299999994
 30
0.0
 40
5.0
  0
LINE
  5
3AD
  8
SIZE
  6
CONTINUOUS
 62
    30
 10
352.27775100000002
 20
618.93779299999994
 30
0.0
 11
250.07766100000001
 21
642.71725700000002
 31
0.0
  0
POINT
  5
3AE
  8
DEFPOINTS
  6
CONTINUOUS
 62
     7
 10
352.27775100000002
 20
604.93779299999994
 30
0.0
  0
LINE
  5
3AF
  8
SIZE
  6
CONTINUOUS
 62
    30
 10
352.27775100000002
 20
599.93779299999994
 30
0.0
 11
352.27775100000002
 21
594.93779299999994
 31
0.0
  0
CIRCLE
  5
3B0
  8
SIZE
  6
CONTINUOUS
 62
    30
 10
352.27775100000002
 20
604.93779299999994
 30
0.0
 40
5.0
  0
LINE
  5
3B1
  8
SIZE
  6
CONTINUOUS
 62
    30
 10
352.27775100000002
 20
637.93779299999994
 30
0.0
 11
352.27775100000002
 21
642.93779299999994
 31
0.0
  0
CIRCLE
  5
3B2
  8
SIZE
  6
CONTINUOUS
 62
    30
 10
352.27775100000002
 20
632.93779299999994
 30
0.0
 40
5.0
  0
LINE
  5
3B3
  8
SIZE
  6
CONTINUOUS
 62
    30
 10
352.27775100000002
 20
632.93779299999994
 30
0.0
 11
352.27775100000002
 21
604.93779299999994
 31
0.0
  0
LINE
  5
3B4
  8
SIZE
  6
CONTINUOUS
 62
    30
 10
352.27775100000002
 20
632.93779299999994
 30
0.0
 11
352.27775100000002
 21
604.93779299999994
 31
0.0
  0
LINE
  5
3B5
  8
SIZE
  6
CONTINUOUS
 62
    30
 10
352.27775100000002
 20
594.93779299999994
 30
0.0
 11
352.27775100000002
 21
584.93779299999994
 31
0.0
  0
LINE
  5
3B6
  8
SIZE
  6
CONTINUOUS
 62
    30
 10
352.27775100000002
 20
642.93779299999994
 30
0.0
 11
352.27775100000002
 21
652.93779299999994
 31
0.0
  0
POINT
  5
3B7
  8
DEFPOINTS
  6
CONTINUOUS
 62
     7
 10
352.27775100000002
 20
632.93779299999994
 30
0.0
  0
LINE
  5
3B8
  8
SIZE
  6
CONTINUOUS
 62
    30
 10
352.27775100000002
 20
637.93779299999994
 30
0.0
 11
352.27775100000002
 21
642.93779299999994
 31
0.0
  0
CIRCLE
  5
3B9
  8
SIZE
  6
CONTINUOUS
 62
    30
 10
352.27775100000002
 20
632.93779299999994
 30
0.0
 40
5.0
  0
LINE
  5
3BA
  8
SIZE
  6
CONTINUOUS
 62
    30
 10
124.438636
 20
799.93779299999994
 30
0.0
 11
124.438636
 21
794.93779299999994
 31
0.0
  0
CIRCLE
  5
3BB
  8
SIZE
  6
CONTINUOUS
 62
    30
 10
124.438636
 20
804.93779300000006
 30
0.0
 40
5.0
  0
LINE
  5
3BC
  8
SIZE
  6
CONTINUOUS
 62
    30
 10
352.27775100000002
 20
799.93779299999994
 30
0.0
 11
352.27775100000002
 21
794.93779299999994
 31
0.0
  0
CIRCLE
  5
3BD
  8
SIZE
  6
CONTINUOUS
 62
    30
 10
352.27775100000002
 20
804.93779300000006
 30
0.0
 40
5.0
  0
LINE
  5
3BE
  8
SIZE
  6
CONTINUOUS
 62
    30
 10
682.99782000000005
 20
879.93779300000006
 30
0.0
 11
682.99782000000005
 21
397.80700999999999
 31
0.0
  0
LINE
  5
3BF
  8
OUTLINE
  6
CONTINUOUS
 62
     3
 10
698.99782000000005
 20
511.93779299999989
 30
0.0
 11
698.99782000000005
 21
804.93779300000006
 31
0.0
  0
LINE
  5
3C0
  8
DETAIL
  6
CONTINUOUS
 62
     5
 10
698.99782000000005
 20
801.73779300000001
 30
0.0
 11
698.99782000000005
 21
594.13779299999987
 31
0.0
  0
LINE
  5
3C1
  8
DETAIL
  6
CONTINUOUS
 62
     5
 10
698.99782000000005
 20
801.73779300000001
 30
0.0
 11
698.99782000000005
 21
594.13779299999987
 31
0.0
  0
LINE
  5
3C2
  8
DETAIL
  6
CONTINUOUS
 62
     5
 10
698.99782000000005
 20
544.33779299999992
 30
0.0
 11
698.99782000000005
 21
688.33779299999992
 31
0.0
  0
LINE
  5
3C3
  8
DETAIL
  6
CONTINUOUS
 62
     5
 10
730.99782000000005
 20
573.93779299999994
 30
0.0
 11
730.99782000000005
 21
769.93779299999994
 31
0.0
  0
LINE
  5
3C4
  8
NOTE
  6
CONTINUOUS
 62
     4
 10
678.99782000000005
 20
372.937793
 30
0.0
 11
577.69037100000003
 21
372.937793
 31
0.0
  0
LINE
  5
3C5
  8
NOTE
  6
CONTINUOUS
 62
     4
 10
678.99782000000005
 20
392.937793
 30
0.0
 11
577.69037100000003
 21
392.937793
 31
0.0
  0
LINE
  5
3C6
  8
NOTE
  6
CONTINUOUS
 62
     4
 10
588.73281199999985
 20
372.937793
 30
0.0
 11
608.73281199999985
 21
392.937793
 31
0.0
  0
LINE
  5
3C7
  8
NOTE
  6
CONTINUOUS
 62
     4
 10
593.73281199999997
 20
372.937793
 30
0.0
 11
613.73281199999985
 21
392.937793
 31
0.0
  0
LINE
  5
3C8
  8
NOTE
  6
CONTINUOUS
 62
     4
 10
598.73281199999985
 20
372.937793
 30
0.0
 11
618.73281199999997
 21
392.937793
 31
0.0
  0
LINE
  5
3C9
  8
NOTE
  6
CONTINUOUS
 62
     4
 10
698.99782000000005
 20
539.93779299999994
 30
0.0
 11
687.96368600000005
 21
507.37097599999993
 31
0.0
  0
LINE
  5
3CA
  8
NOTE
  6
CONTINUOUS
 62
     4
 10
698.99782000000005
 20
539.93779299999994
 30
0.0
 11
673.15857100000005
 21
517.251169
 31
0.0
  0
LINE
  5
3CB
  8
DETAIL
  6
CONTINUOUS
 62
     5
 10
698.99782000000005
 20
594.13779299999987
 30
0.0
 11
698.99782000000005
 21
511.93779299999989
 31
0.0
  0
LINE
  5
3CC
  8
DETAIL
  6
CONTINUOUS
 62
     5
 10
698.99782000000005
 20
594.13779299999987
 30
0.0
 11
698.99782000000005
 21
512.73779300000001
 31
0.0
  0
LINE
  5
3CD
  8
DETAIL
  6
CONTINUOUS
 62
     5
 10
698.99782000000005
 20
512.2377929999999
 30
0.0
 11
698.99782000000005
 21
597.23779300000001
 31
0.0
  0
LINE
  5
3CE
  8
DETAIL
  6
CONTINUOUS
 62
     5
 10
713.99782000000005
 20
523.93779299999994
 30
0.0
 11
713.99782000000005
 21
511.93779299999989
 31
0.0
  0
LINE
  5
3CF
  8
DETAIL
  6
CONTINUOUS
 62
     5
 10
713.99782000000005
 20
523.93779299999994
 30
0.0
 11
713.99782000000005
 21
511.93779299999989
 31
0.0
  0
TEXT
  5
3D0
  8
SIZE
  6
CONTINUOUS
 62
    30
 10
720.99781957142852
 20
445.80700999999988
 30
0.0
 40
55.0
  1
4
 41
0.9
 72
     1
 11
738.67639099999985
 21
445.80700999999988
 31
0.0
  0
LINE
  5
3D1
  8
SIZE
  6
CONTINUOUS
 62
    30
 10
692.99782000000005
 20
427.80700999999988
 30
0.0
 11
774.354963
 21
427.80700999999988
 31
0.0
  0
POINT
  5
3D2
  8
DEFPOINTS
  6
CONTINUOUS
 62
     7
 10
678.99782000000005
 20
372.937793
 30
0.0
  0
POINT
  5
3D3
  8
DEFPOINTS
  6
CONTINUOUS
 62
     7
 10
678.99782000000005
 20
372.937793
 30
0.0
  0
LINE
  5
3D4
  8
OUTLINE
  6
CONTINUOUS
 62
     3
 10
698.99782000000005
 20
371.937793
 30
0.0
 11
698.99782000000005
 21
418.937793
 31
0.0
  0
LINE
  5
3D5
  8
OUTLINE
  6
CONTINUOUS
 62
     3
 10
698.99782000000005
 20
371.937793
 30
0.0
 11
658.99782000000005
 21
371.937793
 31
0.0
  0
POINT
  5
3D6
  8
DEFPOINTS
  6
CONTINUOUS
 62
     7
 10
682.99782000000005
 20
427.80700999999988
 30
0.0
  0
POINT
  5
3D7
  8
DEFPOINTS
  6
CONTINUOUS
 62
     7
 10
678.99782000000005
 20
392.937793
 30
0.0
  0
LINE
  5
3D8
  8
SIZE
  6
CONTINUOUS
 62
    30
 10
687.99782000000005
 20
427.80700999999988
 30
0.0
 11
692.99782000000005
 21
427.80700999999988
 31
0.0
  0
CIRCLE
  5
3D9
  8
SIZE
  6
CONTINUOUS
 62
    30
 10
682.99782000000005
 20
427.80700999999988
 30
0.0
 40
5.0
  0
LINE
  5
3DA
  8
SIZE
  6
CONTINUOUS
 62
    30
 10
673.99782000000005
 20
427.80700999999988
 30
0.0
 11
668.99782000000005
 21
427.80700999999988
 31
0.0
  0
CIRCLE
  5
3DB
  8
SIZE
  6
CONTINUOUS
 62
    30
 10
678.99782000000005
 20
427.80700999999988
 30
0.0
 40
5.0
  0
LINE
  5
3DC
  8
SIZE
  6
CONTINUOUS
 62
    30
 10
678.99782000000005
 20
427.80700999999988
 30
0.0
 11
682.99782000000005
 21
427.80700999999988
 31
0.0
  0
LINE
  5
3DD
  8
SIZE
  6
CONTINUOUS
 62
    30
 10
668.99782000000005
 20
427.80700999999988
 30
0.0
 11
658.99782000000005
 21
427.80700999999988
 31
0.0
  0
LINE
  5
3DE
  8
SIZE
  6
CONTINUOUS
 62
    30
 10
678.99782000000005
 20
412.937793
 30
0.0
 11
678.99782000000005
 21
457.80700999999988
 31
0.0
  0
LINE
  5
3DF
  8
NOTE
  6
CONTINUOUS
 62
     4
 10
678.99782000000005
 20
372.937793
 30
0.0
 11
678.99782000000005
 21
392.937793
 31
0.0
  0
LINE
  5
3E0
  8
NOTE
  6
CONTINUOUS
 62
     4
 10
628.73281199999985
 20
372.937793
 30
0.0
 11
648.73281199999985
 21
392.937793
 31
0.0
  0
LINE
  5
3E1
  8
NOTE
  6
CONTINUOUS
 62
     4
 10
633.73281199999985
 20
372.937793
 30
0.0
 11
653.73281199999985
 21
392.937793
 31
0.0
  0
LINE
  5
3E2
  8
NOTE
  6
CONTINUOUS
 62
     4
 10
638.73281199999985
 20
372.937793
 30
0.0
 11
658.73281199999985
 21
392.937793
 31
0.0
  0
LINE
  5
3E3
  8
DETAIL
  6
CONTINUOUS
 62
     5
 10
698.99782000000005
 20
371.937793
 30
0.0
 11
698.99782000000005
 21
418.937793
 31
0.0
  0
LINE
  5
3E4
  8
DETAIL
  6
CONTINUOUS
 62
     5
 10
698.99782000000005
 20
371.937793
 30
0.0
 11
693.99782000000005
 21
371.937793
 31
0.0
  0
ARC
  5
3E5
  8
DETAIL
  6
CONTINUOUS
 62
     5
 10
740.99782000000005
 20
573.93779299999994
 30
0.0
 40
10.0
 50
180.0
 51
270.0
  0
POINT
  5
3E6
  8
DEFPOINTS
  6
CONTINUOUS
 62
     7
 10
656.99782000000005
 20
604.93779299999994
 30
0.0
  0
POINT
  5
3E7
  8
DEFPOINTS
  6
CONTINUOUS
 62
     7
 10
659.99782000000005
 20
632.93779299999994
 30
0.0
  0
LINE
  5
3E8
  8
NOTE
  6
CONTINUOUS
 62
     4
 10
665.49782000000005
 20
632.93779299999994
 30
0.0
 11
654.49782000000005
 21
632.93779299999994
 31
0.0
  0
LINE
  5
3E9
  8
NOTE
  6
CONTINUOUS
 62
     4
 10
659.99782000000005
 20
638.43778499999985
 30
0.0
 11
659.99782000000005
 21
627.43780099999992
 31
0.0
  0
LINE
  5
3EA
  8
NOTE
  6
CONTINUOUS
 62
     4
 10
659.99782000000005
 20
632.93779299999994
 30
0.0
 11
636.98275699999988
 21
658.48493599999995
 31
0.0
  0
LINE
  5
3EB
  8
NOTE
  6
CONTINUOUS
 62
     4
 10
659.99782000000005
 20
632.93779299999994
 30
0.0
 11
652.83976199999995
 21
666.56979999999987
 31
0.0
  0
LINE
  5
3EC
  8
DETAIL
  6
CONTINUOUS
 62
     5
 10
659.99782000000005
 20
627.43779299999994
 30
0.0
 11
659.99782000000005
 21
638.43779299999994
 31
0.0
  0
LINE
  5
3ED
  8
DETAIL
  6
CONTINUOUS
 62
     5
 10
678.99782000000005
 20
638.43779299999994
 30
0.0
 11
698.99782000000005
 21
638.43779299999994
 31
0.0
  0
LINE
  5
3EE
  8
DETAIL
  6
CONTINUOUS
 62
     5
 10
679.99782000000005
 20
642.43779299999994
 30
0.0
 11
698.99782000000005
 21
642.43779299999994
 31
0.0
  0
LINE
  5
3EF
  8
DETAIL
  6
CONTINUOUS
 62
     5
 10
679.99782000000005
 20
623.43779299999994
 30
0.0
 11
698.99782000000005
 21
623.43779299999994
 31
0.0
  0
LINE
  5
3F0
  8
DETAIL
  6
CONTINUOUS
 62
     5
 10
662.99782000000005
 20
622.43779299999994
 30
0.0
 11
675.99782000000005
 21
622.43779299999994
 31
0.0
  0
LINE
  5
3F1
  8
DETAIL
  6
CONTINUOUS
 62
     5
 10
678.99782000000005
 20
627.43779299999994
 30
0.0
 11
698.99782000000005
 21
627.43779299999994
 31
0.0
  0
LINE
  5
3F2
  8
DETAIL
  6
CONTINUOUS
 62
     5
 10
663.99782000000005
 20
627.43779299999994
 30
0.0
 11
676.99782000000005
 21
627.43779299999994
 31
0.0
  0
LINE
  5
3F3
  8
DETAIL
  6
CONTINUOUS
 62
     5
 10
659.99782000000005
 20
627.43779299999994
 30
0.0
 11
662.99782000000005
 21
622.43779299999994
 31
0.0
  0
LINE
  5
3F4
  8
DETAIL
  6
CONTINUOUS
 62
     5
 10
676.99782000000005
 20
623.43779299999994
 30
0.0
 11
675.99782000000005
 21
622.43779299999994
 31
0.0
  0
LINE
  5
3F5
  8
DETAIL
  6
CONTINUOUS
 62
     5
 10
678.99782000000005
 20
624.43779299999994
 30
0.0
 11
679.99782000000005
 21
623.43779299999994
 31
0.0
  0
LINE
  5
3F6
  8
DETAIL
  6
CONTINUOUS
 62
     5
 10
663.99782000000005
 20
627.43779299999994
 30
0.0
 11
662.99782000000005
 21
628.43779299999994
 31
0.0
  0
LINE
  5
3F7
  8
DETAIL
  6
CONTINUOUS
 62
     5
 10
663.99782000000005
 20
627.43779299999994
 30
0.0
 11
662.99782000000005
 21
626.43779299999994
 31
0.0
  0
LINE
  5
3F8
  8
DETAIL
  6
CONTINUOUS
 62
     5
 10
676.99782000000005
 20
628.18779299999994
 30
0.0
 11
678.99782000000005
 21
628.18779299999994
 31
0.0
  0
LINE
  5
3F9
  8
DETAIL
  6
CONTINUOUS
 62
     5
 10
678.99782000000005
 20
624.43779299999994
 30
0.0
 11
678.99782000000005
 21
641.43779299999994
 31
0.0
  0
LINE
  5
3FA
  8
DETAIL
  6
CONTINUOUS
 62
     5
 10
676.99782000000005
 20
623.43779299999994
 30
0.0
 11
676.99782000000005
 21
642.43779299999994
 31
0.0
  0
LINE
  5
3FB
  8
DETAIL
  6
CONTINUOUS
 62
     5
 10
662.99782000000005
 20
643.43779299999994
 30
0.0
 11
675.99782000000005
 21
643.43779299999994
 31
0.0
  0
LINE
  5
3FC
  8
DETAIL
  6
CONTINUOUS
 62
     5
 10
662.99782000000005
 20
622.43779299999994
 30
0.0
 11
662.99782000000005
 21
643.43779299999994
 31
0.0
  0
LINE
  5
3FD
  8
DETAIL
  6
CONTINUOUS
 62
     5
 10
663.99782000000005
 20
638.43779299999994
 30
0.0
 11
676.99782000000005
 21
638.43779299999994
 31
0.0
  0
LINE
  5
3FE
  8
DETAIL
  6
CONTINUOUS
 62
     5
 10
659.99782000000005
 20
638.43779299999994
 30
0.0
 11
662.99782000000005
 21
643.43779299999994
 31
0.0
  0
LINE
  5
3FF
  8
DETAIL
  6
CONTINUOUS
 62
     5
 10
675.99782000000005
 20
643.43779299999994
 30
0.0
 11
676.99782000000005
 21
642.43779299999994
 31
0.0
  0
LINE
  5
400
  8
DETAIL
  6
CONTINUOUS
 62
     5
 10
678.99782000000005
 20
641.43779299999994
 30
0.0
 11
679.99782000000005
 21
642.43779299999994
 31
0.0
  0
LINE
  5
401
  8
DETAIL
  6
CONTINUOUS
 62
     5
 10
663.99782000000005
 20
638.43779299999994
 30
0.0
 11
662.99782000000005
 21
639.43779299999994
 31
0.0
  0
LINE
  5
402
  8
DETAIL
  6
CONTINUOUS
 62
     5
 10
663.99782000000005
 20
638.43779299999994
 30
0.0
 11
662.99782000000005
 21
637.43779299999994
 31
0.0
  0
LINE
  5
403
  8
DETAIL
  6
CONTINUOUS
 62
     5
 10
676.99782000000005
 20
637.68779299999994
 30
0.0
 11
678.99782000000005
 21
637.68779299999994
 31
0.0
  0
POINT
  5
404
  8
DEFPOINTS
  6
CONTINUOUS
 62
     7
 10
693.50696900000003
 20
539.93779299999994
 30
0.0
  0
POINT
  5
405
  8
DEFPOINTS
  6
CONTINUOUS
 62
     7
 10
654.49782000000005
 20
632.93779299999994
 30
0.0
  0
POINT
  5
406
  8
DEFPOINTS
  6
CONTINUOUS
 62
     7
 10
654.49782000000005
 20
632.93779299999994
 30
0.0
  0
LINE
  5
407
  8
NOTE
  6
CONTINUOUS
 62
     4
 10
704.50696900000003
 20
539.93779299999994
 30
0.0
 11
693.50696900000003
 21
539.93779299999994
 31
0.0
  0
LINE
  5
408
  8
NOTE
  6
CONTINUOUS
 62
     4
 10
698.99782000000005
 20
545.43778499999985
 30
0.0
 11
698.99782000000005
 21
534.43780099999981
 31
0.0
  0
LINE
  5
409
  8
NOTE
  6
CONTINUOUS
 62
     4
 10
668.22951999999987
 20
604.93779299999994
 30
0.0
 11
645.72951999999987
 21
604.93779299999994
 31
0.0
  0
LINE
  5
40A
  8
NOTE
  6
CONTINUOUS
 62
     4
 10
656.99782000000005
 20
616.18778899999995
 30
0.0
 11
656.99782000000005
 21
593.68779699999993
 31
0.0
  0
LINE
  5
40B
  8
NOTE
  6
CONTINUOUS
 62
     4
 10
656.99782000000005
 20
604.93779299999994
 30
0.0
 11
642.59220000000005
 21
573.71556099999998
 31
0.0
  0
LINE
  5
40C
  8
NOTE
  6
CONTINUOUS
 62
     4
 10
656.99782000000005
 20
604.93779299999994
 30
0.0
 11
628.91107099999999
 21
585.101358
 31
0.0
  0
LINE
  5
40D
  8
DETAIL
  6
CONTINUOUS
 62
     5
 10
656.99782000000005
 20
616.18779299999994
 30
0.0
 11
656.99782000000005
 21
593.68779299999994
 31
0.0
  0
LINE
  5
40E
  8
DETAIL
  6
CONTINUOUS
 62
     5
 10
696.00696900000003
 20
593.43779299999994
 30
0.0
 11
681.98867199999995
 21
593.43779299999994
 31
0.0
  0
LINE
  5
40F
  8
DETAIL
  6
CONTINUOUS
 62
     5
 10
696.00696900000003
 20
616.43779299999994
 30
0.0
 11
681.98867199999995
 21
616.43779299999994
 31
0.0
  0
LINE
  5
410
  8
DETAIL
  6
CONTINUOUS
 62
     5
 10
661.98867199999995
 20
597.93779299999994
 30
0.0
 11
659.98867199999995
 21
595.93779299999994
 31
0.0
  0
LINE
  5
411
  8
DETAIL
  6
CONTINUOUS
 62
     5
 10
661.98867199999995
 20
597.93779299999994
 30
0.0
 11
659.98867199999995
 21
595.93779299999994
 31
0.0
  0
LINE
  5
412
  8
DETAIL
  6
CONTINUOUS
 62
     5
 10
661.98867199999995
 20
597.93779299999994
 30
0.0
 11
659.98867199999995
 21
599.93779299999994
 31
0.0
  0
LINE
  5
413
  8
DETAIL
  6
CONTINUOUS
 62
     5
 10
661.98867199999995
 20
597.93779299999994
 30
0.0
 11
659.98867199999995
 21
599.93779299999994
 31
0.0
  0
LINE
  5
414
  8
DETAIL
  6
CONTINUOUS
 62
     5
 10
661.98867199999995
 20
611.93779299999994
 30
0.0
 11
659.98867199999995
 21
609.93779299999994
 31
0.0
  0
LINE
  5
415
  8
DETAIL
  6
CONTINUOUS
 62
     5
 10
661.98867199999995
 20
611.93779299999994
 30
0.0
 11
659.98867199999995
 21
609.93779299999994
 31
0.0
  0
LINE
  5
416
  8
DETAIL
  6
CONTINUOUS
 62
     5
 10
661.98867199999995
 20
611.93779299999994
 30
0.0
 11
659.98867199999995
 21
613.93779299999994
 31
0.0
  0
LINE
  5
417
  8
DETAIL
  6
CONTINUOUS
 62
     5
 10
661.98867199999995
 20
611.93779299999994
 30
0.0
 11
659.98867199999995
 21
613.93779299999994
 31
0.0
  0
LINE
  5
418
  8
DETAIL
  6
CONTINUOUS
 62
     5
 10
673.98867199999995
 20
611.93779299999994
 30
0.0
 11
675.98867199999995
 21
613.93779299999994
 31
0.0
  0
LINE
  5
419
  8
DETAIL
  6
CONTINUOUS
 62
     5
 10
673.98867199999995
 20
611.93779299999994
 30
0.0
 11
675.98867199999995
 21
613.93779299999994
 31
0.0
  0
LINE
  5
41A
  8
DETAIL
  6
CONTINUOUS
 62
     5
 10
673.98867199999995
 20
611.93779299999994
 30
0.0
 11
675.98867199999995
 21
609.93779299999994
 31
0.0
  0
LINE
  5
41B
  8
DETAIL
  6
CONTINUOUS
 62
     5
 10
673.98867199999995
 20
611.93779299999994
 30
0.0
 11
675.98867199999995
 21
609.93779299999994
 31
0.0
  0
LINE
  5
41C
  8
DETAIL
  6
CONTINUOUS
 62
     5
 10
673.98867199999995
 20
597.93779299999994
 30
0.0
 11
675.98867199999995
 21
599.93779299999994
 31
0.0
  0
LINE
  5
41D
  8
DETAIL
  6
CONTINUOUS
 62
     5
 10
673.98867199999995
 20
597.93779299999994
 30
0.0
 11
675.98867199999995
 21
599.93779299999994
 31
0.0
  0
LINE
  5
41E
  8
DETAIL
  6
CONTINUOUS
 62
     5
 10
673.98867199999995
 20
597.93779299999994
 30
0.0
 11
675.98867199999995
 21
595.93779299999994
 31
0.0
  0
LINE
  5
41F
  8
DETAIL
  6
CONTINUOUS
 62
     5
 10
673.98867199999995
 20
597.93779299999994
 30
0.0
 11
675.98867199999995
 21
595.93779299999994
 31
0.0
  0
LINE
  5
420
  8
DETAIL
  6
CONTINUOUS
 62
     5
 10
673.98867199999995
 20
597.93779299999994
 30
0.0
 11
661.98867199999995
 21
597.93779299999994
 31
0.0
  0
LINE
  5
421
  8
DETAIL
  6
CONTINUOUS
 62
     5
 10
673.98867199999995
 20
597.93779299999994
 30
0.0
 11
661.98867199999995
 21
597.93779299999994
 31
0.0
  0
LINE
  5
422
  8
DETAIL
  6
CONTINUOUS
 62
     5
 10
673.98867199999995
 20
611.93779299999994
 30
0.0
 11
661.98867199999995
 21
611.93779299999994
 31
0.0
  0
LINE
  5
423
  8
DETAIL
  6
CONTINUOUS
 62
     5
 10
673.98867199999995
 20
611.93779299999994
 30
0.0
 11
661.98867199999995
 21
611.93779299999994
 31
0.0
  0
LINE
  5
424
  8
DETAIL
  6
CONTINUOUS
 62
     5
 10
675.98867199999995
 20
593.93779299999994
 30
0.0
 11
673.98867199999995
 21
591.93779299999994
 31
0.0
  0
LINE
  5
425
  8
DETAIL
  6
CONTINUOUS
 62
     5
 10
675.98867199999995
 20
593.93779299999994
 30
0.0
 11
673.98867199999995
 21
591.93779299999994
 31
0.0
  0
LINE
  5
426
  8
DETAIL
  6
CONTINUOUS
 62
     5
 10
675.98867199999995
 20
615.93779299999994
 30
0.0
 11
673.98867199999995
 21
617.93779299999994
 31
0.0
  0
LINE
  5
427
  8
DETAIL
  6
CONTINUOUS
 62
     5
 10
675.98867199999995
 20
615.93779299999994
 30
0.0
 11
673.98867199999995
 21
617.93779299999994
 31
0.0
  0
LINE
  5
428
  8
DETAIL
  6
CONTINUOUS
 62
     5
 10
656.99782000000005
 20
593.68779299999994
 30
0.0
 11
659.98867199999995
 21
591.93779299999994
 31
0.0
  0
LINE
  5
429
  8
DETAIL
  6
CONTINUOUS
 62
     5
 10
659.98867199999995
 20
617.93779299999994
 30
0.0
 11
656.99782000000005
 21
616.18778899999995
 31
0.0
  0
LINE
  5
42A
  8
DETAIL
  6
CONTINUOUS
 62
     5
 10
659.98867199999995
 20
617.93779299999994
 30
0.0
 11
659.98867199999995
 21
591.93779299999994
 31
0.0
  0
LINE
  5
42B
  8
DETAIL
  6
CONTINUOUS
 62
     5
 10
659.98867199999995
 20
617.93779299999994
 30
0.0
 11
659.98867199999995
 21
591.93779299999994
 31
0.0
  0
LINE
  5
42C
  8
DETAIL
  6
CONTINUOUS
 62
     5
 10
675.98867199999995
 20
615.93779299999994
 30
0.0
 11
675.98867199999995
 21
593.93779299999994
 31
0.0
  0
LINE
  5
42D
  8
DETAIL
  6
CONTINUOUS
 62
     5
 10
675.98867199999995
 20
615.93779299999994
 30
0.0
 11
675.98867199999995
 21
593.93779299999994
 31
0.0
  0
LINE
  5
42E
  8
DETAIL
  6
CONTINUOUS
 62
     5
 10
673.98867199999995
 20
591.93779299999994
 30
0.0
 11
659.98867199999995
 21
591.93779299999994
 31
0.0
  0
LINE
  5
42F
  8
DETAIL
  6
CONTINUOUS
 62
     5
 10
673.98867199999995
 20
591.93779299999994
 30
0.0
 11
659.98867199999995
 21
591.93779299999994
 31
0.0
  0
LINE
  5
430
  8
DETAIL
  6
CONTINUOUS
 62
     5
 10
673.98867199999995
 20
617.93779299999994
 30
0.0
 11
659.98867199999995
 21
617.93779299999994
 31
0.0
  0
LINE
  5
431
  8
DETAIL
  6
CONTINUOUS
 62
     5
 10
673.98867199999995
 20
617.93779299999994
 30
0.0
 11
659.98867199999995
 21
617.93779299999994
 31
0.0
  0
LINE
  5
432
  8
DETAIL
  6
CONTINUOUS
 62
     5
 10
675.98867199999995
 20
612.93779299999994
 30
0.0
 11
675.98867199999995
 21
596.93779299999994
 31
0.0
  0
LINE
  5
433
  8
DETAIL
  6
CONTINUOUS
 62
     5
 10
675.98867199999995
 20
596.93779299999994
 30
0.0
 11
679.98867199999995
 21
596.93779299999994
 31
0.0
  0
LINE
  5
434
  8
DETAIL
  6
CONTINUOUS
 62
     5
 10
675.98867199999995
 20
612.93779299999994
 30
0.0
 11
679.98867199999995
 21
612.93779299999994
 31
0.0
  0
LINE
  5
435
  8
DETAIL
  6
CONTINUOUS
 62
     5
 10
679.98867199999995
 20
614.43779299999994
 30
0.0
 11
681.98867199999995
 21
616.43779299999994
 31
0.0
  0
LINE
  5
436
  8
DETAIL
  6
CONTINUOUS
 62
     5
 10
679.98867199999995
 20
595.43779299999994
 30
0.0
 11
681.98867199999995
 21
593.43779299999994
 31
0.0
  0
LINE
  5
437
  8
DETAIL
  6
CONTINUOUS
 62
     5
 10
679.98867199999995
 20
614.43779299999994
 30
0.0
 11
679.98867199999995
 21
595.43779299999994
 31
0.0
  0
LINE
  5
438
  8
DETAIL
  6
CONTINUOUS
 62
     5
 10
661.98867199999995
 20
597.93779299999994
 30
0.0
 11
659.98867199999995
 21
595.93779299999994
 31
0.0
  0
LINE
  5
439
  8
DETAIL
  6
CONTINUOUS
 62
     5
 10
661.98867199999995
 20
597.93779299999994
 30
0.0
 11
659.98867199999995
 21
595.93779299999994
 31
0.0
  0
LINE
  5
43A
  8
DETAIL
  6
CONTINUOUS
 62
     5
 10
661.98867199999995
 20
597.93779299999994
 30
0.0
 11
659.98867199999995
 21
599.93779299999994
 31
0.0
  0
LINE
  5
43B
  8
DETAIL
  6
CONTINUOUS
 62
     5
 10
661.98867199999995
 20
597.93779299999994
 30
0.0
 11
659.98867199999995
 21
599.93779299999994
 31
0.0
  0
LINE
  5
43C
  8
DETAIL
  6
CONTINUOUS
 62
     5
 10
661.98867199999995
 20
611.93779299999994
 30
0.0
 11
659.98867199999995
 21
609.93779299999994
 31
0.0
  0
LINE
  5
43D
  8
DETAIL
  6
CONTINUOUS
 62
     5
 10
661.98867199999995
 20
611.93779299999994
 30
0.0
 11
659.98867199999995
 21
609.93779299999994
 31
0.0
  0
LINE
  5
43E
  8
DETAIL
  6
CONTINUOUS
 62
     5
 10
661.98867199999995
 20
611.93779299999994
 30
0.0
 11
659.98867199999995
 21
613.93779299999994
 31
0.0
  0
LINE
  5
43F
  8
DETAIL
  6
CONTINUOUS
 62
     5
 10
661.98867199999995
 20
611.93779299999994
 30
0.0
 11
659.98867199999995
 21
613.93779299999994
 31
0.0
  0
LINE
  5
440
  8
DETAIL
  6
CONTINUOUS
 62
     5
 10
673.98867199999995
 20
611.93779299999994
 30
0.0
 11
675.98867199999995
 21
613.93779299999994
 31
0.0
  0
LINE
  5
441
  8
DETAIL
  6
CONTINUOUS
 62
     5
 10
673.98867199999995
 20
611.93779299999994
 30
0.0
 11
675.98867199999995
 21
613.93779299999994
 31
0.0
  0
LINE
  5
442
  8
DETAIL
  6
CONTINUOUS
 62
     5
 10
673.98867199999995
 20
611.93779299999994
 30
0.0
 11
675.98867199999995
 21
609.93779299999994
 31
0.0
  0
LINE
  5
443
  8
DETAIL
  6
CONTINUOUS
 62
     5
 10
673.98867199999995
 20
611.93779299999994
 30
0.0
 11
675.98867199999995
 21
609.93779299999994
 31
0.0
  0
LINE
  5
444
  8
DETAIL
  6
CONTINUOUS
 62
     5
 10
673.98867199999995
 20
597.93779299999994
 30
0.0
 11
675.98867199999995
 21
599.93779299999994
 31
0.0
  0
LINE
  5
445
  8
DETAIL
  6
CONTINUOUS
 62
     5
 10
673.98867199999995
 20
597.93779299999994
 30
0.0
 11
675.98867199999995
 21
599.93779299999994
 31
0.0
  0
LINE
  5
446
  8
DETAIL
  6
CONTINUOUS
 62
     5
 10
673.98867199999995
 20
597.93779299999994
 30
0.0
 11
675.98867199999995
 21
595.93779299999994
 31
0.0
  0
LINE
  5
447
  8
DETAIL
  6
CONTINUOUS
 62
     5
 10
673.98867199999995
 20
597.93779299999994
 30
0.0
 11
675.98867199999995
 21
595.93779299999994
 31
0.0
  0
LINE
  5
448
  8
DETAIL
  6
CONTINUOUS
 62
     5
 10
673.98867199999995
 20
597.93779299999994
 30
0.0
 11
661.98867199999995
 21
597.93779299999994
 31
0.0
  0
LINE
  5
449
  8
DETAIL
  6
CONTINUOUS
 62
     5
 10
673.98867199999995
 20
597.93779299999994
 30
0.0
 11
661.98867199999995
 21
597.93779299999994
 31
0.0
  0
LINE
  5
44A
  8
DETAIL
  6
CONTINUOUS
 62
     5
 10
673.98867199999995
 20
611.93779299999994
 30
0.0
 11
661.98867199999995
 21
611.93779299999994
 31
0.0
  0
LINE
  5
44B
  8
DETAIL
  6
CONTINUOUS
 62
     5
 10
673.98867199999995
 20
611.93779299999994
 30
0.0
 11
661.98867199999995
 21
611.93779299999994
 31
0.0
  0
LINE
  5
44C
  8
DETAIL
  6
CONTINUOUS
 62
     5
 10
675.98867199999995
 20
593.93779299999994
 30
0.0
 11
673.98867199999995
 21
591.93779299999994
 31
0.0
  0
LINE
  5
44D
  8
DETAIL
  6
CONTINUOUS
 62
     5
 10
675.98867199999995
 20
593.93779299999994
 30
0.0
 11
673.98867199999995
 21
591.93779299999994
 31
0.0
  0
LINE
  5
44E
  8
DETAIL
  6
CONTINUOUS
 62
     5
 10
675.98867199999995
 20
615.93779299999994
 30
0.0
 11
673.98867199999995
 21
617.93779299999994
 31
0.0
  0
LINE
  5
44F
  8
DETAIL
  6
CONTINUOUS
 62
     5
 10
675.98867199999995
 20
615.93779299999994
 30
0.0
 11
673.98867199999995
 21
617.93779299999994
 31
0.0
  0
LINE
  5
450
  8
DETAIL
  6
CONTINUOUS
 62
     5
 10
659.98867199999995
 20
617.93779299999994
 30
0.0
 11
659.98867199999995
 21
591.93779299999994
 31
0.0
  0
LINE
  5
451
  8
DETAIL
  6
CONTINUOUS
 62
     5
 10
659.98867199999995
 20
617.93779299999994
 30
0.0
 11
659.98867199999995
 21
591.93779299999994
 31
0.0
  0
LINE
  5
452
  8
DETAIL
  6
CONTINUOUS
 62
     5
 10
675.98867199999995
 20
615.93779299999994
 30
0.0
 11
675.98867199999995
 21
593.93779299999994
 31
0.0
  0
LINE
  5
453
  8
DETAIL
  6
CONTINUOUS
 62
     5
 10
675.98867199999995
 20
615.93779299999994
 30
0.0
 11
675.98867199999995
 21
593.93779299999994
 31
0.0
  0
LINE
  5
454
  8
DETAIL
  6
CONTINUOUS
 62
     5
 10
673.98867199999995
 20
591.93779299999994
 30
0.0
 11
659.98867199999995
 21
591.93779299999994
 31
0.0
  0
LINE
  5
455
  8
DETAIL
  6
CONTINUOUS
 62
     5
 10
673.98867199999995
 20
591.93779299999994
 30
0.0
 11
659.98867199999995
 21
591.93779299999994
 31
0.0
  0
LINE
  5
456
  8
DETAIL
  6
CONTINUOUS
 62
     5
 10
673.98867199999995
 20
617.93779299999994
 30
0.0
 11
659.98867199999995
 21
617.93779299999994
 31
0.0
  0
LINE
  5
457
  8
DETAIL
  6
CONTINUOUS
 62
     5
 10
673.98867199999995
 20
617.93779299999994
 30
0.0
 11
659.98867199999995
 21
617.93779299999994
 31
0.0
  0
LINE
  5
458
  8
DETAIL
  6
CONTINUOUS
 62
     5
 10
675.98867199999995
 20
612.93779299999994
 30
0.0
 11
675.98867199999995
 21
596.93779299999994
 31
0.0
  0
LINE
  5
459
  8
DETAIL
  6
CONTINUOUS
 62
     5
 10
675.98867199999995
 20
596.93779299999994
 30
0.0
 11
679.98867199999995
 21
596.93779299999994
 31
0.0
  0
LINE
  5
45A
  8
DETAIL
  6
CONTINUOUS
 62
     5
 10
675.98867199999995
 20
612.93779299999994
 30
0.0
 11
679.98867199999995
 21
612.93779299999994
 31
0.0
  0
LINE
  5
45B
  8
DETAIL
  6
CONTINUOUS
 62
     5
 10
679.98867199999995
 20
614.43779299999994
 30
0.0
 11
681.98867199999995
 21
616.43779299999994
 31
0.0
  0
LINE
  5
45C
  8
DETAIL
  6
CONTINUOUS
 62
     5
 10
679.98867199999995
 20
595.43779299999994
 30
0.0
 11
681.98867199999995
 21
593.43779299999994
 31
0.0
  0
LINE
  5
45D
  8
DETAIL
  6
CONTINUOUS
 62
     5
 10
679.98867199999995
 20
614.43779299999994
 30
0.0
 11
679.98867199999995
 21
595.43779299999994
 31
0.0
  0
LINE
  5
45E
  8
DETAIL
  6
CONTINUOUS
 62
     5
 10
698.99782000000005
 20
616.43779299999994
 30
0.0
 11
681.98867199999995
 21
616.43779299999994
 31
0.0
  0
LINE
  5
45F
  8
DETAIL
  6
CONTINUOUS
 62
     5
 10
698.99782000000005
 20
593.43779299999994
 30
0.0
 11
681.98867199999995
 21
593.43779299999994
 31
0.0
  0
LINE
  5
460
  8
DETAIL
  6
CONTINUOUS
 62
     5
 10
730.99782000000005
 20
600.33779299999992
 30
0.0
 11
730.99782000000005
 21
599.7377929999999
 31
0.0
  0
ARC
  5
461
  8
DETAIL
  6
CONTINUOUS
 62
     5
 10
703.99782000000005
 20
544.33779299999992
 30
0.0
 40
5.0
 50
180.0
 51
270.0
  0
LINE
  5
462
  8
DETAIL
  6
CONTINUOUS
 62
     5
 10
716.99782000000005
 20
526.93779299999994
 30
0.0
 11
713.99782000000005
 21
523.93779299999994
 31
0.0
  0
LINE
  5
463
  8
DETAIL
  6
CONTINUOUS
 62
     5
 10
716.99782000000005
 20
526.93779299999994
 30
0.0
 11
713.99782000000005
 21
523.93779299999994
 31
0.0
  0
LINE
  5
464
  8
SIZE
  6
CONTINUOUS
 62
    30
 10
628.28116799999998
 20
696.93779299999994
 30
0.0
 11
422.4762189999999
 21
696.93779299999994
 31
0.0
  0
LINE
  5
465
  8
SIZE
  6
CONTINUOUS
 62
    30
 10
667.29782
 20
804.93779300000006
 30
0.0
 11
422.4762189999999
 21
804.93779300000006
 31
0.0
  0
LINE
  5
466
  8
SIZE
  6
CONTINUOUS
 62
    30
 10
452.47621900000001
 20
804.93779300000006
 30
0.0
 11
452.47621900000001
 21
968.79493599999989
 31
0.0
  0
POINT
  5
467
  8
DEFPOINTS
  6
CONTINUOUS
 62
     7
 10
452.47621900000001
 20
696.93779299999994
 30
0.0
  0
LINE
  5
468
  8
SIZE
  6
CONTINUOUS
 62
    30
 10
452.47621900000001
 20
799.93779299999994
 30
0.0
 11
452.47621900000001
 21
794.93779299999994
 31
0.0
  0
CIRCLE
  5
469
  8
SIZE
  6
CONTINUOUS
 62
    30
 10
452.47621900000001
 20
804.93779300000006
 30
0.0
 40
5.0
  0
LINE
  5
46A
  8
SIZE
  6
CONTINUOUS
 62
    30
 10
452.47621900000001
 20
701.93779299999994
 30
0.0
 11
452.47621900000001
 21
706.93779299999994
 31
0.0
  0
CIRCLE
  5
46B
  8
SIZE
  6
CONTINUOUS
 62
    30
 10
452.47621900000001
 20
696.93779299999994
 30
0.0
 40
5.0
  0
LINE
  5
46C
  8
SIZE
  6
CONTINUOUS
 62
    30
 10
452.47621900000001
 20
706.93779299999994
 30
0.0
 11
452.47621900000001
 21
794.93779299999994
 31
0.0
  0
LINE
  5
46D
  8
SIZE
  6
CONTINUOUS
 62
    30
 10
698.99782000000005
 20
824.93779299999994
 30
0.0
 11
698.99782000000005
 21
893.44111699999996
 31
0.0
  0
LINE
  5
46E
  8
SIZE
  6
CONTINUOUS
 62
    30
 10
664.99782000000005
 20
733.6544449999999
 30
0.0
 11
664.99782000000005
 21
893.44111699999996
 31
0.0
  0
ARC
  5
46F
  8
DETAIL
  6
CONTINUOUS
 62
     5
 10
740.99782000000005
 20
769.93779299999994
 30
0.0
 40
10.0
 50
90.0
 51
180.0
  0
POINT
  5
470
  8
DEFPOINTS
  6
CONTINUOUS
 62
     7
 10
698.99782000000005
 20
804.93779300000006
 30
0.0
  0
POINT
  5
471
  8
DEFPOINTS
  6
CONTINUOUS
 62
     7
 10
698.99782000000005
 20
804.93779300000006
 30
0.0
  0
POINT
  5
472
  8
DEFPOINTS
  6
CONTINUOUS
 62
     7
 10
705.99782000000005
 20
817.35929099999987
 30
0.0
  0
POINT
  5
473
  8
DEFPOINTS
  6
CONTINUOUS
 62
     7
 10
682.99782000000005
 20
800.63779299999987
 30
0.0
  0
POINT
  5
474
  8
DEFPOINTS
  6
CONTINUOUS
 62
     7
 10
698.99782000000005
 20
804.93779300000006
 30
0.0
  0
POINT
  5
475
  8
DEFPOINTS
  6
CONTINUOUS
 62
     7
 10
705.99782000000005
 20
819.93295899999987
 30
0.0
  0
POINT
  5
476
  8
DEFPOINTS
  6
CONTINUOUS
 62
     7
 10
682.99782000000005
 20
800.63779299999987
 30
0.0
  0
POINT
  5
477
  8
DEFPOINTS
  6
CONTINUOUS
 62
     7
 10
698.99782000000005
 20
804.93779300000006
 30
0.0
  0
POINT
  5
478
  8
DEFPOINTS
  6
CONTINUOUS
 62
     7
 10
682.99782000000005
 20
800.63779299999987
 30
0.0
  0
POINT
  5
479
  8
DEFPOINTS
  6
CONTINUOUS
 62
     7
 10
698.99782000000005
 20
804.93779300000006
 30
0.0
  0
POINT
  5
47A
  8
DEFPOINTS
  6
CONTINUOUS
 62
     7
 10
664.99782000000005
 20
713.65444500000001
 30
0.0
  0
POINT
  5
47B
  8
DEFPOINTS
  6
CONTINUOUS
 62
     7
 10
687.29782
 20
804.93779300000006
 30
0.0
  0
POINT
  5
47C
  8
DEFPOINTS
  6
CONTINUOUS
 62
     7
 10
687.29782
 20
804.93779300000006
 30
0.0
  0
POINT
  5
47D
  8
DEFPOINTS
  6
CONTINUOUS
 62
     7
 10
648.28116799999998
 20
696.93779299999994
 30
0.0
  0
POINT
  5
47E
  8
DEFPOINTS
  6
CONTINUOUS
 62
     7
 10
687.29782
 20
804.93779300000006
 30
0.0
  0
LINE
  5
47F
  8
NOTE
  6
CONTINUOUS
 62
     4
 10
681.71447199999989
 20
696.93779299999994
 30
0.0
 11
648.28116799999998
 21
696.93779299999994
 31
0.0
  0
LINE
  5
480
  8
NOTE
  6
CONTINUOUS
 62
     4
 10
664.99782000000005
 20
713.65444500000001
 30
0.0
 11
664.99782000000005
 21
680.22114099999988
 31
0.0
  0
LINE
  5
481
  8
NOTE
  6
CONTINUOUS
 62
     4
 10
664.99782000000005
 20
696.93779299999994
 30
0.0
 11
641.98275599999988
 21
722.48493599999995
 31
0.0
  0
LINE
  5
482
  8
NOTE
  6
CONTINUOUS
 62
     4
 10
664.99782000000005
 20
696.93779299999994
 30
0.0
 11
657.83976199999995
 21
730.56979999999987
 31
0.0
  0
CIRCLE
  5
483
  8
FIX
  6
CONTINUOUS
 62
    11
 10
705.99782000000005
 20
804.93779300000006
 30
0.0
 40
12.421498
  0
LINE
  5
484
  8
NOTE
  6
CONTINUOUS
 62
     4
 10
705.99782000000005
 20
789.9426269999999
 30
0.0
 11
705.99782000000005
 21
819.93295899999987
 31
0.0
  0
LINE
  5
485
  8
NOTE
  6
CONTINUOUS
 62
     4
 10
691.00265400000001
 20
804.93779300000006
 30
0.0
 11
720.99298599999997
 21
804.93779300000006
 31
0.0
  0
LINE
  5
486
  8
DETAIL
  6
CONTINUOUS
 62
     5
 10
698.99782000000005
 20
778.53779299999997
 30
0.0
 11
701.99782000000005
 21
775.53779299999985
 31
0.0
  0
LINE
  5
487
  8
DETAIL
  6
CONTINUOUS
 62
     5
 10
698.99782000000005
 20
778.53779299999997
 30
0.0
 11
698.99782000000005
 21
804.93779300000006
 31
0.0
  0
LINE
  5
488
  8
DETAIL
  6
CONTINUOUS
 62
     5
 10
701.99782000000005
 20
775.53779299999985
 30
0.0
 11
732.71289400000001
 21
775.53779299999985
 31
0.0
  0
LINE
  5
489
  8
DETAIL
  6
CONTINUOUS
 62
     5
 10
698.99782000000005
 20
778.53779299999997
 30
0.0
 11
698.99782000000005
 21
804.93779300000006
 31
0.0
  0
LINE
  5
48A
  8
DETAIL
  6
CONTINUOUS
 62
     5
 10
698.99782000000005
 20
802.63779299999999
 30
0.0
 11
687.29782
 21
802.63779299999999
 31
0.0
  0
LINE
  5
48B
  8
DETAIL
  6
CONTINUOUS
 62
     5
 10
698.99782000000005
 20
804.93779300000006
 30
0.0
 11
687.29782
 21
804.93779300000006
 31
0.0
  0
LINE
  5
48C
  8
DETAIL
  6
CONTINUOUS
 62
     5
 10
698.99782000000005
 20
803.33779299999981
 30
0.0
 11
698.99782000000005
 21
801.03779299999997
 31
0.0
  0
LINE
  5
48D
  8
DETAIL
  6
CONTINUOUS
 62
     5
 10
685.29781999999989
 20
792.93779299999994
 30
0.0
 11
682.99782000000005
 21
792.93779299999994
 31
0.0
  0
LINE
  5
48E
  8
DETAIL
  6
CONTINUOUS
 62
     5
 10
685.29781999999989
 20
800.63779299999987
 30
0.0
 11
685.29781999999989
 21
792.93779299999994
 31
0.0
  0
ARC
  5
48F
  8
DETAIL
  6
CONTINUOUS
 62
     5
 10
687.29782
 20
800.63779299999987
 30
0.0
 40
2.0
 50
90.0
 51
180.0
  0
LINE
  5
490
  8
DETAIL
  6
CONTINUOUS
 62
     5
 10
682.99782000000005
 20
800.63779299999987
 30
0.0
 11
682.99782000000005
 21
792.93779299999994
 31
0.0
  0
ARC
  5
491
  8
DETAIL
  6
CONTINUOUS
 62
     5
 10
687.29782
 20
800.63779299999987
 30
0.0
 40
4.2999999999999989
 50
90.0
 51
180.0
  0
LINE
  5
492
  8
DETAIL
  6
CONTINUOUS
 62
     5
 10
698.99782000000005
 20
803.33779299999981
 30
0.0
 11
698.99782000000005
 21
801.03779299999997
 31
0.0
  0
LINE
  5
493
  8
DETAIL
  6
CONTINUOUS
 62
     5
 10
685.29781999999989
 20
792.93779299999994
 30
0.0
 11
682.99782000000005
 21
792.93779299999994
 31
0.0
  0
LINE
  5
494
  8
DETAIL
  6
CONTINUOUS
 62
     5
 10
685.29781999999989
 20
800.63779299999987
 30
0.0
 11
685.29781999999989
 21
792.93779299999994
 31
0.0
  0
ARC
  5
495
  8
DETAIL
  6
CONTINUOUS
 62
     5
 10
687.29782
 20
800.63779299999987
 30
0.0
 40
2.0
 50
90.0
 51
180.0
  0
LINE
  5
496
  8
DETAIL
  6
CONTINUOUS
 62
     5
 10
698.99782000000005
 20
802.63779299999999
 30
0.0
 11
687.29782
 21
802.63779299999999
 31
0.0
  0
LINE
  5
497
  8
DETAIL
  6
CONTINUOUS
 62
     5
 10
698.99782000000005
 20
804.93779300000006
 30
0.0
 11
687.29782
 21
804.93779300000006
 31
0.0
  0
LINE
  5
498
  8
DETAIL
  6
CONTINUOUS
 62
     5
 10
682.99782000000005
 20
800.63779299999987
 30
0.0
 11
682.99782000000005
 21
792.93779299999994
 31
0.0
  0
ARC
  5
499
  8
DETAIL
  6
CONTINUOUS
 62
     5
 10
687.29782
 20
800.63779299999987
 30
0.0
 40
4.2999999999999989
 50
90.0
 51
180.0
  0
LINE
  5
49A
  8
DETAIL
  6
CONTINUOUS
 62
     5
 10
698.99782000000005
 20
698.33779299999992
 30
0.0
 11
698.99782000000005
 21
794.33779299999992
 31
0.0
  0
LINE
  5
49B
  8
DETAIL
  6
CONTINUOUS
 62
     5
 10
689.99782000000005
 20
713.13779299999999
 30
0.0
 11
698.99782000000005
 21
713.29488900000001
 31
0.0
  0
ARC
  5
49C
  8
DETAIL
  6
CONTINUOUS
 62
     5
 10
665.49782000000005
 20
712.43779299999994
 30
0.0
 40
0.5
 50
90.0
 51
180.0
  0
LINE
  5
49D
  8
DETAIL
  6
CONTINUOUS
 62
     5
 10
689.99782000000005
 20
712.93779299999994
 30
0.0
 11
665.49782000000005
 21
712.93779299999994
 31
0.0
  0
LINE
  5
49E
  8
DETAIL
  6
CONTINUOUS
 62
     5
 10
689.99782000000005
 20
680.73779300000001
 30
0.0
 11
698.99782000000005
 21
680.58069699999987
 31
0.0
  0
ARC
  5
49F
  8
DETAIL
  6
CONTINUOUS
 62
     5
 10
665.49782000000005
 20
681.43779299999994
 30
0.0
 40
0.5
 50
180.0
 51
270.0
  0
LINE
  5
4A0
  8
DETAIL
  6
CONTINUOUS
 62
     5
 10
689.99782000000005
 20
680.93779299999994
 30
0.0
 11
665.49782000000005
 21
680.93779299999994
 31
0.0
  0
LINE
  5
4A1
  8
DETAIL
  6
CONTINUOUS
 62
     5
 10
689.99782000000005
 20
713.13779299999999
 30
0.0
 11
689.99782000000005
 21
680.73779300000001
 31
0.0
  0
LINE
  5
4A2
  8
DETAIL
  6
CONTINUOUS
 62
     5
 10
664.99782000000005
 20
712.43779299999994
 30
0.0
 11
664.99782000000005
 21
681.43779299999994
 31
0.0
  0
LINE
  5
4A3
  8
DETAIL
  6
CONTINUOUS
 62
     5
 10
689.99782000000005
 20
713.13779299999999
 30
0.0
 11
698.99782000000005
 21
713.29488900000001
 31
0.0
  0
LINE
  5
4A4
  8
DETAIL
  6
CONTINUOUS
 62
     5
 10
689.99782000000005
 20
680.73779300000001
 30
0.0
 11
698.99782000000005
 21
680.58069699999987
 31
0.0
  0
ARC
  5
4A5
  8
DETAIL
  6
CONTINUOUS
 62
     5
 10
665.49782000000005
 20
681.43779299999994
 30
0.0
 40
0.5
 50
180.0
 51
270.0
  0
ARC
  5
4A6
  8
DETAIL
  6
CONTINUOUS
 62
     5
 10
665.49782000000005
 20
712.43779299999994
 30
0.0
 40
0.5
 50
90.0
 51
180.0
  0
LINE
  5
4A7
  8
DETAIL
  6
CONTINUOUS
 62
     5
 10
689.99782000000005
 20
713.13779299999999
 30
0.0
 11
689.99782000000005
 21
680.73779300000001
 31
0.0
  0
LINE
  5
4A8
  8
DETAIL
  6
CONTINUOUS
 62
     5
 10
689.99782000000005
 20
680.93779299999994
 30
0.0
 11
665.49782000000005
 21
680.93779299999994
 31
0.0
  0
LINE
  5
4A9
  8
DETAIL
  6
CONTINUOUS
 62
     5
 10
689.99782000000005
 20
712.93779299999994
 30
0.0
 11
665.49782000000005
 21
712.93779299999994
 31
0.0
  0
LINE
  5
4AA
  8
DETAIL
  6
CONTINUOUS
 62
     5
 10
664.99782000000005
 20
712.43779299999994
 30
0.0
 11
664.99782000000005
 21
681.43779299999994
 31
0.0
  0
LINE
  5
4AB
  8
DETAIL
  6
CONTINUOUS
 62
     5
 10
698.99782000000005
 20
804.93779300000006
 30
0.0
 11
698.99782000000005
 21
775.63779299999999
 31
0.0
  0
LINE
  5
4AC
  8
SIZE
  6
CONTINUOUS
 62
    30
 10
708.99782000000005
 20
966.61020299999996
 30
0.0
 11
832.78353400000003
 21
966.61020299999996
 31
0.0
  0
LINE
  5
4AD
  8
SIZE
  6
CONTINUOUS
 62
    30
 10
708.99782000000005
 20
863.44111699999985
 30
0.0
 11
841.894139
 21
863.44111699999985
 31
0.0
  0
POINT
  5
4AE
  8
DEFPOINTS
  6
CONTINUOUS
 62
     7
 10
659.99782000000005
 20
966.61020299999996
 30
0.0
  0
LINE
  5
4AF
  8
SIZE
  6
CONTINUOUS
 62
    30
 10
703.99782000000005
 20
966.61020299999996
 30
0.0
 11
708.99782000000005
 21
966.61020299999996
 31
0.0
  0
CIRCLE
  5
4B0
  8
SIZE
  6
CONTINUOUS
 62
    30
 10
698.99782000000005
 20
966.61020299999996
 30
0.0
 40
5.0
  0
LINE
  5
4B1
  8
SIZE
  6
CONTINUOUS
 62
    30
 10
654.99782000000005
 20
966.61020299999996
 30
0.0
 11
649.99782000000005
 21
966.61020299999996
 31
0.0
  0
CIRCLE
  5
4B2
  8
SIZE
  6
CONTINUOUS
 62
    30
 10
659.99782000000005
 20
966.61020299999996
 30
0.0
 40
5.0
  0
LINE
  5
4B3
  8
SIZE
  6
CONTINUOUS
 62
    30
 10
659.99782000000005
 20
966.61020299999996
 30
0.0
 11
698.99782000000005
 21
966.61020299999996
 31
0.0
  0
LINE
  5
4B4
  8
SIZE
  6
CONTINUOUS
 62
    30
 10
649.99782000000005
 20
966.61020299999996
 30
0.0
 11
639.99782000000005
 21
966.61020299999996
 31
0.0
  0
POINT
  5
4B5
  8
DEFPOINTS
  6
CONTINUOUS
 62
     7
 10
698.99782000000005
 20
863.44111699999985
 30
0.0
  0
LINE
  5
4B6
  8
SIZE
  6
CONTINUOUS
 62
    30
 10
703.99782000000005
 20
863.44111699999985
 30
0.0
 11
708.99782000000005
 21
863.44111699999985
 31
0.0
  0
CIRCLE
  5
4B7
  8
SIZE
  6
CONTINUOUS
 62
    30
 10
698.99782000000005
 20
863.44111699999985
 30
0.0
 40
5.0
  0
LINE
  5
4B8
  8
SIZE
  6
CONTINUOUS
 62
    30
 10
659.99782000000005
 20
863.44111699999985
 30
0.0
 11
654.99782000000005
 21
863.44111699999985
 31
0.0
  0
CIRCLE
  5
4B9
  8
SIZE
  6
CONTINUOUS
 62
    30
 10
664.99782000000005
 20
863.44111699999985
 30
0.0
 40
5.0
  0
LINE
  5
4BA
  8
SIZE
  6
CONTINUOUS
 62
    30
 10
664.99782000000005
 20
863.44111699999985
 30
0.0
 11
698.99782000000005
 21
863.44111699999985
 31
0.0
  0
LINE
  5
4BB
  8
SIZE
  6
CONTINUOUS
 62
    30
 10
654.99782000000005
 20
863.44111699999985
 30
0.0
 11
644.99782000000005
 21
863.44111699999985
 31
0.0
  0
POINT
  5
4BC
  8
DEFPOINTS
  6
CONTINUOUS
 62
     7
 10
682.99782000000005
 20
899.93779299999994
 30
0.0
  0
TEXT
  5
4BD
  8
SIZE
  6
CONTINUOUS
 62
    30
 10
741.39413899999988
 20
881.44111699999985
 30
0.0
 40
55.0
  1
34
 41
0.9
 72
     1
 11
782.644139
 21
881.44111699999985
 31
0.0
  0
LINE
  5
4BE
  8
NOTE
  6
CONTINUOUS
 62
     4
 10
452.08583899999991
 20
1003.890623
 30
0.0
 11
108.372257
 21
1003.890623
 31
0.0
  0
TEXT
  5
4BF
  8
NOTE
  6
CONTINUOUS
 62
     4
 10
130.047529
 20
1019.7171540000001
 30
0.0
 40
60.0
  1
RL %%C6.35
 50
0.000003
 41
0.7
  7
STANDARD1
  0
LINE
  5
4C0
  8
NOTE
  6
CONTINUOUS
 62
     4
 10
448.55666400000001
 20
1125.335282
 30
0.0
 11
101.74280299999999
 21
1125.335282
 31
0.0
  0
TEXT
  5
4C1
  8
NOTE
  6
CONTINUOUS
 62
     4
 10
123.418074
 20
1141.1618129999999
 30
0.0
 40
60.0
  1
D1 VP-25
 50
0.000003
 41
0.7
  7
STANDARD1
  0
CIRCLE
  5
4C2
  8
SIZE
  6
CONTINUOUS
 62
    30
 10
705.99782000000005
 20
1289.1002149999999
 30
0.0
 40
5.0
  0
CIRCLE
  5
4C3
  8
SIZE
  6
CONTINUOUS
 62
    30
 10
682.99782000000005
 20
1289.1002149999999
 30
0.0
 40
5.0
  0
CIRCLE
  5
4C4
  8
SIZE
  6
CONTINUOUS
 62
    30
 10
705.99782000000005
 20
1289.1002149999999
 30
0.0
 40
5.0
  0
TEXT
  5
4C5
  8
SIZE
  6
CONTINUOUS
 62
    30
 10
576.64067757142845
 20
1190.04099
 30
0.0
 40
55.0
  1
16
 41
0.9
 72
     1
 11
610.81924900000001
 21
1190.04099
 31
0.0
  0
LINE
  5
4C6
  8
SIZE
  6
CONTINUOUS
 62
    30
 10
672.99782000000005
 20
1172.04099
 30
0.0
 11
558.64067699999987
 21
1172.04099
 31
0.0
  0
TEXT
  5
4C7
  8
SIZE
  6
CONTINUOUS
 62
    30
 10
735.81924842857143
 20
1082.5738220000001
 30
0.0
 40
55.0
  1
42
 41
0.9
 72
     1
 11
775.89067699999998
 21
1082.5738220000001
 31
0.0
  0
LINE
  5
4C8
  8
SIZE
  6
CONTINUOUS
 62
    30
 10
708.99782000000005
 20
1064.5738220000001
 30
0.0
 11
832.78353400000003
 21
1064.5738220000001
 31
0.0
  0
TEXT
  5
4C9
  8
SIZE
  6
CONTINUOUS
 62
    30
 10
736.99781985714287
 20
984.61020299999996
 30
0.0
 40
55.0
  1
39
 41
0.9
 72
     1
 11
775.89067699999998
 21
984.61020299999996
 31
0.0
  0
POINT
  5
4CA
  8
DEFPOINTS
  6
CONTINUOUS
 62
     7
 10
698.99782000000005
 20
1064.5738220000001
 30
0.0
  0
LINE
  5
4CB
  8
SIZE
  6
CONTINUOUS
 62
    30
 10
703.99782000000005
 20
1064.5738220000001
 30
0.0
 11
708.99782000000005
 21
1064.5738220000001
 31
0.0
  0
CIRCLE
  5
4CC
  8
SIZE
  6
CONTINUOUS
 62
    30
 10
698.99782000000005
 20
1064.5738220000001
 30
0.0
 40
5.0
  0
LINE
  5
4CD
  8
SIZE
  6
CONTINUOUS
 62
    30
 10
651.99782000000005
 20
1064.5738220000001
 30
0.0
 11
646.99782000000005
 21
1064.5738220000001
 31
0.0
  0
CIRCLE
  5
4CE
  8
SIZE
  6
CONTINUOUS
 62
    30
 10
656.99782000000005
 20
1064.5738220000001
 30
0.0
 40
5.0
  0
LINE
  5
4CF
  8
SIZE
  6
CONTINUOUS
 62
    30
 10
656.99782000000005
 20
1064.5738220000001
 30
0.0
 11
698.99782000000005
 21
1064.5738220000001
 31
0.0
  0
LINE
  5
4D0
  8
SIZE
  6
CONTINUOUS
 62
    30
 10
646.99782000000005
 20
1064.5738220000001
 30
0.0
 11
636.99782000000005
 21
1064.5738220000001
 31
0.0
  0
LINE
  5
4D1
  8
SIZE
  6
CONTINUOUS
 62
    30
 10
703.99782000000005
 20
1172.04099
 30
0.0
 11
708.99782000000005
 21
1172.04099
 31
0.0
  0
CIRCLE
  5
4D2
  8
SIZE
  6
CONTINUOUS
 62
    30
 10
698.99782000000005
 20
1172.04099
 30
0.0
 40
5.0
  0
POINT
  5
4D3
  8
DEFPOINTS
  6
CONTINUOUS
 62
     7
 10
698.99782000000005
 20
1172.04099
 30
0.0
  0
LINE
  5
4D4
  8
SIZE
  6
CONTINUOUS
 62
    30
 10
677.99782000000005
 20
1172.04099
 30
0.0
 11
672.99782000000005
 21
1172.04099
 31
0.0
  0
CIRCLE
  5
4D5
  8
SIZE
  6
CONTINUOUS
 62
    30
 10
682.99782000000005
 20
1172.04099
 30
0.0
 40
5.0
  0
LINE
  5
4D6
  8
SIZE
  6
CONTINUOUS
 62
    30
 10
703.99782000000005
 20
1172.04099
 30
0.0
 11
708.99782000000005
 21
1172.04099
 31
0.0
  0
CIRCLE
  5
4D7
  8
SIZE
  6
CONTINUOUS
 62
    30
 10
698.99782000000005
 20
1172.04099
 30
0.0
 40
5.0
  0
LINE
  5
4D8
  8
SIZE
  6
CONTINUOUS
 62
    30
 10
698.99782000000005
 20
1172.04099
 30
0.0
 11
682.99782000000005
 21
1172.04099
 31
0.0
  0
LINE
  5
4D9
  8
SIZE
  6
CONTINUOUS
 62
    30
 10
708.99782000000005
 20
1172.04099
 30
0.0
 11
718.99782000000005
 21
1172.04099
 31
0.0
  0
TEXT
  5
4DA
  8
SIZE
  6
CONTINUOUS
 62
    30
 10
564.8549624285713
 20
1307.1002149999999
 30
0.0
 40
55.0
  1
23
 41
0.9
 72
     1
 11
604.92639099999985
 21
1307.1002149999999
 31
0.0
  0
LINE
  5
4DB
  8
SIZE
  6
CONTINUOUS
 62
    30
 10
672.99782000000005
 20
1289.1002149999999
 30
0.0
 11
546.854963
 21
1289.1002149999999
 31
0.0
  0
LINE
  5
4DC
  8
SIZE
  6
CONTINUOUS
 62
    30
 10
710.99782000000005
 20
1289.1002149999999
 30
0.0
 11
715.99782000000005
 21
1289.1002149999999
 31
0.0
  0
LINE
  5
4DD
  8
SIZE
  6
CONTINUOUS
 62
    30
 10
687.99782000000005
 20
1414.875393
 30
0.0
 11
692.99782000000005
 21
1414.875393
 31
0.0
  0
CIRCLE
  5
4DE
  8
SIZE
  6
CONTINUOUS
 62
    30
 10
682.99782000000005
 20
1414.875393
 30
0.0
 40
5.0
  0
POINT
  5
4DF
  8
DEFPOINTS
  6
CONTINUOUS
 62
     7
 10
705.99782000000005
 20
1289.1002149999999
 30
0.0
  0
LINE
  5
4E0
  8
SIZE
  6
CONTINUOUS
 62
    30
 10
677.99782000000005
 20
1289.1002149999999
 30
0.0
 11
672.99782000000005
 21
1289.1002149999999
 31
0.0
  0
LINE
  5
4E1
  8
SIZE
  6
CONTINUOUS
 62
    30
 10
710.99782000000005
 20
1289.1002149999999
 30
0.0
 11
715.99782000000005
 21
1289.1002149999999
 31
0.0
  0
LINE
  5
4E2
  8
SIZE
  6
CONTINUOUS
 62
    30
 10
705.99782000000005
 20
1289.1002149999999
 30
0.0
 11
682.99782000000005
 21
1289.1002149999999
 31
0.0
  0
LINE
  5
4E3
  8
SIZE
  6
CONTINUOUS
 62
    30
 10
715.99782000000005
 20
1289.1002149999999
 30
0.0
 11
725.99782000000005
 21
1289.1002149999999
 31
0.0
  0
LINE
  5
4E4
  8
BASIS
  6
DASHDOT
 62
     6
 10
1178.99782
 20
840.50950599999999
 30
0.0
 11
1178.99782
 21
318.05162200000001
 31
0.0
  0
CIRCLE
  5
4E5
  8
ARRANGE
  6
CONTINUOUS
 62
     1
 10
1178.99782
 20
371.937793
 30
0.0
 40
50.0
  0
CIRCLE
  5
4E6
  8
SIZE
  6
CONTINUOUS
 62
    30
 10
2145.1539979999998
 20
371.937793
 30
0.0
 40
5.0
  0
LINE
  5
4E7
  8
SIZE
  6
CONTINUOUS
 62
    30
 10
2145.1539979999998
 20
371.937793
 30
0.0
 11
2145.1539979999998
 21
7.2520789999999993
 31
0.0
  0
CIRCLE
  5
4E8
  8
SIZE
  6
CONTINUOUS
 62
    30
 10
1920.642198
 20
371.937793
 30
0.0
 40
5.0
  0
LINE
  5
4E9
  8
SIZE
  6
CONTINUOUS
 62
    30
 10
1920.642198
 20
395.437793
 30
0.0
 11
2021.6654599999999
 21
354.41874999999999
 31
0.0
  0
CIRCLE
  5
4EA
  8
SIZE
  6
CONTINUOUS
 62
    30
 10
1920.642198
 20
371.937793
 30
0.0
 40
5.0
  0
LINE
  5
4EB
  8
SIZE
  6
CONTINUOUS
 62
    30
 10
1920.642198
 20
371.937793
 30
0.0
 11
1920.642198
 21
363.937793
 31
0.0
  0
LINE
  5
4EC
  8
OUTLINE
  6
CONTINUOUS
 62
     3
 10
1698.99782
 20
367.931285
 30
0.0
 11
1698.99782
 21
371.937793
 31
0.0
  0
LINE
  5
4ED
  8
ARRANGE
  6
CONTINUOUS
 62
     1
 10
1228.961583
 20
421.53438799999992
 30
0.0
 11
1129.0340570000001
 21
322.34119800000002
 31
0.0
  0
LINE
  5
4EE
  8
ARRANGE
  6
CONTINUOUS
 62
     1
 10
1229.0351700000001
 20
322.41543999999999
 30
0.0
 11
1128.96047
 21
421.4601459999999
 31
0.0
  0
TEXT
  5
4EF
  8
SIZE
  6
CONTINUOUS
 62
    30
 10
2259.9374079999998
 20
40.283176999999938
 30
0.0
 40
55.0
  1
パネル直付時
 50
90.0
 41
0.9
 72
     1
 11
2259.9374079999998
 21
211.88317699999999
 31
0.0
  0
LINE
  5
4F0
  8
DETAIL
  6
CONTINUOUS
 62
     5
 10
1698.99782
 20
367.931285
 30
0.0
 11
1698.99782
 21
371.937793
 31
0.0
  0
LINE
  5
4F1
  8
SIZE
  6
CONTINUOUS
 62
    30
 10
1665.52782
 20
363.937793
 30
0.0
 11
1950.642198
 21
363.937793
 31
0.0
  0
LINE
  5
4F2
  8
SIZE
  6
CONTINUOUS
 62
    30
 10
1867.613208
 20
193.127904
 30
0.0
 11
1698.99782
 21
193.127904
 31
0.0
  0
TEXT
  5
4F3
  8
SIZE
  6
CONTINUOUS
 62
    30
 10
886.47639142857133
 20
209.53266600000001
 30
0.0
 40
55.0
  1
1000(天井開口寸法)
 41
0.9
 72
     1
 11
1178.99782
 21
209.53266600000001
 31
0.0
  0
TEXT
  5
4F4
  8
SIZE
  6
CONTINUOUS
 62
    30
 10
1096.49782
 20
73.600923999999992
 30
0.0
 40
55.0
  1
1040
 41
0.9
 72
     1
 11
1178.99782
 21
73.600923999999992
 31
0.0
  0
LINE
  5
4F5
  8
SIZE
  6
CONTINUOUS
 62
    30
 10
1698.99782
 20
347.931285
 30
0.0
 11
1698.99782
 21
25.600923999999999
 31
0.0
  0
POINT
  5
4F6
  8
DEFPOINTS
  6
CONTINUOUS
 62
     7
 10
1698.99782
 20
55.600923999999999
 30
0.0
  0
LINE
  5
4F7
  8
SIZE
  6
CONTINUOUS
 62
    30
 10
1693.99782
 20
55.600923999999999
 30
0.0
 11
1688.99782
 21
55.600923999999999
 31
0.0
  0
CIRCLE
  5
4F8
  8
SIZE
  6
CONTINUOUS
 62
    30
 10
1698.99782
 20
55.600923999999999
 30
0.0
 40
5.0
  0
LINE
  5
4F9
  8
SIZE
  6
CONTINUOUS
 62
    30
 10
1678.99782
 20
352.937793
 30
0.0
 11
1678.99782
 21
163.127904
 31
0.0
  0
LINE
  5
4FA
  8
SIZE
  6
CONTINUOUS
 62
    30
 10
1698.99782
 20
347.931285
 30
0.0
 11
1698.99782
 21
163.127904
 31
0.0
  0
LINE
  5
4FB
  8
SIZE
  6
CONTINUOUS
 62
    30
 10
1678.99782
 20
352.937793
 30
0.0
 11
1678.99782
 21
163.127904
 31
0.0
  0
POINT
  5
4FC
  8
DEFPOINTS
  6
CONTINUOUS
 62
     7
 10
1678.99782
 20
193.127904
 30
0.0
  0
LINE
  5
4FD
  8
SIZE
  6
CONTINUOUS
 62
    30
 10
1673.99782
 20
193.127904
 30
0.0
 11
1668.99782
 21
193.127904
 31
0.0
  0
CIRCLE
  5
4FE
  8
SIZE
  6
CONTINUOUS
 62
    30
 10
1678.99782
 20
193.127904
 30
0.0
 40
5.0
  0
POINT
  5
4FF
  8
DEFPOINTS
  6
CONTINUOUS
 62
     7
 10
1698.99782
 20
193.127904
 30
0.0
  0
LINE
  5
500
  8
SIZE
  6
CONTINUOUS
 62
    30
 10
1703.99782
 20
193.127904
 30
0.0
 11
1708.99782
 21
193.127904
 31
0.0
  0
CIRCLE
  5
501
  8
SIZE
  6
CONTINUOUS
 62
    30
 10
1698.99782
 20
193.127904
 30
0.0
 40
5.0
  0
LINE
  5
502
  8
SIZE
  6
CONTINUOUS
 62
    30
 10
1673.99782
 20
193.127904
 30
0.0
 11
1668.99782
 21
193.127904
 31
0.0
  0
CIRCLE
  5
503
  8
SIZE
  6
CONTINUOUS
 62
    30
 10
1678.99782
 20
193.127904
 30
0.0
 40
5.0
  0
LINE
  5
504
  8
SIZE
  6
CONTINUOUS
 62
    30
 10
1678.99782
 20
193.127904
 30
0.0
 11
1698.99782
 21
193.127904
 31
0.0
  0
LINE
  5
505
  8
SIZE
  6
CONTINUOUS
 62
    30
 10
1678.99782
 20
193.127904
 30
0.0
 11
1698.99782
 21
193.127904
 31
0.0
  0
LINE
  5
506
  8
SIZE
  6
CONTINUOUS
 62
    30
 10
1708.99782
 20
193.127904
 30
0.0
 11
1718.99782
 21
193.127904
 31
0.0
  0
LINE
  5
507
  8
SIZE
  6
CONTINUOUS
 62
    30
 10
1668.99782
 20
193.127904
 30
0.0
 11
1658.9978199999989
 21
193.127904
 31
0.0
  0
POINT
  5
508
  8
DEFPOINTS
  6
CONTINUOUS
 62
     7
 10
1645.52782
 20
363.937793
 30
0.0
  0
POINT
  5
509
  8
DEFPOINTS
  6
CONTINUOUS
 62
     7
 10
1698.99782
 20
367.931285
 30
0.0
  0
POINT
  5
50A
  8
DEFPOINTS
  6
CONTINUOUS
 62
     7
 10
1698.99782
 20
367.931285
 30
0.0
  0
LINE
  5
50B
  8
OUTLINE
  6
CONTINUOUS
 62
     3
 10
1645.52782
 20
363.937793
 30
0.0
 11
1698.99782
 21
367.931285
 31
0.0
  0
LINE
  5
50C
  8
DETAIL
  6
CONTINUOUS
 62
     5
 10
1645.52782
 20
363.937793
 30
0.0
 11
1698.99782
 21
367.931285
 31
0.0
  0
POLYLINE
  5
50D
  8
SIZE
  6
CONTINUOUS
 62
    30
 66
     1
 10
0.0
 20
0.0
 30
0.0
  0
VERTEX
  5
9A0
  8
SIZE
  6
CONTINUOUS
 62
    30
 10
2183.7449430000001
 20
46.844481999999999
 30
0.0
 42
0.186174
  0
VERTEX
  5
9A1
  8
SIZE
  6
CONTINUOUS
 62
    30
 10
2192.5947919999999
 20
25.894994000000001
 30
0.0
 42
0.082105
  0
VERTEX
  5
9A2
  8
SIZE
  6
CONTINUOUS
 62
    30
 10
2208.297294
 20
13.720433
 30
0.0
 42
0.058826
  0
VERTEX
  5
9A3
  8
SIZE
  6
CONTINUOUS
 62
    30
 10
2230.0833520000001
 20
4.9455059999999991
 30
0.0
 42
0.067494
  0
VERTEX
  5
9A4
  8
SIZE
  6
CONTINUOUS
 62
    30
 10
2267.5719119999999
 20
0.000003
 30
0.0
 42
0.067494
  0
VERTEX
  5
9A5
  8
SIZE
  6
CONTINUOUS
 62
    30
 10
2305.0604709999998
 20
4.9455059999999991
 30
0.0
 42
0.058826
  0
VERTEX
  5
9A6
  8
SIZE
  6
CONTINUOUS
 62
    30
 10
2326.8465289999999
 20
13.720433
 30
0.0
 42
0.082105
  0
VERTEX
  5
9A7
  8
SIZE
  6
CONTINUOUS
 62
    30
 10
2342.549031
 20
25.894994000000001
 30
0.0
 42
0.186174
  0
VERTEX
  5
9A8
  8
SIZE
  6
CONTINUOUS
 62
    30
 10
2351.3988800000002
 20
46.844481999999999
 30
0.0
 42
0.186174
  0
VERTEX
  5
9A9
  8
SIZE
  6
CONTINUOUS
 62
    30
 10
2351.3988800000002
 20
46.844481999999999
 30
0.0
 42
0.186174
  0
SEQEND
  5
9AA
  8
SIZE
  6
CONTINUOUS
 62
    30
  0
TEXT
  5
519
  8
SIZE
  6
CONTINUOUS
 62
    30
 10
2127.1539979999998
 20
25.252078857142919
 30
0.0
 40
55.0
  1
140～300
 50
90.0
 41
0.9
 72
     1
 11
2127.1539979999998
 21
184.59493599999999
 31
0.0
  0
TEXT
  5
51A
  8
SIZE
  6
CONTINUOUS
 62
    30
 10
2003.6654599999999
 20
256.27589242857152
 30
0.0
 40
55.0
  1
47
 50
90.0
 41
0.9
 72
     1
 11
2003.6654599999999
 21
296.34732100000002
 31
0.0
  0
TEXT
  5
51B
  8
SIZE
  6
CONTINUOUS
 62
    30
 10
1769.4703514285709
 20
211.127904
 30
0.0
 40
55.0
  1
20
 41
0.9
 72
     1
 11
1809.54178
 21
211.127904
 31
0.0
  0
TEXT
  5
51C
  8
SIZE
  6
CONTINUOUS
 62
    30
 10
1902.642198
 20
292.937793
 30
0.0
 40
55.0
  1
8
 50
90.0
 41
0.9
 72
     1
 11
1902.642198
 21
309.437793
 31
0.0
  0
LINE
  5
51D
  8
SIZE
  6
CONTINUOUS
 62
    30
 10
1920.642198
 20
366.937793
 30
0.0
 11
1920.642198
 21
361.937793
 31
0.0
  0
LINE
  5
51E
  8
SIZE
  6
CONTINUOUS
 62
    30
 10
1920.642198
 20
361.937793
 30
0.0
 11
1920.642198
 21
351.937793
 31
0.0
  0
LINE
  5
51F
  8
SIZE
  6
CONTINUOUS
 62
    30
 10
1920.642198
 20
358.937793
 30
0.0
 11
1920.642198
 21
353.937793
 31
0.0
  0
CIRCLE
  5
520
  8
SIZE
  6
CONTINUOUS
 62
    30
 10
1920.642198
 20
363.937793
 30
0.0
 40
5.0
  0
LINE
  5
521
  8
SIZE
  6
CONTINUOUS
 62
    30
 10
1920.642198
 20
353.937793
 30
0.0
 11
1920.642198
 21
274.937793
 31
0.0
  0
LINE
  5
522
  8
SIZE
  6
CONTINUOUS
 62
    30
 10
2021.6654599999999
 20
354.41874999999999
 30
0.0
 11
2021.6654599999999
 21
238.275893
 31
0.0
  0
TEXT
  5
523
  8
SIZE
  6
CONTINUOUS
 62
    30
 10
2343.6871860000001
 20
97.141827285714285
 30
0.0
 40
55.0
  1
50～60
 50
90.0
 41
0.9
 72
     1
 11
2343.6871860000001
 21
214.05611300000001
 31
0.0
  0
LINE
  5
524
  8
SIZE
  6
CONTINUOUS
 62
    30
 10
1678.2518990000001
 20
371.937793
 30
0.0
 11
2175.1539979999998
 21
371.937793
 31
0.0
  0
LINE
  5
525
  8
SIZE
  6
CONTINUOUS
 62
    30
 10
1678.2518990000001
 20
511.93779299999989
 30
0.0
 11
2175.1539979999998
 21
511.93779299999989
 31
0.0
  0
LINE
  5
526
  8
SIZE
  6
CONTINUOUS
 62
    30
 10
1678.99782
 20
418.937793
 30
0.0
 11
1950.642198
 21
418.937793
 31
0.0
  0
LINE
  5
527
  8
SIZE
  6
CONTINUOUS
 62
    30
 10
1718.99782
 20
371.937793
 30
0.0
 11
1950.642198
 21
371.937793
 31
0.0
  0
LINE
  5
528
  8
SIZE
  6
CONTINUOUS
 62
    30
 10
1718.99782
 20
371.937793
 30
0.0
 11
1950.642198
 21
371.937793
 31
0.0
  0
TEXT
  5
529
  8
SIZE
  6
CONTINUOUS
 62
    30
 10
1717.511121428571
 20
1307.1002149999999
 30
0.0
 40
55.0
  1
23
 41
0.9
 72
     1
 11
1757.5825500000001
 21
1307.1002149999999
 31
0.0
  0
LINE
  5
52A
  8
SIZE
  6
CONTINUOUS
 62
    30
 10
1815.6539789999999
 20
1289.1002149999999
 30
0.0
 11
1674.9978199999989
 21
1289.1002149999999
 31
0.0
  0
TEXT
  5
52B
  8
SIZE
  6
CONTINUOUS
 62
    30
 10
1707.055707571428
 20
1185.76503
 30
0.0
 40
55.0
  1
16
 41
0.9
 72
     1
 11
1741.234279
 21
1185.76503
 31
0.0
  0
LINE
  5
52C
  8
SIZE
  6
CONTINUOUS
 62
    30
 10
1573.9978199999989
 20
668.93779299999994
 30
0.0
 11
2014.881658
 21
668.93779299999994
 31
0.0
  0
LINE
  5
52D
  8
SIZE
  6
CONTINUOUS
 62
    30
 10
1695.6978200000001
 20
804.93779300000006
 30
0.0
 11
2014.881658
 21
804.93779300000006
 31
0.0
  0
LINE
  5
52E
  8
NOTE
  6
CONTINUOUS
 62
     4
 10
1762.901445
 20
994.61586199999977
 30
0.0
 11
1651.9978659999999
 21
804.93776300000002
 31
0.0
  0
LINE
  5
52F
  8
SIZE
  6
CONTINUOUS
 62
    30
 10
1690.6978200000001
 20
804.93779300000006
 30
0.0
 11
2175.1539979999998
 21
804.93779300000006
 31
0.0
  0
LINE
  5
530
  8
SIZE
  6
CONTINUOUS
 62
    30
 10
1678.99782
 20
511.93779299999989
 30
0.0
 11
2175.1539979999998
 21
511.93779299999989
 31
0.0
  0
LINE
  5
531
  8
NOTE
  6
CONTINUOUS
 62
     4
 10
1730.04026
 20
372.937793
 30
0.0
 11
1750.04026
 21
392.937793
 31
0.0
  0
LINE
  5
532
  8
NOTE
  6
CONTINUOUS
 62
     4
 10
1735.04026
 20
372.937793
 30
0.0
 11
1755.04026
 21
392.937793
 31
0.0
  0
LINE
  5
533
  8
NOTE
  6
CONTINUOUS
 62
     4
 10
1740.04026
 20
372.937793
 30
0.0
 11
1760.04026
 21
392.937793
 31
0.0
  0
LINE
  5
534
  8
NOTE
  6
CONTINUOUS
 62
     4
 10
1678.99782
 20
372.937793
 30
0.0
 11
1780.305269
 21
372.937793
 31
0.0
  0
LINE
  5
535
  8
NOTE
  6
CONTINUOUS
 62
     4
 10
1678.99782
 20
392.937793
 30
0.0
 11
1780.305269
 21
392.937793
 31
0.0
  0
LINE
  5
536
  8
SIZE
  6
CONTINUOUS
 62
    30
 10
1651.99782
 20
839.93295899999998
 30
0.0
 11
1651.99782
 21
1319.1002149999999
 31
0.0
  0
LINE
  5
537
  8
SIZE
  6
CONTINUOUS
 62
    30
 10
1674.9978199999989
 20
820.63779299999999
 30
0.0
 11
1674.9978199999989
 21
1444.875393
 31
0.0
  0
LINE
  5
538
  8
SIZE
  6
CONTINUOUS
 62
    30
 10
1658.9978199999989
 20
824.93779299999994
 30
0.0
 11
1658.9978199999989
 21
1202.04099
 31
0.0
  0
LINE
  5
539
  8
SIZE
  6
CONTINUOUS
 62
    30
 10
1674.9978199999989
 20
820.63779299999999
 30
0.0
 11
1674.9978199999989
 21
1319.1002149999999
 31
0.0
  0
LINE
  5
53A
  8
SIZE
  6
CONTINUOUS
 62
    30
 10
1651.99782
 20
839.93295899999998
 30
0.0
 11
1651.99782
 21
1319.1002149999999
 31
0.0
  0
LINE
  5
53B
  8
SIZE
  6
CONTINUOUS
 62
    30
 10
1674.9978199999989
 20
820.63779299999999
 30
0.0
 11
1674.9978199999989
 21
1202.04099
 31
0.0
  0
LINE
  5
53C
  8
SIZE
  6
CONTINUOUS
 62
    30
 10
1658.9978199999989
 20
824.93779299999994
 30
0.0
 11
1658.9978199999989
 21
1202.04099
 31
0.0
  0
TEXT
  5
53D
  8
NOTE
  6
CONTINUOUS
 62
     4
 10
1036.6052340000001
 20
972.08432899999991
 30
0.0
 40
60.0
  1
%%C200 吹出円形フランジ
 50
0.000003
 41
0.7
  7
STANDARD1
  0
LINE
  5
53E
  8
SIZE
  6
CONTINUOUS
 62
    30
 10
993.99781999999982
 20
863.44111699999985
 30
0.0
 11
1423.99782
 21
863.44111699999985
 31
0.0
  0
LINE
  5
53F
  8
NOTE
  6
CONTINUOUS
 62
     4
 10
1624.698318
 20
955.03438200000005
 30
0.0
 11
1030.1535610000001
 21
955.03438200000005
 31
0.0
  0
LINE
  5
540
  8
DETAIL
  6
CONTINUOUS
 62
     5
 10
1178.99782
 20
804.93779300000006
 30
0.0
 11
1658.9978199999989
 21
804.93779300000006
 31
0.0
  0
LINE
  5
541
  8
DETAIL
  6
CONTINUOUS
 62
     5
 10
1653.99782
 20
539.33779299999981
 30
0.0
 11
1178.99782
 21
539.33779299999981
 31
0.0
  0
LINE
  5
542
  8
DETAIL
  6
CONTINUOUS
 62
     5
 10
1178.99782
 20
511.93779299999989
 30
0.0
 11
1643.99782
 21
511.93779299999989
 31
0.0
  0
LINE
  5
543
  8
DETAIL
  6
CONTINUOUS
 62
     5
 10
1178.99782
 20
526.93779299999994
 30
0.0
 11
1640.99782
 21
526.93779299999994
 31
0.0
  0
LINE
  5
544
  8
DETAIL
  6
CONTINUOUS
 62
     5
 10
1178.99782
 20
511.93779299999989
 30
0.0
 11
1643.99782
 21
511.93779299999989
 31
0.0
  0
CIRCLE
  5
545
  8
DETAIL
  6
CONTINUOUS
 62
     5
 10
983.99781999999993
 20
668.93779299999994
 30
0.0
 40
100.0
  0
CIRCLE
  5
546
  8
DETAIL
  6
CONTINUOUS
 62
     5
 10
983.99781999999993
 20
668.93779299999994
 30
0.0
 40
85.5
  0
LINE
  5
547
  8
NOTE
  6
CONTINUOUS
 62
     4
 10
983.99781999999993
 20
788.93779299999994
 30
0.0
 11
983.99781999999993
 21
548.93779299999994
 31
0.0
  0
LINE
  5
548
  8
NOTE
  6
CONTINUOUS
 62
     4
 10
1030.1535610000001
 20
955.03438200000005
 30
0.0
 11
983.99781999999993
 21
668.93779299999994
 31
0.0
  0
LINE
  5
549
  8
NOTE
  6
CONTINUOUS
 62
     4
 10
983.99781999999993
 20
668.93779299999994
 30
0.0
 11
982.06003699999985
 21
703.26846
 31
0.0
  0
LINE
  5
54A
  8
NOTE
  6
CONTINUOUS
 62
     4
 10
983.99781999999993
 20
668.93779299999994
 30
0.0
 11
999.48498499999994
 21
699.63791399999991
 31
0.0
  0
LINE
  5
54B
  8
NOTE
  6
CONTINUOUS
 62
     4
 10
1103.99782
 20
668.93779299999994
 30
0.0
 11
863.99781999999993
 21
668.93779299999994
 31
0.0
  0
LINE
  5
54C
  8
SIZE
  6
CONTINUOUS
 62
    30
 10
983.99781999999993
 20
799.93779299999994
 30
0.0
 11
983.99781999999993
 21
893.44111699999996
 31
0.0
  0
POINT
  5
54D
  8
DEFPOINTS
  6
CONTINUOUS
 62
     7
 10
983.99781999999993
 20
779.93779299999994
 30
0.0
  0
LINE
  5
54E
  8
SIZE
  6
CONTINUOUS
 62
    30
 10
988.99781999999993
 20
863.44111699999985
 30
0.0
 11
993.99781999999982
 21
863.44111699999985
 31
0.0
  0
CIRCLE
  5
54F
  8
SIZE
  6
CONTINUOUS
 62
    30
 10
983.99781999999993
 20
863.44111699999985
 30
0.0
 40
5.0
  0
TEXT
  5
550
  8
SIZE
  6
CONTINUOUS
 62
    30
 10
1145.354962857142
 20
881.44111699999985
 30
0.0
 40
55.0
  1
450
 41
0.9
 72
     1
 11
1208.99782
 21
881.44111699999985
 31
0.0
  0
LINE
  5
551
  8
SIZE
  6
CONTINUOUS
 62
    30
 10
1674.9978199999989
 20
879.93779300000006
 30
0.0
 11
1674.9978199999989
 21
399.55873000000003
 31
0.0
  0
LINE
  5
552
  8
OUTLINE
  6
CONTINUOUS
 62
     3
 10
1658.9978199999989
 20
804.93779300000006
 30
0.0
 11
1658.9978199999989
 21
511.93779299999989
 31
0.0
  0
LINE
  5
553
  8
DETAIL
  6
CONTINUOUS
 62
     5
 10
1658.9978199999989
 20
544.33779299999992
 30
0.0
 11
1658.9978199999989
 21
802.33779299999981
 31
0.0
  0
CIRCLE
  5
554
  8
DETAIL
  6
CONTINUOUS
 62
     5
 10
1433.99782
 20
668.93779299999994
 30
0.0
 40
100.0
  0
CIRCLE
  5
555
  8
DETAIL
  6
CONTINUOUS
 62
     5
 10
1433.99782
 20
668.93779299999994
 30
0.0
 40
85.5
  0
LINE
  5
556
  8
NOTE
  6
CONTINUOUS
 62
     4
 10
1433.99782
 20
788.93779299999994
 30
0.0
 11
1433.99782
 21
548.93779299999994
 31
0.0
  0
LINE
  5
557
  8
DETAIL
  6
CONTINUOUS
 62
     5
 10
1626.9978199999989
 20
573.93779299999994
 30
0.0
 11
1626.9978199999989
 21
769.93779299999994
 31
0.0
  0
LINE
  5
558
  8
NOTE
  6
CONTINUOUS
 62
     4
 10
1553.99782
 20
668.93779299999994
 30
0.0
 11
1313.99782
 21
668.93779299999994
 31
0.0
  0
LINE
  5
559
  8
DETAIL
  6
CONTINUOUS
 62
     5
 10
1658.9978199999989
 20
594.13779299999987
 30
0.0
 11
1658.9978199999989
 21
511.93779299999989
 31
0.0
  0
LINE
  5
55A
  8
DETAIL
  6
CONTINUOUS
 62
     5
 10
1658.9978199999989
 20
594.13779299999987
 30
0.0
 11
1658.9978199999989
 21
512.73779300000001
 31
0.0
  0
LINE
  5
55B
  8
DETAIL
  6
CONTINUOUS
 62
     5
 10
1658.9978199999989
 20
594.13779299999987
 30
0.0
 11
1658.9978199999989
 21
512.73779300000001
 31
0.0
  0
LINE
  5
55C
  8
DETAIL
  6
CONTINUOUS
 62
     5
 10
1643.99782
 20
523.93779299999994
 30
0.0
 11
1643.99782
 21
511.93779299999989
 31
0.0
  0
LINE
  5
55D
  8
DETAIL
  6
CONTINUOUS
 62
     5
 10
1643.99782
 20
523.93779299999994
 30
0.0
 11
1643.99782
 21
511.93779299999989
 31
0.0
  0
LINE
  5
55E
  8
SIZE
  6
CONTINUOUS
 62
    30
 10
1664.99782
 20
429.55873000000003
 30
0.0
 11
1575.7619259999999
 21
429.55873000000003
 31
0.0
  0
TEXT
  5
55F
  8
SIZE
  6
CONTINUOUS
 62
    30
 10
1593.7619255714289
 20
447.55872999999991
 30
0.0
 40
55.0
  1
4
 41
0.9
 72
     1
 11
1611.4404970000001
 21
447.55872999999991
 31
0.0
  0
POINT
  5
560
  8
DEFPOINTS
  6
CONTINUOUS
 62
     7
 10
1658.2518990000001
 20
371.937793
 30
0.0
  0
POINT
  5
561
  8
DEFPOINTS
  6
CONTINUOUS
 62
     7
 10
1658.2518990000001
 20
511.93779299999989
 30
0.0
  0
POINT
  5
562
  8
DEFPOINTS
  6
CONTINUOUS
 62
     7
 10
1658.9978199999989
 20
418.937793
 30
0.0
  0
POINT
  5
563
  8
DEFPOINTS
  6
CONTINUOUS
 62
     7
 10
1698.99782
 20
371.937793
 30
0.0
  0
POINT
  5
564
  8
DEFPOINTS
  6
CONTINUOUS
 62
     7
 10
1698.99782
 20
371.937793
 30
0.0
  0
POINT
  5
565
  8
DEFPOINTS
  6
CONTINUOUS
 62
     7
 10
1678.99782
 20
372.937793
 30
0.0
  0
POINT
  5
566
  8
DEFPOINTS
  6
CONTINUOUS
 62
     7
 10
1678.99782
 20
372.937793
 30
0.0
  0
LINE
  5
567
  8
OUTLINE
  6
CONTINUOUS
 62
     3
 10
1658.9978199999989
 20
371.937793
 30
0.0
 11
1698.99782
 21
371.937793
 31
0.0
  0
LINE
  5
568
  8
OUTLINE
  6
CONTINUOUS
 62
     3
 10
1658.9978199999989
 20
371.937793
 30
0.0
 11
1663.99782
 21
371.937793
 31
0.0
  0
LINE
  5
569
  8
OUTLINE
  6
CONTINUOUS
 62
     3
 10
1658.9978199999989
 20
371.937793
 30
0.0
 11
1658.9978199999989
 21
418.937793
 31
0.0
  0
POINT
  5
56A
  8
DEFPOINTS
  6
CONTINUOUS
 62
     7
 10
1674.9978199999989
 20
429.55873000000003
 30
0.0
  0
POINT
  5
56B
  8
DEFPOINTS
  6
CONTINUOUS
 62
     7
 10
1678.99782
 20
392.937793
 30
0.0
  0
LINE
  5
56C
  8
SIZE
  6
CONTINUOUS
 62
    30
 10
1669.99782
 20
429.55873000000003
 30
0.0
 11
1664.99782
 21
429.55873000000003
 31
0.0
  0
CIRCLE
  5
56D
  8
SIZE
  6
CONTINUOUS
 62
    30
 10
1674.9978199999989
 20
429.55873000000003
 30
0.0
 40
5.0
  0
LINE
  5
56E
  8
SIZE
  6
CONTINUOUS
 62
    30
 10
1683.99782
 20
429.55873000000003
 30
0.0
 11
1688.99782
 21
429.55873000000003
 31
0.0
  0
CIRCLE
  5
56F
  8
SIZE
  6
CONTINUOUS
 62
    30
 10
1678.99782
 20
429.55873000000003
 30
0.0
 40
5.0
  0
LINE
  5
570
  8
SIZE
  6
CONTINUOUS
 62
    30
 10
1678.99782
 20
429.55873000000003
 30
0.0
 11
1674.9978199999989
 21
429.55873000000003
 31
0.0
  0
LINE
  5
571
  8
SIZE
  6
CONTINUOUS
 62
    30
 10
1688.99782
 20
429.55873000000003
 30
0.0
 11
1698.99782
 21
429.55873000000003
 31
0.0
  0
LINE
  5
572
  8
SIZE
  6
CONTINUOUS
 62
    30
 10
1678.99782
 20
412.937793
 30
0.0
 11
1678.99782
 21
459.55873000000003
 31
0.0
  0
POINT
  5
573
  8
DEFPOINTS
  6
CONTINUOUS
 62
     7
 10
1658.9978199999989
 20
511.93779299999989
 30
0.0
  0
LINE
  5
574
  8
NOTE
  6
CONTINUOUS
 62
     4
 10
1690.04026
 20
372.937793
 30
0.0
 11
1710.04026
 21
392.937793
 31
0.0
  0
LINE
  5
575
  8
NOTE
  6
CONTINUOUS
 62
     4
 10
1695.04026
 20
372.937793
 30
0.0
 11
1715.04026
 21
392.937793
 31
0.0
  0
LINE
  5
576
  8
NOTE
  6
CONTINUOUS
 62
     4
 10
1700.04026
 20
372.937793
 30
0.0
 11
1720.04026
 21
392.937793
 31
0.0
  0
LINE
  5
577
  8
NOTE
  6
CONTINUOUS
 62
     4
 10
1678.99782
 20
372.937793
 30
0.0
 11
1678.99782
 21
392.937793
 31
0.0
  0
LINE
  5
578
  8
DETAIL
  6
CONTINUOUS
 62
     5
 10
1658.9978199999989
 20
371.937793
 30
0.0
 11
1698.99782
 21
371.937793
 31
0.0
  0
LINE
  5
579
  8
DETAIL
  6
CONTINUOUS
 62
     5
 10
1658.9978199999989
 20
371.937793
 30
0.0
 11
1663.99782
 21
371.937793
 31
0.0
  0
LINE
  5
57A
  8
DETAIL
  6
CONTINUOUS
 62
     5
 10
1658.9978199999989
 20
371.937793
 30
0.0
 11
1658.9978199999989
 21
418.937793
 31
0.0
  0
POINT
  5
57B
  8
DEFPOINTS
  6
CONTINUOUS
 62
     7
 10
1553.99782
 20
668.93779299999994
 30
0.0
  0
LINE
  5
57C
  8
DETAIL
  6
CONTINUOUS
 62
     5
 10
1626.9978199999989
 20
600.33779299999992
 30
0.0
 11
1626.9978199999989
 21
599.7377929999999
 31
0.0
  0
ARC
  5
57D
  8
DETAIL
  6
CONTINUOUS
 62
     5
 10
1616.99782
 20
573.93779299999994
 30
0.0
 40
10.0
 50
270.0
 51
0.0
  0
ARC
  5
57E
  8
DETAIL
  6
CONTINUOUS
 62
     5
 10
1653.99782
 20
544.33779299999992
 30
0.0
 40
5.0
 50
270.0
 51
0.0
  0
LINE
  5
57F
  8
DETAIL
  6
CONTINUOUS
 62
     5
 10
1643.99782
 20
523.93779299999994
 30
0.0
 11
1640.99782
 21
526.93779299999994
 31
0.0
  0
LINE
  5
580
  8
DETAIL
  6
CONTINUOUS
 62
     5
 10
1643.99782
 20
523.93779299999994
 30
0.0
 11
1640.99782
 21
526.93779299999994
 31
0.0
  0
TEXT
  5
581
  8
SIZE
  6
CONTINUOUS
 62
    30
 10
1482.8549628571429
 20
881.44111699999985
 30
0.0
 40
55.0
  1
225
 41
0.9
 72
     1
 11
1546.49782
 21
881.44111699999985
 31
0.0
  0
LINE
  5
582
  8
SIZE
  6
CONTINUOUS
 62
    30
 10
1443.99782
 20
863.44111699999985
 30
0.0
 11
1648.99782
 21
863.44111699999985
 31
0.0
  0
LINE
  5
583
  8
SIZE
  6
CONTINUOUS
 62
    30
 10
1433.99782
 20
799.93779299999994
 30
0.0
 11
1433.99782
 21
893.44111699999996
 31
0.0
  0
LINE
  5
584
  8
SIZE
  6
CONTINUOUS
 62
    30
 10
1433.99782
 20
799.93779299999994
 30
0.0
 11
1433.99782
 21
893.44111699999996
 31
0.0
  0
POINT
  5
585
  8
DEFPOINTS
  6
CONTINUOUS
 62
     7
 10
1433.99782
 20
779.93779299999994
 30
0.0
  0
POINT
  5
586
  8
DEFPOINTS
  6
CONTINUOUS
 62
     7
 10
1433.99782
 20
779.93779299999994
 30
0.0
  0
LINE
  5
587
  8
SIZE
  6
CONTINUOUS
 62
    30
 10
1438.99782
 20
863.44111699999985
 30
0.0
 11
1443.99782
 21
863.44111699999985
 31
0.0
  0
CIRCLE
  5
588
  8
SIZE
  6
CONTINUOUS
 62
    30
 10
1433.99782
 20
863.44111699999985
 30
0.0
 40
5.0
  0
POINT
  5
589
  8
DEFPOINTS
  6
CONTINUOUS
 62
     7
 10
1433.99782
 20
863.44111699999985
 30
0.0
  0
LINE
  5
58A
  8
SIZE
  6
CONTINUOUS
 62
    30
 10
1428.99782
 20
863.44111699999985
 30
0.0
 11
1423.99782
 21
863.44111699999985
 31
0.0
  0
CIRCLE
  5
58B
  8
SIZE
  6
CONTINUOUS
 62
    30
 10
1433.99782
 20
863.44111699999985
 30
0.0
 40
5.0
  0
LINE
  5
58C
  8
SIZE
  6
CONTINUOUS
 62
    30
 10
1658.9978199999989
 20
824.93779299999994
 30
0.0
 11
1658.9978199999989
 21
893.44111699999996
 31
0.0
  0
LINE
  5
58D
  8
NOTE
  6
CONTINUOUS
 62
     4
 10
1651.9981809999999
 20
804.9382619999999
 30
0.0
 11
1661.0090869999999
 21
838.12189099999989
 31
0.0
  0
LINE
  5
58E
  8
NOTE
  6
CONTINUOUS
 62
     4
 10
1651.9981809999999
 20
804.9382619999999
 30
0.0
 11
1676.3936699999999
 21
829.17067499999985
 31
0.0
  0
LINE
  5
58F
  8
DETAIL
  6
CONTINUOUS
 62
     5
 10
1625.2827460000001
 20
775.53779299999985
 30
0.0
 11
1655.99782
 21
775.53779299999985
 31
0.0
  0
ARC
  5
590
  8
DETAIL
  6
CONTINUOUS
 62
     5
 10
1616.99782
 20
769.93779299999994
 30
0.0
 40
10.0
 50
0.0
 51
90.0
  0
POINT
  5
591
  8
DEFPOINTS
  6
CONTINUOUS
 62
     7
 10
1658.9978199999989
 20
804.93779300000006
 30
0.0
  0
POINT
  5
592
  8
DEFPOINTS
  6
CONTINUOUS
 62
     7
 10
1651.99782
 20
819.93295899999987
 30
0.0
  0
POINT
  5
593
  8
DEFPOINTS
  6
CONTINUOUS
 62
     7
 10
1674.9978199999989
 20
800.63779299999987
 30
0.0
  0
POINT
  5
594
  8
DEFPOINTS
  6
CONTINUOUS
 62
     7
 10
1658.9978199999989
 20
804.93779300000006
 30
0.0
  0
POINT
  5
595
  8
DEFPOINTS
  6
CONTINUOUS
 62
     7
 10
1674.9978199999989
 20
800.63779299999987
 30
0.0
  0
POINT
  5
596
  8
DEFPOINTS
  6
CONTINUOUS
 62
     7
 10
1651.99782
 20
819.93295899999987
 30
0.0
  0
POINT
  5
597
  8
DEFPOINTS
  6
CONTINUOUS
 62
     7
 10
1674.9978199999989
 20
800.63779299999987
 30
0.0
  0
POINT
  5
598
  8
DEFPOINTS
  6
CONTINUOUS
 62
     7
 10
1658.9978199999989
 20
804.93779300000006
 30
0.0
  0
POINT
  5
599
  8
DEFPOINTS
  6
CONTINUOUS
 62
     7
 10
1675.6978200000001
 20
804.93779300000006
 30
0.0
  0
POINT
  5
59A
  8
DEFPOINTS
  6
CONTINUOUS
 62
     7
 10
1670.6978200000001
 20
804.93779300000006
 30
0.0
  0
CIRCLE
  5
59B
  8
FIX
  6
CONTINUOUS
 62
    11
 10
1651.99782
 20
804.93779300000006
 30
0.0
 40
12.421498
  0
LINE
  5
59C
  8
NOTE
  6
CONTINUOUS
 62
     4
 10
1651.99782
 20
789.9426269999999
 30
0.0
 11
1651.99782
 21
819.93295899999987
 31
0.0
  0
LINE
  5
59D
  8
NOTE
  6
CONTINUOUS
 62
     4
 10
1666.992986
 20
804.93779300000006
 30
0.0
 11
1637.002653999999
 21
804.93779300000006
 31
0.0
  0
LINE
  5
59E
  8
DETAIL
  6
CONTINUOUS
 62
     5
 10
1658.9978199999989
 20
802.63779299999999
 30
0.0
 11
1670.6978200000001
 21
802.63779299999999
 31
0.0
  0
LINE
  5
59F
  8
DETAIL
  6
CONTINUOUS
 62
     5
 10
1658.9978199999989
 20
804.93779300000006
 30
0.0
 11
1670.6978200000001
 21
804.93779300000006
 31
0.0
  0
LINE
  5
5A0
  8
DETAIL
  6
CONTINUOUS
 62
     5
 10
1672.697819999999
 20
792.93779299999994
 30
0.0
 11
1674.9978199999989
 21
792.93779299999994
 31
0.0
  0
LINE
  5
5A1
  8
DETAIL
  6
CONTINUOUS
 62
     5
 10
1672.697819999999
 20
800.63779299999987
 30
0.0
 11
1672.697819999999
 21
792.93779299999994
 31
0.0
  0
ARC
  5
5A2
  8
DETAIL
  6
CONTINUOUS
 62
     5
 10
1670.6978200000001
 20
800.63779299999987
 30
0.0
 40
2.0
 50
0.0
 51
90.0
  0
LINE
  5
5A3
  8
DETAIL
  6
CONTINUOUS
 62
     5
 10
1674.9978199999989
 20
800.63779299999987
 30
0.0
 11
1674.9978199999989
 21
792.93779299999994
 31
0.0
  0
ARC
  5
5A4
  8
DETAIL
  6
CONTINUOUS
 62
     5
 10
1670.6978200000001
 20
800.63779299999987
 30
0.0
 40
4.2999999999999989
 50
0.0
 51
90.0
  0
LINE
  5
5A5
  8
DETAIL
  6
CONTINUOUS
 62
     5
 10
1672.697819999999
 20
792.93779299999994
 30
0.0
 11
1674.9978199999989
 21
792.93779299999994
 31
0.0
  0
LINE
  5
5A6
  8
DETAIL
  6
CONTINUOUS
 62
     5
 10
1672.697819999999
 20
800.63779299999987
 30
0.0
 11
1672.697819999999
 21
792.93779299999994
 31
0.0
  0
ARC
  5
5A7
  8
DETAIL
  6
CONTINUOUS
 62
     5
 10
1670.6978200000001
 20
800.63779299999987
 30
0.0
 40
2.0
 50
0.0
 51
90.0
  0
LINE
  5
5A8
  8
DETAIL
  6
CONTINUOUS
 62
     5
 10
1658.9978199999989
 20
802.63779299999999
 30
0.0
 11
1670.6978200000001
 21
802.63779299999999
 31
0.0
  0
LINE
  5
5A9
  8
DETAIL
  6
CONTINUOUS
 62
     5
 10
1658.9978199999989
 20
804.93779300000006
 30
0.0
 11
1670.6978200000001
 21
804.93779300000006
 31
0.0
  0
LINE
  5
5AA
  8
DETAIL
  6
CONTINUOUS
 62
     5
 10
1674.9978199999989
 20
800.63779299999987
 30
0.0
 11
1674.9978199999989
 21
792.93779299999994
 31
0.0
  0
ARC
  5
5AB
  8
DETAIL
  6
CONTINUOUS
 62
     5
 10
1670.6978200000001
 20
800.63779299999987
 30
0.0
 40
4.2999999999999989
 50
0.0
 51
90.0
  0
LINE
  5
5AC
  8
DETAIL
  6
CONTINUOUS
 62
     5
 10
1655.99782
 20
775.53779299999985
 30
0.0
 11
1658.9978199999989
 21
778.53779299999997
 31
0.0
  0
LINE
  5
5AD
  8
DETAIL
  6
CONTINUOUS
 62
     5
 10
1658.9978199999989
 20
804.93779300000006
 30
0.0
 11
1658.9978199999989
 21
778.53779299999997
 31
0.0
  0
LINE
  5
5AE
  8
DETAIL
  6
CONTINUOUS
 62
     5
 10
1658.9978199999989
 20
804.93779300000006
 30
0.0
 11
1658.9978199999989
 21
778.53779299999997
 31
0.0
  0
POINT
  5
5AF
  8
DEFPOINTS
  6
CONTINUOUS
 62
     7
 10
1658.9978199999989
 20
863.44111699999985
 30
0.0
  0
LINE
  5
5B0
  8
SIZE
  6
CONTINUOUS
 62
    30
 10
1653.99782
 20
863.44111699999985
 30
0.0
 11
1648.99782
 21
863.44111699999985
 31
0.0
  0
CIRCLE
  5
5B1
  8
SIZE
  6
CONTINUOUS
 62
    30
 10
1658.9978199999989
 20
863.44111699999985
 30
0.0
 40
5.0
  0
POINT
  5
5B2
  8
DEFPOINTS
  6
CONTINUOUS
 62
     7
 10
1674.9978199999989
 20
899.93779299999994
 30
0.0
  0
TEXT
  5
5B3
  8
SIZE
  6
CONTINUOUS
 62
    30
 10
1115.3549628571429
 20
1190.04099
 30
0.0
 40
55.0
  1
960
 41
0.9
 72
     1
 11
1178.99782
 21
1190.04099
 31
0.0
  0
TEXT
  5
5B4
  8
SIZE
  6
CONTINUOUS
 62
    30
 10
1114.7216828571429
 20
1432.875393
 30
0.0
 40
55.0
  1
992
 41
0.9
 72
     1
 11
1178.36454
 21
1432.875393
 31
0.0
  0
CIRCLE
  5
5B5
  8
SIZE
  6
CONTINUOUS
 62
    30
 10
1651.99782
 20
1289.1002149999999
 30
0.0
 40
5.0
  0
CIRCLE
  5
5B6
  8
SIZE
  6
CONTINUOUS
 62
    30
 10
1674.9978199999989
 20
1289.1002149999999
 30
0.0
 40
5.0
  0
CIRCLE
  5
5B7
  8
SIZE
  6
CONTINUOUS
 62
    30
 10
1651.99782
 20
1289.1002149999999
 30
0.0
 40
5.0
  0
POINT
  5
5B8
  8
DEFPOINTS
  6
CONTINUOUS
 62
     7
 10
1658.9978199999989
 20
1172.04099
 30
0.0
  0
LINE
  5
5B9
  8
SIZE
  6
CONTINUOUS
 62
    30
 10
1653.99782
 20
1172.04099
 30
0.0
 11
1648.99782
 21
1172.04099
 31
0.0
  0
CIRCLE
  5
5BA
  8
SIZE
  6
CONTINUOUS
 62
    30
 10
1658.9978199999989
 20
1172.04099
 30
0.0
 40
5.0
  0
POINT
  5
5BB
  8
DEFPOINTS
  6
CONTINUOUS
 62
     7
 10
1674.9978199999989
 20
1172.04099
 30
0.0
  0
LINE
  5
5BC
  8
SIZE
  6
CONTINUOUS
 62
    30
 10
1679.99782
 20
1172.04099
 30
0.0
 11
1684.99782
 21
1172.04099
 31
0.0
  0
CIRCLE
  5
5BD
  8
SIZE
  6
CONTINUOUS
 62
    30
 10
1674.9978199999989
 20
1172.04099
 30
0.0
 40
5.0
  0
LINE
  5
5BE
  8
SIZE
  6
CONTINUOUS
 62
    30
 10
1653.99782
 20
1172.04099
 30
0.0
 11
1648.99782
 21
1172.04099
 31
0.0
  0
CIRCLE
  5
5BF
  8
SIZE
  6
CONTINUOUS
 62
    30
 10
1658.9978199999989
 20
1172.04099
 30
0.0
 40
5.0
  0
LINE
  5
5C0
  8
SIZE
  6
CONTINUOUS
 62
    30
 10
1658.9978199999989
 20
1172.04099
 30
0.0
 11
1674.9978199999989
 21
1172.04099
 31
0.0
  0
LINE
  5
5C1
  8
SIZE
  6
CONTINUOUS
 62
    30
 10
1684.99782
 20
1172.04099
 30
0.0
 11
1694.99782
 21
1172.04099
 31
0.0
  0
LINE
  5
5C2
  8
SIZE
  6
CONTINUOUS
 62
    30
 10
1648.99782
 20
1172.04099
 30
0.0
 11
1638.99782
 21
1172.04099
 31
0.0
  0
LINE
  5
5C3
  8
SIZE
  6
CONTINUOUS
 62
    30
 10
1641.99782
 20
1289.1002149999999
 30
0.0
 11
1631.99782
 21
1289.1002149999999
 31
0.0
  0
POINT
  5
5C4
  8
DEFPOINTS
  6
CONTINUOUS
 62
     7
 10
1651.99782
 20
1289.1002149999999
 30
0.0
  0
LINE
  5
5C5
  8
SIZE
  6
CONTINUOUS
 62
    30
 10
1646.99782
 20
1289.1002149999999
 30
0.0
 11
1641.99782
 21
1289.1002149999999
 31
0.0
  0
POINT
  5
5C6
  8
DEFPOINTS
  6
CONTINUOUS
 62
     7
 10
1674.9978199999989
 20
1414.875393
 30
0.0
  0
LINE
  5
5C7
  8
SIZE
  6
CONTINUOUS
 62
    30
 10
1669.99782
 20
1414.875393
 30
0.0
 11
1664.99782
 21
1414.875393
 31
0.0
  0
CIRCLE
  5
5C8
  8
SIZE
  6
CONTINUOUS
 62
    30
 10
1674.9978199999989
 20
1414.875393
 30
0.0
 40
5.0
  0
POINT
  5
5C9
  8
DEFPOINTS
  6
CONTINUOUS
 62
     7
 10
1674.9978199999989
 20
1289.1002149999999
 30
0.0
  0
LINE
  5
5CA
  8
SIZE
  6
CONTINUOUS
 62
    30
 10
1679.99782
 20
1289.1002149999999
 30
0.0
 11
1684.99782
 21
1289.1002149999999
 31
0.0
  0
LINE
  5
5CB
  8
SIZE
  6
CONTINUOUS
 62
    30
 10
1646.99782
 20
1289.1002149999999
 30
0.0
 11
1641.99782
 21
1289.1002149999999
 31
0.0
  0
LINE
  5
5CC
  8
SIZE
  6
CONTINUOUS
 62
    30
 10
1651.99782
 20
1289.1002149999999
 30
0.0
 11
1674.9978199999989
 21
1289.1002149999999
 31
0.0
  0
LINE
  5
5CD
  8
SIZE
  6
CONTINUOUS
 62
    30
 10
1651.99782
 20
1289.1002149999999
 30
0.0
 11
1674.9978199999989
 21
1289.1002149999999
 31
0.0
  0
LINE
  5
5CE
  8
SIZE
  6
CONTINUOUS
 62
    30
 10
1684.99782
 20
1289.1002149999999
 30
0.0
 11
1694.99782
 21
1289.1002149999999
 31
0.0
  0
POLYLINE
  5
5CF
  8
SIZE
  6
CONTINUOUS
 62
    30
 66
     1
 10
0.0
 20
0.0
 30
0.0
  0
VERTEX
  5
9AB
  8
SIZE
  6
CONTINUOUS
 62
    30
 10
2351.3988800000002
 20
374.59010799999999
 30
0.0
 42
0.186174
  0
VERTEX
  5
9AC
  8
SIZE
  6
CONTINUOUS
 62
    30
 10
2342.549031
 20
395.53959600000002
 30
0.0
 42
0.082105
  0
VERTEX
  5
9AD
  8
SIZE
  6
CONTINUOUS
 62
    30
 10
2326.8465289999999
 20
407.714157
 30
0.0
 42
0.058826
  0
VERTEX
  5
9AE
  8
SIZE
  6
CONTINUOUS
 62
    30
 10
2305.0604709999998
 20
416.48908399999988
 30
0.0
 42
0.067494
  0
VERTEX
  5
9AF
  8
SIZE
  6
CONTINUOUS
 62
    30
 10
2267.5719119999999
 20
421.43458799999991
 30
0.0
 42
0.067494
  0
VERTEX
  5
9B0
  8
SIZE
  6
CONTINUOUS
 62
    30
 10
2230.0833520000001
 20
416.48908399999988
 30
0.0
 42
0.058826
  0
VERTEX
  5
9B1
  8
SIZE
  6
CONTINUOUS
 62
    30
 10
2208.297294
 20
407.714157
 30
0.0
 42
0.082105
  0
VERTEX
  5
9B2
  8
SIZE
  6
CONTINUOUS
 62
    30
 10
2192.5947919999999
 20
395.53959600000002
 30
0.0
 42
0.186174
  0
VERTEX
  5
9B3
  8
SIZE
  6
CONTINUOUS
 62
    30
 10
2183.7449430000001
 20
374.59010799999999
 30
0.0
 42
0.186174
  0
SEQEND
  5
9B4
  8
SIZE
  6
CONTINUOUS
 62
    30
  0
LINE
  5
5DA
  8
SIZE
  6
CONTINUOUS
 62
    30
 10
1984.881658
 20
804.93779300000006
 30
0.0
 11
1984.881658
 21
668.93779299999994
 31
0.0
  0
TEXT
  5
5DB
  8
SIZE
  6
CONTINUOUS
 62
    30
 10
2127.1539979999998
 20
594.79493585714283
 30
0.0
 40
55.0
  1
293
 50
90.0
 41
0.9
 72
     1
 11
2127.1539979999998
 21
658.43779299999994
 31
0.0
  0
LINE
  5
5DC
  8
SIZE
  6
CONTINUOUS
 62
    30
 10
2145.1539979999998
 20
521.93779299999994
 30
0.0
 11
2145.1539979999998
 21
794.93779299999994
 31
0.0
  0
POINT
  5
5DD
  8
DEFPOINTS
  6
CONTINUOUS
 62
     7
 10
1920.642198
 20
418.937793
 30
0.0
  0
LINE
  5
5DE
  8
SIZE
  6
CONTINUOUS
 62
    30
 10
1920.642198
 20
423.93779299999989
 30
0.0
 11
1920.642198
 21
428.93779299999989
 31
0.0
  0
CIRCLE
  5
5DF
  8
SIZE
  6
CONTINUOUS
 62
    30
 10
1920.642198
 20
418.937793
 30
0.0
 40
5.0
  0
LINE
  5
5E0
  8
SIZE
  6
CONTINUOUS
 62
    30
 10
1920.642198
 20
371.937793
 30
0.0
 11
1920.642198
 21
418.937793
 31
0.0
  0
LINE
  5
5E1
  8
SIZE
  6
CONTINUOUS
 62
    30
 10
1920.642198
 20
371.937793
 30
0.0
 11
1920.642198
 21
418.937793
 31
0.0
  0
LINE
  5
5E2
  8
SIZE
  6
CONTINUOUS
 62
    30
 10
1920.642198
 20
428.93779299999989
 30
0.0
 11
1920.642198
 21
438.93779299999989
 31
0.0
  0
POINT
  5
5E3
  8
DEFPOINTS
  6
CONTINUOUS
 62
     7
 10
1920.642198
 20
371.937793
 30
0.0
  0
LINE
  5
5E4
  8
SIZE
  6
CONTINUOUS
 62
    30
 10
1920.642198
 20
376.937793
 30
0.0
 11
1920.642198
 21
381.937793
 31
0.0
  0
LINE
  5
5E5
  8
SIZE
  6
CONTINUOUS
 62
    30
 10
1920.642198
 20
381.937793
 30
0.0
 11
1920.642198
 21
391.937793
 31
0.0
  0
POINT
  5
5E6
  8
DEFPOINTS
  6
CONTINUOUS
 62
     7
 10
2145.1539979999998
 20
371.937793
 30
0.0
  0
LINE
  5
5E7
  8
SIZE
  6
CONTINUOUS
 62
    30
 10
2145.1539979999998
 20
376.937793
 30
0.0
 11
2145.1539979999998
 21
381.937793
 31
0.0
  0
LINE
  5
5E8
  8
SIZE
  6
CONTINUOUS
 62
    30
 10
2145.1539979999998
 20
506.93779299999989
 30
0.0
 11
2145.1539979999998
 21
501.93779299999989
 31
0.0
  0
CIRCLE
  5
5E9
  8
SIZE
  6
CONTINUOUS
 62
    30
 10
2145.1539979999998
 20
511.93779299999989
 30
0.0
 40
5.0
  0
LINE
  5
5EA
  8
SIZE
  6
CONTINUOUS
 62
    30
 10
2145.1539979999998
 20
501.93779299999989
 30
0.0
 11
2145.1539979999998
 21
381.937793
 31
0.0
  0
LINE
  5
5EB
  8
SIZE
  6
CONTINUOUS
 62
    30
 10
2145.1539979999998
 20
516.93779299999994
 30
0.0
 11
2145.1539979999998
 21
521.93779299999994
 31
0.0
  0
CIRCLE
  5
5EC
  8
SIZE
  6
CONTINUOUS
 62
    30
 10
2145.1539979999998
 20
511.93779299999989
 30
0.0
 40
5.0
  0
POINT
  5
5ED
  8
DEFPOINTS
  6
CONTINUOUS
 62
     7
 10
1984.881658
 20
668.93779299999994
 30
0.0
  0
LINE
  5
5EE
  8
SIZE
  6
CONTINUOUS
 62
    30
 10
1984.881658
 20
663.93779299999994
 30
0.0
 11
1984.881658
 21
658.93779299999994
 31
0.0
  0
CIRCLE
  5
5EF
  8
SIZE
  6
CONTINUOUS
 62
    30
 10
1984.881658
 20
668.93779299999994
 30
0.0
 40
5.0
  0
LINE
  5
5F0
  8
SIZE
  6
CONTINUOUS
 62
    30
 10
1984.881658
 20
658.93779299999994
 30
0.0
 11
1984.881658
 21
648.93779299999994
 31
0.0
  0
TEXT
  5
5F1
  8
SIZE
  6
CONTINUOUS
 62
    30
 10
1966.881658
 20
679.18779299999994
 30
0.0
 40
55.0
  1
136
 50
90.0
 41
0.9
 72
     1
 11
1966.881658
 21
736.93779299999994
 31
0.0
  0
LINE
  5
5F2
  8
SIZE
  6
CONTINUOUS
 62
    30
 10
1984.881658
 20
809.93779299999994
 30
0.0
 11
1984.881658
 21
814.93779299999994
 31
0.0
  0
CIRCLE
  5
5F3
  8
SIZE
  6
CONTINUOUS
 62
    30
 10
1984.881658
 20
804.93779300000006
 30
0.0
 40
5.0
  0
LINE
  5
5F4
  8
SIZE
  6
CONTINUOUS
 62
    30
 10
1984.881658
 20
814.93779299999994
 30
0.0
 11
1984.881658
 21
824.93779299999994
 31
0.0
  0
POINT
  5
5F5
  8
DEFPOINTS
  6
CONTINUOUS
 62
     7
 10
2145.1539979999998
 20
804.93779300000006
 30
0.0
  0
LINE
  5
5F6
  8
SIZE
  6
CONTINUOUS
 62
    30
 10
2145.1539979999998
 20
799.93779299999994
 30
0.0
 11
2145.1539979999998
 21
794.93779299999994
 31
0.0
  0
CIRCLE
  5
5F7
  8
SIZE
  6
CONTINUOUS
 62
    30
 10
2145.1539979999998
 20
804.93779300000006
 30
0.0
 40
5.0
  0
LINE
  5
5F8
  8
NOTE
  6
CONTINUOUS
 62
     4
 10
2475.9160539999998
 20
994.61586199999977
 30
0.0
 11
1762.901445
 21
994.61586199999977
 31
0.0
  0
TEXT
  5
5F9
  8
NOTE
  6
CONTINUOUS
 62
     4
 10
1784.576716
 20
1010.442393
 30
0.0
 40
60.0
  1
AH 4-14×30長穴(M10)
 50
0.000003
 41
0.7
  7
STANDARD1
  0
ENDBLK
  5
5FB
  8
0
 62
     7
  0
ENDSEC
  0
SECTION
  2
ENTITIES
  0
LINE
  5
5FD
  8
OUTLINE
  6
CONTINUOUS
 62
     3
 10
520.0
 20
0.0
 30
0.0
 11
-520.0
 21
0.0
 31
0.0
  0
TEXT
  5
5FE
  8
SIZE
  6
CONTINUOUS
 62
    30
 10
-333.06428571428569
 20
933.56718399999988
 30
0.0
 40
55.0
  1
946(吊りボルトピッチ)
 41
0.9
 72
     1
 11
0.0
 21
933.56718399999988
 31
0.0
  0
LINE
  5
5FF
  8
SIZE
  6
CONTINUOUS
 62
    30
 10
-463.0
 20
917.16242200000011
 30
0.0
 11
463.0
 21
917.16242200000011
 31
0.0
  0
LINE
  5
600
  8
SIZE
  6
CONTINUOUS
 62
    30
 10
-486.0
 20
1042.9376
 30
0.0
 11
486.0
 21
1042.9376
 31
0.0
  0
LINE
  5
601
  8
SIZE
  6
CONTINUOUS
 62
    30
 10
-470.0
 20
800.10319699999991
 30
0.0
 11
470.0
 21
800.10319699999991
 31
0.0
  0
LINE
  5
602
  8
SIZE
  6
CONTINUOUS
 62
    30
 10
-510.0
 20
-316.33686899999998
 30
0.0
 11
510.0
 21
-316.33686899999998
 31
0.0
  0
LINE
  5
603
  8
SIZE
  6
CONTINUOUS
 62
    30
 10
-490.0
 20
-178.809889
 30
0.0
 11
490.0
 21
-178.809889
 31
0.0
  0
TEXT
  5
604
  8
ETC
  6
CONTINUOUS
 62
    61
 10
335.92397136286309
 20
1104.7031188296569
 30
0.0
 40
80.0
  1
PD-RP56_63FA5_2
 50
0.000003
 41
0.8
  0
LINE
  5
605
  8
OUTLINE
  6
CONTINUOUS
 62
     3
 10
480.0
 20
47.0
 30
0.0
 11
-480.0
 21
47.0
 31
0.0
  0
LINE
  5
606
  8
OUTLINE
  6
CONTINUOUS
 62
     3
 10
466.52999999999997
 20
-8.0
 30
0.0
 11
-466.52999999999997
 21
-8.0
 31
0.0
  0
LINE
  5
607
  8
OUTLINE
  6
CONTINUOUS
 62
     3
 10
480.0
 20
140.0
 30
0.0
 11
-480.0
 21
140.0
 31
0.0
  0
LINE
  5
608
  8
OUTLINE
  6
CONTINUOUS
 62
     3
 10
-480.0
 20
433.0
 30
0.0
 11
480.0
 21
433.0
 31
0.0
  0
LINE
  5
609
  8
DETAIL
  6
CONTINUOUS
 62
     5
 10
-480.0
 20
140.0
 30
0.0
 11
480.0
 21
140.0
 31
0.0
  0
LINE
  5
60A
  8
DETAIL
  6
CONTINUOUS
 62
     5
 10
-491.69999999999987
 20
433.0
 30
0.0
 11
491.69999999999987
 21
433.0
 31
0.0
  0
LINE
  5
60B
  8
DETAIL
  6
CONTINUOUS
 62
     5
 10
475.0
 20
167.40000000000001
 30
0.0
 11
-475.0
 21
167.40000000000001
 31
0.0
  0
LINE
  5
60C
  8
DETAIL
  6
CONTINUOUS
 62
     5
 10
438.0
 20
408.0
 30
0.0
 11
-438.0
 21
408.0
 31
0.0
  0
LINE
  5
60D
  8
DETAIL
  6
CONTINUOUS
 62
     5
 10
438.0
 20
192.0
 30
0.0
 11
-438.0
 21
192.0
 31
0.0
  0
LINE
  5
60E
  8
DETAIL
  6
CONTINUOUS
 62
     5
 10
-462.0
 20
155.0
 30
0.0
 11
462.0
 21
155.0
 31
0.0
  0
LINE
  5
60F
  8
DETAIL
  6
CONTINUOUS
 62
     5
 10
480.0
 20
47.0
 30
0.0
 11
-480.0
 21
47.0
 31
0.0
  0
LINE
  5
610
  8
DETAIL
  6
CONTINUOUS
 62
     5
 10
466.52999999999997
 20
-8.0
 30
0.0
 11
-466.52999999999997
 21
-8.0
 31
0.0
  0
LINE
  5
611
  8
DETAIL
  6
CONTINUOUS
 62
     5
 10
520.0
 20
0.0
 30
0.0
 11
-520.0
 21
0.0
 31
0.0
  0
LINE
  5
612
  8
OUTLINE
  6
CONTINUOUS
 62
     3
 10
-520.0
 20
-4.0065080000000002
 30
0.0
 11
-520.0
 21
0.0
 31
0.0
  0
LINE
  5
613
  8
NOTE
  6
CONTINUOUS
 62
     4
 10
-717.48589800000002
 20
-225.49392800000001
 30
0.0
 11
-480.0
 21
168.0
 31
0.0
  0
LINE
  5
614
  8
NOTE
  6
CONTINUOUS
 62
     4
 10
-755.38200900000004
 20
-78.824825000000004
 30
0.0
 11
-522.0
 21
233.0
 31
0.0
  0
LINE
  5
615
  8
DETAIL
  6
CONTINUOUS
 62
     5
 10
-520.0
 20
-4.0065080000000002
 30
0.0
 11
-520.0
 21
0.0
 31
0.0
  0
LINE
  5
616
  8
NOTE
  6
CONTINUOUS
 62
     4
 10
-717.48589800000002
 20
-225.49392800000001
 30
0.0
 11
-1152.4166970000001
 21
-225.49392800000001
 31
0.0
  0
TEXT
  5
617
  8
NOTE
  6
CONTINUOUS
 62
     4
 10
-1130.741426
 20
-209.66739799999999
 30
0.0
 40
60.0
  1
D2（自然排水口）
 50
0.000003
 41
0.7
  7
STANDARD1
  0
LINE
  5
618
  8
NOTE
  6
CONTINUOUS
 62
     4
 10
-755.38200900000004
 20
-78.824825000000004
 30
0.0
 11
-1124.6711230000001
 21
-78.831443999999991
 31
0.0
  0
TEXT
  5
619
  8
NOTE
  6
CONTINUOUS
 62
     4
 10
-1102.9958509999999
 20
-63.004913000000002
 30
0.0
 40
60.0
  1
RG %%C12.7
 50
0.000003
 41
0.7
  7
STANDARD1
  0
LINE
  5
61A
  8
SIZE
  6
CONTINUOUS
 62
    30
 10
-520.0
 20
-24.006508
 30
0.0
 11
-520.0
 21
-346.33686899999998
 31
0.0
  0
LINE
  5
61B
  8
SIZE
  6
CONTINUOUS
 62
    30
 10
-515.0
 20
-316.33686899999998
 30
0.0
 11
-510.0
 21
-316.33686899999998
 31
0.0
  0
CIRCLE
  5
61C
  8
SIZE
  6
CONTINUOUS
 62
    30
 10
-520.0
 20
-316.33686899999998
 30
0.0
 40
5.0
  0
LINE
  5
61D
  8
SIZE
  6
CONTINUOUS
 62
    30
 10
-530.0
 20
-178.809889
 30
0.0
 11
-656.14285700000005
 21
-178.809889
 31
0.0
  0
TEXT
  5
61E
  8
SIZE
  6
CONTINUOUS
 62
    30
 10
-638.14285757142852
 20
-160.809889
 30
0.0
 40
55.0
  1
20
 41
0.9
 72
     1
 11
-598.07142899999985
 21
-160.809889
 31
0.0
  0
LINE
  5
61F
  8
SIZE
  6
CONTINUOUS
 62
    30
 10
-500.0
 20
-19.0
 30
0.0
 11
-500.0
 21
-208.809889
 31
0.0
  0
LINE
  5
620
  8
SIZE
  6
CONTINUOUS
 62
    30
 10
-500.0
 20
-19.0
 30
0.0
 11
-500.0
 21
-208.809889
 31
0.0
  0
LINE
  5
621
  8
SIZE
  6
CONTINUOUS
 62
    30
 10
-520.0
 20
-24.006508
 30
0.0
 11
-520.0
 21
-208.809889
 31
0.0
  0
LINE
  5
622
  8
SIZE
  6
CONTINUOUS
 62
    30
 10
-495.0
 20
-178.809889
 30
0.0
 11
-490.0
 21
-178.809889
 31
0.0
  0
CIRCLE
  5
623
  8
SIZE
  6
CONTINUOUS
 62
    30
 10
-500.0
 20
-178.809889
 30
0.0
 40
5.0
  0
POINT
  5
624
  8
DEFPOINTS
  6
CONTINUOUS
 62
     7
 10
-500.0
 20
-178.809889
 30
0.0
  0
LINE
  5
625
  8
SIZE
  6
CONTINUOUS
 62
    30
 10
-525.0
 20
-178.809889
 30
0.0
 11
-530.0
 21
-178.809889
 31
0.0
  0
CIRCLE
  5
626
  8
SIZE
  6
CONTINUOUS
 62
    30
 10
-520.0
 20
-178.809889
 30
0.0
 40
5.0
  0
LINE
  5
627
  8
SIZE
  6
CONTINUOUS
 62
    30
 10
-495.0
 20
-178.809889
 30
0.0
 11
-490.0
 21
-178.809889
 31
0.0
  0
CIRCLE
  5
628
  8
SIZE
  6
CONTINUOUS
 62
    30
 10
-500.0
 20
-178.809889
 30
0.0
 40
5.0
  0
LINE
  5
629
  8
SIZE
  6
CONTINUOUS
 62
    30
 10
-500.0
 20
-178.809889
 30
0.0
 11
-520.0
 21
-178.809889
 31
0.0
  0
LINE
  5
62A
  8
SIZE
  6
CONTINUOUS
 62
    30
 10
-490.0
 20
-178.809889
 30
0.0
 11
-480.0
 21
-178.809889
 31
0.0
  0
POINT
  5
62B
  8
DEFPOINTS
  6
CONTINUOUS
 62
     7
 10
-520.0
 20
-4.0065080000000002
 30
0.0
  0
POINT
  5
62C
  8
DEFPOINTS
  6
CONTINUOUS
 62
     7
 10
-520.0
 20
-4.0065080000000002
 30
0.0
  0
LINE
  5
62D
  8
OUTLINE
  6
CONTINUOUS
 62
     3
 10
-520.0
 20
-4.0065080000000002
 30
0.0
 11
-466.52999999999997
 21
-8.0
 31
0.0
  0
LINE
  5
62E
  8
DETAIL
  6
CONTINUOUS
 62
     5
 10
-520.0
 20
-4.0065080000000002
 30
0.0
 11
-466.52999999999997
 21
-8.0
 31
0.0
  0
LINE
  5
62F
  8
SIZE
  6
CONTINUOUS
 62
    30
 10
-480.0
 20
453.0
 30
0.0
 11
-480.0
 21
722.63602900000001
 31
0.0
  0
LINE
  5
630
  8
SIZE
  6
CONTINUOUS
 62
    30
 10
-522.0
 20
253.0
 30
0.0
 11
-522.0
 21
722.63602900000001
 31
0.0
  0
LINE
  5
631
  8
SIZE
  6
CONTINUOUS
 62
    30
 10
-519.0
 20
281.0
 30
0.0
 11
-519.0
 21
624.67241000000001
 31
0.0
  0
LINE
  5
632
  8
SIZE
  6
CONTINUOUS
 62
    30
 10
-480.0
 20
453.0
 30
0.0
 11
-480.0
 21
624.67241000000001
 31
0.0
  0
LINE
  5
633
  8
SIZE
  6
CONTINUOUS
 62
    30
 10
-473.0
 20
465.42149799999999
 30
0.0
 11
-473.0
 21
947.16242199999999
 31
0.0
  0
LINE
  5
634
  8
SIZE
  6
CONTINUOUS
 62
    30
 10
-496.0
 20
448.69999999999999
 30
0.0
 11
-496.0
 21
1072.9376
 31
0.0
  0
LINE
  5
635
  8
SIZE
  6
CONTINUOUS
 62
    30
 10
-480.0
 20
453.0
 30
0.0
 11
-480.0
 21
830.10319700000002
 31
0.0
  0
LINE
  5
636
  8
SIZE
  6
CONTINUOUS
 62
    30
 10
-473.0
 20
467.99516599999998
 30
0.0
 11
-473.0
 21
947.16242199999999
 31
0.0
  0
LINE
  5
637
  8
SIZE
  6
CONTINUOUS
 62
    30
 10
-496.0
 20
448.69999999999999
 30
0.0
 11
-496.0
 21
947.16242199999999
 31
0.0
  0
LINE
  5
638
  8
SIZE
  6
CONTINUOUS
 62
    30
 10
-480.0
 20
453.0
 30
0.0
 11
-480.0
 21
830.10319700000002
 31
0.0
  0
LINE
  5
639
  8
SIZE
  6
CONTINUOUS
 62
    30
 10
-496.0
 20
448.69999999999999
 30
0.0
 11
-496.0
 21
830.10319700000002
 31
0.0
  0
LINE
  5
63A
  8
NOTE
  6
CONTINUOUS
 62
     4
 10
-726.91198099999986
 20
631.95282999999995
 30
0.0
 11
-519.0
 21
261.0
 31
0.0
  0
LINE
  5
63B
  8
NOTE
  6
CONTINUOUS
 62
     4
 10
-730.44115599999998
 20
753.39748899999995
 30
0.0
 11
-514.0
 21
325.0
 31
0.0
  0
LINE
  5
63C
  8
SIZE
  6
CONTINUOUS
 62
    30
 10
-505.49085099999991
 20
168.0
 30
0.0
 11
-1084.559184
 21
168.0
 31
0.0
  0
LINE
  5
63D
  8
SIZE
  6
CONTINUOUS
 62
    30
 10
-511.69999999999987
 20
433.0
 30
0.0
 11
-1084.559184
 21
433.0
 31
0.0
  0
LINE
  5
63E
  8
SIZE
  6
CONTINUOUS
 62
    30
 10
-547.25914899999998
 20
233.0
 30
0.0
 11
-856.72006899999985
 21
233.0
 31
0.0
  0
LINE
  5
63F
  8
SIZE
  6
CONTINUOUS
 62
    30
 10
-544.5
 20
261.0
 30
0.0
 11
-856.72006899999985
 21
261.0
 31
0.0
  0
LINE
  5
640
  8
SIZE
  6
CONTINUOUS
 62
    30
 10
-544.5
 20
261.0
 30
0.0
 11
-856.72006899999985
 21
261.0
 31
0.0
  0
LINE
  5
641
  8
SIZE
  6
CONTINUOUS
 62
    30
 10
-511.69999999999987
 20
433.0
 30
0.0
 11
-856.72006899999985
 21
433.0
 31
0.0
  0
TEXT
  5
642
  8
SIZE
  6
CONTINUOUS
 62
    30
 10
-744.52160100000003
 20
460.99999957142859
 30
0.0
 40
55.0
  1
108
 50
90.0
 41
0.9
 72
     1
 11
-744.52160100000003
 21
519.92857100000003
 31
0.0
  0
TEXT
  5
643
  8
SIZE
  6
CONTINUOUS
 62
    30
 10
-1072.559184
 20
232.27157985714291
 30
0.0
 40
55.0
  1
265
 50
90.0
 41
0.9
 72
     1
 11
-1072.559184
 21
295.91443700000002
 31
0.0
  0
LINE
  5
644
  8
SIZE
  6
CONTINUOUS
 62
    30
 10
-1054.559184
 20
423.0
 30
0.0
 11
-1054.559184
 21
178.0
 31
0.0
  0
TEXT
  5
645
  8
SIZE
  6
CONTINUOUS
 62
    30
 10
-946.92015900000001
 20
288.77946342857149
 30
0.0
 40
55.0
  1
28
 50
90.0
 41
0.9
 72
     1
 11
-946.92015900000001
 21
328.85089199999999
 31
0.0
  0
LINE
  5
646
  8
SIZE
  6
CONTINUOUS
 62
    30
 10
-928.92015900000013
 20
270.77946400000002
 30
0.0
 11
-928.92015900000013
 21
386.92232100000001
 31
0.0
  0
TEXT
  5
647
  8
SIZE
  6
CONTINUOUS
 62
    30
 10
-844.72006899999985
 20
288.07142857142861
 30
0.0
 40
55.0
  1
172
 50
90.0
 41
0.9
 72
     1
 11
-844.72006899999985
 21
347.0
 31
0.0
  0
LINE
  5
648
  8
SIZE
  6
CONTINUOUS
 62
    30
 10
-826.72006900000008
 20
423.0
 30
0.0
 11
-826.72006900000008
 21
271.0
 31
0.0
  0
POINT
  5
649
  8
DEFPOINTS
  6
CONTINUOUS
 62
     7
 10
-1054.559184
 20
168.0
 30
0.0
  0
LINE
  5
64A
  8
SIZE
  6
CONTINUOUS
 62
    30
 10
-1054.559184
 20
173.0
 30
0.0
 11
-1054.559184
 21
178.0
 31
0.0
  0
CIRCLE
  5
64B
  8
SIZE
  6
CONTINUOUS
 62
    30
 10
-1054.559184
 20
168.0
 30
0.0
 40
5.0
  0
LINE
  5
64C
  8
SIZE
  6
CONTINUOUS
 62
    30
 10
-826.72006900000008
 20
247.0
 30
0.0
 11
-928.92015900000013
 21
270.77946400000002
 31
0.0
  0
POINT
  5
64D
  8
DEFPOINTS
  6
CONTINUOUS
 62
     7
 10
-826.72006900000008
 20
233.0
 30
0.0
  0
LINE
  5
64E
  8
SIZE
  6
CONTINUOUS
 62
    30
 10
-826.72006900000008
 20
228.0
 30
0.0
 11
-826.72006900000008
 21
223.0
 31
0.0
  0
CIRCLE
  5
64F
  8
SIZE
  6
CONTINUOUS
 62
    30
 10
-826.72006900000008
 20
233.0
 30
0.0
 40
5.0
  0
LINE
  5
650
  8
SIZE
  6
CONTINUOUS
 62
    30
 10
-826.72006900000008
 20
266.0
 30
0.0
 11
-826.72006900000008
 21
271.0
 31
0.0
  0
CIRCLE
  5
651
  8
SIZE
  6
CONTINUOUS
 62
    30
 10
-826.72006900000008
 20
261.0
 30
0.0
 40
5.0
  0
LINE
  5
652
  8
SIZE
  6
CONTINUOUS
 62
    30
 10
-826.72006900000008
 20
261.0
 30
0.0
 11
-826.72006900000008
 21
233.0
 31
0.0
  0
LINE
  5
653
  8
SIZE
  6
CONTINUOUS
 62
    30
 10
-826.72006900000008
 20
261.0
 30
0.0
 11
-826.72006900000008
 21
233.0
 31
0.0
  0
LINE
  5
654
  8
SIZE
  6
CONTINUOUS
 62
    30
 10
-826.72006900000008
 20
223.0
 30
0.0
 11
-826.72006900000008
 21
213.0
 31
0.0
  0
LINE
  5
655
  8
SIZE
  6
CONTINUOUS
 62
    30
 10
-826.72006900000008
 20
271.0
 30
0.0
 11
-826.72006900000008
 21
281.0
 31
0.0
  0
POINT
  5
656
  8
DEFPOINTS
  6
CONTINUOUS
 62
     7
 10
-826.72006900000008
 20
261.0
 30
0.0
  0
LINE
  5
657
  8
SIZE
  6
CONTINUOUS
 62
    30
 10
-826.72006900000008
 20
266.0
 30
0.0
 11
-826.72006900000008
 21
271.0
 31
0.0
  0
CIRCLE
  5
658
  8
SIZE
  6
CONTINUOUS
 62
    30
 10
-826.72006900000008
 20
261.0
 30
0.0
 40
5.0
  0
LINE
  5
659
  8
SIZE
  6
CONTINUOUS
 62
    30
 10
-1054.559184
 20
428.0
 30
0.0
 11
-1054.559184
 21
423.0
 31
0.0
  0
CIRCLE
  5
65A
  8
SIZE
  6
CONTINUOUS
 62
    30
 10
-1054.559184
 20
433.0
 30
0.0
 40
5.0
  0
LINE
  5
65B
  8
SIZE
  6
CONTINUOUS
 62
    30
 10
-826.72006900000008
 20
428.0
 30
0.0
 11
-826.72006900000008
 21
423.0
 31
0.0
  0
CIRCLE
  5
65C
  8
SIZE
  6
CONTINUOUS
 62
    30
 10
-826.72006900000008
 20
433.0
 30
0.0
 40
5.0
  0
LINE
  5
65D
  8
SIZE
  6
CONTINUOUS
 62
    30
 10
-496.0
 20
508.0
 30
0.0
 11
-496.0
 21
25.869216999999999
 31
0.0
  0
LINE
  5
65E
  8
OUTLINE
  6
CONTINUOUS
 62
     3
 10
-480.0
 20
140.0
 30
0.0
 11
-480.0
 21
433.0
 31
0.0
  0
LINE
  5
662
  8
DETAIL
  6
CONTINUOUS
 62
     5
 10
-448.0
 20
202.0
 30
0.0
 11
-448.0
 21
398.0
 31
0.0
  0
LINE
  5
663
  8
NOTE
  6
CONTINUOUS
 62
     4
 10
-500.0
 20
1.0
 30
0.0
 11
-601.30744900000002
 21
1.0
 31
0.0
  0
LINE
  5
664
  8
NOTE
  6
CONTINUOUS
 62
     4
 10
-500.0
 20
21.0
 30
0.0
 11
-601.30744900000002
 21
21.0
 31
0.0
  0
LINE
  5
665
  8
NOTE
  6
CONTINUOUS
 62
     4
 10
-590.26500799999985
 20
1.0
 30
0.0
 11
-570.26500799999985
 21
21.0
 31
0.0
  0
LINE
  5
666
  8
NOTE
  6
CONTINUOUS
 62
     4
 10
-585.26500799999997
 20
1.0
 30
0.0
 11
-565.26500799999985
 21
21.0
 31
0.0
  0
LINE
  5
667
  8
NOTE
  6
CONTINUOUS
 62
     4
 10
-580.26500799999985
 20
1.0
 30
0.0
 11
-560.26500799999997
 21
21.0
 31
0.0
  0
LINE
  5
668
  8
NOTE
  6
CONTINUOUS
 62
     4
 10
-480.0
 20
168.0
 30
0.0
 11
-491.03413399999999
 21
135.43318300000001
 31
0.0
  0
LINE
  5
669
  8
NOTE
  6
CONTINUOUS
 62
     4
 10
-480.0
 20
168.0
 30
0.0
 11
-505.839249
 21
145.31337600000001
 31
0.0
  0
LINE
  5
66A
  8
DETAIL
  6
CONTINUOUS
 62
     5
 10
-480.0
 20
433.0
 30
0.0
 11
-480.0
 21
140.0
 31
0.0
  0
LINE
  5
66D
  8
DETAIL
  6
CONTINUOUS
 62
     5
 10
-465.0
 20
152.0
 30
0.0
 11
-465.0
 21
140.0
 31
0.0
  0
LINE
  5
66E
  8
DETAIL
  6
CONTINUOUS
 62
     5
 10
-465.0
 20
152.0
 30
0.0
 11
-465.0
 21
140.0
 31
0.0
  0
TEXT
  5
66F
  8
SIZE
  6
CONTINUOUS
 62
    30
 10
-458.00000042857141
 20
73.869217000000006
 30
0.0
 40
55.0
  1
4
 41
0.9
 72
     1
 11
-440.32142900000002
 21
73.869217000000006
 31
0.0
  0
LINE
  5
670
  8
SIZE
  6
CONTINUOUS
 62
    30
 10
-486.0
 20
55.869217000000013
 30
0.0
 11
-404.64285699999988
 21
55.869217000000013
 31
0.0
  0
LINE
  5
673
  8
OUTLINE
  6
CONTINUOUS
 62
     3
 10
-480.0
 20
0.0
 30
0.0
 11
-480.0
 21
47.0
 31
0.0
  0
POINT
  5
675
  8
DEFPOINTS
  6
CONTINUOUS
 62
     7
 10
-496.0
 20
55.869217000000013
 30
0.0
  0
POINT
  5
676
  8
DEFPOINTS
  6
CONTINUOUS
 62
     7
 10
-500.0
 20
21.0
 30
0.0
  0
LINE
  5
677
  8
SIZE
  6
CONTINUOUS
 62
    30
 10
-491.0
 20
55.869217000000013
 30
0.0
 11
-486.0
 21
55.869217000000013
 31
0.0
  0
CIRCLE
  5
678
  8
SIZE
  6
CONTINUOUS
 62
    30
 10
-496.0
 20
55.869217000000013
 30
0.0
 40
5.0
  0
LINE
  5
679
  8
SIZE
  6
CONTINUOUS
 62
    30
 10
-505.0
 20
55.869217000000013
 30
0.0
 11
-510.0
 21
55.869217000000013
 31
0.0
  0
CIRCLE
  5
67A
  8
SIZE
  6
CONTINUOUS
 62
    30
 10
-500.0
 20
55.869217000000013
 30
0.0
 40
5.0
  0
LINE
  5
67B
  8
SIZE
  6
CONTINUOUS
 62
    30
 10
-500.0
 20
55.869217000000013
 30
0.0
 11
-496.0
 21
55.869217000000013
 31
0.0
  0
LINE
  5
67C
  8
SIZE
  6
CONTINUOUS
 62
    30
 10
-510.0
 20
55.869217000000013
 30
0.0
 11
-520.0
 21
55.869217000000013
 31
0.0
  0
LINE
  5
67D
  8
SIZE
  6
CONTINUOUS
 62
    30
 10
-500.0
 20
41.0
 30
0.0
 11
-500.0
 21
85.869217000000006
 31
0.0
  0
LINE
  5
67E
  8
NOTE
  6
CONTINUOUS
 62
     4
 10
-500.0
 20
1.0
 30
0.0
 11
-500.0
 21
21.0
 31
0.0
  0
LINE
  5
67F
  8
NOTE
  6
CONTINUOUS
 62
     4
 10
-550.26500799999985
 20
1.0
 30
0.0
 11
-530.26500799999985
 21
21.0
 31
0.0
  0
LINE
  5
680
  8
NOTE
  6
CONTINUOUS
 62
     4
 10
-545.26500799999985
 20
1.0
 30
0.0
 11
-525.26500799999985
 21
21.0
 31
0.0
  0
LINE
  5
681
  8
NOTE
  6
CONTINUOUS
 62
     4
 10
-540.26500799999985
 20
1.0
 30
0.0
 11
-520.26500799999985
 21
21.0
 31
0.0
  0
LINE
  5
682
  8
DETAIL
  6
CONTINUOUS
 62
     5
 10
-480.0
 20
0.0
 30
0.0
 11
-480.0
 21
47.0
 31
0.0
  0
ARC
  5
684
  8
DETAIL
  6
CONTINUOUS
 62
     5
 10
-438.0
 20
202.0
 30
0.0
 40
10.0
 50
180.0
 51
270.0
  0
POINT
  5
685
  8
DEFPOINTS
  6
CONTINUOUS
 62
     7
 10
-522.0
 20
233.0
 30
0.0
  0
POINT
  5
686
  8
DEFPOINTS
  6
CONTINUOUS
 62
     7
 10
-519.0
 20
261.0
 30
0.0
  0
LINE
  5
687
  8
NOTE
  6
CONTINUOUS
 62
     4
 10
-513.49999999999989
 20
261.0
 30
0.0
 11
-524.5
 21
261.0
 31
0.0
  0
LINE
  5
688
  8
NOTE
  6
CONTINUOUS
 62
     4
 10
-519.0
 20
266.49999200000002
 30
0.0
 11
-519.0
 21
255.50000800000001
 31
0.0
  0
LINE
  5
689
  8
NOTE
  6
CONTINUOUS
 62
     4
 10
-519.0
 20
261.0
 30
0.0
 11
-542.01506299999994
 21
286.54714300000001
 31
0.0
  0
LINE
  5
68A
  8
NOTE
  6
CONTINUOUS
 62
     4
 10
-519.0
 20
261.0
 30
0.0
 11
-526.15805799999987
 21
294.63200699999999
 31
0.0
  0
LINE
  5
68B
  8
DETAIL
  6
CONTINUOUS
 62
     5
 10
-519.0
 20
255.5
 30
0.0
 11
-519.0
 21
266.5
 31
0.0
  0
LINE
  5
68C
  8
DETAIL
  6
CONTINUOUS
 62
     5
 10
-500.0
 20
266.5
 30
0.0
 11
-480.0
 21
266.5
 31
0.0
  0
LINE
  5
68D
  8
DETAIL
  6
CONTINUOUS
 62
     5
 10
-499.0
 20
270.5
 30
0.0
 11
-480.0
 21
270.5
 31
0.0
  0
LINE
  5
68E
  8
DETAIL
  6
CONTINUOUS
 62
     5
 10
-499.0
 20
251.5
 30
0.0
 11
-480.0
 21
251.5
 31
0.0
  0
LINE
  5
68F
  8
DETAIL
  6
CONTINUOUS
 62
     5
 10
-516.0
 20
250.5
 30
0.0
 11
-503.0
 21
250.5
 31
0.0
  0
LINE
  5
690
  8
DETAIL
  6
CONTINUOUS
 62
     5
 10
-500.0
 20
255.5
 30
0.0
 11
-480.0
 21
255.5
 31
0.0
  0
LINE
  5
691
  8
DETAIL
  6
CONTINUOUS
 62
     5
 10
-515.0
 20
255.5
 30
0.0
 11
-502.0
 21
255.5
 31
0.0
  0
LINE
  5
692
  8
DETAIL
  6
CONTINUOUS
 62
     5
 10
-519.0
 20
255.5
 30
0.0
 11
-516.0
 21
250.5
 31
0.0
  0
LINE
  5
693
  8
DETAIL
  6
CONTINUOUS
 62
     5
 10
-502.0
 20
251.5
 30
0.0
 11
-503.0
 21
250.5
 31
0.0
  0
LINE
  5
694
  8
DETAIL
  6
CONTINUOUS
 62
     5
 10
-500.0
 20
252.5
 30
0.0
 11
-499.0
 21
251.5
 31
0.0
  0
LINE
  5
695
  8
DETAIL
  6
CONTINUOUS
 62
     5
 10
-515.0
 20
255.5
 30
0.0
 11
-516.0
 21
256.5
 31
0.0
  0
LINE
  5
696
  8
DETAIL
  6
CONTINUOUS
 62
     5
 10
-515.0
 20
255.5
 30
0.0
 11
-516.0
 21
254.5
 31
0.0
  0
LINE
  5
697
  8
DETAIL
  6
CONTINUOUS
 62
     5
 10
-502.0
 20
256.25
 30
0.0
 11
-500.0
 21
256.25
 31
0.0
  0
LINE
  5
698
  8
DETAIL
  6
CONTINUOUS
 62
     5
 10
-500.0
 20
252.5
 30
0.0
 11
-500.0
 21
269.5
 31
0.0
  0
LINE
  5
699
  8
DETAIL
  6
CONTINUOUS
 62
     5
 10
-502.0
 20
251.5
 30
0.0
 11
-502.0
 21
270.5
 31
0.0
  0
LINE
  5
69A
  8
DETAIL
  6
CONTINUOUS
 62
     5
 10
-516.0
 20
271.5
 30
0.0
 11
-503.0
 21
271.5
 31
0.0
  0
LINE
  5
69B
  8
DETAIL
  6
CONTINUOUS
 62
     5
 10
-516.0
 20
250.5
 30
0.0
 11
-516.0
 21
271.5
 31
0.0
  0
LINE
  5
69C
  8
DETAIL
  6
CONTINUOUS
 62
     5
 10
-515.0
 20
266.5
 30
0.0
 11
-502.0
 21
266.5
 31
0.0
  0
LINE
  5
69D
  8
DETAIL
  6
CONTINUOUS
 62
     5
 10
-519.0
 20
266.5
 30
0.0
 11
-516.0
 21
271.5
 31
0.0
  0
LINE
  5
69E
  8
DETAIL
  6
CONTINUOUS
 62
     5
 10
-503.0
 20
271.5
 30
0.0
 11
-502.0
 21
270.5
 31
0.0
  0
LINE
  5
69F
  8
DETAIL
  6
CONTINUOUS
 62
     5
 10
-500.0
 20
269.5
 30
0.0
 11
-499.0
 21
270.5
 31
0.0
  0
LINE
  5
6A0
  8
DETAIL
  6
CONTINUOUS
 62
     5
 10
-515.0
 20
266.5
 30
0.0
 11
-516.0
 21
267.5
 31
0.0
  0
LINE
  5
6A1
  8
DETAIL
  6
CONTINUOUS
 62
     5
 10
-515.0
 20
266.5
 30
0.0
 11
-516.0
 21
265.5
 31
0.0
  0
LINE
  5
6A2
  8
DETAIL
  6
CONTINUOUS
 62
     5
 10
-502.0
 20
265.75
 30
0.0
 11
-500.0
 21
265.75
 31
0.0
  0
POINT
  5
6A3
  8
DEFPOINTS
  6
CONTINUOUS
 62
     7
 10
-485.49085099999991
 20
168.0
 30
0.0
  0
POINT
  5
6A4
  8
DEFPOINTS
  6
CONTINUOUS
 62
     7
 10
-524.5
 20
261.0
 30
0.0
  0
POINT
  5
6A5
  8
DEFPOINTS
  6
CONTINUOUS
 62
     7
 10
-524.5
 20
261.0
 30
0.0
  0
LINE
  5
6A6
  8
NOTE
  6
CONTINUOUS
 62
     4
 10
-474.49085100000002
 20
168.0
 30
0.0
 11
-485.49085099999991
 21
168.0
 31
0.0
  0
LINE
  5
6A7
  8
NOTE
  6
CONTINUOUS
 62
     4
 10
-480.0
 20
173.49999199999999
 30
0.0
 11
-480.0
 21
162.50000800000001
 31
0.0
  0
LINE
  5
6A8
  8
NOTE
  6
CONTINUOUS
 62
     4
 10
-510.75
 20
233.0
 30
0.0
 11
-533.25
 21
233.0
 31
0.0
  0
LINE
  5
6A9
  8
NOTE
  6
CONTINUOUS
 62
     4
 10
-522.0
 20
244.24999600000001
 30
0.0
 11
-522.0
 21
221.75000399999999
 31
0.0
  0
LINE
  5
6AA
  8
NOTE
  6
CONTINUOUS
 62
     4
 10
-522.0
 20
233.0
 30
0.0
 11
-536.40562
 21
201.77776800000001
 31
0.0
  0
LINE
  5
6AB
  8
NOTE
  6
CONTINUOUS
 62
     4
 10
-522.0
 20
233.0
 30
0.0
 11
-550.08674900000005
 21
213.16356500000001
 31
0.0
  0
LINE
  5
6AC
  8
DETAIL
  6
CONTINUOUS
 62
     5
 10
-522.0
 20
244.25
 30
0.0
 11
-522.0
 21
221.75
 31
0.0
  0
LINE
  5
6AF
  8
DETAIL
  6
CONTINUOUS
 62
     5
 10
-517.00914799999998
 20
226.0
 30
0.0
 11
-519.0091480000001
 21
224.0
 31
0.0
  0
LINE
  5
6B1
  8
DETAIL
  6
CONTINUOUS
 62
     5
 10
-517.00914799999998
 20
226.0
 30
0.0
 11
-519.0091480000001
 21
228.0
 31
0.0
  0
LINE
  5
6B3
  8
DETAIL
  6
CONTINUOUS
 62
     5
 10
-517.00914799999998
 20
240.0
 30
0.0
 11
-519.0091480000001
 21
238.0
 31
0.0
  0
LINE
  5
6B5
  8
DETAIL
  6
CONTINUOUS
 62
     5
 10
-517.00914799999998
 20
240.0
 30
0.0
 11
-519.0091480000001
 21
242.0
 31
0.0
  0
LINE
  5
6B7
  8
DETAIL
  6
CONTINUOUS
 62
     5
 10
-505.00914799999998
 20
240.0
 30
0.0
 11
-503.00914799999998
 21
242.0
 31
0.0
  0
LINE
  5
6B9
  8
DETAIL
  6
CONTINUOUS
 62
     5
 10
-505.00914799999998
 20
240.0
 30
0.0
 11
-503.00914799999998
 21
238.0
 31
0.0
  0
LINE
  5
6BB
  8
DETAIL
  6
CONTINUOUS
 62
     5
 10
-505.00914799999998
 20
226.0
 30
0.0
 11
-503.00914799999998
 21
228.0
 31
0.0
  0
LINE
  5
6BD
  8
DETAIL
  6
CONTINUOUS
 62
     5
 10
-505.00914799999998
 20
226.0
 30
0.0
 11
-503.00914799999998
 21
224.0
 31
0.0
  0
LINE
  5
6BF
  8
DETAIL
  6
CONTINUOUS
 62
     5
 10
-505.00914799999998
 20
226.0
 30
0.0
 11
-517.00914799999998
 21
226.0
 31
0.0
  0
LINE
  5
6C1
  8
DETAIL
  6
CONTINUOUS
 62
     5
 10
-505.00914799999998
 20
240.0
 30
0.0
 11
-517.00914799999998
 21
240.0
 31
0.0
  0
LINE
  5
6C3
  8
DETAIL
  6
CONTINUOUS
 62
     5
 10
-503.00914799999998
 20
222.0
 30
0.0
 11
-505.00914799999998
 21
220.0
 31
0.0
  0
LINE
  5
6C5
  8
DETAIL
  6
CONTINUOUS
 62
     5
 10
-503.00914799999998
 20
244.0
 30
0.0
 11
-505.00914799999998
 21
246.0
 31
0.0
  0
LINE
  5
6C7
  8
DETAIL
  6
CONTINUOUS
 62
     5
 10
-522.0
 20
221.75
 30
0.0
 11
-519.0091480000001
 21
220.0
 31
0.0
  0
LINE
  5
6C8
  8
DETAIL
  6
CONTINUOUS
 62
     5
 10
-519.0091480000001
 20
246.0
 30
0.0
 11
-522.0
 21
244.24999600000001
 31
0.0
  0
LINE
  5
6C9
  8
DETAIL
  6
CONTINUOUS
 62
     5
 10
-519.0091480000001
 20
246.0
 30
0.0
 11
-519.0091480000001
 21
220.0
 31
0.0
  0
LINE
  5
6CB
  8
DETAIL
  6
CONTINUOUS
 62
     5
 10
-503.00914799999998
 20
244.0
 30
0.0
 11
-503.00914799999998
 21
222.0
 31
0.0
  0
LINE
  5
6CD
  8
DETAIL
  6
CONTINUOUS
 62
     5
 10
-505.00914799999998
 20
220.0
 30
0.0
 11
-519.0091480000001
 21
220.0
 31
0.0
  0
LINE
  5
6CF
  8
DETAIL
  6
CONTINUOUS
 62
     5
 10
-505.00914799999998
 20
246.0
 30
0.0
 11
-519.0091480000001
 21
246.0
 31
0.0
  0
LINE
  5
6D2
  8
DETAIL
  6
CONTINUOUS
 62
     5
 10
-503.00914799999998
 20
225.0
 30
0.0
 11
-499.00914799999998
 21
225.0
 31
0.0
  0
LINE
  5
6D3
  8
DETAIL
  6
CONTINUOUS
 62
     5
 10
-503.00914799999998
 20
241.0
 30
0.0
 11
-499.00914799999998
 21
241.0
 31
0.0
  0
LINE
  5
6D4
  8
DETAIL
  6
CONTINUOUS
 62
     5
 10
-499.00914799999998
 20
242.5
 30
0.0
 11
-497.00914799999998
 21
244.5
 31
0.0
  0
LINE
  5
6D5
  8
DETAIL
  6
CONTINUOUS
 62
     5
 10
-499.00914799999998
 20
223.5
 30
0.0
 11
-497.00914799999998
 21
221.5
 31
0.0
  0
LINE
  5
6D6
  8
DETAIL
  6
CONTINUOUS
 62
     5
 10
-499.00914799999998
 20
242.5
 30
0.0
 11
-499.00914799999998
 21
223.5
 31
0.0
  0
LINE
  5
6FD
  8
DETAIL
  6
CONTINUOUS
 62
     5
 10
-480.0
 20
244.5
 30
0.0
 11
-497.00914799999998
 21
244.5
 31
0.0
  0
LINE
  5
6FE
  8
DETAIL
  6
CONTINUOUS
 62
     5
 10
-480.0
 20
221.5
 30
0.0
 11
-497.00914799999998
 21
221.5
 31
0.0
  0
ARC
  5
700
  8
DETAIL
  6
CONTINUOUS
 62
     5
 10
-475.0
 20
172.40000000000001
 30
0.0
 40
5.0
 50
180.0
 51
270.0
  0
LINE
  5
701
  8
DETAIL
  6
CONTINUOUS
 62
     5
 10
-462.0
 20
155.0
 30
0.0
 11
-465.0
 21
152.0
 31
0.0
  0
LINE
  5
702
  8
DETAIL
  6
CONTINUOUS
 62
     5
 10
-462.0
 20
155.0
 30
0.0
 11
-465.0
 21
152.0
 31
0.0
  0
LINE
  5
703
  8
SIZE
  6
CONTINUOUS
 62
    30
 10
-550.71665199999995
 20
325.0
 30
0.0
 11
-756.52160100000003
 21
325.0
 31
0.0
  0
LINE
  5
704
  8
SIZE
  6
CONTINUOUS
 62
    30
 10
-511.69999999999987
 20
433.0
 30
0.0
 11
-756.52160100000003
 21
433.0
 31
0.0
  0
LINE
  5
705
  8
SIZE
  6
CONTINUOUS
 62
    30
 10
-726.52160100000003
 20
433.0
 30
0.0
 11
-726.52160100000003
 21
596.85714299999995
 31
0.0
  0
POINT
  5
706
  8
DEFPOINTS
  6
CONTINUOUS
 62
     7
 10
-726.52160100000003
 20
325.0
 30
0.0
  0
LINE
  5
707
  8
SIZE
  6
CONTINUOUS
 62
    30
 10
-726.52160100000003
 20
428.0
 30
0.0
 11
-726.52160100000003
 21
423.0
 31
0.0
  0
CIRCLE
  5
708
  8
SIZE
  6
CONTINUOUS
 62
    30
 10
-726.52160100000003
 20
433.0
 30
0.0
 40
5.0
  0
LINE
  5
709
  8
SIZE
  6
CONTINUOUS
 62
    30
 10
-726.52160100000003
 20
330.0
 30
0.0
 11
-726.52160100000003
 21
335.0
 31
0.0
  0
CIRCLE
  5
70A
  8
SIZE
  6
CONTINUOUS
 62
    30
 10
-726.52160100000003
 20
325.0
 30
0.0
 40
5.0
  0
LINE
  5
70B
  8
SIZE
  6
CONTINUOUS
 62
    30
 10
-726.52160100000003
 20
335.0
 30
0.0
 11
-726.52160100000003
 21
423.0
 31
0.0
  0
LINE
  5
70C
  8
SIZE
  6
CONTINUOUS
 62
    30
 10
-480.0
 20
453.0
 30
0.0
 11
-480.0
 21
521.50332400000002
 31
0.0
  0
LINE
  5
70D
  8
SIZE
  6
CONTINUOUS
 62
    30
 10
-514.0
 20
361.71665200000001
 30
0.0
 11
-514.0
 21
521.50332400000002
 31
0.0
  0
ARC
  5
70E
  8
DETAIL
  6
CONTINUOUS
 62
     5
 10
-438.0
 20
398.0
 30
0.0
 40
10.0
 50
90.0
 51
180.0
  0
POINT
  5
711
  8
DEFPOINTS
  6
CONTINUOUS
 62
     7
 10
-473.0
 20
445.42149799999999
 30
0.0
  0
POINT
  5
712
  8
DEFPOINTS
  6
CONTINUOUS
 62
     7
 10
-496.0
 20
428.69999999999987
 30
0.0
  0
POINT
  5
714
  8
DEFPOINTS
  6
CONTINUOUS
 62
     7
 10
-473.0
 20
447.99516599999998
 30
0.0
  0
POINT
  5
715
  8
DEFPOINTS
  6
CONTINUOUS
 62
     7
 10
-496.0
 20
428.69999999999987
 30
0.0
  0
POINT
  5
717
  8
DEFPOINTS
  6
CONTINUOUS
 62
     7
 10
-496.0
 20
428.69999999999987
 30
0.0
  0
POINT
  5
719
  8
DEFPOINTS
  6
CONTINUOUS
 62
     7
 10
-514.0
 20
341.71665200000001
 30
0.0
  0
POINT
  5
71C
  8
DEFPOINTS
  6
CONTINUOUS
 62
     7
 10
-530.71665199999995
 20
325.0
 30
0.0
  0
LINE
  5
71E
  8
NOTE
  6
CONTINUOUS
 62
     4
 10
-497.28334799999999
 20
325.0
 30
0.0
 11
-530.71665199999995
 21
325.0
 31
0.0
  0
LINE
  5
71F
  8
NOTE
  6
CONTINUOUS
 62
     4
 10
-514.0
 20
341.71665200000001
 30
0.0
 11
-514.0
 21
308.28334799999999
 31
0.0
  0
LINE
  5
720
  8
NOTE
  6
CONTINUOUS
 62
     4
 10
-514.0
 20
325.0
 30
0.0
 11
-537.01506399999994
 21
350.54714300000001
 31
0.0
  0
LINE
  5
721
  8
NOTE
  6
CONTINUOUS
 62
     4
 10
-514.0
 20
325.0
 30
0.0
 11
-521.15805799999987
 21
358.63200699999999
 31
0.0
  0
CIRCLE
  5
722
  8
FIX
  6
CONTINUOUS
 62
    11
 10
-473.0
 20
433.0
 30
0.0
 40
12.421498
  0
LINE
  5
723
  8
NOTE
  6
CONTINUOUS
 62
     4
 10
-473.0
 20
418.0048339999999
 30
0.0
 11
-473.0
 21
447.99516599999998
 31
0.0
  0
LINE
  5
724
  8
NOTE
  6
CONTINUOUS
 62
     4
 10
-487.99516599999998
 20
433.0
 30
0.0
 11
-458.0048339999999
 21
433.0
 31
0.0
  0
LINE
  5
725
  8
DETAIL
  6
CONTINUOUS
 62
     5
 10
-480.0
 20
406.60000000000002
 30
0.0
 11
-477.0
 21
403.60000000000002
 31
0.0
  0
LINE
  5
727
  8
DETAIL
  6
CONTINUOUS
 62
     5
 10
-477.0
 20
403.60000000000002
 30
0.0
 11
-446.28492599999993
 21
403.60000000000002
 31
0.0
  0
LINE
  5
729
  8
DETAIL
  6
CONTINUOUS
 62
     5
 10
-480.0
 20
430.69999999999999
 30
0.0
 11
-491.69999999999987
 21
430.69999999999999
 31
0.0
  0
LINE
  5
72C
  8
DETAIL
  6
CONTINUOUS
 62
     5
 10
-493.69999999999999
 20
421.0
 30
0.0
 11
-496.0
 21
421.0
 31
0.0
  0
LINE
  5
72D
  8
DETAIL
  6
CONTINUOUS
 62
     5
 10
-493.69999999999999
 20
428.69999999999987
 30
0.0
 11
-493.69999999999999
 21
421.0
 31
0.0
  0
ARC
  5
72E
  8
DETAIL
  6
CONTINUOUS
 62
     5
 10
-491.69999999999987
 20
428.69999999999987
 30
0.0
 40
2.0
 50
90.0
 51
180.0
  0
LINE
  5
72F
  8
DETAIL
  6
CONTINUOUS
 62
     5
 10
-496.0
 20
428.69999999999987
 30
0.0
 11
-496.0
 21
421.0
 31
0.0
  0
ARC
  5
730
  8
DETAIL
  6
CONTINUOUS
 62
     5
 10
-491.69999999999987
 20
428.69999999999987
 30
0.0
 40
4.2999999999999989
 50
90.0
 51
180.0
  0
LINE
  5
73A
  8
DETAIL
  6
CONTINUOUS
 62
     5
 10
-489.0
 20
341.19999999999999
 30
0.0
 11
-480.0
 21
341.35709600000001
 31
0.0
  0
ARC
  5
73B
  8
DETAIL
  6
CONTINUOUS
 62
     5
 10
-513.49999999999989
 20
340.5
 30
0.0
 40
0.5
 50
90.0
 51
180.0
  0
LINE
  5
73C
  8
DETAIL
  6
CONTINUOUS
 62
     5
 10
-489.0
 20
341.0
 30
0.0
 11
-513.49999999999989
 21
341.0
 31
0.0
  0
LINE
  5
73D
  8
DETAIL
  6
CONTINUOUS
 62
     5
 10
-489.0
 20
308.80000000000001
 30
0.0
 11
-480.0
 21
308.64290399999999
 31
0.0
  0
ARC
  5
73E
  8
DETAIL
  6
CONTINUOUS
 62
     5
 10
-513.49999999999989
 20
309.5
 30
0.0
 40
0.5
 50
180.0
 51
270.0
  0
LINE
  5
73F
  8
DETAIL
  6
CONTINUOUS
 62
     5
 10
-489.0
 20
309.0
 30
0.0
 11
-513.49999999999989
 21
309.0
 31
0.0
  0
LINE
  5
740
  8
DETAIL
  6
CONTINUOUS
 62
     5
 10
-489.0
 20
341.19999999999999
 30
0.0
 11
-489.0
 21
308.80000000000001
 31
0.0
  0
LINE
  5
741
  8
DETAIL
  6
CONTINUOUS
 62
     5
 10
-514.0
 20
340.5
 30
0.0
 11
-514.0
 21
309.5
 31
0.0
  0
LINE
  5
74B
  8
SIZE
  6
CONTINUOUS
 62
    30
 10
-470.0
 20
594.6724099999999
 30
0.0
 11
-346.21428600000002
 21
594.6724099999999
 31
0.0
  0
LINE
  5
74C
  8
SIZE
  6
CONTINUOUS
 62
    30
 10
-470.0
 20
491.50332400000002
 30
0.0
 11
-337.10368099999999
 21
491.50332400000002
 31
0.0
  0
POINT
  5
74D
  8
DEFPOINTS
  6
CONTINUOUS
 62
     7
 10
-519.0
 20
594.6724099999999
 30
0.0
  0
LINE
  5
74E
  8
SIZE
  6
CONTINUOUS
 62
    30
 10
-475.0
 20
594.6724099999999
 30
0.0
 11
-470.0
 21
594.6724099999999
 31
0.0
  0
CIRCLE
  5
74F
  8
SIZE
  6
CONTINUOUS
 62
    30
 10
-480.0
 20
594.6724099999999
 30
0.0
 40
5.0
  0
LINE
  5
750
  8
SIZE
  6
CONTINUOUS
 62
    30
 10
-524.0
 20
594.6724099999999
 30
0.0
 11
-529.0
 21
594.6724099999999
 31
0.0
  0
CIRCLE
  5
751
  8
SIZE
  6
CONTINUOUS
 62
    30
 10
-519.0
 20
594.6724099999999
 30
0.0
 40
5.0
  0
LINE
  5
752
  8
SIZE
  6
CONTINUOUS
 62
    30
 10
-519.0
 20
594.6724099999999
 30
0.0
 11
-480.0
 21
594.6724099999999
 31
0.0
  0
LINE
  5
753
  8
SIZE
  6
CONTINUOUS
 62
    30
 10
-529.0
 20
594.6724099999999
 30
0.0
 11
-539.0
 21
594.6724099999999
 31
0.0
  0
POINT
  5
754
  8
DEFPOINTS
  6
CONTINUOUS
 62
     7
 10
-480.0
 20
491.50332400000002
 30
0.0
  0
LINE
  5
755
  8
SIZE
  6
CONTINUOUS
 62
    30
 10
-475.0
 20
491.50332400000002
 30
0.0
 11
-470.0
 21
491.50332400000002
 31
0.0
  0
CIRCLE
  5
756
  8
SIZE
  6
CONTINUOUS
 62
    30
 10
-480.0
 20
491.50332400000002
 30
0.0
 40
5.0
  0
LINE
  5
757
  8
SIZE
  6
CONTINUOUS
 62
    30
 10
-519.0
 20
491.50332400000002
 30
0.0
 11
-524.0
 21
491.50332400000002
 31
0.0
  0
CIRCLE
  5
758
  8
SIZE
  6
CONTINUOUS
 62
    30
 10
-514.0
 20
491.50332400000002
 30
0.0
 40
5.0
  0
LINE
  5
759
  8
SIZE
  6
CONTINUOUS
 62
    30
 10
-514.0
 20
491.50332400000002
 30
0.0
 11
-480.0
 21
491.50332400000002
 31
0.0
  0
LINE
  5
75A
  8
SIZE
  6
CONTINUOUS
 62
    30
 10
-524.0
 20
491.50332400000002
 30
0.0
 11
-534.0
 21
491.50332400000002
 31
0.0
  0
POINT
  5
75B
  8
DEFPOINTS
  6
CONTINUOUS
 62
     7
 10
-496.0
 20
528.0
 30
0.0
  0
TEXT
  5
75C
  8
SIZE
  6
CONTINUOUS
 62
    30
 10
-437.60368099999999
 20
509.50332400000002
 30
0.0
 40
55.0
  1
34
 41
0.9
 72
     1
 11
-396.35368099999999
 21
509.50332400000002
 31
0.0
  0
LINE
  5
75D
  8
NOTE
  6
CONTINUOUS
 62
     4
 10
-726.91198099999986
 20
631.95282999999995
 30
0.0
 11
-1070.6255630000001
 21
631.95282999999995
 31
0.0
  0
TEXT
  5
75E
  8
NOTE
  6
CONTINUOUS
 62
     4
 10
-1048.9502910000001
 20
647.77936099999988
 30
0.0
 40
60.0
  1
RL %%C6.35
 50
0.000003
 41
0.7
  7
STANDARD1
  0
LINE
  5
75F
  8
NOTE
  6
CONTINUOUS
 62
     4
 10
-730.44115599999998
 20
753.39748899999995
 30
0.0
 11
-1077.255017
 21
753.39748899999995
 31
0.0
  0
TEXT
  5
760
  8
NOTE
  6
CONTINUOUS
 62
     4
 10
-1055.5797459999999
 20
769.22402
 30
0.0
 40
60.0
  1
D1 VP-25
 50
0.000003
 41
0.7
  7
STANDARD1
  0
CIRCLE
  5
761
  8
SIZE
  6
CONTINUOUS
 62
    30
 10
-473.0
 20
917.16242200000011
 30
0.0
 40
5.0
  0
CIRCLE
  5
762
  8
SIZE
  6
CONTINUOUS
 62
    30
 10
-496.0
 20
917.16242200000011
 30
0.0
 40
5.0
  0
CIRCLE
  5
763
  8
SIZE
  6
CONTINUOUS
 62
    30
 10
-473.0
 20
917.16242200000011
 30
0.0
 40
5.0
  0
TEXT
  5
764
  8
SIZE
  6
CONTINUOUS
 62
    30
 10
-602.35714242857136
 20
818.10319700000014
 30
0.0
 40
55.0
  1
16
 41
0.9
 72
     1
 11
-568.17857100000003
 21
818.10319700000014
 31
0.0
  0
LINE
  5
765
  8
SIZE
  6
CONTINUOUS
 62
    30
 10
-506.0
 20
800.10319699999991
 30
0.0
 11
-620.35714299999995
 21
800.10319699999991
 31
0.0
  0
TEXT
  5
766
  8
SIZE
  6
CONTINUOUS
 62
    30
 10
-443.17857157142851
 20
710.63602900000001
 30
0.0
 40
55.0
  1
42
 41
0.9
 72
     1
 11
-403.10714299999989
 21
710.63602900000001
 31
0.0
  0
LINE
  5
767
  8
SIZE
  6
CONTINUOUS
 62
    30
 10
-470.0
 20
692.63602899999989
 30
0.0
 11
-346.21428600000002
 21
692.63602899999989
 31
0.0
  0
TEXT
  5
768
  8
SIZE
  6
CONTINUOUS
 62
    30
 10
-442.00000014285712
 20
612.67241000000001
 30
0.0
 40
55.0
  1
39
 41
0.9
 72
     1
 11
-403.10714299999989
 21
612.67241000000001
 31
0.0
  0
POINT
  5
769
  8
DEFPOINTS
  6
CONTINUOUS
 62
     7
 10
-480.0
 20
692.63602899999989
 30
0.0
  0
LINE
  5
76A
  8
SIZE
  6
CONTINUOUS
 62
    30
 10
-475.0
 20
692.63602899999989
 30
0.0
 11
-470.0
 21
692.63602899999989
 31
0.0
  0
CIRCLE
  5
76B
  8
SIZE
  6
CONTINUOUS
 62
    30
 10
-480.0
 20
692.63602899999989
 30
0.0
 40
5.0
  0
LINE
  5
76C
  8
SIZE
  6
CONTINUOUS
 62
    30
 10
-527.0
 20
692.63602899999989
 30
0.0
 11
-532.0
 21
692.63602899999989
 31
0.0
  0
CIRCLE
  5
76D
  8
SIZE
  6
CONTINUOUS
 62
    30
 10
-522.0
 20
692.63602899999989
 30
0.0
 40
5.0
  0
LINE
  5
76E
  8
SIZE
  6
CONTINUOUS
 62
    30
 10
-522.0
 20
692.63602899999989
 30
0.0
 11
-480.0
 21
692.63602899999989
 31
0.0
  0
LINE
  5
76F
  8
SIZE
  6
CONTINUOUS
 62
    30
 10
-532.0
 20
692.63602899999989
 30
0.0
 11
-542.0
 21
692.63602899999989
 31
0.0
  0
LINE
  5
770
  8
SIZE
  6
CONTINUOUS
 62
    30
 10
-475.0
 20
800.10319699999991
 30
0.0
 11
-470.0
 21
800.10319699999991
 31
0.0
  0
CIRCLE
  5
771
  8
SIZE
  6
CONTINUOUS
 62
    30
 10
-480.0
 20
800.10319699999991
 30
0.0
 40
5.0
  0
POINT
  5
772
  8
DEFPOINTS
  6
CONTINUOUS
 62
     7
 10
-480.0
 20
800.10319699999991
 30
0.0
  0
LINE
  5
773
  8
SIZE
  6
CONTINUOUS
 62
    30
 10
-501.0
 20
800.10319699999991
 30
0.0
 11
-506.0
 21
800.10319699999991
 31
0.0
  0
CIRCLE
  5
774
  8
SIZE
  6
CONTINUOUS
 62
    30
 10
-496.0
 20
800.10319699999991
 30
0.0
 40
5.0
  0
LINE
  5
775
  8
SIZE
  6
CONTINUOUS
 62
    30
 10
-475.0
 20
800.10319699999991
 30
0.0
 11
-470.0
 21
800.10319699999991
 31
0.0
  0
CIRCLE
  5
776
  8
SIZE
  6
CONTINUOUS
 62
    30
 10
-480.0
 20
800.10319699999991
 30
0.0
 40
5.0
  0
LINE
  5
777
  8
SIZE
  6
CONTINUOUS
 62
    30
 10
-480.0
 20
800.10319699999991
 30
0.0
 11
-496.0
 21
800.10319699999991
 31
0.0
  0
LINE
  5
778
  8
SIZE
  6
CONTINUOUS
 62
    30
 10
-470.0
 20
800.10319699999991
 30
0.0
 11
-460.0
 21
800.10319699999991
 31
0.0
  0
TEXT
  5
779
  8
SIZE
  6
CONTINUOUS
 62
    30
 10
-614.14285757142852
 20
935.16242200000011
 30
0.0
 40
55.0
  1
23
 41
0.9
 72
     1
 11
-574.07142899999985
 21
935.16242200000011
 31
0.0
  0
LINE
  5
77A
  8
SIZE
  6
CONTINUOUS
 62
    30
 10
-506.0
 20
917.16242200000011
 30
0.0
 11
-632.14285700000005
 21
917.16242200000011
 31
0.0
  0
LINE
  5
77B
  8
SIZE
  6
CONTINUOUS
 62
    30
 10
-468.0
 20
917.16242200000011
 30
0.0
 11
-463.0
 21
917.16242200000011
 31
0.0
  0
LINE
  5
77C
  8
SIZE
  6
CONTINUOUS
 62
    30
 10
-491.0
 20
1042.9376
 30
0.0
 11
-486.0
 21
1042.9376
 31
0.0
  0
CIRCLE
  5
77D
  8
SIZE
  6
CONTINUOUS
 62
    30
 10
-496.0
 20
1042.9376
 30
0.0
 40
5.0
  0
POINT
  5
77E
  8
DEFPOINTS
  6
CONTINUOUS
 62
     7
 10
-473.0
 20
917.16242200000011
 30
0.0
  0
LINE
  5
77F
  8
SIZE
  6
CONTINUOUS
 62
    30
 10
-501.0
 20
917.16242200000011
 30
0.0
 11
-506.0
 21
917.16242200000011
 31
0.0
  0
LINE
  5
780
  8
SIZE
  6
CONTINUOUS
 62
    30
 10
-468.0
 20
917.16242200000011
 30
0.0
 11
-463.0
 21
917.16242200000011
 31
0.0
  0
LINE
  5
781
  8
SIZE
  6
CONTINUOUS
 62
    30
 10
-473.0
 20
917.16242200000011
 30
0.0
 11
-496.0
 21
917.16242200000011
 31
0.0
  0
LINE
  5
782
  8
SIZE
  6
CONTINUOUS
 62
    30
 10
-463.0
 20
917.16242200000011
 30
0.0
 11
-453.0
 21
917.16242200000011
 31
0.0
  0
LINE
  5
783
  8
BASIS
  6
DASHDOT
 62
     6
 10
0.0
 20
468.57171299999987
 30
0.0
 11
0.0
 21
-53.886170999999997
 31
0.0
  0
CIRCLE
  5
784
  8
ARRANGE
  6
CONTINUOUS
 62
     1
 10
0.0
 20
0.0
 30
0.0
 40
50.0
  0
CIRCLE
  5
785
  8
SIZE
  6
CONTINUOUS
 62
    30
 10
966.15617799999995
 20
0.0
 30
0.0
 40
5.0
  0
LINE
  5
786
  8
SIZE
  6
CONTINUOUS
 62
    30
 10
966.15617799999995
 20
0.0
 30
0.0
 11
966.15617799999995
 21
-364.68571400000002
 31
0.0
  0
CIRCLE
  5
787
  8
SIZE
  6
CONTINUOUS
 62
    30
 10
741.64437799999996
 20
0.0
 30
0.0
 40
5.0
  0
LINE
  5
788
  8
SIZE
  6
CONTINUOUS
 62
    30
 10
741.64437799999996
 20
23.5
 30
0.0
 11
842.66763999999989
 21
-17.519043
 31
0.0
  0
CIRCLE
  5
789
  8
SIZE
  6
CONTINUOUS
 62
    30
 10
741.64437799999996
 20
0.0
 30
0.0
 40
5.0
  0
LINE
  5
78A
  8
SIZE
  6
CONTINUOUS
 62
    30
 10
741.64437799999996
 20
0.0
 30
0.0
 11
741.64437799999996
 21
-8.0
 31
0.0
  0
LINE
  5
78B
  8
OUTLINE
  6
CONTINUOUS
 62
     3
 10
520.0
 20
-4.0065080000000002
 30
0.0
 11
520.0
 21
0.0
 31
0.0
  0
LINE
  5
78C
  8
ARRANGE
  6
CONTINUOUS
 62
     1
 10
49.963763
 20
49.596595000000001
 30
0.0
 11
-49.963763
 21
-49.596595000000001
 31
0.0
  0
LINE
  5
78D
  8
ARRANGE
  6
CONTINUOUS
 62
     1
 10
50.037350000000004
 20
-49.522353000000003
 30
0.0
 11
-50.037350000000004
 21
49.522353000000003
 31
0.0
  0
TEXT
  5
78E
  8
SIZE
  6
CONTINUOUS
 62
    30
 10
1080.939588
 20
-331.65461600000009
 30
0.0
 40
55.0
  1
パネル直付時
 50
90.0
 41
0.9
 72
     1
 11
1080.939588
 21
-160.05461600000001
 31
0.0
  0
LINE
  5
78F
  8
DETAIL
  6
CONTINUOUS
 62
     5
 10
520.0
 20
-4.0065080000000002
 30
0.0
 11
520.0
 21
0.0
 31
0.0
  0
LINE
  5
790
  8
SIZE
  6
CONTINUOUS
 62
    30
 10
486.52999999999992
 20
-8.0
 30
0.0
 11
771.64437799999996
 21
-8.0
 31
0.0
  0
LINE
  5
791
  8
SIZE
  6
CONTINUOUS
 62
    30
 10
688.61538799999994
 20
-178.809889
 30
0.0
 11
520.0
 21
-178.809889
 31
0.0
  0
TEXT
  5
792
  8
SIZE
  6
CONTINUOUS
 62
    30
 10
-292.52142857142837
 20
-162.40512699999999
 30
0.0
 40
55.0
  1
1000(天井開口寸法)
 41
0.9
 72
     1
 11
0.0
 21
-162.40512699999999
 31
0.0
  0
TEXT
  5
793
  8
SIZE
  6
CONTINUOUS
 62
    30
 10
-82.500000000000014
 20
-298.33686899999998
 30
0.0
 40
55.0
  1
1040
 41
0.9
 72
     1
 11
0.0
 21
-298.33686899999998
 31
0.0
  0
LINE
  5
794
  8
SIZE
  6
CONTINUOUS
 62
    30
 10
520.0
 20
-24.006508
 30
0.0
 11
520.0
 21
-346.33686899999998
 31
0.0
  0
POINT
  5
795
  8
DEFPOINTS
  6
CONTINUOUS
 62
     7
 10
520.0
 20
-316.33686899999998
 30
0.0
  0
LINE
  5
796
  8
SIZE
  6
CONTINUOUS
 62
    30
 10
515.0
 20
-316.33686899999998
 30
0.0
 11
510.0
 21
-316.33686899999998
 31
0.0
  0
CIRCLE
  5
797
  8
SIZE
  6
CONTINUOUS
 62
    30
 10
520.0
 20
-316.33686899999998
 30
0.0
 40
5.0
  0
LINE
  5
798
  8
SIZE
  6
CONTINUOUS
 62
    30
 10
500.0
 20
-19.0
 30
0.0
 11
500.0
 21
-208.809889
 31
0.0
  0
LINE
  5
799
  8
SIZE
  6
CONTINUOUS
 62
    30
 10
520.0
 20
-24.006508
 30
0.0
 11
520.0
 21
-208.809889
 31
0.0
  0
LINE
  5
79A
  8
SIZE
  6
CONTINUOUS
 62
    30
 10
500.0
 20
-19.0
 30
0.0
 11
500.0
 21
-208.809889
 31
0.0
  0
POINT
  5
79B
  8
DEFPOINTS
  6
CONTINUOUS
 62
     7
 10
500.0
 20
-178.809889
 30
0.0
  0
LINE
  5
79C
  8
SIZE
  6
CONTINUOUS
 62
    30
 10
495.0
 20
-178.809889
 30
0.0
 11
490.0
 21
-178.809889
 31
0.0
  0
CIRCLE
  5
79D
  8
SIZE
  6
CONTINUOUS
 62
    30
 10
500.0
 20
-178.809889
 30
0.0
 40
5.0
  0
POINT
  5
79E
  8
DEFPOINTS
  6
CONTINUOUS
 62
     7
 10
520.0
 20
-178.809889
 30
0.0
  0
LINE
  5
79F
  8
SIZE
  6
CONTINUOUS
 62
    30
 10
525.0
 20
-178.809889
 30
0.0
 11
530.0
 21
-178.809889
 31
0.0
  0
CIRCLE
  5
7A0
  8
SIZE
  6
CONTINUOUS
 62
    30
 10
520.0
 20
-178.809889
 30
0.0
 40
5.0
  0
LINE
  5
7A1
  8
SIZE
  6
CONTINUOUS
 62
    30
 10
495.0
 20
-178.809889
 30
0.0
 11
490.0
 21
-178.809889
 31
0.0
  0
CIRCLE
  5
7A2
  8
SIZE
  6
CONTINUOUS
 62
    30
 10
500.0
 20
-178.809889
 30
0.0
 40
5.0
  0
LINE
  5
7A3
  8
SIZE
  6
CONTINUOUS
 62
    30
 10
500.0
 20
-178.809889
 30
0.0
 11
520.0
 21
-178.809889
 31
0.0
  0
LINE
  5
7A4
  8
SIZE
  6
CONTINUOUS
 62
    30
 10
500.0
 20
-178.809889
 30
0.0
 11
520.0
 21
-178.809889
 31
0.0
  0
LINE
  5
7A5
  8
SIZE
  6
CONTINUOUS
 62
    30
 10
530.0
 20
-178.809889
 30
0.0
 11
540.0
 21
-178.809889
 31
0.0
  0
LINE
  5
7A6
  8
SIZE
  6
CONTINUOUS
 62
    30
 10
490.0
 20
-178.809889
 30
0.0
 11
480.0
 21
-178.809889
 31
0.0
  0
POINT
  5
7A7
  8
DEFPOINTS
  6
CONTINUOUS
 62
     7
 10
466.52999999999997
 20
-8.0
 30
0.0
  0
POINT
  5
7A8
  8
DEFPOINTS
  6
CONTINUOUS
 62
     7
 10
520.0
 20
-4.0065080000000002
 30
0.0
  0
POINT
  5
7A9
  8
DEFPOINTS
  6
CONTINUOUS
 62
     7
 10
520.0
 20
-4.0065080000000002
 30
0.0
  0
LINE
  5
7AA
  8
OUTLINE
  6
CONTINUOUS
 62
     3
 10
466.52999999999997
 20
-8.0
 30
0.0
 11
520.0
 21
-4.0065080000000002
 31
0.0
  0
LINE
  5
7AB
  8
DETAIL
  6
CONTINUOUS
 62
     5
 10
466.52999999999997
 20
-8.0
 30
0.0
 11
520.0
 21
-4.0065080000000002
 31
0.0
  0
POLYLINE
  5
7AC
  8
SIZE
  6
CONTINUOUS
 62
    30
 66
     1
 10
0.0
 20
0.0
 30
0.0
  0
VERTEX
  5
9B5
  8
SIZE
  6
CONTINUOUS
 62
    30
 10
1004.747123
 20
-325.09331100000003
 30
0.0
 42
0.186174
  0
VERTEX
  5
9B6
  8
SIZE
  6
CONTINUOUS
 62
    30
 10
1013.5969720000001
 20
-346.042799
 30
0.0
 42
0.082105
  0
VERTEX
  5
9B7
  8
SIZE
  6
CONTINUOUS
 62
    30
 10
1029.2994739999999
 20
-358.21735999999999
 30
0.0
 42
0.058826
  0
VERTEX
  5
9B8
  8
SIZE
  6
CONTINUOUS
 62
    30
 10
1051.0855320000001
 20
-366.99228700000009
 30
0.0
 42
0.067494
  0
VERTEX
  5
9B9
  8
SIZE
  6
CONTINUOUS
 62
    30
 10
1088.5740920000001
 20
-371.93779000000001
 30
0.0
 42
0.067494
  0
VERTEX
  5
9BA
  8
SIZE
  6
CONTINUOUS
 62
    30
 10
1126.062651
 20
-366.99228700000009
 30
0.0
 42
0.058826
  0
VERTEX
  5
9BB
  8
SIZE
  6
CONTINUOUS
 62
    30
 10
1147.8487090000001
 20
-358.21735999999999
 30
0.0
 42
0.082105
  0
VERTEX
  5
9BC
  8
SIZE
  6
CONTINUOUS
 62
    30
 10
1163.551211
 20
-346.042799
 30
0.0
 42
0.186174
  0
VERTEX
  5
9BD
  8
SIZE
  6
CONTINUOUS
 62
    30
 10
1172.4010599999999
 20
-325.09331100000003
 30
0.0
 42
0.186174
  0
VERTEX
  5
9BE
  8
SIZE
  6
CONTINUOUS
 62
    30
 10
1172.4010599999999
 20
-325.09331100000003
 30
0.0
 42
0.186174
  0
SEQEND
  5
9BF
  8
SIZE
  6
CONTINUOUS
 62
    30
  0
TEXT
  5
7B8
  8
SIZE
  6
CONTINUOUS
 62
    30
 10
948.15617799999995
 20
-346.68571414285719
 30
0.0
 40
55.0
  1
140～300
 50
90.0
 41
0.9
 72
     1
 11
948.15617799999995
 21
-187.34285700000001
 31
0.0
  0
TEXT
  5
7B9
  8
SIZE
  6
CONTINUOUS
 62
    30
 10
824.66764000000001
 20
-115.6619005714285
 30
0.0
 40
55.0
  1
47
 50
90.0
 41
0.9
 72
     1
 11
824.66764000000001
 21
-75.590471999999991
 31
0.0
  0
TEXT
  5
7BA
  8
SIZE
  6
CONTINUOUS
 62
    30
 10
590.4725314285713
 20
-160.809889
 30
0.0
 40
55.0
  1
20
 41
0.9
 72
     1
 11
630.54395999999986
 21
-160.809889
 31
0.0
  0
TEXT
  5
7BB
  8
SIZE
  6
CONTINUOUS
 62
    30
 10
723.64437799999996
 20
-79.0
 30
0.0
 40
55.0
  1
8
 50
90.0
 41
0.9
 72
     1
 11
723.64437799999996
 21
-62.5
 31
0.0
  0
LINE
  5
7BC
  8
SIZE
  6
CONTINUOUS
 62
    30
 10
741.64437799999996
 20
-5.0
 30
0.0
 11
741.64437799999996
 21
-10.0
 31
0.0
  0
LINE
  5
7BD
  8
SIZE
  6
CONTINUOUS
 62
    30
 10
741.64437799999996
 20
-10.0
 30
0.0
 11
741.64437799999996
 21
-20.0
 31
0.0
  0
LINE
  5
7BE
  8
SIZE
  6
CONTINUOUS
 62
    30
 10
741.64437799999996
 20
-13.0
 30
0.0
 11
741.64437799999996
 21
-18.0
 31
0.0
  0
CIRCLE
  5
7BF
  8
SIZE
  6
CONTINUOUS
 62
    30
 10
741.64437799999996
 20
-8.0
 30
0.0
 40
5.0
  0
LINE
  5
7C0
  8
SIZE
  6
CONTINUOUS
 62
    30
 10
741.64437799999996
 20
-18.0
 30
0.0
 11
741.64437799999996
 21
-97.0
 31
0.0
  0
LINE
  5
7C1
  8
SIZE
  6
CONTINUOUS
 62
    30
 10
842.66763999999989
 20
-17.519043
 30
0.0
 11
842.66763999999989
 21
-133.6619
 31
0.0
  0
TEXT
  5
7C2
  8
SIZE
  6
CONTINUOUS
 62
    30
 10
1164.6893660000001
 20
-274.79596571428573
 30
0.0
 40
55.0
  1
50～60
 50
90.0
 41
0.9
 72
     1
 11
1164.6893660000001
 21
-157.88167999999999
 31
0.0
  0
LINE
  5
7C3
  8
SIZE
  6
CONTINUOUS
 62
    30
 10
524.2055819462621
 20
0.0
 30
0.0
 11
996.15617799999995
 21
0.0
 31
0.0
  0
LINE
  5
7C4
  8
SIZE
  6
CONTINUOUS
 62
    30
 10
499.25407899999988
 20
140.0
 30
0.0
 11
996.15617799999995
 21
140.0
 31
0.0
  0
LINE
  5
7C5
  8
SIZE
  6
CONTINUOUS
 62
    30
 10
500.0
 20
47.0
 30
0.0
 11
771.64437799999996
 21
47.0
 31
0.0
  0
LINE
  5
7C6
  8
SIZE
  6
CONTINUOUS
 62
    30
 10
540.0
 20
0.0
 30
0.0
 11
771.64437799999996
 21
0.0
 31
0.0
  0
LINE
  5
7C7
  8
SIZE
  6
CONTINUOUS
 62
    30
 10
540.0
 20
0.0
 30
0.0
 11
771.64437799999996
 21
0.0
 31
0.0
  0
TEXT
  5
7C8
  8
SIZE
  6
CONTINUOUS
 62
    30
 10
538.51330142857137
 20
935.16242200000011
 30
0.0
 40
55.0
  1
23
 41
0.9
 72
     1
 11
578.58473000000004
 21
935.16242200000011
 31
0.0
  0
LINE
  5
7C9
  8
SIZE
  6
CONTINUOUS
 62
    30
 10
636.65615899999989
 20
917.16242200000011
 30
0.0
 11
496.0
 21
917.16242200000011
 31
0.0
  0
TEXT
  5
7CA
  8
SIZE
  6
CONTINUOUS
 62
    30
 10
528.05788757142852
 20
813.82723699999985
 30
0.0
 40
55.0
  1
16
 41
0.9
 72
     1
 11
562.23645899999997
 21
813.82723699999985
 31
0.0
  0
LINE
  5
7CB
  8
SIZE
  6
CONTINUOUS
 62
    30
 10
395.0
 20
297.0
 30
0.0
 11
835.88383799999986
 21
297.0
 31
0.0
  0
LINE
  5
7CC
  8
SIZE
  6
CONTINUOUS
 62
    30
 10
511.69999999999987
 20
433.0
 30
0.0
 11
835.88383799999986
 21
433.0
 31
0.0
  0
LINE
  5
7CD
  8
NOTE
  6
CONTINUOUS
 62
     4
 10
583.90362500000003
 20
622.67806900000005
 30
0.0
 11
473.000046
 21
432.99997000000002
 31
0.0
  0
LINE
  5
7CE
  8
SIZE
  6
CONTINUOUS
 62
    30
 10
511.69999999999987
 20
433.0
 30
0.0
 11
996.15617799999995
 21
433.0
 31
0.0
  0
LINE
  5
7CF
  8
SIZE
  6
CONTINUOUS
 62
    30
 10
499.25407899999988
 20
140.0
 30
0.0
 11
996.15617799999995
 21
140.0
 31
0.0
  0
LINE
  5
7D0
  8
NOTE
  6
CONTINUOUS
 62
     4
 10
551.04244000000006
 20
1.0
 30
0.0
 11
571.04244000000006
 21
21.0
 31
0.0
  0
LINE
  5
7D1
  8
NOTE
  6
CONTINUOUS
 62
     4
 10
556.04244000000006
 20
1.0
 30
0.0
 11
576.04244000000006
 21
21.0
 31
0.0
  0
LINE
  5
7D2
  8
NOTE
  6
CONTINUOUS
 62
     4
 10
561.04244000000006
 20
1.0
 30
0.0
 11
581.04244000000006
 21
21.0
 31
0.0
  0
LINE
  5
7D3
  8
NOTE
  6
CONTINUOUS
 62
     4
 10
500.0
 20
1.0
 30
0.0
 11
601.30744900000002
 21
1.0
 31
0.0
  0
LINE
  5
7D4
  8
NOTE
  6
CONTINUOUS
 62
     4
 10
500.0
 20
21.0
 30
0.0
 11
601.30744900000002
 21
21.0
 31
0.0
  0
LINE
  5
7D5
  8
SIZE
  6
CONTINUOUS
 62
    30
 10
473.0
 20
467.99516599999998
 30
0.0
 11
473.0
 21
947.16242199999999
 31
0.0
  0
LINE
  5
7D6
  8
SIZE
  6
CONTINUOUS
 62
    30
 10
496.0
 20
448.69999999999999
 30
0.0
 11
496.0
 21
1072.9376
 31
0.0
  0
LINE
  5
7D7
  8
SIZE
  6
CONTINUOUS
 62
    30
 10
480.0
 20
453.0
 30
0.0
 11
480.0
 21
830.10319700000002
 31
0.0
  0
LINE
  5
7D8
  8
SIZE
  6
CONTINUOUS
 62
    30
 10
496.0
 20
448.69999999999999
 30
0.0
 11
496.0
 21
947.16242199999999
 31
0.0
  0
LINE
  5
7D9
  8
SIZE
  6
CONTINUOUS
 62
    30
 10
473.0
 20
467.99516599999998
 30
0.0
 11
473.0
 21
947.16242199999999
 31
0.0
  0
LINE
  5
7DA
  8
SIZE
  6
CONTINUOUS
 62
    30
 10
496.0
 20
448.69999999999999
 30
0.0
 11
496.0
 21
830.10319700000002
 31
0.0
  0
LINE
  5
7DB
  8
SIZE
  6
CONTINUOUS
 62
    30
 10
480.0
 20
453.0
 30
0.0
 11
480.0
 21
830.10319700000002
 31
0.0
  0
TEXT
  5
7DC
  8
NOTE
  6
CONTINUOUS
 62
     4
 10
-142.39258599999999
 20
600.14653599999997
 30
0.0
 40
60.0
  1
%%C200 吹出円形フランジ
 50
0.000003
 41
0.7
  7
STANDARD1
  0
LINE
  5
7DD
  8
SIZE
  6
CONTINUOUS
 62
    30
 10
-185.0
 20
491.50332400000002
 30
0.0
 11
245.0
 21
491.50332400000002
 31
0.0
  0
LINE
  5
7DE
  8
NOTE
  6
CONTINUOUS
 62
     4
 10
445.70049799999998
 20
583.09658899999988
 30
0.0
 11
-148.84425899999999
 21
583.09658899999988
 31
0.0
  0
LINE
  5
7E1
  8
DETAIL
  6
CONTINUOUS
 62
     5
 10
0.0
 20
140.0
 30
0.0
 11
465.0
 21
140.0
 31
0.0
  0
CIRCLE
  5
7E4
  8
DETAIL
  6
CONTINUOUS
 62
     5
 10
-195.0
 20
297.0
 30
0.0
 40
100.0
  0
CIRCLE
  5
7E5
  8
DETAIL
  6
CONTINUOUS
 62
     5
 10
-195.0
 20
297.0
 30
0.0
 40
85.5
  0
LINE
  5
7E6
  8
NOTE
  6
CONTINUOUS
 62
     4
 10
-195.0
 20
417.0
 30
0.0
 11
-195.0
 21
177.0
 31
0.0
  0
LINE
  5
7E7
  8
NOTE
  6
CONTINUOUS
 62
     4
 10
-148.84425899999999
 20
583.09658899999988
 30
0.0
 11
-195.0
 21
297.0
 31
0.0
  0
LINE
  5
7E8
  8
NOTE
  6
CONTINUOUS
 62
     4
 10
-195.0
 20
297.0
 30
0.0
 11
-196.937783
 21
331.33066700000001
 31
0.0
  0
LINE
  5
7E9
  8
NOTE
  6
CONTINUOUS
 62
     4
 10
-195.0
 20
297.0
 30
0.0
 11
-179.512835
 21
327.70012100000002
 31
0.0
  0
LINE
  5
7EA
  8
NOTE
  6
CONTINUOUS
 62
     4
 10
-75.0
 20
297.0
 30
0.0
 11
-315.0
 21
297.0
 31
0.0
  0
LINE
  5
7EB
  8
SIZE
  6
CONTINUOUS
 62
    30
 10
-195.0
 20
428.0
 30
0.0
 11
-195.0
 21
521.50332400000002
 31
0.0
  0
POINT
  5
7EC
  8
DEFPOINTS
  6
CONTINUOUS
 62
     7
 10
-195.0
 20
408.0
 30
0.0
  0
LINE
  5
7ED
  8
SIZE
  6
CONTINUOUS
 62
    30
 10
-190.0
 20
491.50332400000002
 30
0.0
 11
-185.0
 21
491.50332400000002
 31
0.0
  0
CIRCLE
  5
7EE
  8
SIZE
  6
CONTINUOUS
 62
    30
 10
-195.0
 20
491.50332400000002
 30
0.0
 40
5.0
  0
TEXT
  5
7EF
  8
SIZE
  6
CONTINUOUS
 62
    30
 10
-33.642857142857132
 20
509.50332400000002
 30
0.0
 40
55.0
  1
450
 41
0.9
 72
     1
 11
30.0
 21
509.50332400000002
 31
0.0
  0
LINE
  5
7F0
  8
SIZE
  6
CONTINUOUS
 62
    30
 10
496.0
 20
508.0
 30
0.0
 11
496.0
 21
27.620937000000001
 31
0.0
  0
LINE
  5
7F1
  8
OUTLINE
  6
CONTINUOUS
 62
     3
 10
480.0
 20
433.0
 30
0.0
 11
480.0
 21
140.0
 31
0.0
  0
CIRCLE
  5
7F3
  8
DETAIL
  6
CONTINUOUS
 62
     5
 10
255.0
 20
297.0
 30
0.0
 40
100.0
  0
CIRCLE
  5
7F4
  8
DETAIL
  6
CONTINUOUS
 62
     5
 10
255.0
 20
297.0
 30
0.0
 40
85.5
  0
LINE
  5
7F5
  8
NOTE
  6
CONTINUOUS
 62
     4
 10
255.0
 20
417.0
 30
0.0
 11
255.0
 21
177.0
 31
0.0
  0
LINE
  5
7F6
  8
DETAIL
  6
CONTINUOUS
 62
     5
 10
448.0
 20
202.0
 30
0.0
 11
448.0
 21
398.0
 31
0.0
  0
LINE
  5
7F7
  8
NOTE
  6
CONTINUOUS
 62
     4
 10
375.0
 20
297.0
 30
0.0
 11
135.0
 21
297.0
 31
0.0
  0
LINE
  5
7F8
  8
DETAIL
  6
CONTINUOUS
 62
     5
 10
480.0
 20
433.0
 30
0.0
 11
480.0
 21
140.0
 31
0.0
  0
LINE
  5
7FB
  8
DETAIL
  6
CONTINUOUS
 62
     5
 10
465.0
 20
152.0
 30
0.0
 11
465.0
 21
140.0
 31
0.0
  0
LINE
  5
7FD
  8
SIZE
  6
CONTINUOUS
 62
    30
 10
486.0
 20
57.620936999999998
 30
0.0
 11
396.76410600000003
 21
57.620936999999998
 31
0.0
  0
TEXT
  5
7FE
  8
SIZE
  6
CONTINUOUS
 62
    30
 10
414.76410557142839
 20
75.620936999999998
 30
0.0
 40
55.0
  1
4
 41
0.9
 72
     1
 11
432.44267699999989
 21
75.620936999999998
 31
0.0
  0
POINT
  5
801
  8
DEFPOINTS
  6
CONTINUOUS
 62
     7
 10
480.0
 20
47.0
 30
0.0
  0
POINT
  5
802
  8
DEFPOINTS
  6
CONTINUOUS
 62
     7
 10
520.0
 20
0.0
 30
0.0
  0
POINT
  5
803
  8
DEFPOINTS
  6
CONTINUOUS
 62
     7
 10
520.0
 20
0.0
 30
0.0
  0
POINT
  5
804
  8
DEFPOINTS
  6
CONTINUOUS
 62
     7
 10
500.0
 20
1.0
 30
0.0
  0
POINT
  5
805
  8
DEFPOINTS
  6
CONTINUOUS
 62
     7
 10
500.0
 20
1.0
 30
0.0
  0
LINE
  5
808
  8
OUTLINE
  6
CONTINUOUS
 62
     3
 10
480.0
 20
0.0
 30
0.0
 11
480.0
 21
47.0
 31
0.0
  0
POINT
  5
809
  8
DEFPOINTS
  6
CONTINUOUS
 62
     7
 10
496.0
 20
57.620936999999998
 30
0.0
  0
POINT
  5
80A
  8
DEFPOINTS
  6
CONTINUOUS
 62
     7
 10
500.0
 20
21.0
 30
0.0
  0
LINE
  5
80B
  8
SIZE
  6
CONTINUOUS
 62
    30
 10
491.0
 20
57.620936999999998
 30
0.0
 11
486.0
 21
57.620936999999998
 31
0.0
  0
CIRCLE
  5
80C
  8
SIZE
  6
CONTINUOUS
 62
    30
 10
496.0
 20
57.620936999999998
 30
0.0
 40
5.0
  0
LINE
  5
80D
  8
SIZE
  6
CONTINUOUS
 62
    30
 10
505.0
 20
57.620936999999998
 30
0.0
 11
510.0
 21
57.620936999999998
 31
0.0
  0
CIRCLE
  5
80E
  8
SIZE
  6
CONTINUOUS
 62
    30
 10
500.0
 20
57.620936999999998
 30
0.0
 40
5.0
  0
LINE
  5
80F
  8
SIZE
  6
CONTINUOUS
 62
    30
 10
500.0
 20
57.620936999999998
 30
0.0
 11
496.0
 21
57.620936999999998
 31
0.0
  0
LINE
  5
810
  8
SIZE
  6
CONTINUOUS
 62
    30
 10
510.0
 20
57.620936999999998
 30
0.0
 11
520.0
 21
57.620936999999998
 31
0.0
  0
LINE
  5
811
  8
SIZE
  6
CONTINUOUS
 62
    30
 10
500.0
 20
41.0
 30
0.0
 11
500.0
 21
87.620936999999984
 31
0.0
  0
LINE
  5
813
  8
NOTE
  6
CONTINUOUS
 62
     4
 10
511.04244
 20
1.0
 30
0.0
 11
531.04244000000006
 21
21.0
 31
0.0
  0
LINE
  5
814
  8
NOTE
  6
CONTINUOUS
 62
     4
 10
516.04244000000006
 20
1.0
 30
0.0
 11
536.04244000000006
 21
21.0
 31
0.0
  0
LINE
  5
815
  8
NOTE
  6
CONTINUOUS
 62
     4
 10
521.04244000000006
 20
1.0
 30
0.0
 11
541.04244000000006
 21
21.0
 31
0.0
  0
LINE
  5
816
  8
NOTE
  6
CONTINUOUS
 62
     4
 10
500.0
 20
1.0
 30
0.0
 11
500.0
 21
21.0
 31
0.0
  0
LINE
  5
819
  8
DETAIL
  6
CONTINUOUS
 62
     5
 10
480.0
 20
0.0
 30
0.0
 11
480.0
 21
47.0
 31
0.0
  0
POINT
  5
81A
  8
DEFPOINTS
  6
CONTINUOUS
 62
     7
 10
375.0
 20
297.0
 30
0.0
  0
ARC
  5
81C
  8
DETAIL
  6
CONTINUOUS
 62
     5
 10
438.0
 20
202.0
 30
0.0
 40
10.0
 50
270.0
 51
0.0
  0
ARC
  5
81D
  8
DETAIL
  6
CONTINUOUS
 62
     5
 10
475.0
 20
172.40000000000001
 30
0.0
 40
5.0
 50
270.0
 51
0.0
  0
LINE
  5
81E
  8
DETAIL
  6
CONTINUOUS
 62
     5
 10
465.0
 20
152.0
 30
0.0
 11
462.0
 21
155.0
 31
0.0
  0
TEXT
  5
820
  8
SIZE
  6
CONTINUOUS
 62
    30
 10
303.85714285714289
 20
509.50332400000002
 30
0.0
 40
55.0
  1
225
 41
0.9
 72
     1
 11
367.5
 21
509.50332400000002
 31
0.0
  0
LINE
  5
821
  8
SIZE
  6
CONTINUOUS
 62
    30
 10
265.0
 20
491.50332400000002
 30
0.0
 11
470.0
 21
491.50332400000002
 31
0.0
  0
LINE
  5
822
  8
SIZE
  6
CONTINUOUS
 62
    30
 10
255.0
 20
428.0
 30
0.0
 11
255.0
 21
521.50332400000002
 31
0.0
  0
LINE
  5
823
  8
SIZE
  6
CONTINUOUS
 62
    30
 10
255.0
 20
428.0
 30
0.0
 11
255.0
 21
521.50332400000002
 31
0.0
  0
POINT
  5
824
  8
DEFPOINTS
  6
CONTINUOUS
 62
     7
 10
255.0
 20
408.0
 30
0.0
  0
POINT
  5
825
  8
DEFPOINTS
  6
CONTINUOUS
 62
     7
 10
255.0
 20
408.0
 30
0.0
  0
LINE
  5
826
  8
SIZE
  6
CONTINUOUS
 62
    30
 10
260.0
 20
491.50332400000002
 30
0.0
 11
265.0
 21
491.50332400000002
 31
0.0
  0
CIRCLE
  5
827
  8
SIZE
  6
CONTINUOUS
 62
    30
 10
255.0
 20
491.50332400000002
 30
0.0
 40
5.0
  0
POINT
  5
828
  8
DEFPOINTS
  6
CONTINUOUS
 62
     7
 10
255.0
 20
491.50332400000002
 30
0.0
  0
LINE
  5
829
  8
SIZE
  6
CONTINUOUS
 62
    30
 10
250.0
 20
491.50332400000002
 30
0.0
 11
245.0
 21
491.50332400000002
 31
0.0
  0
CIRCLE
  5
82A
  8
SIZE
  6
CONTINUOUS
 62
    30
 10
255.0
 20
491.50332400000002
 30
0.0
 40
5.0
  0
LINE
  5
82B
  8
SIZE
  6
CONTINUOUS
 62
    30
 10
480.0
 20
453.0
 30
0.0
 11
480.0
 21
521.50332400000002
 31
0.0
  0
LINE
  5
82C
  8
NOTE
  6
CONTINUOUS
 62
     4
 10
473.000361
 20
433.00046900000001
 30
0.0
 11
482.01126699999992
 21
466.18409800000001
 31
0.0
  0
LINE
  5
82D
  8
NOTE
  6
CONTINUOUS
 62
     4
 10
473.000361
 20
433.00046900000001
 30
0.0
 11
497.39585
 21
457.23288200000002
 31
0.0
  0
LINE
  5
82E
  8
DETAIL
  6
CONTINUOUS
 62
     5
 10
446.28492599999993
 20
403.60000000000002
 30
0.0
 11
477.0
 21
403.60000000000002
 31
0.0
  0
ARC
  5
82F
  8
DETAIL
  6
CONTINUOUS
 62
     5
 10
438.0
 20
398.0
 30
0.0
 40
10.0
 50
0.0
 51
90.0
  0
POINT
  5
830
  8
DEFPOINTS
  6
CONTINUOUS
 62
     7
 10
480.0
 20
433.0
 30
0.0
  0
POINT
  5
831
  8
DEFPOINTS
  6
CONTINUOUS
 62
     7
 10
473.0
 20
447.99516599999998
 30
0.0
  0
POINT
  5
832
  8
DEFPOINTS
  6
CONTINUOUS
 62
     7
 10
496.0
 20
428.69999999999987
 30
0.0
  0
POINT
  5
833
  8
DEFPOINTS
  6
CONTINUOUS
 62
     7
 10
480.0
 20
433.0
 30
0.0
  0
POINT
  5
834
  8
DEFPOINTS
  6
CONTINUOUS
 62
     7
 10
496.0
 20
428.69999999999987
 30
0.0
  0
POINT
  5
835
  8
DEFPOINTS
  6
CONTINUOUS
 62
     7
 10
473.0
 20
447.99516599999998
 30
0.0
  0
POINT
  5
836
  8
DEFPOINTS
  6
CONTINUOUS
 62
     7
 10
496.0
 20
428.69999999999987
 30
0.0
  0
POINT
  5
837
  8
DEFPOINTS
  6
CONTINUOUS
 62
     7
 10
480.0
 20
433.0
 30
0.0
  0
POINT
  5
838
  8
DEFPOINTS
  6
CONTINUOUS
 62
     7
 10
496.69999999999987
 20
433.0
 30
0.0
  0
POINT
  5
839
  8
DEFPOINTS
  6
CONTINUOUS
 62
     7
 10
491.69999999999987
 20
433.0
 30
0.0
  0
CIRCLE
  5
83A
  8
FIX
  6
CONTINUOUS
 62
    11
 10
473.0
 20
433.0
 30
0.0
 40
12.421498
  0
LINE
  5
83B
  8
NOTE
  6
CONTINUOUS
 62
     4
 10
473.0
 20
418.0048339999999
 30
0.0
 11
473.0
 21
447.99516599999998
 31
0.0
  0
LINE
  5
83C
  8
NOTE
  6
CONTINUOUS
 62
     4
 10
487.99516599999998
 20
433.0
 30
0.0
 11
458.0048339999999
 21
433.0
 31
0.0
  0
LINE
  5
83D
  8
DETAIL
  6
CONTINUOUS
 62
     5
 10
480.0
 20
430.69999999999999
 30
0.0
 11
491.69999999999987
 21
430.69999999999999
 31
0.0
  0
LINE
  5
83F
  8
DETAIL
  6
CONTINUOUS
 62
     5
 10
493.69999999999999
 20
421.0
 30
0.0
 11
496.0
 21
421.0
 31
0.0
  0
LINE
  5
840
  8
DETAIL
  6
CONTINUOUS
 62
     5
 10
493.69999999999999
 20
428.69999999999987
 30
0.0
 11
493.69999999999999
 21
421.0
 31
0.0
  0
ARC
  5
841
  8
DETAIL
  6
CONTINUOUS
 62
     5
 10
491.69999999999987
 20
428.69999999999987
 30
0.0
 40
2.0
 50
0.0
 51
90.0
  0
LINE
  5
842
  8
DETAIL
  6
CONTINUOUS
 62
     5
 10
496.0
 20
428.69999999999987
 30
0.0
 11
496.0
 21
421.0
 31
0.0
  0
ARC
  5
843
  8
DETAIL
  6
CONTINUOUS
 62
     5
 10
491.69999999999987
 20
428.69999999999987
 30
0.0
 40
4.2999999999999989
 50
0.0
 51
90.0
  0
ARC
  5
846
  8
DETAIL
  6
CONTINUOUS
 62
     5
 10
491.69999999999987
 20
428.69999999999987
 30
0.0
 40
2.0
 50
0.0
 51
90.0
  0
LINE
  5
84B
  8
DETAIL
  6
CONTINUOUS
 62
     5
 10
477.0
 20
403.60000000000002
 30
0.0
 11
480.0
 21
406.60000000000002
 31
0.0
  0
POINT
  5
84E
  8
DEFPOINTS
  6
CONTINUOUS
 62
     7
 10
480.0
 20
491.50332400000002
 30
0.0
  0
LINE
  5
84F
  8
SIZE
  6
CONTINUOUS
 62
    30
 10
475.0
 20
491.50332400000002
 30
0.0
 11
470.0
 21
491.50332400000002
 31
0.0
  0
CIRCLE
  5
850
  8
SIZE
  6
CONTINUOUS
 62
    30
 10
480.0
 20
491.50332400000002
 30
0.0
 40
5.0
  0
POINT
  5
851
  8
DEFPOINTS
  6
CONTINUOUS
 62
     7
 10
496.0
 20
528.0
 30
0.0
  0
TEXT
  5
852
  8
SIZE
  6
CONTINUOUS
 62
    30
 10
-63.642857142857132
 20
818.10319700000014
 30
0.0
 40
55.0
  1
960
 41
0.9
 72
     1
 11
0.0
 21
818.10319700000014
 31
0.0
  0
TEXT
  5
853
  8
SIZE
  6
CONTINUOUS
 62
    30
 10
-64.276137142857152
 20
1060.9376
 30
0.0
 40
55.0
  1
992
 41
0.9
 72
     1
 11
-0.6332800000000001
 21
1060.9376
 31
0.0
  0
CIRCLE
  5
854
  8
SIZE
  6
CONTINUOUS
 62
    30
 10
473.0
 20
917.16242200000011
 30
0.0
 40
5.0
  0
CIRCLE
  5
855
  8
SIZE
  6
CONTINUOUS
 62
    30
 10
496.0
 20
917.16242200000011
 30
0.0
 40
5.0
  0
CIRCLE
  5
856
  8
SIZE
  6
CONTINUOUS
 62
    30
 10
473.0
 20
917.16242200000011
 30
0.0
 40
5.0
  0
POINT
  5
857
  8
DEFPOINTS
  6
CONTINUOUS
 62
     7
 10
480.0
 20
800.10319699999991
 30
0.0
  0
LINE
  5
858
  8
SIZE
  6
CONTINUOUS
 62
    30
 10
475.0
 20
800.10319699999991
 30
0.0
 11
470.0
 21
800.10319699999991
 31
0.0
  0
CIRCLE
  5
859
  8
SIZE
  6
CONTINUOUS
 62
    30
 10
480.0
 20
800.10319699999991
 30
0.0
 40
5.0
  0
POINT
  5
85A
  8
DEFPOINTS
  6
CONTINUOUS
 62
     7
 10
496.0
 20
800.10319699999991
 30
0.0
  0
LINE
  5
85B
  8
SIZE
  6
CONTINUOUS
 62
    30
 10
501.0
 20
800.10319699999991
 30
0.0
 11
506.0
 21
800.10319699999991
 31
0.0
  0
CIRCLE
  5
85C
  8
SIZE
  6
CONTINUOUS
 62
    30
 10
496.0
 20
800.10319699999991
 30
0.0
 40
5.0
  0
LINE
  5
85D
  8
SIZE
  6
CONTINUOUS
 62
    30
 10
475.0
 20
800.10319699999991
 30
0.0
 11
470.0
 21
800.10319699999991
 31
0.0
  0
CIRCLE
  5
85E
  8
SIZE
  6
CONTINUOUS
 62
    30
 10
480.0
 20
800.10319699999991
 30
0.0
 40
5.0
  0
LINE
  5
85F
  8
SIZE
  6
CONTINUOUS
 62
    30
 10
480.0
 20
800.10319699999991
 30
0.0
 11
496.0
 21
800.10319699999991
 31
0.0
  0
LINE
  5
860
  8
SIZE
  6
CONTINUOUS
 62
    30
 10
506.0
 20
800.10319699999991
 30
0.0
 11
617.79510521394332
 21
800.10319699999991
 31
0.0
  0
LINE
  5
861
  8
SIZE
  6
CONTINUOUS
 62
    30
 10
470.0
 20
800.10319699999991
 30
0.0
 11
460.0
 21
800.10319699999991
 31
0.0
  0
LINE
  5
862
  8
SIZE
  6
CONTINUOUS
 62
    30
 10
463.0
 20
917.16242200000011
 30
0.0
 11
453.0
 21
917.16242200000011
 31
0.0
  0
POINT
  5
863
  8
DEFPOINTS
  6
CONTINUOUS
 62
     7
 10
473.0
 20
917.16242200000011
 30
0.0
  0
LINE
  5
864
  8
SIZE
  6
CONTINUOUS
 62
    30
 10
468.0
 20
917.16242200000011
 30
0.0
 11
463.0
 21
917.16242200000011
 31
0.0
  0
POINT
  5
865
  8
DEFPOINTS
  6
CONTINUOUS
 62
     7
 10
496.0
 20
1042.9376
 30
0.0
  0
LINE
  5
866
  8
SIZE
  6
CONTINUOUS
 62
    30
 10
491.0
 20
1042.9376
 30
0.0
 11
486.0
 21
1042.9376
 31
0.0
  0
CIRCLE
  5
867
  8
SIZE
  6
CONTINUOUS
 62
    30
 10
496.0
 20
1042.9376
 30
0.0
 40
5.0
  0
POINT
  5
868
  8
DEFPOINTS
  6
CONTINUOUS
 62
     7
 10
496.0
 20
917.16242200000011
 30
0.0
  0
LINE
  5
869
  8
SIZE
  6
CONTINUOUS
 62
    30
 10
501.0
 20
917.16242200000011
 30
0.0
 11
506.0
 21
917.16242200000011
 31
0.0
  0
LINE
  5
86A
  8
SIZE
  6
CONTINUOUS
 62
    30
 10
468.0
 20
917.16242200000011
 30
0.0
 11
463.0
 21
917.16242200000011
 31
0.0
  0
LINE
  5
86B
  8
SIZE
  6
CONTINUOUS
 62
    30
 10
473.0
 20
917.16242200000011
 30
0.0
 11
496.0
 21
917.16242200000011
 31
0.0
  0
LINE
  5
86C
  8
SIZE
  6
CONTINUOUS
 62
    30
 10
473.0
 20
917.16242200000011
 30
0.0
 11
496.0
 21
917.16242200000011
 31
0.0
  0
LINE
  5
86D
  8
SIZE
  6
CONTINUOUS
 62
    30
 10
506.0
 20
917.16242200000011
 30
0.0
 11
516.0
 21
917.16242200000011
 31
0.0
  0
POLYLINE
  5
86E
  8
SIZE
  6
CONTINUOUS
 62
    30
 66
     1
 10
0.0
 20
0.0
 30
0.0
  0
VERTEX
  5
9C0
  8
SIZE
  6
CONTINUOUS
 62
    30
 10
1172.4010599999999
 20
2.6523150000000002
 30
0.0
 42
0.186174
  0
VERTEX
  5
9C1
  8
SIZE
  6
CONTINUOUS
 62
    30
 10
1163.551211
 20
23.601803
 30
0.0
 42
0.082105
  0
VERTEX
  5
9C2
  8
SIZE
  6
CONTINUOUS
 62
    30
 10
1147.8487090000001
 20
35.776364000000001
 30
0.0
 42
0.058826
  0
VERTEX
  5
9C3
  8
SIZE
  6
CONTINUOUS
 62
    30
 10
1126.062651
 20
44.551290999999992
 30
0.0
 42
0.067494
  0
VERTEX
  5
9C4
  8
SIZE
  6
CONTINUOUS
 62
    30
 10
1088.5740920000001
 20
49.496794999999999
 30
0.0
 42
0.067494
  0
VERTEX
  5
9C5
  8
SIZE
  6
CONTINUOUS
 62
    30
 10
1051.0855320000001
 20
44.551290999999992
 30
0.0
 42
0.058826
  0
VERTEX
  5
9C6
  8
SIZE
  6
CONTINUOUS
 62
    30
 10
1029.2994739999999
 20
35.776364000000001
 30
0.0
 42
0.082105
  0
VERTEX
  5
9C7
  8
SIZE
  6
CONTINUOUS
 62
    30
 10
1013.5969720000001
 20
23.601803
 30
0.0
 42
0.186174
  0
VERTEX
  5
9C8
  8
SIZE
  6
CONTINUOUS
 62
    30
 10
1004.747123
 20
2.6523150000000002
 30
0.0
 42
0.186174
  0
SEQEND
  5
9C9
  8
SIZE
  6
CONTINUOUS
 62
    30
  0
LINE
  5
879
  8
SIZE
  6
CONTINUOUS
 62
    30
 10
805.88383799999986
 20
433.0
 30
0.0
 11
805.88383799999986
 21
297.0
 31
0.0
  0
TEXT
  5
87A
  8
SIZE
  6
CONTINUOUS
 62
    30
 10
948.15617799999995
 20
222.85714285714289
 30
0.0
 40
55.0
  1
293
 50
90.0
 41
0.9
 72
     1
 11
948.15617799999995
 21
286.5
 31
0.0
  0
LINE
  5
87B
  8
SIZE
  6
CONTINUOUS
 62
    30
 10
966.15617799999995
 20
150.0
 30
0.0
 11
966.15617799999995
 21
423.0
 31
0.0
  0
POINT
  5
87C
  8
DEFPOINTS
  6
CONTINUOUS
 62
     7
 10
741.64437799999996
 20
47.0
 30
0.0
  0
LINE
  5
87D
  8
SIZE
  6
CONTINUOUS
 62
    30
 10
741.64437799999996
 20
52.0
 30
0.0
 11
741.64437799999996
 21
57.0
 31
0.0
  0
CIRCLE
  5
87E
  8
SIZE
  6
CONTINUOUS
 62
    30
 10
741.64437799999996
 20
47.0
 30
0.0
 40
5.0
  0
LINE
  5
87F
  8
SIZE
  6
CONTINUOUS
 62
    30
 10
741.64437799999996
 20
0.0
 30
0.0
 11
741.64437799999996
 21
47.0
 31
0.0
  0
LINE
  5
880
  8
SIZE
  6
CONTINUOUS
 62
    30
 10
741.64437799999996
 20
0.0
 30
0.0
 11
741.64437799999996
 21
47.0
 31
0.0
  0
LINE
  5
881
  8
SIZE
  6
CONTINUOUS
 62
    30
 10
741.64437799999996
 20
57.0
 30
0.0
 11
741.64437799999996
 21
67.0
 31
0.0
  0
POINT
  5
882
  8
DEFPOINTS
  6
CONTINUOUS
 62
     7
 10
741.64437799999996
 20
0.0
 30
0.0
  0
LINE
  5
883
  8
SIZE
  6
CONTINUOUS
 62
    30
 10
741.64437799999996
 20
5.0
 30
0.0
 11
741.64437799999996
 21
10.0
 31
0.0
  0
LINE
  5
884
  8
SIZE
  6
CONTINUOUS
 62
    30
 10
741.64437799999996
 20
10.0
 30
0.0
 11
741.64437799999996
 21
20.0
 31
0.0
  0
POINT
  5
885
  8
DEFPOINTS
  6
CONTINUOUS
 62
     7
 10
966.15617799999995
 20
0.0
 30
0.0
  0
LINE
  5
886
  8
SIZE
  6
CONTINUOUS
 62
    30
 10
966.15617799999995
 20
5.0
 30
0.0
 11
966.15617799999995
 21
10.0
 31
0.0
  0
LINE
  5
887
  8
SIZE
  6
CONTINUOUS
 62
    30
 10
966.15617799999995
 20
135.0
 30
0.0
 11
966.15617799999995
 21
130.0
 31
0.0
  0
CIRCLE
  5
888
  8
SIZE
  6
CONTINUOUS
 62
    30
 10
966.15617799999995
 20
140.0
 30
0.0
 40
5.0
  0
LINE
  5
889
  8
SIZE
  6
CONTINUOUS
 62
    30
 10
966.15617799999995
 20
130.0
 30
0.0
 11
966.15617799999995
 21
10.0
 31
0.0
  0
LINE
  5
88A
  8
SIZE
  6
CONTINUOUS
 62
    30
 10
966.15617799999995
 20
145.0
 30
0.0
 11
966.15617799999995
 21
150.0
 31
0.0
  0
CIRCLE
  5
88B
  8
SIZE
  6
CONTINUOUS
 62
    30
 10
966.15617799999995
 20
140.0
 30
0.0
 40
5.0
  0
POINT
  5
88C
  8
DEFPOINTS
  6
CONTINUOUS
 62
     7
 10
805.88383799999986
 20
297.0
 30
0.0
  0
LINE
  5
88D
  8
SIZE
  6
CONTINUOUS
 62
    30
 10
805.88383799999986
 20
292.0
 30
0.0
 11
805.88383799999986
 21
287.0
 31
0.0
  0
CIRCLE
  5
88E
  8
SIZE
  6
CONTINUOUS
 62
    30
 10
805.88383799999986
 20
297.0
 30
0.0
 40
5.0
  0
LINE
  5
88F
  8
SIZE
  6
CONTINUOUS
 62
    30
 10
805.88383799999986
 20
287.0
 30
0.0
 11
805.88383799999986
 21
277.0
 31
0.0
  0
TEXT
  5
890
  8
SIZE
  6
CONTINUOUS
 62
    30
 10
787.88383799999986
 20
307.25
 30
0.0
 40
55.0
  1
136
 50
90.0
 41
0.9
 72
     1
 11
787.88383799999986
 21
365.0
 31
0.0
  0
LINE
  5
891
  8
SIZE
  6
CONTINUOUS
 62
    30
 10
805.88383799999986
 20
438.0
 30
0.0
 11
805.88383799999986
 21
443.0
 31
0.0
  0
CIRCLE
  5
892
  8
SIZE
  6
CONTINUOUS
 62
    30
 10
805.88383799999986
 20
433.0
 30
0.0
 40
5.0
  0
LINE
  5
893
  8
SIZE
  6
CONTINUOUS
 62
    30
 10
805.88383799999986
 20
443.0
 30
0.0
 11
805.88383799999986
 21
453.0
 31
0.0
  0
POINT
  5
894
  8
DEFPOINTS
  6
CONTINUOUS
 62
     7
 10
966.15617799999995
 20
433.0
 30
0.0
  0
LINE
  5
895
  8
SIZE
  6
CONTINUOUS
 62
    30
 10
966.15617799999995
 20
428.0
 30
0.0
 11
966.15617799999995
 21
423.0
 31
0.0
  0
CIRCLE
  5
896
  8
SIZE
  6
CONTINUOUS
 62
    30
 10
966.15617799999995
 20
433.0
 30
0.0
 40
5.0
  0
LINE
  5
897
  8
NOTE
  6
CONTINUOUS
 62
     4
 10
1296.918234
 20
622.67806900000005
 30
0.0
 11
583.90362500000003
 21
622.67806900000005
 31
0.0
  0
TEXT
  5
898
  8
NOTE
  6
CONTINUOUS
 62
     4
 10
605.57889599999999
 20
638.50459999999987
 30
0.0
 40
60.0
  1
AH 4-14×30長穴(M10)
 50
0.000003
 41
0.7
  7
STANDARD1
  0
ENDSEC
  0
EOF
