  0
SECTION
  2
HEADER
  9
$ACADVER
  1
AC1009
  9
$INSBASE
 10
0.0
 20
0.0
 30
0.0
  9
$EXTMIN
 10
-1105.6431456522801
 20
-853.49023385500539
 30
-0.000000000013056
  9
$EXTMAX
 10
1305.3068925028531
 20
728.64272904772577
 30
0.0000000000011552
  9
$LIMMIN
 10
-4267.1522210000003
 20
-2696.0832100000011
  9
$LIMMAX
 10
7190.7174229999991
 20
5141.1553640000002
  9
$ORTHOMODE
 70
     0
  9
$REGENMODE
 70
     1
  9
$FILLMODE
 70
     1
  9
$QTEXTMODE
 70
     0
  9
$MIRRTEXT
 70
     0
  9
$DRAGMODE
 70
     2
  9
$LTSCALE
 40
20.0
  9
$OSMODE
 70
   431
  9
$ATTMODE
 70
     1
  9
$TEXTSIZE
 40
64.0
  9
$TRACEWID
 40
0.05
  9
$TEXTSTYLE
  7
STANDARD
  9
$CLAYER
  8
SYMBOLLINE
  9
$CELTYPE
  6
CONTINUOUS
  9
$CECOLOR
 62
     7
  9
$DIMSCALE
 40
1.0
  9
$DIMASZ
 40
10.0
  9
$DIMEXO
 40
20.0
  9
$DIMDLI
 40
200.0
  9
$DIMRND
 40
0.0
  9
$DIMDLE
 40
0.0
  9
$DIMEXE
 40
30.0
  9
$DIMTP
 40
0.0
  9
$DIMTM
 40
0.0
  9
$DIMTXT
 40
55.0
  9
$DIMCEN
 40
0.0
  9
$DIMTSZ
 40
0.0
  9
$DIMTOL
 70
     0
  9
$DIMLIM
 70
     0
  9
$DIMTIH
 70
     0
  9
$DIMTOH
 70
     0
  9
$DIMSE1
 70
     0
  9
$DIMSE2
 70
     0
  9
$DIMTAD
 70
     1
  9
$DIMZIN
 70
     8
  9
$DIMBLK
  1

  9
$DIMASO
 70
     1
  9
$DIMSHO
 70
     0
  9
$DIMPOST
  1

  9
$DIMAPOST
  1

  9
$DIMALT
 70
     0
  9
$DIMALTD
 70
     2
  9
$DIMALTF
 40
25.399999999999999
  9
$DIMLFAC
 40
1.0
  9
$DIMTOFL
 70
     1
  9
$DIMTVP
 40
0.0
  9
$DIMTIX
 70
     1
  9
$DIMSOXD
 70
     0
  9
$DIMSAH
 70
     1
  9
$DIMBLK1
  1
DOTBLANK
  9
$DIMBLK2
  1
DOTBLANK
  9
$DIMSTYLE
  2
STANDARD
  9
$DIMCLRD
 70
     0
  9
$DIMCLRE
 70
     0
  9
$DIMCLRT
 70
     0
  9
$DIMTFAC
 40
1.0
  9
$DIMGAP
 40
0.09
  9
$LUNITS
 70
     2
  9
$LUPREC
 70
     4
  9
$SKETCHINC
 40
0.1
  9
$FILLETRAD
 40
30.0
  9
$AUNITS
 70
     1
  9
$AUPREC
 70
     3
  9
$MENU
  1
ACAD
  9
$ELEVATION
 40
0.0
  9
$PELEVATION
 40
0.0
  9
$THICKNESS
 40
0.0
  9
$LIMCHECK
 70
     0
  9
$BLIPMODE
 70
     0
  9
$CHAMFERA
 40
0.0
  9
$CHAMFERB
 40
0.0
  9
$SKPOLY
 70
     0
  9
$TDCREATE
 40
2450330.4399309959
  9
$TDUPDATE
 40
2455866.8204084611
  9
$TDINDWG
 40
3.5273233218
  9
$TDUSRTIMER
 40
3.5273231366000002
  9
$USRTIMER
 70
     1
  9
$ANGBASE
 50
0.0
  9
$ANGDIR
 70
     0
  9
$PDMODE
 70
     3
  9
$PDSIZE
 40
-2.0
  9
$PLINEWID
 40
0.0
  9
$COORDS
 70
     0
  9
$SPLFRAME
 70
     0
  9
$SPLINETYPE
 70
     6
  9
$SPLINESEGS
 70
     8
  9
$ATTDIA
 70
     0
  9
$ATTREQ
 70
     1
  9
$HANDLING
 70
     1
  9
$HANDSEED
  5
9C7
  9
$SURFTAB1
 70
     6
  9
$SURFTAB2
 70
     6
  9
$SURFTYPE
 70
     6
  9
$SURFU
 70
     6
  9
$SURFV
 70
     6
  9
$UCSNAME
  2

  9
$UCSORG
 10
0.0
 20
0.0
 30
0.0
  9
$UCSXDIR
 10
1.0
 20
0.0
 30
0.0
  9
$UCSYDIR
 10
0.0
 20
1.0
 30
0.0
  9
$PUCSNAME
  2

  9
$PUCSORG
 10
0.0
 20
0.0
 30
0.0
  9
$PUCSXDIR
 10
1.0
 20
0.0
 30
0.0
  9
$PUCSYDIR
 10
0.0
 20
1.0
 30
0.0
  9
$USERI1
 70
     0
  9
$USERI2
 70
     0
  9
$USERI3
 70
     0
  9
$USERI4
 70
     0
  9
$USERI5
 70
     0
  9
$USERR1
 40
20.0
  9
$USERR2
 40
0.0
  9
$USERR3
 40
0.0
  9
$USERR4
 40
0.0
  9
$USERR5
 40
0.0
  9
$WORLDVIEW
 70
     1
  9
$SHADEDGE
 70
     3
  9
$SHADEDIF
 70
    70
  9
$TILEMODE
 70
     1
  9
$MAXACTVP
 70
    48
  9
$PLIMCHECK
 70
     0
  9
$PEXTMIN
 10
1.0000000000000000E+020
 20
1.0000000000000000E+020
 30
1.0000000000000000E+020
  9
$PEXTMAX
 10
-1.0000000000000000E+020
 20
-1.0000000000000000E+020
 30
-1.0000000000000000E+020
  9
$PLIMMIN
 10
0.0
 20
0.0
  9
$PLIMMAX
 10
12.0
 20
9.0
  9
$UNITMODE
 70
     0
  9
$VISRETAIN
 70
     1
  9
$PLINEGEN
 70
     0
  9
$PSLTSCALE
 70
     1
  0
ENDSEC
  0
SECTION
  2
TABLES
  0
TABLE
  2
VPORT
 70
     1
  0
VPORT
  2
*ACTIVE
 70
     0
 10
0.0
 20
0.0
 11
1.0
 21
1.0
 12
1461.782600999999
 22
1222.536077
 13
0.0
 23
0.0
 14
50.0
 24
50.0
 15
100.0
 25
100.0
 16
0.0
 26
0.0
 36
1.0
 17
0.0
 27
0.0
 37
0.0
 40
7896.9888045514617
 41
1.555979643765903
 42
50.0
 43
0.0
 44
0.0
 50
0.0
 51
0.0
 71
     0
 72
  1000
 73
     1
 74
     0
 75
     0
 76
     0
 77
     0
 78
     0
  0
ENDTAB
  0
TABLE
  2
LTYPE
 70
     2
  0
LTYPE
  2
CONTINUOUS
 70
     0
  3
実線
 72
    65
 73
     0
 40
0.0
  0
LTYPE
  2
DASHDOT
 70
     0
  3
____ _ ____ _ ____ _ ____ _ ____ _ ____ _ ____
 72
    65
 73
     4
 40
5.5
 49
4.0
 49
-0.6
 49
0.3
 49
-0.6
  0
ENDTAB
  0
TABLE
  2
LAYER
 70
    12
  0
LAYER
  2
0
 70
     0
 62
     7
  6
CONTINUOUS
  0
LAYER
  2
SYMBOLLINE
 70
     0
 62
    15
  6
CONTINUOUS
  0
LAYER
  2
SIZE
 70
     0
 62
    30
  6
CONTINUOUS
  0
LAYER
  2
OUTLINE
 70
     0
 62
     3
  6
CONTINUOUS
  0
LAYER
  2
DETAIL
 70
     0
 62
     5
  6
CONTINUOUS
  0
LAYER
  2
BASIS
 70
     0
 62
     6
  6
DASHDOT
  0
LAYER
  2
NOTE
 70
     0
 62
     4
  6
CONTINUOUS
  0
LAYER
  2
ARRANGE
 70
     0
 62
     1
  6
CONTINUOUS
  0
LAYER
  2
FIX
 70
     0
 62
    11
  6
CONTINUOUS
  0
LAYER
  2
SERVICESPACE
 70
     0
 62
     2
  6
DASHDOT
  0
LAYER
  2
ETC
 70
     0
 62
    61
  6
CONTINUOUS
  0
LAYER
  2
DEFPOINTS
 70
     0
 62
     7
  6
CONTINUOUS
  0
ENDTAB
  0
TABLE
  2
STYLE
 70
     3
  0
STYLE
  2
STANDARD
 70
     0
 40
0.0
 41
0.9
 50
0.0
 71
     0
 42
64.0
  3
SIMPLEX
  4
BIGFONT
  0
STYLE
  2
ANNOTATIVE
 70
     0
 40
0.0
 41
1.0
 50
0.0
 71
     0
 42
0.2
  3
txt
  4

  0
STYLE
  2
STANDARD1
 70
     0
 40
0.0
 41
1.0
 50
0.0
 71
     0
 42
64.0
  3
MONOTXT
  4
BIGFONT
  0
ENDTAB
  0
TABLE
  2
VIEW
 70
     2
  0
VIEW
  2
ALL
 70
     0
 40
9000.0
 10
241.50664699999999
 20
0.0
 41
12483.01
 11
0.0
 21
0.0
 31
1.0
 12
0.0
 22
0.0
 32
0.0
 42
50.0
 43
0.0
 44
0.0
 50
0.0
 71
     0
  0
ENDTAB
  0
TABLE
  2
UCS
 70
     0
  0
ENDTAB
  0
TABLE
  2
APPID
 70
     4
  0
APPID
  2
ACAD
 70
     0
  0
APPID
  2
ACADANNOTATIVE
 70
     0
  0
APPID
  2
ACAD_MLEADERVER
 70
     0
  0
APPID
  2
ACAD_EXEMPT_FROM_CAD_STANDARDS
 70
     0
  0
ENDTAB
  0
TABLE
  2
DIMSTYLE
 70
     2
  0
DIMSTYLE
  2
STANDARD
 70
     0
  3

  4

  5

  6

  7

 40
1.0
 41
0.18
 42
0.0625
 43
0.38
 44
0.18
 45
0.0
 46
0.0
 47
0.0
 48
0.0
140
0.18
141
0.09
142
0.0
143
25.399999999999999
144
1.0
145
0.0
146
1.0
147
0.09
 71
     0
 72
     0
 73
     1
 74
     1
 75
     0
 76
     0
 77
     0
 78
     0
170
     0
171
     2
172
     0
173
     0
174
     0
175
     0
176
     0
177
     0
178
     0
  0
DIMSTYLE
  2
ANNOTATIVE
 70
     0
  3

  4

  5

  6

  7

 40
1.0
 41
0.18
 42
0.0625
 43
0.38
 44
0.18
 45
0.0
 46
0.0
 47
0.0
 48
0.0
140
0.18
141
0.09
142
0.0
143
25.399999999999999
144
1.0
145
0.0
146
1.0
147
0.09
 71
     0
 72
     0
 73
     1
 74
     1
 75
     0
 76
     0
 77
     0
 78
     0
170
     0
171
     2
172
     0
173
     0
174
     0
175
     0
176
     0
177
     0
178
     0
  0
ENDTAB
  0
ENDSEC
  0
SECTION
  2
BLOCKS
  0
BLOCK
  8
0
  2
$MODEL_SPACE
 70
     0
 10
0.0
 20
0.0
 30
0.0
  3
$MODEL_SPACE
  1

  0
ENDBLK
  5
979
  8
0
  0
BLOCK
 67
     1
  8
0
  2
$PAPER_SPACE
 70
     0
 10
0.0
 20
0.0
 30
0.0
  3
$PAPER_SPACE
  1

  0
ENDBLK
  5
975
 67
     1
  8
0
  0
BLOCK
  8
0
  2
_DOTBLANK
 70
     0
 10
0.0
 20
0.0
 30
0.0
  3
_DOTBLANK
  1

  0
CIRCLE
  5
32
  8
0
  6
CONTINUOUS
 62
     7
 10
0.0
 20
0.0
 30
0.0
 40
0.5
  0
LINE
  5
33
  8
0
  6
CONTINUOUS
 62
     7
 10
-0.5
 20
0.0
 30
0.0
 11
-1.0
 21
0.0
 31
0.0
  0
ENDBLK
  5
34
  8
0
  0
BLOCK
  8
0
 62
     7
  2
A$C06275759
 70
     0
 10
0.0
 20
0.0
 30
0.0
  3
A$C06275759
  1

  0
LINE
  5
30C
  8
SIZE
  6
CONTINUOUS
 62
    30
 10
802.02031199999988
 20
1583.9063650000001
 30
0.0
 11
1982.0203120000001
 21
1583.9063650000001
 31
0.0
  0
LINE
  5
30D
  8
SERVICESPACE
  6
CONTINUOUS
 62
     2
 10
792.02031199999999
 20
808.283053
 30
0.0
 11
1992.0203120000001
 21
808.283053
 31
0.0
  0
LINE
  5
30E
  8
SERVICESPACE
  6
CONTINUOUS
 62
     2
 10
792.02031199999999
 20
1374.2830530000001
 30
0.0
 11
1992.0203120000001
 21
1374.2830530000001
 31
0.0
  0
TEXT
  5
30F
  8
SIZE
  6
CONTINUOUS
 62
    30
 10
1044.8131691428571
 20
149.33506499999999
 30
0.0
 40
55.0
  1
1146(吊りボルトピッチ)
 41
0.9
 72
     1
 11
1392.0203120000001
 21
149.33506499999999
 31
0.0
  0
LINE
  5
310
  8
SIZE
  6
CONTINUOUS
 62
    30
 10
829.02031199999988
 20
131.93030300000001
 30
0.0
 11
1955.0203120000001
 21
131.93030300000001
 31
0.0
  0
LINE
  5
311
  8
SIZE
  6
CONTINUOUS
 62
    30
 10
822.02031199999999
 20
245.65930299999999
 30
0.0
 11
1962.0203120000001
 21
245.65930299999999
 31
0.0
  0
LINE
  5
312
  8
SIZE
  6
CONTINUOUS
 62
    30
 10
806.02031199999999
 20
30.000008000000001
 30
0.0
 11
1978.0203120000001
 21
30.000008000000001
 31
0.0
  0
LINE
  5
313
  8
NOTE
  6
CONTINUOUS
 62
     4
 10
1030.075797
 20
511.283053
 30
0.0
 11
1173.964827
 21
511.283053
 31
0.0
  0
LINE
  5
314
  8
OUTLINE
  6
CONTINUOUS
 62
     3
 10
812.02031199999988
 20
581.283053
 30
0.0
 11
1972.0203120000001
 21
581.283053
 31
0.0
  0
LINE
  5
315
  8
DETAIL
  6
CONTINUOUS
 62
     5
 10
796.02031199999999
 20
581.283053
 30
0.0
 11
1988.0203120000001
 21
581.283053
 31
0.0
  0
LINE
  5
316
  8
DETAIL
  6
CONTINUOUS
 62
     5
 10
812.02031199999988
 20
581.283053
 30
0.0
 11
1972.0203120000001
 21
581.283053
 31
0.0
  0
LINE
  5
317
  8
DETAIL
  6
CONTINUOUS
 62
     5
 10
1004.520312
 20
511.283053
 30
0.0
 11
1199.5203120000001
 21
511.283053
 31
0.0
  0
LINE
  5
318
  8
DETAIL
  6
CONTINUOUS
 62
     5
 10
1202.3234629999999
 20
551.283053
 30
0.0
 11
1002.020312
 21
551.283053
 31
0.0
  0
LINE
  5
319
  8
DETAIL
  6
CONTINUOUS
 62
     5
 10
848.02031199999965
 20
571.28305299999977
 30
0.0
 11
1936.0203120000001
 21
571.28305299999977
 31
0.0
  0
LINE
  5
31A
  8
BASIS
  6
DASHDOT
 62
     6
 10
708.56379100000004
 20
948.78305299999965
 30
0.0
 11
1392.0203120000001
 21
948.78305299999965
 31
0.0
  0
LINE
  5
31B
  8
SIZE
  6
CONTINUOUS
 62
    30
 10
782.02031199999999
 20
1705.5339779999999
 30
0.0
 11
2002.0203120000001
 21
1705.5339779999999
 31
0.0
  0
LINE
  5
31C
  8
OUTLINE
  6
CONTINUOUS
 62
     3
 10
840.49031199999979
 20
791.28303800000003
 30
0.0
 11
1933.6243119999999
 21
791.28303800000003
 31
0.0
  0
LINE
  5
31D
  8
OUTLINE
  6
CONTINUOUS
 62
     3
 10
840.49031199999979
 20
1391.283038
 30
0.0
 11
1933.6243119999999
 21
1391.283038
 31
0.0
  0
LINE
  5
31E
  8
DETAIL
  6
CONTINUOUS
 62
     5
 10
850.41631199999972
 20
828.28303800000003
 30
0.0
 11
1940.5503120000001
 21
828.28303800000003
 31
0.0
  0
LINE
  5
31F
  8
DETAIL
  6
CONTINUOUS
 62
     5
 10
850.41631199999972
 20
1354.283038
 30
0.0
 11
1940.5503120000001
 21
1354.283038
 31
0.0
  0
LINE
  5
320
  8
DETAIL
  6
CONTINUOUS
 62
     5
 10
840.49031199999979
 20
791.28303800000003
 30
0.0
 11
1933.6243119999999
 21
791.28303800000003
 31
0.0
  0
LINE
  5
321
  8
DETAIL
  6
CONTINUOUS
 62
     5
 10
840.49031199999979
 20
1391.283038
 30
0.0
 11
1933.6243119999999
 21
1391.283038
 31
0.0
  0
LINE
  5
322
  8
DETAIL
  6
CONTINUOUS
 62
     5
 10
1933.6243119999999
 20
828.28303800000003
 30
0.0
 11
843.4903119999999
 21
828.28303800000003
 31
0.0
  0
LINE
  5
323
  8
DETAIL
  6
CONTINUOUS
 62
     5
 10
1933.6243119999999
 20
1354.283038
 30
0.0
 11
843.4903119999999
 21
1354.283038
 31
0.0
  0
LINE
  5
324
  8
DETAIL
  6
CONTINUOUS
 62
     5
 10
1392.0203120000001
 20
891.28628499999979
 30
0.0
 11
825.4903119999999
 21
891.28628499999979
 31
0.0
  0
LINE
  5
325
  8
DETAIL
  6
CONTINUOUS
 62
     5
 10
1392.0203120000001
 20
1291.2797909999999
 30
0.0
 11
825.4903119999999
 21
1291.2797909999999
 31
0.0
  0
LINE
  5
326
  8
SERVICESPACE
  6
CONTINUOUS
 62
     2
 10
792.02031199999999
 20
1374.2830530000001
 30
0.0
 11
792.02031199999999
 21
808.283053
 31
0.0
  0
LINE
  5
327
  8
NOTE
  6
CONTINUOUS
 62
     4
 10
658.9647779999998
 20
964.71842300000003
 30
0.0
 11
776.02045799999985
 21
709.28134899999998
 31
0.0
  0
LINE
  5
328
  8
NOTE
  6
CONTINUOUS
 62
     4
 10
697.497975
 20
1058.987079
 30
0.0
 11
773.021163
 21
773.283053
 31
0.0
  0
LINE
  5
329
  8
OUTLINE
  6
CONTINUOUS
 62
     3
 10
772.02031199999988
 20
1375.283038
 30
0.0
 11
772.02031199999988
 21
807.28303800000003
 31
0.0
  0
LINE
  5
32A
  8
DETAIL
  6
CONTINUOUS
 62
     5
 10
825.4903119999999
 20
1336.283038
 30
0.0
 11
825.4903119999999
 21
846.28303799999969
 31
0.0
  0
LINE
  5
32B
  8
DETAIL
  6
CONTINUOUS
 62
     5
 10
772.02031199999988
 20
1375.283038
 30
0.0
 11
772.02031199999988
 21
807.28303800000003
 31
0.0
  0
CIRCLE
  5
32C
  8
SIZE
  6
CONTINUOUS
 62
    30
 10
773.021163
 20
333.42052699999999
 30
0.0
 40
5.0
  0
CIRCLE
  5
32D
  8
SIZE
  6
CONTINUOUS
 62
    30
 10
812.02031199999988
 20
333.42052699999999
 30
0.0
 40
5.0
  0
LINE
  5
32E
  8
SIZE
  6
CONTINUOUS
 62
    30
 10
812.02031199999988
 20
561.283053
 30
0.0
 11
812.02031199999988
 21
303.42052699999999
 31
0.0
  0
LINE
  5
32F
  8
SIZE
  6
CONTINUOUS
 62
    30
 10
773.021163
 20
747.783053
 30
0.0
 11
773.021163
 21
303.42052699999999
 31
0.0
  0
LINE
  5
330
  8
SIZE
  6
CONTINUOUS
 62
    30
 10
819.02031199999988
 20
580.28788699999996
 30
0.0
 11
819.02031199999988
 21
101.93030299999999
 31
0.0
  0
LINE
  5
331
  8
SIZE
  6
CONTINUOUS
 62
    30
 10
819.02031199999988
 20
580.28788699999996
 30
0.0
 11
819.02031199999988
 21
101.93030299999999
 31
0.0
  0
LINE
  5
332
  8
SIZE
  6
CONTINUOUS
 62
    30
 10
796.02031199999999
 20
561.283053
 30
0.0
 11
796.02031199999999
 21
101.93030299999999
 31
0.0
  0
LINE
  5
333
  8
SIZE
  6
CONTINUOUS
 62
    30
 10
812.02031199999988
 20
621.88318300000003
 30
0.0
 11
812.02031199999988
 21
215.65930299999999
 31
0.0
  0
LINE
  5
334
  8
SIZE
  6
CONTINUOUS
 62
    30
 10
812.02031199999988
 20
621.88318300000003
 30
0.0
 11
812.02031199999988
 21
215.65930299999999
 31
0.0
  0
LINE
  5
335
  8
SIZE
  6
CONTINUOUS
 62
    30
 10
796.02031199999999
 20
561.283053
 30
0.0
 11
796.02031199999999
 21
215.65930299999999
 31
0.0
  0
LINE
  5
336
  8
SIZE
  6
CONTINUOUS
 62
    30
 10
796.02031199999999
 20
561.283053
 30
0.0
 11
796.02031199999999
 21
0.000008
 31
0.0
  0
CIRCLE
  5
337
  8
SIZE
  6
CONTINUOUS
 62
    30
 10
796.02031199999999
 20
30.000008000000001
 30
0.0
 40
5.0
  0
TEXT
  5
338
  8
SIZE
  6
CONTINUOUS
 62
    30
 10
677.87745442857135
 20
149.93030300000001
 30
0.0
 40
55.0
  1
23
 41
0.9
 72
     1
 11
717.94888300000002
 21
149.93030300000001
 31
0.0
  0
LINE
  5
339
  8
SIZE
  6
CONTINUOUS
 62
    30
 10
786.02031199999999
 20
131.93030300000001
 30
0.0
 11
659.87745500000005
 21
131.93030300000001
 31
0.0
  0
LINE
  5
33A
  8
SIZE
  6
CONTINUOUS
 62
    30
 10
824.02031199999999
 20
131.93030300000001
 30
0.0
 11
829.02031199999988
 21
131.93030300000001
 31
0.0
  0
CIRCLE
  5
33B
  8
SIZE
  6
CONTINUOUS
 62
    30
 10
819.02031199999988
 20
131.93030300000001
 30
0.0
 40
5.0
  0
POINT
  5
33C
  8
DEFPOINTS
  6
CONTINUOUS
 62
     7
 10
819.02031199999988
 20
131.93030300000001
 30
0.0
  0
LINE
  5
33D
  8
SIZE
  6
CONTINUOUS
 62
    30
 10
791.02031199999999
 20
131.93030300000001
 30
0.0
 11
786.02031199999999
 21
131.93030300000001
 31
0.0
  0
CIRCLE
  5
33E
  8
SIZE
  6
CONTINUOUS
 62
    30
 10
796.02031199999999
 20
131.93030300000001
 30
0.0
 40
5.0
  0
LINE
  5
33F
  8
SIZE
  6
CONTINUOUS
 62
    30
 10
824.02031199999999
 20
131.93030300000001
 30
0.0
 11
829.02031199999988
 21
131.93030300000001
 31
0.0
  0
CIRCLE
  5
340
  8
SIZE
  6
CONTINUOUS
 62
    30
 10
819.02031199999988
 20
131.93030300000001
 30
0.0
 40
5.0
  0
LINE
  5
341
  8
SIZE
  6
CONTINUOUS
 62
    30
 10
819.02031199999988
 20
131.93030300000001
 30
0.0
 11
796.02031199999999
 21
131.93030300000001
 31
0.0
  0
LINE
  5
342
  8
SIZE
  6
CONTINUOUS
 62
    30
 10
829.02031199999988
 20
131.93030300000001
 30
0.0
 11
839.02031199999965
 21
131.93030300000001
 31
0.0
  0
LINE
  5
343
  8
SIZE
  6
CONTINUOUS
 62
    30
 10
801.02031199999988
 20
30.000008000000001
 30
0.0
 11
806.02031199999999
 21
30.000008000000001
 31
0.0
  0
LINE
  5
344
  8
SIZE
  6
CONTINUOUS
 62
    30
 10
763.02116299999989
 20
333.42052699999999
 30
0.0
 11
639.23544900000002
 21
333.42052699999999
 31
0.0
  0
TEXT
  5
345
  8
SIZE
  6
CONTINUOUS
 62
    30
 10
689.66316957142851
 20
263.65930300000002
 30
0.0
 40
55.0
  1
16
 41
0.9
 72
     1
 11
723.84174099999996
 21
263.65930300000002
 31
0.0
  0
LINE
  5
346
  8
SIZE
  6
CONTINUOUS
 62
    30
 10
786.02031199999999
 20
245.65930299999999
 30
0.0
 11
671.66316900000004
 21
245.65930299999999
 31
0.0
  0
POINT
  5
347
  8
DEFPOINTS
  6
CONTINUOUS
 62
     7
 10
812.02031199999988
 20
333.42052699999999
 30
0.0
  0
LINE
  5
348
  8
SIZE
  6
CONTINUOUS
 62
    30
 10
768.021163
 20
333.42052699999999
 30
0.0
 11
763.02116299999989
 21
333.42052699999999
 31
0.0
  0
LINE
  5
349
  8
SIZE
  6
CONTINUOUS
 62
    30
 10
817.02031199999999
 20
333.42052699999999
 30
0.0
 11
822.02031199999999
 21
333.42052699999999
 31
0.0
  0
LINE
  5
34A
  8
SIZE
  6
CONTINUOUS
 62
    30
 10
812.02031199999988
 20
333.42052699999999
 30
0.0
 11
773.021163
 21
333.42052699999999
 31
0.0
  0
LINE
  5
34B
  8
SIZE
  6
CONTINUOUS
 62
    30
 10
822.02031199999999
 20
333.42052699999999
 30
0.0
 11
832.02031199999999
 21
333.42052699999999
 31
0.0
  0
LINE
  5
34C
  8
SIZE
  6
CONTINUOUS
 62
    30
 10
817.02031199999999
 20
245.65930299999999
 30
0.0
 11
822.02031199999999
 21
245.65930299999999
 31
0.0
  0
CIRCLE
  5
34D
  8
SIZE
  6
CONTINUOUS
 62
    30
 10
812.02031199999988
 20
245.65930299999999
 30
0.0
 40
5.0
  0
POINT
  5
34E
  8
DEFPOINTS
  6
CONTINUOUS
 62
     7
 10
812.02031199999988
 20
245.65930299999999
 30
0.0
  0
LINE
  5
34F
  8
SIZE
  6
CONTINUOUS
 62
    30
 10
791.02031199999999
 20
245.65930299999999
 30
0.0
 11
786.02031199999999
 21
245.65930299999999
 31
0.0
  0
CIRCLE
  5
350
  8
SIZE
  6
CONTINUOUS
 62
    30
 10
796.02031199999999
 20
245.65930299999999
 30
0.0
 40
5.0
  0
LINE
  5
351
  8
SIZE
  6
CONTINUOUS
 62
    30
 10
817.02031199999999
 20
245.65930299999999
 30
0.0
 11
822.02031199999999
 21
245.65930299999999
 31
0.0
  0
CIRCLE
  5
352
  8
SIZE
  6
CONTINUOUS
 62
    30
 10
812.02031199999988
 20
245.65930299999999
 30
0.0
 40
5.0
  0
LINE
  5
353
  8
SIZE
  6
CONTINUOUS
 62
    30
 10
812.02031199999988
 20
245.65930299999999
 30
0.0
 11
796.02031199999999
 21
245.65930299999999
 31
0.0
  0
LINE
  5
354
  8
SIZE
  6
CONTINUOUS
 62
    30
 10
822.02031199999999
 20
245.65930299999999
 30
0.0
 11
832.02031199999999
 21
245.65930299999999
 31
0.0
  0
LINE
  5
355
  8
SIZE
  6
CONTINUOUS
 62
    30
 10
747.53031199999975
 20
773.283053
 30
0.0
 11
433.741536
 21
773.283053
 31
0.0
  0
LINE
  5
356
  8
SIZE
  6
CONTINUOUS
 62
    30
 10
744.76201500000002
 20
709.283053
 30
0.0
 11
433.741536
 21
709.283053
 31
0.0
  0
LINE
  5
357
  8
SIZE
  6
CONTINUOUS
 62
    30
 10
744.76201500000002
 20
709.283053
 30
0.0
 11
433.741536
 21
709.283053
 31
0.0
  0
LINE
  5
358
  8
SIZE
  6
CONTINUOUS
 62
    30
 10
792.02031199999999
 20
581.283053
 30
0.0
 11
433.741536
 21
581.283053
 31
0.0
  0
LINE
  5
359
  8
SIZE
  6
CONTINUOUS
 62
    30
 10
984.52031199999965
 20
511.283053
 30
0.0
 11
572.40671999999995
 21
511.283053
 31
0.0
  0
LINE
  5
35A
  8
SIZE
  6
CONTINUOUS
 62
    30
 10
982.02031199999965
 20
551.283053
 30
0.0
 11
572.40671999999995
 21
551.283053
 31
0.0
  0
LINE
  5
35B
  8
SIZE
  6
CONTINUOUS
 62
    30
 10
772.02031199999988
 20
581.283053
 30
0.0
 11
433.741536
 21
581.283053
 31
0.0
  0
LINE
  5
35C
  8
SIZE
  6
CONTINUOUS
 62
    30
 10
984.52031199999965
 20
511.283053
 30
0.0
 11
433.741536
 21
511.283053
 31
0.0
  0
TEXT
  5
35D
  8
SIZE
  6
CONTINUOUS
 62
    30
 10
445.741536
 20
586.35448157142844
 30
0.0
 40
55.0
  1
128
 50
90.0
 41
0.9
 72
     1
 11
445.741536
 21
645.28305299999988
 31
0.0
  0
LINE
  5
35E
  8
SIZE
  6
CONTINUOUS
 62
    30
 10
463.741536
 20
581.283053
 30
0.0
 11
463.741536
 21
709.283053
 31
0.0
  0
TEXT
  5
35F
  8
SIZE
  6
CONTINUOUS
 62
    30
 10
445.741536
 20
403.14019542857142
 30
0.0
 40
55.0
  1
70
 50
90.0
 41
0.9
 72
     1
 11
445.741536
 21
443.21162399999997
 31
0.0
  0
LINE
  5
360
  8
SIZE
  6
CONTINUOUS
 62
    30
 10
602.40672000000006
 20
501.283053
 30
0.0
 11
602.40672000000006
 21
370.2807620000001
 31
0.0
  0
LINE
  5
361
  8
SIZE
  6
CONTINUOUS
 62
    30
 10
463.741536
 20
511.283053
 30
0.0
 11
463.741536
 21
385.140196
 31
0.0
  0
TEXT
  5
362
  8
SIZE
  6
CONTINUOUS
 62
    30
 10
584.40671999999995
 20
388.28076142857151
 30
0.0
 40
55.0
  1
40
 50
90.0
 41
0.9
 72
     1
 11
584.40671999999995
 21
428.35219000000012
 31
0.0
  0
LINE
  5
363
  8
SIZE
  6
CONTINUOUS
 62
    30
 10
463.741536
 20
576.283053
 30
0.0
 11
463.741536
 21
571.28305299999977
 31
0.0
  0
CIRCLE
  5
364
  8
SIZE
  6
CONTINUOUS
 62
    30
 10
463.741536
 20
581.283053
 30
0.0
 40
5.0
  0
LINE
  5
365
  8
SIZE
  6
CONTINUOUS
 62
    30
 10
463.741536
 20
571.28305299999977
 30
0.0
 11
463.741536
 21
561.283053
 31
0.0
  0
POINT
  5
366
  8
DEFPOINTS
  6
CONTINUOUS
 62
     7
 10
463.741536
 20
581.283053
 30
0.0
  0
LINE
  5
367
  8
SIZE
  6
CONTINUOUS
 62
    30
 10
463.741536
 20
516.28305299999988
 30
0.0
 11
463.741536
 21
521.28305299999977
 31
0.0
  0
CIRCLE
  5
368
  8
SIZE
  6
CONTINUOUS
 62
    30
 10
463.741536
 20
511.283053
 30
0.0
 40
5.0
  0
LINE
  5
369
  8
SIZE
  6
CONTINUOUS
 62
    30
 10
463.741536
 20
576.283053
 30
0.0
 11
463.741536
 21
571.28305299999977
 31
0.0
  0
CIRCLE
  5
36A
  8
SIZE
  6
CONTINUOUS
 62
    30
 10
463.741536
 20
581.283053
 30
0.0
 40
5.0
  0
LINE
  5
36B
  8
SIZE
  6
CONTINUOUS
 62
    30
 10
463.741536
 20
571.28305299999977
 30
0.0
 11
463.741536
 21
521.28305299999977
 31
0.0
  0
POINT
  5
36C
  8
DEFPOINTS
  6
CONTINUOUS
 62
     7
 10
602.40672000000006
 20
511.283053
 30
0.0
  0
LINE
  5
36D
  8
SIZE
  6
CONTINUOUS
 62
    30
 10
602.40672000000006
 20
506.283053
 30
0.0
 11
602.40672000000006
 21
501.283053
 31
0.0
  0
CIRCLE
  5
36E
  8
SIZE
  6
CONTINUOUS
 62
    30
 10
602.40672000000006
 20
511.283053
 30
0.0
 40
5.0
  0
LINE
  5
36F
  8
SIZE
  6
CONTINUOUS
 62
    30
 10
602.40672000000006
 20
556.283053
 30
0.0
 11
602.40672000000006
 21
561.283053
 31
0.0
  0
CIRCLE
  5
370
  8
SIZE
  6
CONTINUOUS
 62
    30
 10
602.40672000000006
 20
551.283053
 30
0.0
 40
5.0
  0
LINE
  5
371
  8
SIZE
  6
CONTINUOUS
 62
    30
 10
602.40672000000006
 20
551.283053
 30
0.0
 11
602.40672000000006
 21
511.283053
 31
0.0
  0
LINE
  5
372
  8
SIZE
  6
CONTINUOUS
 62
    30
 10
602.40672000000006
 20
561.283053
 30
0.0
 11
602.40672000000006
 21
571.28305299999977
 31
0.0
  0
TEXT
  5
373
  8
SIZE
  6
CONTINUOUS
 62
    30
 10
445.741536
 20
802.6664099999997
 30
0.0
 40
55.0
  1
64
 50
90.0
 41
0.9
 72
     1
 11
445.741536
 21
843.9164099999997
 31
0.0
  0
LINE
  5
374
  8
SIZE
  6
CONTINUOUS
 62
    30
 10
463.741536
 20
903.16640999999981
 30
0.0
 11
463.741536
 21
773.283053
 31
0.0
  0
POINT
  5
375
  8
DEFPOINTS
  6
CONTINUOUS
 62
     7
 10
463.741536
 20
773.283053
 30
0.0
  0
LINE
  5
376
  8
SIZE
  6
CONTINUOUS
 62
    30
 10
463.741536
 20
768.283053
 30
0.0
 11
463.741536
 21
763.28305299999988
 31
0.0
  0
CIRCLE
  5
377
  8
SIZE
  6
CONTINUOUS
 62
    30
 10
463.741536
 20
773.283053
 30
0.0
 40
5.0
  0
LINE
  5
378
  8
SIZE
  6
CONTINUOUS
 62
    30
 10
463.741536
 20
714.283053
 30
0.0
 11
463.741536
 21
719.283053
 31
0.0
  0
CIRCLE
  5
379
  8
SIZE
  6
CONTINUOUS
 62
    30
 10
463.741536
 20
709.283053
 30
0.0
 40
5.0
  0
LINE
  5
37A
  8
SIZE
  6
CONTINUOUS
 62
    30
 10
463.741536
 20
719.283053
 30
0.0
 11
463.741536
 21
763.28305299999988
 31
0.0
  0
POINT
  5
37B
  8
DEFPOINTS
  6
CONTINUOUS
 62
     7
 10
463.741536
 20
709.283053
 30
0.0
  0
LINE
  5
37C
  8
SIZE
  6
CONTINUOUS
 62
    30
 10
463.741536
 20
714.283053
 30
0.0
 11
463.741536
 21
719.283053
 31
0.0
  0
CIRCLE
  5
37D
  8
SIZE
  6
CONTINUOUS
 62
    30
 10
463.741536
 20
709.283053
 30
0.0
 40
5.0
  0
LINE
  5
37E
  8
SIZE
  6
CONTINUOUS
 62
    30
 10
463.741536
 20
719.283053
 30
0.0
 11
463.741536
 21
729.28305299999988
 31
0.0
  0
LINE
  5
37F
  8
SIZE
  6
CONTINUOUS
 62
    30
 10
776.02031199999988
 20
678.03305699999999
 30
0.0
 11
776.02031199999988
 21
388.603635
 31
0.0
  0
LINE
  5
380
  8
OUTLINE
  6
CONTINUOUS
 62
     3
 10
812.02031199999988
 20
791.28303800000003
 30
0.0
 11
812.02031199999988
 21
581.283053
 31
0.0
  0
LINE
  5
381
  8
DETAIL
  6
CONTINUOUS
 62
     5
 10
796.02031199999999
 20
641.88318300000003
 30
0.0
 11
796.02031199999999
 21
621.28305299999977
 31
0.0
  0
LINE
  5
382
  8
DETAIL
  6
CONTINUOUS
 62
     5
 10
812.02031199999988
 20
581.283053
 30
0.0
 11
812.02031199999988
 21
791.28303800000003
 31
0.0
  0
TEXT
  5
383
  8
SIZE
  6
CONTINUOUS
 62
    30
 10
660.23459785714294
 20
436.60363499999988
 30
0.0
 40
55.0
  1
36
 41
0.9
 72
     1
 11
699.12745500000005
 21
436.60363499999988
 31
0.0
  0
LINE
  5
384
  8
SIZE
  6
CONTINUOUS
 62
    30
 10
812.02031199999988
 20
561.283053
 30
0.0
 11
812.02031199999988
 21
388.603635
 31
0.0
  0
TEXT
  5
385
  8
SIZE
  6
CONTINUOUS
 62
    30
 10
657.23544885714284
 20
351.42052699999999
 30
0.0
 40
55.0
  1
39
 41
0.9
 72
     1
 11
696.12830599999995
 21
351.42052699999999
 31
0.0
  0
LINE
  5
386
  8
SIZE
  6
CONTINUOUS
 62
    30
 10
766.02031199999999
 20
418.603635
 30
0.0
 11
642.23459800000001
 21
418.603635
 31
0.0
  0
POINT
  5
387
  8
DEFPOINTS
  6
CONTINUOUS
 62
     7
 10
776.02031199999988
 20
418.603635
 30
0.0
  0
LINE
  5
388
  8
SIZE
  6
CONTINUOUS
 62
    30
 10
771.02031199999999
 20
418.603635
 30
0.0
 11
766.02031199999999
 21
418.603635
 31
0.0
  0
CIRCLE
  5
389
  8
SIZE
  6
CONTINUOUS
 62
    30
 10
776.02031199999988
 20
418.603635
 30
0.0
 40
5.0
  0
LINE
  5
38A
  8
SIZE
  6
CONTINUOUS
 62
    30
 10
817.02031199999999
 20
418.603635
 30
0.0
 11
822.02031199999999
 21
418.603635
 31
0.0
  0
CIRCLE
  5
38B
  8
SIZE
  6
CONTINUOUS
 62
    30
 10
812.02031199999988
 20
418.603635
 30
0.0
 40
5.0
  0
LINE
  5
38C
  8
SIZE
  6
CONTINUOUS
 62
    30
 10
812.02031199999988
 20
418.603635
 30
0.0
 11
776.02031199999988
 21
418.603635
 31
0.0
  0
LINE
  5
38D
  8
SIZE
  6
CONTINUOUS
 62
    30
 10
822.02031199999999
 20
418.603635
 30
0.0
 11
832.02031199999999
 21
418.603635
 31
0.0
  0
POINT
  5
38E
  8
DEFPOINTS
  6
CONTINUOUS
 62
     7
 10
812.02031199999988
 20
581.283053
 30
0.0
  0
POINT
  5
38F
  8
DEFPOINTS
  6
CONTINUOUS
 62
     7
 10
812.02031199999988
 20
581.283053
 30
0.0
  0
POINT
  5
390
  8
DEFPOINTS
  6
CONTINUOUS
 62
     7
 10
812.02031199999988
 20
581.283053
 30
0.0
  0
POINT
  5
391
  8
DEFPOINTS
  6
CONTINUOUS
 62
     7
 10
819.02031199999988
 20
600.28788699999996
 30
0.0
  0
POINT
  5
392
  8
DEFPOINTS
  6
CONTINUOUS
 62
     7
 10
819.02031199999988
 20
600.28788699999996
 30
0.0
  0
POINT
  5
393
  8
DEFPOINTS
  6
CONTINUOUS
 62
     7
 10
796.02031199999999
 20
581.283053
 30
0.0
  0
POINT
  5
394
  8
DEFPOINTS
  6
CONTINUOUS
 62
     7
 10
796.02031199999999
 20
581.283053
 30
0.0
  0
POINT
  5
395
  8
DEFPOINTS
  6
CONTINUOUS
 62
     7
 10
792.02031199999999
 20
581.283053
 30
0.0
  0
POINT
  5
396
  8
DEFPOINTS
  6
CONTINUOUS
 62
     7
 10
796.02031199999999
 20
581.283053
 30
0.0
  0
CIRCLE
  5
397
  8
FIX
  6
CONTINUOUS
 62
    11
 10
819.02031199999988
 20
615.283053
 30
0.0
 40
12.421498
  0
LINE
  5
398
  8
NOTE
  6
CONTINUOUS
 62
     4
 10
819.02031199999988
 20
630.27821900000004
 30
0.0
 11
819.02031199999988
 21
600.28788699999996
 31
0.0
  0
LINE
  5
399
  8
NOTE
  6
CONTINUOUS
 62
     4
 10
804.02514599999984
 20
615.283053
 30
0.0
 11
834.01547800000003
 21
615.283053
 31
0.0
  0
LINE
  5
39A
  8
DETAIL
  6
CONTINUOUS
 62
     5
 10
796.02031199999999
 20
609.283053
 30
0.0
 11
796.02031199999999
 21
581.283053
 31
0.0
  0
LINE
  5
39B
  8
DETAIL
  6
CONTINUOUS
 62
     5
 10
812.02031199999988
 20
609.283053
 30
0.0
 11
796.02031199999999
 21
609.283053
 31
0.0
  0
LINE
  5
39C
  8
DETAIL
  6
CONTINUOUS
 62
     5
 10
812.02031199999988
 20
621.28305299999977
 30
0.0
 11
796.02031199999999
 21
621.28305299999977
 31
0.0
  0
LINE
  5
39D
  8
DETAIL
  6
CONTINUOUS
 62
     5
 10
812.02031199999988
 20
621.28305299999977
 30
0.0
 11
812.02031199999988
 21
623.283053
 31
0.0
  0
LINE
  5
39E
  8
DETAIL
  6
CONTINUOUS
 62
     5
 10
812.02031199999988
 20
607.283053
 30
0.0
 11
812.02031199999988
 21
609.283053
 31
0.0
  0
LINE
  5
39F
  8
DETAIL
  6
CONTINUOUS
 62
     5
 10
812.02031199999988
 20
607.283053
 30
0.0
 11
812.02031199999988
 21
609.283053
 31
0.0
  0
LINE
  5
3A0
  8
DETAIL
  6
CONTINUOUS
 62
     5
 10
812.02031199999988
 20
621.28305299999977
 30
0.0
 11
812.02031199999988
 21
623.283053
 31
0.0
  0
LINE
  5
3A1
  8
DETAIL
  6
CONTINUOUS
 62
     5
 10
812.02031199999988
 20
621.28305299999977
 30
0.0
 11
796.02031199999999
 21
621.28305299999977
 31
0.0
  0
LINE
  5
3A2
  8
DETAIL
  6
CONTINUOUS
 62
     5
 10
812.02031199999988
 20
609.283053
 30
0.0
 11
796.02031199999999
 21
609.283053
 31
0.0
  0
LINE
  5
3A3
  8
DETAIL
  6
CONTINUOUS
 62
     5
 10
847.55198199999984
 20
571.310564
 30
0.0
 11
993.19113699999991
 21
561.21427500000004
 31
0.0
  0
LINE
  5
3A4
  8
DETAIL
  6
CONTINUOUS
 62
     5
 10
844.02031199999988
 20
581.283053
 30
0.0
 11
844.02031199999988
 21
575.28305299999977
 31
0.0
  0
ARC
  5
3A5
  8
DETAIL
  6
CONTINUOUS
 62
     5
 10
848.02031199999965
 20
575.28305299999977
 30
0.0
 40
4.0
 50
180.0
 51
263.27624300000002
  0
POINT
  5
3A6
  8
DEFPOINTS
  6
CONTINUOUS
 62
     7
 10
1004.520312
 20
511.283053
 30
0.0
  0
POINT
  5
3A7
  8
DEFPOINTS
  6
CONTINUOUS
 62
     7
 10
1002.020312
 20
551.283053
 30
0.0
  0
POINT
  5
3A8
  8
DEFPOINTS
  6
CONTINUOUS
 62
     7
 10
1004.520312
 20
511.283053
 30
0.0
  0
ARC
  5
3A9
  8
DETAIL
  6
CONTINUOUS
 62
     5
 10
992.02031199999965
 20
551.283053
 30
0.0
 40
10.0
 50
0.0
 51
83.276242999999994
  0
LINE
  5
3AA
  8
DETAIL
  6
CONTINUOUS
 62
     5
 10
1004.520312
 20
511.283053
 30
0.0
 11
1002.020312
 21
551.283053
 31
0.0
  0
LINE
  5
3AB
  8
OUTLINE
  6
CONTINUOUS
 62
     3
 10
850.4903119999999
 20
791.28303800000003
 30
0.0
 11
788.02031199999999
 21
791.28303800000003
 31
0.0
  0
ARC
  5
3AC
  8
DETAIL
  6
CONTINUOUS
 62
     5
 10
843.4903119999999
 20
846.28303799999969
 30
0.0
 40
18.0
 50
180.0
 51
270.0
  0
LINE
  5
3AD
  8
DETAIL
  6
CONTINUOUS
 62
     5
 10
850.4903119999999
 20
791.28303800000003
 30
0.0
 11
788.02031199999999
 21
791.28303800000003
 31
0.0
  0
LINE
  5
3AE
  8
NOTE
  6
CONTINUOUS
 62
     4
 10
773.021163
 20
773.283053
 30
0.0
 11
757.30261199999984
 21
803.8653489999997
 31
0.0
  0
LINE
  5
3AF
  8
NOTE
  6
CONTINUOUS
 62
     4
 10
773.021163
 20
773.283053
 30
0.0
 11
770.68728099999998
 21
807.589068
 31
0.0
  0
ARC
  5
3B0
  8
OUTLINE
  6
CONTINUOUS
 62
     3
 10
788.02031199999999
 20
807.28303800000003
 30
0.0
 40
16.0
 50
180.0
 51
270.0
  0
ARC
  5
3B1
  8
DETAIL
  6
CONTINUOUS
 62
     5
 10
788.02031199999999
 20
807.28303800000003
 30
0.0
 40
16.0
 50
180.0
 51
270.0
  0
POINT
  5
3B2
  8
DEFPOINTS
  6
CONTINUOUS
 62
     7
 10
767.53031199999975
 20
773.283053
 30
0.0
  0
POINT
  5
3B3
  8
DEFPOINTS
  6
CONTINUOUS
 62
     7
 10
764.76201500000002
 20
709.283053
 30
0.0
  0
POINT
  5
3B4
  8
DEFPOINTS
  6
CONTINUOUS
 62
     7
 10
764.76201500000002
 20
709.283053
 30
0.0
  0
LINE
  5
3B5
  8
NOTE
  6
CONTINUOUS
 62
     4
 10
776.02045799999985
 20
709.28134899999998
 30
0.0
 11
755.31964600000003
 21
736.73724100000004
 31
0.0
  0
LINE
  5
3B6
  8
NOTE
  6
CONTINUOUS
 62
     4
 10
776.02045799999985
 20
709.28134899999998
 30
0.0
 11
767.87384199999985
 21
742.68767000000003
 31
0.0
  0
POINT
  5
3B7
  8
DEFPOINTS
  6
CONTINUOUS
 62
     7
 10
773.021163
 20
767.783053
 30
0.0
  0
POINT
  5
3B8
  8
DEFPOINTS
  6
CONTINUOUS
 62
     7
 10
776.02031199999988
 20
698.03305699999976
 30
0.0
  0
POINT
  5
3B9
  8
DEFPOINTS
  6
CONTINUOUS
 62
     7
 10
812.02031199999988
 20
641.88318300000003
 30
0.0
  0
POINT
  5
3BA
  8
DEFPOINTS
  6
CONTINUOUS
 62
     7
 10
812.02031199999988
 20
641.88318300000003
 30
0.0
  0
LINE
  5
3BB
  8
DETAIL
  6
CONTINUOUS
 62
     5
 10
812.02031199999988
 20
641.88318300000003
 30
0.0
 11
796.22031200000004
 21
641.88318300000003
 31
0.0
  0
LINE
  5
3BC
  8
NOTE
  6
CONTINUOUS
 62
     4
 10
787.26201500000002
 20
709.283053
 30
0.0
 11
764.76201500000002
 21
709.283053
 31
0.0
  0
LINE
  5
3BD
  8
NOTE
  6
CONTINUOUS
 62
     4
 10
776.02031199999988
 20
720.53304900000001
 30
0.0
 11
776.02031199999988
 21
698.03305699999976
 31
0.0
  0
LINE
  5
3BE
  8
NOTE
  6
CONTINUOUS
 62
     4
 10
778.53031199999998
 20
773.283053
 30
0.0
 11
767.53031199999975
 21
773.283053
 31
0.0
  0
LINE
  5
3BF
  8
NOTE
  6
CONTINUOUS
 62
     4
 10
773.021163
 20
778.78304500000002
 30
0.0
 11
773.021163
 21
767.78306099999998
 31
0.0
  0
LINE
  5
3C0
  8
NOTE
  6
CONTINUOUS
 62
     4
 10
776.03031199999975
 20
720.53304900000001
 30
0.0
 11
776.03031199999975
 21
698.03305699999976
 31
0.0
  0
LINE
  5
3C1
  8
DETAIL
  6
CONTINUOUS
 62
     5
 10
776.03031199999975
 20
720.533053
 30
0.0
 11
776.03031199999975
 21
698.03305299999977
 31
0.0
  0
LINE
  5
3C2
  8
DETAIL
  6
CONTINUOUS
 62
     5
 10
812.03031199999987
 20
697.783053
 30
0.0
 11
801.02201500000001
 21
697.783053
 31
0.0
  0
LINE
  5
3C3
  8
DETAIL
  6
CONTINUOUS
 62
     5
 10
812.03031199999987
 20
720.78305299999988
 30
0.0
 11
801.02201500000001
 21
720.78305299999988
 31
0.0
  0
LINE
  5
3C4
  8
DETAIL
  6
CONTINUOUS
 62
     5
 10
781.02201500000001
 20
702.283053
 30
0.0
 11
779.02201500000001
 21
700.28305299999977
 31
0.0
  0
LINE
  5
3C5
  8
DETAIL
  6
CONTINUOUS
 62
     5
 10
781.02201500000001
 20
702.283053
 30
0.0
 11
779.02201500000001
 21
700.28305299999977
 31
0.0
  0
LINE
  5
3C6
  8
DETAIL
  6
CONTINUOUS
 62
     5
 10
781.02201500000001
 20
702.283053
 30
0.0
 11
779.02201500000001
 21
704.28305299999977
 31
0.0
  0
LINE
  5
3C7
  8
DETAIL
  6
CONTINUOUS
 62
     5
 10
781.02201500000001
 20
702.283053
 30
0.0
 11
779.02201500000001
 21
704.28305299999977
 31
0.0
  0
LINE
  5
3C8
  8
DETAIL
  6
CONTINUOUS
 62
     5
 10
781.02201500000001
 20
716.28305299999988
 30
0.0
 11
779.02201500000001
 21
714.283053
 31
0.0
  0
LINE
  5
3C9
  8
DETAIL
  6
CONTINUOUS
 62
     5
 10
781.02201500000001
 20
716.28305299999988
 30
0.0
 11
779.02201500000001
 21
714.283053
 31
0.0
  0
LINE
  5
3CA
  8
DETAIL
  6
CONTINUOUS
 62
     5
 10
781.02201500000001
 20
716.28305299999988
 30
0.0
 11
779.02201500000001
 21
718.283053
 31
0.0
  0
LINE
  5
3CB
  8
DETAIL
  6
CONTINUOUS
 62
     5
 10
781.02201500000001
 20
716.28305299999988
 30
0.0
 11
779.02201500000001
 21
718.283053
 31
0.0
  0
LINE
  5
3CC
  8
DETAIL
  6
CONTINUOUS
 62
     5
 10
793.02201500000001
 20
716.28305299999988
 30
0.0
 11
795.02201500000001
 21
718.283053
 31
0.0
  0
LINE
  5
3CD
  8
DETAIL
  6
CONTINUOUS
 62
     5
 10
793.02201500000001
 20
716.28305299999988
 30
0.0
 11
795.02201500000001
 21
718.283053
 31
0.0
  0
LINE
  5
3CE
  8
DETAIL
  6
CONTINUOUS
 62
     5
 10
793.02201500000001
 20
716.28305299999988
 30
0.0
 11
795.02201500000001
 21
714.283053
 31
0.0
  0
LINE
  5
3CF
  8
DETAIL
  6
CONTINUOUS
 62
     5
 10
793.02201500000001
 20
716.28305299999988
 30
0.0
 11
795.02201500000001
 21
714.283053
 31
0.0
  0
LINE
  5
3D0
  8
DETAIL
  6
CONTINUOUS
 62
     5
 10
793.02201500000001
 20
702.283053
 30
0.0
 11
795.02201500000001
 21
704.28305299999977
 31
0.0
  0
LINE
  5
3D1
  8
DETAIL
  6
CONTINUOUS
 62
     5
 10
793.02201500000001
 20
702.283053
 30
0.0
 11
795.02201500000001
 21
704.28305299999977
 31
0.0
  0
LINE
  5
3D2
  8
DETAIL
  6
CONTINUOUS
 62
     5
 10
793.02201500000001
 20
702.283053
 30
0.0
 11
795.02201500000001
 21
700.28305299999977
 31
0.0
  0
LINE
  5
3D3
  8
DETAIL
  6
CONTINUOUS
 62
     5
 10
793.02201500000001
 20
702.283053
 30
0.0
 11
795.02201500000001
 21
700.28305299999977
 31
0.0
  0
LINE
  5
3D4
  8
DETAIL
  6
CONTINUOUS
 62
     5
 10
793.02201500000001
 20
702.283053
 30
0.0
 11
781.02201500000001
 21
702.283053
 31
0.0
  0
LINE
  5
3D5
  8
DETAIL
  6
CONTINUOUS
 62
     5
 10
793.02201500000001
 20
702.283053
 30
0.0
 11
781.02201500000001
 21
702.283053
 31
0.0
  0
LINE
  5
3D6
  8
DETAIL
  6
CONTINUOUS
 62
     5
 10
793.02201500000001
 20
716.28305299999988
 30
0.0
 11
781.02201500000001
 21
716.28305299999988
 31
0.0
  0
LINE
  5
3D7
  8
DETAIL
  6
CONTINUOUS
 62
     5
 10
793.02201500000001
 20
716.28305299999988
 30
0.0
 11
781.02201500000001
 21
716.28305299999988
 31
0.0
  0
LINE
  5
3D8
  8
DETAIL
  6
CONTINUOUS
 62
     5
 10
795.02201500000001
 20
698.283053
 30
0.0
 11
793.02201500000001
 21
696.28305299999977
 31
0.0
  0
LINE
  5
3D9
  8
DETAIL
  6
CONTINUOUS
 62
     5
 10
795.02201500000001
 20
698.283053
 30
0.0
 11
793.02201500000001
 21
696.28305299999977
 31
0.0
  0
LINE
  5
3DA
  8
DETAIL
  6
CONTINUOUS
 62
     5
 10
795.02201500000001
 20
720.28305299999988
 30
0.0
 11
793.02201500000001
 21
722.283053
 31
0.0
  0
LINE
  5
3DB
  8
DETAIL
  6
CONTINUOUS
 62
     5
 10
795.02201500000001
 20
720.28305299999988
 30
0.0
 11
793.02201500000001
 21
722.283053
 31
0.0
  0
LINE
  5
3DC
  8
DETAIL
  6
CONTINUOUS
 62
     5
 10
776.03031199999975
 20
698.03305699999976
 30
0.0
 11
779.02201500000001
 21
696.28305299999977
 31
0.0
  0
LINE
  5
3DD
  8
DETAIL
  6
CONTINUOUS
 62
     5
 10
776.03031199999975
 20
698.03305699999976
 30
0.0
 11
779.02201500000001
 21
696.28305299999977
 31
0.0
  0
LINE
  5
3DE
  8
DETAIL
  6
CONTINUOUS
 62
     5
 10
779.02201500000001
 20
722.283053
 30
0.0
 11
776.03031199999975
 21
720.533053
 31
0.0
  0
LINE
  5
3DF
  8
DETAIL
  6
CONTINUOUS
 62
     5
 10
779.02201500000001
 20
722.283053
 30
0.0
 11
776.03031199999975
 21
720.533053
 31
0.0
  0
LINE
  5
3E0
  8
DETAIL
  6
CONTINUOUS
 62
     5
 10
779.02201500000001
 20
722.283053
 30
0.0
 11
779.02201500000001
 21
696.28305299999977
 31
0.0
  0
LINE
  5
3E1
  8
DETAIL
  6
CONTINUOUS
 62
     5
 10
779.02201500000001
 20
722.283053
 30
0.0
 11
779.02201500000001
 21
696.28305299999977
 31
0.0
  0
LINE
  5
3E2
  8
DETAIL
  6
CONTINUOUS
 62
     5
 10
795.02201500000001
 20
720.28305299999988
 30
0.0
 11
795.02201500000001
 21
698.283053
 31
0.0
  0
LINE
  5
3E3
  8
DETAIL
  6
CONTINUOUS
 62
     5
 10
795.02201500000001
 20
720.28305299999988
 30
0.0
 11
795.02201500000001
 21
698.283053
 31
0.0
  0
LINE
  5
3E4
  8
DETAIL
  6
CONTINUOUS
 62
     5
 10
793.02201500000001
 20
696.28305299999977
 30
0.0
 11
779.02201500000001
 21
696.28305299999977
 31
0.0
  0
LINE
  5
3E5
  8
DETAIL
  6
CONTINUOUS
 62
     5
 10
793.02201500000001
 20
696.28305299999977
 30
0.0
 11
779.02201500000001
 21
696.28305299999977
 31
0.0
  0
LINE
  5
3E6
  8
DETAIL
  6
CONTINUOUS
 62
     5
 10
793.02201500000001
 20
722.283053
 30
0.0
 11
779.02201500000001
 21
722.283053
 31
0.0
  0
LINE
  5
3E7
  8
DETAIL
  6
CONTINUOUS
 62
     5
 10
793.02201500000001
 20
722.283053
 30
0.0
 11
779.02201500000001
 21
722.283053
 31
0.0
  0
LINE
  5
3E8
  8
DETAIL
  6
CONTINUOUS
 62
     5
 10
795.02201500000001
 20
717.28305299999977
 30
0.0
 11
795.02201500000001
 21
701.283053
 31
0.0
  0
LINE
  5
3E9
  8
DETAIL
  6
CONTINUOUS
 62
     5
 10
795.02201500000001
 20
701.283053
 30
0.0
 11
799.02201499999978
 21
701.283053
 31
0.0
  0
LINE
  5
3EA
  8
DETAIL
  6
CONTINUOUS
 62
     5
 10
795.02201500000001
 20
717.28305299999977
 30
0.0
 11
799.02201499999978
 21
717.28305299999977
 31
0.0
  0
LINE
  5
3EB
  8
DETAIL
  6
CONTINUOUS
 62
     5
 10
799.02201499999978
 20
718.783053
 30
0.0
 11
801.02201500000001
 21
720.78305299999988
 31
0.0
  0
LINE
  5
3EC
  8
DETAIL
  6
CONTINUOUS
 62
     5
 10
799.02201499999978
 20
699.78305299999977
 30
0.0
 11
801.02201500000001
 21
697.783053
 31
0.0
  0
LINE
  5
3ED
  8
DETAIL
  6
CONTINUOUS
 62
     5
 10
799.02201499999978
 20
718.783053
 30
0.0
 11
799.02201499999978
 21
699.78305299999977
 31
0.0
  0
LINE
  5
3EE
  8
DETAIL
  6
CONTINUOUS
 62
     5
 10
781.02201500000001
 20
702.283053
 30
0.0
 11
779.02201500000001
 21
700.28305299999977
 31
0.0
  0
LINE
  5
3EF
  8
DETAIL
  6
CONTINUOUS
 62
     5
 10
781.02201500000001
 20
702.283053
 30
0.0
 11
779.02201500000001
 21
700.28305299999977
 31
0.0
  0
LINE
  5
3F0
  8
DETAIL
  6
CONTINUOUS
 62
     5
 10
781.02201500000001
 20
702.283053
 30
0.0
 11
779.02201500000001
 21
704.28305299999977
 31
0.0
  0
LINE
  5
3F1
  8
DETAIL
  6
CONTINUOUS
 62
     5
 10
781.02201500000001
 20
702.283053
 30
0.0
 11
779.02201500000001
 21
704.28305299999977
 31
0.0
  0
LINE
  5
3F2
  8
DETAIL
  6
CONTINUOUS
 62
     5
 10
781.02201500000001
 20
716.28305299999988
 30
0.0
 11
779.02201500000001
 21
714.283053
 31
0.0
  0
LINE
  5
3F3
  8
DETAIL
  6
CONTINUOUS
 62
     5
 10
781.02201500000001
 20
716.28305299999988
 30
0.0
 11
779.02201500000001
 21
714.283053
 31
0.0
  0
LINE
  5
3F4
  8
DETAIL
  6
CONTINUOUS
 62
     5
 10
781.02201500000001
 20
716.28305299999988
 30
0.0
 11
779.02201500000001
 21
718.283053
 31
0.0
  0
LINE
  5
3F5
  8
DETAIL
  6
CONTINUOUS
 62
     5
 10
781.02201500000001
 20
716.28305299999988
 30
0.0
 11
779.02201500000001
 21
718.283053
 31
0.0
  0
LINE
  5
3F6
  8
DETAIL
  6
CONTINUOUS
 62
     5
 10
793.02201500000001
 20
716.28305299999988
 30
0.0
 11
795.02201500000001
 21
718.283053
 31
0.0
  0
LINE
  5
3F7
  8
DETAIL
  6
CONTINUOUS
 62
     5
 10
793.02201500000001
 20
716.28305299999988
 30
0.0
 11
795.02201500000001
 21
718.283053
 31
0.0
  0
LINE
  5
3F8
  8
DETAIL
  6
CONTINUOUS
 62
     5
 10
793.02201500000001
 20
716.28305299999988
 30
0.0
 11
795.02201500000001
 21
714.283053
 31
0.0
  0
LINE
  5
3F9
  8
DETAIL
  6
CONTINUOUS
 62
     5
 10
793.02201500000001
 20
716.28305299999988
 30
0.0
 11
795.02201500000001
 21
714.283053
 31
0.0
  0
LINE
  5
3FA
  8
DETAIL
  6
CONTINUOUS
 62
     5
 10
793.02201500000001
 20
702.283053
 30
0.0
 11
795.02201500000001
 21
704.28305299999977
 31
0.0
  0
LINE
  5
3FB
  8
DETAIL
  6
CONTINUOUS
 62
     5
 10
793.02201500000001
 20
702.283053
 30
0.0
 11
795.02201500000001
 21
704.28305299999977
 31
0.0
  0
LINE
  5
3FC
  8
DETAIL
  6
CONTINUOUS
 62
     5
 10
793.02201500000001
 20
702.283053
 30
0.0
 11
795.02201500000001
 21
700.28305299999977
 31
0.0
  0
LINE
  5
3FD
  8
DETAIL
  6
CONTINUOUS
 62
     5
 10
793.02201500000001
 20
702.283053
 30
0.0
 11
795.02201500000001
 21
700.28305299999977
 31
0.0
  0
LINE
  5
3FE
  8
DETAIL
  6
CONTINUOUS
 62
     5
 10
793.02201500000001
 20
702.283053
 30
0.0
 11
781.02201500000001
 21
702.283053
 31
0.0
  0
LINE
  5
3FF
  8
DETAIL
  6
CONTINUOUS
 62
     5
 10
793.02201500000001
 20
702.283053
 30
0.0
 11
781.02201500000001
 21
702.283053
 31
0.0
  0
LINE
  5
400
  8
DETAIL
  6
CONTINUOUS
 62
     5
 10
793.02201500000001
 20
716.28305299999988
 30
0.0
 11
781.02201500000001
 21
716.28305299999988
 31
0.0
  0
LINE
  5
401
  8
DETAIL
  6
CONTINUOUS
 62
     5
 10
793.02201500000001
 20
716.28305299999988
 30
0.0
 11
781.02201500000001
 21
716.28305299999988
 31
0.0
  0
LINE
  5
402
  8
DETAIL
  6
CONTINUOUS
 62
     5
 10
795.02201500000001
 20
698.283053
 30
0.0
 11
793.02201500000001
 21
696.28305299999977
 31
0.0
  0
LINE
  5
403
  8
DETAIL
  6
CONTINUOUS
 62
     5
 10
795.02201500000001
 20
698.283053
 30
0.0
 11
793.02201500000001
 21
696.28305299999977
 31
0.0
  0
LINE
  5
404
  8
DETAIL
  6
CONTINUOUS
 62
     5
 10
795.02201500000001
 20
720.28305299999988
 30
0.0
 11
793.02201500000001
 21
722.283053
 31
0.0
  0
LINE
  5
405
  8
DETAIL
  6
CONTINUOUS
 62
     5
 10
795.02201500000001
 20
720.28305299999988
 30
0.0
 11
793.02201500000001
 21
722.283053
 31
0.0
  0
LINE
  5
406
  8
DETAIL
  6
CONTINUOUS
 62
     5
 10
776.03031199999975
 20
698.03305699999976
 30
0.0
 11
779.02201500000001
 21
696.28305299999977
 31
0.0
  0
LINE
  5
407
  8
DETAIL
  6
CONTINUOUS
 62
     5
 10
776.03031199999975
 20
698.03305699999976
 30
0.0
 11
779.02201500000001
 21
696.28305299999977
 31
0.0
  0
LINE
  5
408
  8
DETAIL
  6
CONTINUOUS
 62
     5
 10
779.02201500000001
 20
722.283053
 30
0.0
 11
776.03031199999975
 21
720.533053
 31
0.0
  0
LINE
  5
409
  8
DETAIL
  6
CONTINUOUS
 62
     5
 10
779.02201500000001
 20
722.283053
 30
0.0
 11
776.03031199999975
 21
720.533053
 31
0.0
  0
LINE
  5
40A
  8
DETAIL
  6
CONTINUOUS
 62
     5
 10
779.02201500000001
 20
722.283053
 30
0.0
 11
779.02201500000001
 21
696.28305299999977
 31
0.0
  0
LINE
  5
40B
  8
DETAIL
  6
CONTINUOUS
 62
     5
 10
779.02201500000001
 20
722.283053
 30
0.0
 11
779.02201500000001
 21
696.28305299999977
 31
0.0
  0
LINE
  5
40C
  8
DETAIL
  6
CONTINUOUS
 62
     5
 10
795.02201500000001
 20
720.28305299999988
 30
0.0
 11
795.02201500000001
 21
698.283053
 31
0.0
  0
LINE
  5
40D
  8
DETAIL
  6
CONTINUOUS
 62
     5
 10
795.02201500000001
 20
720.28305299999988
 30
0.0
 11
795.02201500000001
 21
698.283053
 31
0.0
  0
LINE
  5
40E
  8
DETAIL
  6
CONTINUOUS
 62
     5
 10
793.02201500000001
 20
696.28305299999977
 30
0.0
 11
779.02201500000001
 21
696.28305299999977
 31
0.0
  0
LINE
  5
40F
  8
DETAIL
  6
CONTINUOUS
 62
     5
 10
793.02201500000001
 20
696.28305299999977
 30
0.0
 11
779.02201500000001
 21
696.28305299999977
 31
0.0
  0
LINE
  5
410
  8
DETAIL
  6
CONTINUOUS
 62
     5
 10
793.02201500000001
 20
722.283053
 30
0.0
 11
779.02201500000001
 21
722.283053
 31
0.0
  0
LINE
  5
411
  8
DETAIL
  6
CONTINUOUS
 62
     5
 10
793.02201500000001
 20
722.283053
 30
0.0
 11
779.02201500000001
 21
722.283053
 31
0.0
  0
LINE
  5
412
  8
DETAIL
  6
CONTINUOUS
 62
     5
 10
795.02201500000001
 20
717.28305299999977
 30
0.0
 11
795.02201500000001
 21
701.283053
 31
0.0
  0
LINE
  5
413
  8
DETAIL
  6
CONTINUOUS
 62
     5
 10
795.02201500000001
 20
701.283053
 30
0.0
 11
799.02201499999978
 21
701.283053
 31
0.0
  0
LINE
  5
414
  8
DETAIL
  6
CONTINUOUS
 62
     5
 10
795.02201500000001
 20
717.28305299999977
 30
0.0
 11
799.02201499999978
 21
717.28305299999977
 31
0.0
  0
LINE
  5
415
  8
DETAIL
  6
CONTINUOUS
 62
     5
 10
799.02201499999978
 20
718.783053
 30
0.0
 11
801.02201500000001
 21
720.78305299999988
 31
0.0
  0
LINE
  5
416
  8
DETAIL
  6
CONTINUOUS
 62
     5
 10
799.02201499999978
 20
699.78305299999977
 30
0.0
 11
801.02201500000001
 21
697.783053
 31
0.0
  0
LINE
  5
417
  8
DETAIL
  6
CONTINUOUS
 62
     5
 10
799.02201499999978
 20
718.783053
 30
0.0
 11
799.02201499999978
 21
699.78305299999977
 31
0.0
  0
LINE
  5
418
  8
DETAIL
  6
CONTINUOUS
 62
     5
 10
812.0220149999999
 20
720.78305299999988
 30
0.0
 11
801.02201500000001
 21
720.78305299999988
 31
0.0
  0
LINE
  5
419
  8
DETAIL
  6
CONTINUOUS
 62
     5
 10
812.0220149999999
 20
697.783053
 30
0.0
 11
801.02201500000001
 21
697.783053
 31
0.0
  0
LINE
  5
41A
  8
NOTE
  6
CONTINUOUS
 62
     4
 10
773.021163
 20
778.78304500000002
 30
0.0
 11
773.021163
 21
767.78306099999998
 31
0.0
  0
LINE
  5
41B
  8
DETAIL
  6
CONTINUOUS
 62
     5
 10
792.02116299999989
 20
767.783053
 30
0.0
 11
812.021163
 21
767.783053
 31
0.0
  0
LINE
  5
41C
  8
DETAIL
  6
CONTINUOUS
 62
     5
 10
793.021163
 20
763.783053
 30
0.0
 11
812.021163
 21
763.783053
 31
0.0
  0
LINE
  5
41D
  8
DETAIL
  6
CONTINUOUS
 62
     5
 10
793.021163
 20
782.78305299999988
 30
0.0
 11
812.021163
 21
782.78305299999988
 31
0.0
  0
LINE
  5
41E
  8
DETAIL
  6
CONTINUOUS
 62
     5
 10
792.02116299999989
 20
778.78305299999988
 30
0.0
 11
812.021163
 21
778.78305299999988
 31
0.0
  0
LINE
  5
41F
  8
DETAIL
  6
CONTINUOUS
 62
     5
 10
776.021163
 20
762.78305299999988
 30
0.0
 11
789.021163
 21
762.78305299999988
 31
0.0
  0
LINE
  5
420
  8
DETAIL
  6
CONTINUOUS
 62
     5
 10
777.021163
 20
767.783053
 30
0.0
 11
790.021163
 21
767.783053
 31
0.0
  0
LINE
  5
421
  8
DETAIL
  6
CONTINUOUS
 62
     5
 10
773.021163
 20
767.783053
 30
0.0
 11
773.021163
 21
778.78305299999988
 31
0.0
  0
LINE
  5
422
  8
DETAIL
  6
CONTINUOUS
 62
     5
 10
773.021163
 20
767.783053
 30
0.0
 11
776.021163
 21
762.78305299999988
 31
0.0
  0
LINE
  5
423
  8
DETAIL
  6
CONTINUOUS
 62
     5
 10
790.021163
 20
763.783053
 30
0.0
 11
789.021163
 21
762.78305299999988
 31
0.0
  0
LINE
  5
424
  8
DETAIL
  6
CONTINUOUS
 62
     5
 10
792.02116299999989
 20
764.783053
 30
0.0
 11
793.021163
 21
763.783053
 31
0.0
  0
LINE
  5
425
  8
DETAIL
  6
CONTINUOUS
 62
     5
 10
777.021163
 20
767.783053
 30
0.0
 11
776.021163
 21
768.783053
 31
0.0
  0
LINE
  5
426
  8
DETAIL
  6
CONTINUOUS
 62
     5
 10
777.021163
 20
767.783053
 30
0.0
 11
776.021163
 21
766.78305299999988
 31
0.0
  0
LINE
  5
427
  8
DETAIL
  6
CONTINUOUS
 62
     5
 10
790.021163
 20
768.53305299999988
 30
0.0
 11
792.02116299999989
 21
768.53305299999988
 31
0.0
  0
LINE
  5
428
  8
DETAIL
  6
CONTINUOUS
 62
     5
 10
792.02116299999989
 20
764.783053
 30
0.0
 11
792.02116299999989
 21
781.783053
 31
0.0
  0
LINE
  5
429
  8
DETAIL
  6
CONTINUOUS
 62
     5
 10
790.021163
 20
763.783053
 30
0.0
 11
790.021163
 21
782.78305299999988
 31
0.0
  0
LINE
  5
42A
  8
DETAIL
  6
CONTINUOUS
 62
     5
 10
776.021163
 20
783.78305299999988
 30
0.0
 11
789.021163
 21
783.78305299999988
 31
0.0
  0
LINE
  5
42B
  8
DETAIL
  6
CONTINUOUS
 62
     5
 10
776.021163
 20
762.78305299999988
 30
0.0
 11
776.021163
 21
783.78305299999988
 31
0.0
  0
LINE
  5
42C
  8
DETAIL
  6
CONTINUOUS
 62
     5
 10
777.021163
 20
778.78305299999988
 30
0.0
 11
790.021163
 21
778.78305299999988
 31
0.0
  0
LINE
  5
42D
  8
DETAIL
  6
CONTINUOUS
 62
     5
 10
773.021163
 20
778.78305299999988
 30
0.0
 11
776.021163
 21
783.78305299999988
 31
0.0
  0
LINE
  5
42E
  8
DETAIL
  6
CONTINUOUS
 62
     5
 10
789.021163
 20
783.78305299999988
 30
0.0
 11
790.021163
 21
782.78305299999988
 31
0.0
  0
LINE
  5
42F
  8
DETAIL
  6
CONTINUOUS
 62
     5
 10
792.02116299999989
 20
781.783053
 30
0.0
 11
793.021163
 21
782.78305299999988
 31
0.0
  0
LINE
  5
430
  8
DETAIL
  6
CONTINUOUS
 62
     5
 10
777.021163
 20
778.78305299999988
 30
0.0
 11
776.021163
 21
779.78305299999988
 31
0.0
  0
LINE
  5
431
  8
DETAIL
  6
CONTINUOUS
 62
     5
 10
777.021163
 20
778.78305299999988
 30
0.0
 11
776.021163
 21
777.783053
 31
0.0
  0
LINE
  5
432
  8
DETAIL
  6
CONTINUOUS
 62
     5
 10
790.021163
 20
778.033053
 30
0.0
 11
792.02116299999989
 21
778.033053
 31
0.0
  0
LINE
  5
433
  8
DETAIL
  6
CONTINUOUS
 62
     5
 10
792.02116299999989
 20
778.78305299999988
 30
0.0
 11
809.03031199999975
 21
778.78305299999988
 31
0.0
  0
LINE
  5
434
  8
DETAIL
  6
CONTINUOUS
 62
     5
 10
793.021163
 20
782.78305299999988
 30
0.0
 11
809.03031199999975
 21
782.78305299999988
 31
0.0
  0
LINE
  5
435
  8
DETAIL
  6
CONTINUOUS
 62
     5
 10
793.021163
 20
763.783053
 30
0.0
 11
809.03031199999975
 21
763.783053
 31
0.0
  0
LINE
  5
436
  8
DETAIL
  6
CONTINUOUS
 62
     5
 10
792.02116299999989
 20
767.783053
 30
0.0
 11
809.03031199999975
 21
767.783053
 31
0.0
  0
LINE
  5
437
  8
DETAIL
  6
CONTINUOUS
 62
     5
 10
777.021163
 20
767.783053
 30
0.0
 11
790.021163
 21
767.783053
 31
0.0
  0
LINE
  5
438
  8
DETAIL
  6
CONTINUOUS
 62
     5
 10
773.021163
 20
767.783053
 30
0.0
 11
773.021163
 21
778.78305299999988
 31
0.0
  0
LINE
  5
439
  8
DETAIL
  6
CONTINUOUS
 62
     5
 10
773.021163
 20
767.783053
 30
0.0
 11
776.021163
 21
762.78305299999988
 31
0.0
  0
LINE
  5
43A
  8
DETAIL
  6
CONTINUOUS
 62
     5
 10
790.021163
 20
763.783053
 30
0.0
 11
789.021163
 21
762.78305299999988
 31
0.0
  0
LINE
  5
43B
  8
DETAIL
  6
CONTINUOUS
 62
     5
 10
792.02116299999989
 20
764.783053
 30
0.0
 11
793.021163
 21
763.783053
 31
0.0
  0
LINE
  5
43C
  8
DETAIL
  6
CONTINUOUS
 62
     5
 10
777.021163
 20
767.783053
 30
0.0
 11
776.021163
 21
768.783053
 31
0.0
  0
LINE
  5
43D
  8
DETAIL
  6
CONTINUOUS
 62
     5
 10
777.021163
 20
767.783053
 30
0.0
 11
776.021163
 21
766.78305299999988
 31
0.0
  0
LINE
  5
43E
  8
DETAIL
  6
CONTINUOUS
 62
     5
 10
790.021163
 20
768.53305299999988
 30
0.0
 11
792.02116299999989
 21
768.53305299999988
 31
0.0
  0
LINE
  5
43F
  8
DETAIL
  6
CONTINUOUS
 62
     5
 10
792.02116299999989
 20
764.783053
 30
0.0
 11
792.02116299999989
 21
781.783053
 31
0.0
  0
LINE
  5
440
  8
DETAIL
  6
CONTINUOUS
 62
     5
 10
790.021163
 20
763.783053
 30
0.0
 11
790.021163
 21
782.78305299999988
 31
0.0
  0
LINE
  5
441
  8
DETAIL
  6
CONTINUOUS
 62
     5
 10
776.021163
 20
783.78305299999988
 30
0.0
 11
789.021163
 21
783.78305299999988
 31
0.0
  0
LINE
  5
442
  8
DETAIL
  6
CONTINUOUS
 62
     5
 10
776.021163
 20
762.78305299999988
 30
0.0
 11
776.021163
 21
783.78305299999988
 31
0.0
  0
LINE
  5
443
  8
DETAIL
  6
CONTINUOUS
 62
     5
 10
777.021163
 20
778.78305299999988
 30
0.0
 11
790.021163
 21
778.78305299999988
 31
0.0
  0
LINE
  5
444
  8
DETAIL
  6
CONTINUOUS
 62
     5
 10
773.021163
 20
778.78305299999988
 30
0.0
 11
776.021163
 21
783.78305299999988
 31
0.0
  0
LINE
  5
445
  8
DETAIL
  6
CONTINUOUS
 62
     5
 10
789.021163
 20
783.78305299999988
 30
0.0
 11
790.021163
 21
782.78305299999988
 31
0.0
  0
LINE
  5
446
  8
DETAIL
  6
CONTINUOUS
 62
     5
 10
792.02116299999989
 20
781.783053
 30
0.0
 11
793.021163
 21
782.78305299999988
 31
0.0
  0
LINE
  5
447
  8
DETAIL
  6
CONTINUOUS
 62
     5
 10
777.021163
 20
778.78305299999988
 30
0.0
 11
776.021163
 21
779.78305299999988
 31
0.0
  0
LINE
  5
448
  8
DETAIL
  6
CONTINUOUS
 62
     5
 10
777.021163
 20
778.78305299999988
 30
0.0
 11
776.021163
 21
777.783053
 31
0.0
  0
LINE
  5
449
  8
DETAIL
  6
CONTINUOUS
 62
     5
 10
790.021163
 20
778.033053
 30
0.0
 11
792.02116299999989
 21
778.033053
 31
0.0
  0
LINE
  5
44A
  8
DETAIL
  6
CONTINUOUS
 62
     5
 10
850.4903119999999
 20
828.28303800000003
 30
0.0
 11
850.4903119999999
 21
791.28303800000003
 31
0.0
  0
LINE
  5
44B
  8
DETAIL
  6
CONTINUOUS
 62
     5
 10
850.4903119999999
 20
828.28303800000003
 30
0.0
 11
843.4903119999999
 21
828.28303800000003
 31
0.0
  0
TEXT
  5
44C
  8
ETC
  6
CONTINUOUS
 62
    61
 10
-0.000007
 20
1776.047761
 30
0.0
 40
80.0
  1
MPD-RP71_80FA3_6
 50
0.000003
 41
0.8
  0
LINE
  5
44D
  8
SIZE
  6
CONTINUOUS
 62
    30
 10
772.02031199999988
 20
1395.283038
 30
0.0
 11
772.02031199999988
 21
1613.9063650000001
 31
0.0
  0
LINE
  5
44E
  8
SIZE
  6
CONTINUOUS
 62
    30
 10
792.02031199999999
 20
1394.2830530000001
 30
0.0
 11
792.02031199999999
 21
1613.9063650000001
 31
0.0
  0
LINE
  5
44F
  8
SIZE
  6
CONTINUOUS
 62
    30
 10
792.02031199999999
 20
1393.8842119999999
 30
0.0
 11
792.02031199999999
 21
1613.9063650000001
 31
0.0
  0
LINE
  5
450
  8
SIZE
  6
CONTINUOUS
 62
    30
 10
772.02031199999988
 20
1395.283038
 30
0.0
 11
772.02031199999988
 21
1735.5339779999999
 31
0.0
  0
LINE
  5
451
  8
NOTE
  6
CONTINUOUS
 62
     4
 10
697.497975
 20
1058.987079
 30
0.0
 11
368.461454
 21
1058.987079
 31
0.0
  0
TEXT
  5
452
  8
NOTE
  6
CONTINUOUS
 62
     4
 10
390.13672600000001
 20
1074.8136099999999
 30
0.0
 40
60.0
  1
RL %%C9.52
 50
0.000003
 41
0.7
  7
STANDARD1
  0
LINE
  5
453
  8
NOTE
  6
CONTINUOUS
 62
     4
 10
697.497975
 20
1058.987079
 30
0.0
 11
368.461454
 21
1058.987079
 31
0.0
  0
TEXT
  5
454
  8
NOTE
  6
CONTINUOUS
 62
     4
 10
390.13672600000001
 20
1074.8136099999999
 30
0.0
 40
60.0
  1
RL %%C9.52
 50
0.000003
 41
0.7
  7
STANDARD1
  0
LINE
  5
455
  8
NOTE
  6
CONTINUOUS
 62
     4
 10
658.9647779999998
 20
964.71842300000003
 30
0.0
 11
287.16797800000001
 21
964.71842300000003
 31
0.0
  0
TEXT
  5
456
  8
NOTE
  6
CONTINUOUS
 62
     4
 10
308.84325000000001
 20
980.54495399999973
 30
0.0
 40
60.0
  1
RG %%C15.88
 50
0.000003
 41
0.7
  7
STANDARD1
  0
LINE
  5
457
  8
OUTLINE
  6
CONTINUOUS
 62
     3
 10
850.4903119999999
 20
1391.283038
 30
0.0
 11
788.02031199999999
 21
1391.283038
 31
0.0
  0
ARC
  5
458
  8
DETAIL
  6
CONTINUOUS
 62
     5
 10
843.4903119999999
 20
1336.283038
 30
0.0
 40
18.0
 50
90.0
 51
180.0
  0
LINE
  5
459
  8
DETAIL
  6
CONTINUOUS
 62
     5
 10
850.4903119999999
 20
1391.283038
 30
0.0
 11
788.02031199999999
 21
1391.283038
 31
0.0
  0
POINT
  5
45A
  8
DEFPOINTS
  6
CONTINUOUS
 62
     7
 10
772.02031199999988
 20
1375.283038
 30
0.0
  0
POINT
  5
45B
  8
DEFPOINTS
  6
CONTINUOUS
 62
     7
 10
792.02031199999999
 20
1374.2830530000001
 30
0.0
  0
POINT
  5
45C
  8
DEFPOINTS
  6
CONTINUOUS
 62
     7
 10
792.02031199999999
 20
1373.8842119999999
 30
0.0
  0
CIRCLE
  5
45D
  8
FIX
  6
CONTINUOUS
 62
    11
 10
819.02031199999988
 20
1285.2830530000001
 30
0.0
 40
12.421498
  0
LINE
  5
45E
  8
NOTE
  6
CONTINUOUS
 62
     4
 10
819.02031199999988
 20
1300.278219
 30
0.0
 11
819.02031199999988
 21
1270.287887
 31
0.0
  0
LINE
  5
45F
  8
NOTE
  6
CONTINUOUS
 62
     4
 10
804.02514599999984
 20
1285.2830530000001
 30
0.0
 11
834.01547800000003
 21
1285.2830530000001
 31
0.0
  0
POINT
  5
460
  8
DEFPOINTS
  6
CONTINUOUS
 62
     7
 10
772.02031199999988
 20
1375.283038
 30
0.0
  0
ARC
  5
461
  8
OUTLINE
  6
CONTINUOUS
 62
     3
 10
788.02031199999999
 20
1375.283038
 30
0.0
 40
16.0
 50
90.0
 51
180.0
  0
ARC
  5
462
  8
DETAIL
  6
CONTINUOUS
 62
     5
 10
788.02031199999999
 20
1375.283038
 30
0.0
 40
16.0
 50
90.0
 51
180.0
  0
LINE
  5
463
  8
DETAIL
  6
CONTINUOUS
 62
     5
 10
850.4903119999999
 20
1391.283038
 30
0.0
 11
850.4903119999999
 21
1354.283038
 31
0.0
  0
LINE
  5
464
  8
DETAIL
  6
CONTINUOUS
 62
     5
 10
850.4903119999999
 20
1354.283038
 30
0.0
 11
843.4903119999999
 21
1354.283038
 31
0.0
  0
LINE
  5
465
  8
SIZE
  6
CONTINUOUS
 62
    30
 10
762.02031199999999
 20
1583.9063650000001
 30
0.0
 11
626.71574499999997
 21
1583.9063650000001
 31
0.0
  0
TEXT
  5
466
  8
SIZE
  6
CONTINUOUS
 62
    30
 10
644.71574442857161
 20
1601.9063650000001
 30
0.0
 40
55.0
  1
20
 41
0.9
 72
     1
 11
684.78717300000005
 21
1601.9063650000001
 31
0.0
  0
POINT
  5
467
  8
DEFPOINTS
  6
CONTINUOUS
 62
     7
 10
772.02031199999988
 20
1583.9063650000001
 30
0.0
  0
LINE
  5
468
  8
SIZE
  6
CONTINUOUS
 62
    30
 10
767.02031199999999
 20
1583.9063650000001
 30
0.0
 11
762.02031199999999
 21
1583.9063650000001
 31
0.0
  0
CIRCLE
  5
469
  8
SIZE
  6
CONTINUOUS
 62
    30
 10
772.02031199999988
 20
1583.9063650000001
 30
0.0
 40
5.0
  0
LINE
  5
46A
  8
SIZE
  6
CONTINUOUS
 62
    30
 10
797.02031199999988
 20
1583.9063650000001
 30
0.0
 11
802.02031199999988
 21
1583.9063650000001
 31
0.0
  0
CIRCLE
  5
46B
  8
SIZE
  6
CONTINUOUS
 62
    30
 10
792.02031199999999
 20
1583.9063650000001
 30
0.0
 40
5.0
  0
LINE
  5
46C
  8
SIZE
  6
CONTINUOUS
 62
    30
 10
792.02031199999999
 20
1583.9063650000001
 30
0.0
 11
772.02031199999988
 21
1583.9063650000001
 31
0.0
  0
LINE
  5
46D
  8
SIZE
  6
CONTINUOUS
 62
    30
 10
802.02031199999988
 20
1583.9063650000001
 30
0.0
 11
812.02031199999988
 21
1583.9063650000001
 31
0.0
  0
LINE
  5
46E
  8
SIZE
  6
CONTINUOUS
 62
    30
 10
797.02031199999988
 20
1583.9063650000001
 30
0.0
 11
802.02031199999988
 21
1583.9063650000001
 31
0.0
  0
CIRCLE
  5
46F
  8
SIZE
  6
CONTINUOUS
 62
    30
 10
792.02031199999999
 20
1583.9063650000001
 30
0.0
 40
5.0
  0
LINE
  5
470
  8
SIZE
  6
CONTINUOUS
 62
    30
 10
777.02031199999988
 20
1705.5339779999999
 30
0.0
 11
782.02031199999999
 21
1705.5339779999999
 31
0.0
  0
CIRCLE
  5
471
  8
SIZE
  6
CONTINUOUS
 62
    30
 10
772.02031199999988
 20
1705.5339779999999
 30
0.0
 40
5.0
  0
LINE
  5
472
  8
BASIS
  6
DASHDOT
 62
     6
 10
1392.0203120000001
 20
1418.7830530000001
 30
0.0
 11
1392.0203120000001
 21
428.783053
 31
0.0
  0
CIRCLE
  5
473
  8
ARRANGE
  6
CONTINUOUS
 62
     1
 10
1392.0203120000001
 20
948.78305299999965
 30
0.0
 40
50.0
  0
LINE
  5
474
  8
SIZE
  6
CONTINUOUS
 62
    30
 10
2745.2352639999999
 20
1381.283038
 30
0.0
 11
2745.2352639999999
 21
801.28303800000003
 31
0.0
  0
TEXT
  5
475
  8
SIZE
  6
CONTINUOUS
 62
    30
 10
2565.3534010000012
 20
817.6187672857144
 30
0.0
 40
55.0
  1
566(天井開口寸法)
 50
90.0
 41
0.9
 72
     1
 11
2565.3534010000012
 21
1091.2830530000001
 31
0.0
  0
LINE
  5
476
  8
SIZE
  6
CONTINUOUS
 62
    30
 10
2581.758163
 20
818.283053
 30
0.0
 11
2581.758163
 21
1364.2830530000001
 31
0.0
  0
LINE
  5
477
  8
SERVICESPACE
  6
CONTINUOUS
 62
     2
 10
1992.0203120000001
 20
808.283053
 30
0.0
 11
1992.0203120000001
 21
1374.2830530000001
 31
0.0
  0
TEXT
  5
478
  8
SIZE
  6
CONTINUOUS
 62
    30
 10
2315.0191610000002
 20
815.49822299999983
 30
0.0
 40
60.0
  1
(吊りボルトピッチ)
 50
90.000003000000007
 41
0.7
  7
STANDARD1
  0
LINE
  5
479
  8
SIZE
  6
CONTINUOUS
 62
    30
 10
2329.2933760000001
 20
615.283053
 30
0.0
 11
2329.2933760000001
 21
1285.2830530000001
 31
0.0
  0
LINE
  5
47A
  8
ARRANGE
  6
CONTINUOUS
 62
     1
 10
1441.9840750000001
 20
998.37964799999997
 30
0.0
 11
1342.0565489999999
 21
899.1864579999999
 31
0.0
  0
LINE
  5
47B
  8
ARRANGE
  6
CONTINUOUS
 62
     1
 10
1442.0576619999999
 20
899.26070000000016
 30
0.0
 11
1341.982962
 21
998.30540599999983
 31
0.0
  0
LINE
  5
47C
  8
OUTLINE
  6
CONTINUOUS
 62
     3
 10
2012.0203120000001
 20
1375.283038
 30
0.0
 11
2012.0203120000001
 21
807.28303800000003
 31
0.0
  0
LINE
  5
47D
  8
DETAIL
  6
CONTINUOUS
 62
     5
 10
1958.5503120000001
 20
1336.283038
 30
0.0
 11
1958.5503120000001
 21
846.28303799999969
 31
0.0
  0
LINE
  5
47E
  8
DETAIL
  6
CONTINUOUS
 62
     5
 10
2012.0203120000001
 20
1375.283038
 30
0.0
 11
2012.0203120000001
 21
807.28303800000003
 31
0.0
  0
LINE
  5
47F
  8
DETAIL
  6
CONTINUOUS
 62
     5
 10
1958.5503120000001
 20
1336.283038
 30
0.0
 11
1958.5503120000001
 21
846.28303799999969
 31
0.0
  0
LINE
  5
480
  8
SIZE
  6
CONTINUOUS
 62
    30
 10
1960.0203120000001
 20
131.93030300000001
 30
0.0
 11
1955.0203120000001
 21
131.93030300000001
 31
0.0
  0
LINE
  5
481
  8
SIZE
  6
CONTINUOUS
 62
    30
 10
1960.0203120000001
 20
131.93030300000001
 30
0.0
 11
1955.0203120000001
 21
131.93030300000001
 31
0.0
  0
LINE
  5
482
  8
SIZE
  6
CONTINUOUS
 62
    30
 10
1962.0203120000001
 20
245.65930299999999
 30
0.0
 11
1952.0203120000001
 21
245.65930299999999
 31
0.0
  0
LINE
  5
483
  8
SIZE
  6
CONTINUOUS
 62
    30
 10
1962.0203120000001
 20
380.415772
 30
0.0
 11
1752.0203120000001
 21
380.415772
 31
0.0
  0
CIRCLE
  5
484
  8
FIX
  6
CONTINUOUS
 62
    11
 10
1965.0203120000001
 20
615.283053
 30
0.0
 40
12.421498
  0
LINE
  5
485
  8
NOTE
  6
CONTINUOUS
 62
     4
 10
1950.0251459999999
 20
615.283053
 30
0.0
 11
1980.015478
 21
615.283053
 31
0.0
  0
LINE
  5
486
  8
OUTLINE
  6
CONTINUOUS
 62
     3
 10
1933.5503120000001
 20
791.28303800000003
 30
0.0
 11
1996.0203120000001
 21
791.28303800000003
 31
0.0
  0
ARC
  5
487
  8
DETAIL
  6
CONTINUOUS
 62
     5
 10
1940.5503120000001
 20
846.28303799999969
 30
0.0
 40
18.0
 50
270.0
 51
0.0
  0
LINE
  5
488
  8
DETAIL
  6
CONTINUOUS
 62
     5
 10
1933.5503120000001
 20
791.28303800000003
 30
0.0
 11
1996.0203120000001
 21
791.28303800000003
 31
0.0
  0
TEXT
  5
489
  8
SIZE
  6
CONTINUOUS
 62
    30
 10
1315.2716057142859
 20
48.000008000000001
 30
0.0
 40
55.0
  1
1192
 41
0.9
 72
     1
 11
1393.0573199999999
 21
48.000008000000001
 31
0.0
  0
TEXT
  5
48A
  8
SIZE
  6
CONTINUOUS
 62
    30
 10
1314.2345977142861
 20
263.65930300000002
 30
0.0
 40
55.0
  1
1160
 41
0.9
 72
     1
 11
1392.0203120000001
 21
263.65930300000002
 31
0.0
  0
LINE
  5
48B
  8
SIZE
  6
CONTINUOUS
 62
    30
 10
1955.0203120000001
 20
131.93030300000001
 30
0.0
 11
1945.0203120000001
 21
131.93030300000001
 31
0.0
  0
TEXT
  5
48C
  8
NOTE
  6
CONTINUOUS
 62
     4
 10
1217.460709
 20
691.44800499999985
 30
0.0
 40
60.0
  1
%%C200 吹出円形フランジ
 50
0.000003
 41
0.7
  7
STANDARD1
  0
LINE
  5
48D
  8
NOTE
  6
CONTINUOUS
 62
     4
 10
1795.4043999999999
 20
676.65233799999976
 30
0.0
 11
1201.0859660000001
 21
676.65233799999976
 31
0.0
  0
LINE
  5
48E
  8
SIZE
  6
CONTINUOUS
 62
    30
 10
1732.0203120000001
 20
380.415772
 30
0.0
 11
1432.0203120000001
 21
380.415772
 31
0.0
  0
LINE
  5
48F
  8
DETAIL
  6
CONTINUOUS
 62
     5
 10
1522.0203120000001
 20
551.283053
 30
0.0
 11
1321.717161
 21
551.283053
 31
0.0
  0
LINE
  5
490
  8
DETAIL
  6
CONTINUOUS
 62
     5
 10
1519.5203120000001
 20
511.283053
 30
0.0
 11
1324.5203120000001
 21
511.283053
 31
0.0
  0
LINE
  5
491
  8
DETAIL
  6
CONTINUOUS
 62
     5
 10
1392.0203120000001
 20
891.28628499999979
 30
0.0
 11
1958.5503120000001
 21
891.28628499999979
 31
0.0
  0
LINE
  5
492
  8
NOTE
  6
CONTINUOUS
 62
     4
 10
1201.0859660000001
 20
676.65233799999976
 30
0.0
 11
1102.0203120000001
 21
511.283053
 31
0.0
  0
TEXT
  5
493
  8
SIZE
  6
CONTINUOUS
 62
    30
 10
1198.377454857143
 20
398.415772
 30
0.0
 40
55.0
  1
320
 41
0.9
 72
     1
 11
1262.0203120000001
 21
398.415772
 31
0.0
  0
LINE
  5
494
  8
SIZE
  6
CONTINUOUS
 62
    30
 10
1412.0203120000001
 20
380.415772
 30
0.0
 11
1112.0203120000001
 21
380.415772
 31
0.0
  0
ARC
  5
495
  8
DETAIL
  6
CONTINUOUS
 62
     5
 10
1269.281565
 20
466.32056399999999
 30
0.0
 40
100.0
 50
58.772114000000002
 51
94.164056000000002
  0
LINE
  5
496
  8
NOTE
  6
CONTINUOUS
 62
     4
 10
1102.0203120000001
 20
583.22756800000002
 30
0.0
 11
1102.0203120000001
 21
439.3385379999998
 31
0.0
  0
POINT
  5
497
  8
DEFPOINTS
  6
CONTINUOUS
 62
     7
 10
1102.0203120000001
 20
380.415772
 30
0.0
  0
POINT
  5
498
  8
DEFPOINTS
  6
CONTINUOUS
 62
     7
 10
1102.0203120000001
 20
441.33853800000003
 30
0.0
  0
LINE
  5
499
  8
SIZE
  6
CONTINUOUS
 62
    30
 10
1107.0203120000001
 20
380.415772
 30
0.0
 11
1112.0203120000001
 21
380.415772
 31
0.0
  0
CIRCLE
  5
49A
  8
SIZE
  6
CONTINUOUS
 62
    30
 10
1102.0203120000001
 20
380.415772
 30
0.0
 40
5.0
  0
LINE
  5
49B
  8
SIZE
  6
CONTINUOUS
 62
    30
 10
1102.0203120000001
 20
421.33853800000003
 30
0.0
 11
1102.0203120000001
 21
350.415772
 31
0.0
  0
LINE
  5
49C
  8
NOTE
  6
CONTINUOUS
 62
     4
 10
1102.0203120000001
 20
511.283053
 30
0.0
 11
1112.9473700000001
 21
543.88595299999997
 31
0.0
  0
LINE
  5
49D
  8
NOTE
  6
CONTINUOUS
 62
     4
 10
1102.0203120000001
 20
511.283053
 30
0.0
 11
1127.784872
 21
534.05446300000006
 31
0.0
  0
LINE
  5
49E
  8
DETAIL
  6
CONTINUOUS
 62
     5
 10
1199.5203120000001
 20
511.283053
 30
0.0
 11
1201.9555150000001
 21
550.24630000000002
 31
0.0
  0
ARC
  5
49F
  8
DETAIL
  6
CONTINUOUS
 62
     5
 10
1254.759059
 20
466.32056399999999
 30
0.0
 40
100.0
 50
85.835943999999998
 51
121.227886
  0
ARC
  5
4A0
  8
DETAIL
  6
CONTINUOUS
 62
     5
 10
1203.95162
 20
550.12154299999997
 30
0.0
 40
2.0
 50
121.227886
 51
176.423666
  0
LINE
  5
4A1
  8
NOTE
  6
CONTINUOUS
 62
     4
 10
1422.0203120000001
 20
583.22756800000002
 30
0.0
 11
1422.0203120000001
 21
439.3385379999998
 31
0.0
  0
POINT
  5
4A2
  8
DEFPOINTS
  6
CONTINUOUS
 62
     7
 10
1422.0203120000001
 20
441.33853800000003
 30
0.0
  0
LINE
  5
4A3
  8
SIZE
  6
CONTINUOUS
 62
    30
 10
1417.0203120000001
 20
380.415772
 30
0.0
 11
1412.0203120000001
 21
380.415772
 31
0.0
  0
CIRCLE
  5
4A4
  8
SIZE
  6
CONTINUOUS
 62
    30
 10
1422.0203120000001
 20
380.415772
 30
0.0
 40
5.0
  0
LINE
  5
4A5
  8
SIZE
  6
CONTINUOUS
 62
    30
 10
1422.0203120000001
 20
421.33853800000003
 30
0.0
 11
1422.0203120000001
 21
350.415772
 31
0.0
  0
POINT
  5
4A6
  8
DEFPOINTS
  6
CONTINUOUS
 62
     7
 10
1422.0203120000001
 20
380.415772
 30
0.0
  0
POINT
  5
4A7
  8
DEFPOINTS
  6
CONTINUOUS
 62
     7
 10
1422.0203120000001
 20
441.33853800000003
 30
0.0
  0
LINE
  5
4A8
  8
SIZE
  6
CONTINUOUS
 62
    30
 10
1427.0203120000001
 20
380.415772
 30
0.0
 11
1432.0203120000001
 21
380.415772
 31
0.0
  0
CIRCLE
  5
4A9
  8
SIZE
  6
CONTINUOUS
 62
    30
 10
1422.0203120000001
 20
380.415772
 30
0.0
 40
5.0
  0
LINE
  5
4AA
  8
SIZE
  6
CONTINUOUS
 62
    30
 10
1422.0203120000001
 20
421.33853800000003
 30
0.0
 11
1422.0203120000001
 21
350.415772
 31
0.0
  0
LINE
  5
4AB
  8
NOTE
  6
CONTINUOUS
 62
     4
 10
1350.075797
 20
511.283053
 30
0.0
 11
1493.964827
 21
511.283053
 31
0.0
  0
ARC
  5
4AC
  8
DETAIL
  6
CONTINUOUS
 62
     5
 10
1320.0890039999999
 20
550.12154299999997
 30
0.0
 40
2.0
 50
3.5763339999999979
 51
58.772114000000002
  0
LINE
  5
4AD
  8
DETAIL
  6
CONTINUOUS
 62
     5
 10
1324.5203120000001
 20
511.283053
 30
0.0
 11
1322.0851090000001
 21
550.24630000000002
 31
0.0
  0
LINE
  5
4AE
  8
SIZE
  6
CONTINUOUS
 62
    30
 10
1737.0203120000001
 20
380.415772
 30
0.0
 11
1732.0203120000001
 21
380.415772
 31
0.0
  0
LINE
  5
4AF
  8
NOTE
  6
CONTINUOUS
 62
     4
 10
1670.075797
 20
511.283053
 30
0.0
 11
1813.964827
 21
511.283053
 31
0.0
  0
LINE
  5
4B0
  8
DETAIL
  6
CONTINUOUS
 62
     5
 10
1839.5203120000001
 20
511.283053
 30
0.0
 11
1644.5203120000001
 21
511.283053
 31
0.0
  0
LINE
  5
4B1
  8
DETAIL
  6
CONTINUOUS
 62
     5
 10
1842.0203120000001
 20
551.283053
 30
0.0
 11
1642.010976
 21
551.283053
 31
0.0
  0
TEXT
  5
4B2
  8
SIZE
  6
CONTINUOUS
 62
    30
 10
1518.377454857143
 20
398.415772
 30
0.0
 40
55.0
  1
320
 41
0.9
 72
     1
 11
1582.0203120000001
 21
398.415772
 31
0.0
  0
ARC
  5
4B3
  8
DETAIL
  6
CONTINUOUS
 62
     5
 10
1588.9136169999999
 20
467.35731700000002
 30
0.0
 40
100.0
 50
58.556399999999996
 51
94.164056000000002
  0
ARC
  5
4B4
  8
DETAIL
  6
CONTINUOUS
 62
     5
 10
1524.0333539999999
 20
551.42928800000004
 30
0.0
 40
2.0
 50
120.920929
 51
176.423666
  0
LINE
  5
4B5
  8
DETAIL
  6
CONTINUOUS
 62
     5
 10
1519.5203120000001
 20
511.283053
 30
0.0
 11
1522.037249
 21
551.55404499999986
 31
0.0
  0
ARC
  5
4B6
  8
DETAIL
  6
CONTINUOUS
 62
     5
 10
1574.3911109999999
 20
467.35731700000002
 30
0.0
 40
100.0
 50
85.835943999999998
 51
120.920929
  0
ARC
  5
4B7
  8
DETAIL
  6
CONTINUOUS
 62
     5
 10
1640.0361989999999
 20
550.96641699999986
 30
0.0
 40
2.0
 50
3.5763339999999979
 51
58.556399999999996
  0
LINE
  5
4B8
  8
DETAIL
  6
CONTINUOUS
 62
     5
 10
1644.5203120000001
 20
511.283053
 30
0.0
 11
1642.0323040000001
 21
551.09117300000003
 31
0.0
  0
LINE
  5
4B9
  8
NOTE
  6
CONTINUOUS
 62
     4
 10
1742.0203120000001
 20
583.22756800000002
 30
0.0
 11
1742.0203120000001
 21
439.3385379999998
 31
0.0
  0
TEXT
  5
4BA
  8
SIZE
  6
CONTINUOUS
 62
    30
 10
1793.377454857143
 20
398.415772
 30
0.0
 40
55.0
  1
230
 41
0.9
 72
     1
 11
1857.0203120000001
 21
398.415772
 31
0.0
  0
POINT
  5
4BB
  8
DEFPOINTS
  6
CONTINUOUS
 62
     7
 10
1742.0203120000001
 20
441.33853800000003
 30
0.0
  0
CIRCLE
  5
4BC
  8
SIZE
  6
CONTINUOUS
 62
    30
 10
1742.0203120000001
 20
380.415772
 30
0.0
 40
5.0
  0
LINE
  5
4BD
  8
SIZE
  6
CONTINUOUS
 62
    30
 10
1742.0203120000001
 20
421.33853800000003
 30
0.0
 11
1742.0203120000001
 21
350.415772
 31
0.0
  0
POINT
  5
4BE
  8
DEFPOINTS
  6
CONTINUOUS
 62
     7
 10
1742.0203120000001
 20
380.415772
 30
0.0
  0
POINT
  5
4BF
  8
DEFPOINTS
  6
CONTINUOUS
 62
     7
 10
1742.0203120000001
 20
441.33853800000003
 30
0.0
  0
LINE
  5
4C0
  8
SIZE
  6
CONTINUOUS
 62
    30
 10
1747.0203120000001
 20
380.415772
 30
0.0
 11
1752.0203120000001
 21
380.415772
 31
0.0
  0
CIRCLE
  5
4C1
  8
SIZE
  6
CONTINUOUS
 62
    30
 10
1742.0203120000001
 20
380.415772
 30
0.0
 40
5.0
  0
LINE
  5
4C2
  8
SIZE
  6
CONTINUOUS
 62
    30
 10
1742.0203120000001
 20
421.33853800000003
 30
0.0
 11
1742.0203120000001
 21
350.415772
 31
0.0
  0
ARC
  5
4C3
  8
DETAIL
  6
CONTINUOUS
 62
     5
 10
1852.0203120000001
 20
551.283053
 30
0.0
 40
10.0
 50
93.959233999999995
 51
180.0
  0
LINE
  5
4C4
  8
DETAIL
  6
CONTINUOUS
 62
     5
 10
1839.5203120000001
 20
511.283053
 30
0.0
 11
1842.0203120000001
 21
551.283053
 31
0.0
  0
ARC
  5
4C5
  8
DETAIL
  6
CONTINUOUS
 62
     5
 10
1936.0203120000001
 20
575.28305299999977
 30
0.0
 40
4.0
 50
270.0
 51
0.0
  0
LINE
  5
4C6
  8
DETAIL
  6
CONTINUOUS
 62
     5
 10
1940.0203120000001
 20
581.283053
 30
0.0
 11
1940.0203120000001
 21
575.28305299999977
 31
0.0
  0
LINE
  5
4C7
  8
DETAIL
  6
CONTINUOUS
 62
     5
 10
1851.329845
 20
561.259187
 30
0.0
 11
1936.0203120000001
 21
571.28305299999977
 31
0.0
  0
LINE
  5
4C8
  8
DETAIL
  6
CONTINUOUS
 62
     5
 10
1933.5503120000001
 20
828.28303800000003
 30
0.0
 11
1933.5503120000001
 21
791.28303800000003
 31
0.0
  0
LINE
  5
4C9
  8
DETAIL
  6
CONTINUOUS
 62
     5
 10
1933.5503120000001
 20
828.28303800000003
 30
0.0
 11
1933.5503120000001
 21
791.28303800000003
 31
0.0
  0
LINE
  5
4CA
  8
DETAIL
  6
CONTINUOUS
 62
     5
 10
1933.5503120000001
 20
828.28303800000003
 30
0.0
 11
1940.5503120000001
 21
828.28303800000003
 31
0.0
  0
LINE
  5
4CB
  8
DETAIL
  6
CONTINUOUS
 62
     5
 10
1933.5503120000001
 20
828.28303800000003
 30
0.0
 11
1940.5503120000001
 21
828.28303800000003
 31
0.0
  0
LINE
  5
4CC
  8
SIZE
  6
CONTINUOUS
 62
    30
 10
1988.0203120000001
 20
561.283053
 30
0.0
 11
1988.0203120000001
 21
101.93030299999999
 31
0.0
  0
LINE
  5
4CD
  8
SIZE
  6
CONTINUOUS
 62
    30
 10
1965.0203120000001
 20
580.28788699999996
 30
0.0
 11
1965.0203120000001
 21
101.93030299999999
 31
0.0
  0
LINE
  5
4CE
  8
SIZE
  6
CONTINUOUS
 62
    30
 10
1965.0203120000001
 20
580.28788699999996
 30
0.0
 11
1965.0203120000001
 21
101.93030299999999
 31
0.0
  0
LINE
  5
4CF
  8
SIZE
  6
CONTINUOUS
 62
    30
 10
1988.0203120000001
 20
561.283053
 30
0.0
 11
1988.0203120000001
 21
215.65930299999999
 31
0.0
  0
LINE
  5
4D0
  8
SIZE
  6
CONTINUOUS
 62
    30
 10
1972.0203120000001
 20
621.88318300000003
 30
0.0
 11
1972.0203120000001
 21
215.65930299999999
 31
0.0
  0
LINE
  5
4D1
  8
SIZE
  6
CONTINUOUS
 62
    30
 10
1972.0203120000001
 20
621.88318300000003
 30
0.0
 11
1972.0203120000001
 21
215.65930299999999
 31
0.0
  0
LINE
  5
4D2
  8
SIZE
  6
CONTINUOUS
 62
    30
 10
1988.0203120000001
 20
561.283053
 30
0.0
 11
1988.0203120000001
 21
0.000008
 31
0.0
  0
CIRCLE
  5
4D3
  8
SIZE
  6
CONTINUOUS
 62
    30
 10
1988.0203120000001
 20
30.000008000000001
 30
0.0
 40
5.0
  0
TEXT
  5
4D4
  8
SIZE
  6
CONTINUOUS
 62
    30
 10
2029.700162428571
 20
149.93030300000001
 30
0.0
 40
55.0
  1
23
 41
0.9
 72
     1
 11
2069.7715910000002
 21
149.93030300000001
 31
0.0
  0
LINE
  5
4D5
  8
SIZE
  6
CONTINUOUS
 62
    30
 10
2127.8430199999998
 20
131.93030300000001
 30
0.0
 11
1988.0203120000001
 21
131.93030300000001
 31
0.0
  0
POINT
  5
4D6
  8
DEFPOINTS
  6
CONTINUOUS
 62
     7
 10
1988.0203120000001
 20
131.93030300000001
 30
0.0
  0
LINE
  5
4D7
  8
SIZE
  6
CONTINUOUS
 62
    30
 10
1993.0203120000001
 20
131.93030300000001
 30
0.0
 11
1998.0203120000001
 21
131.93030300000001
 31
0.0
  0
CIRCLE
  5
4D8
  8
SIZE
  6
CONTINUOUS
 62
    30
 10
1988.0203120000001
 20
131.93030300000001
 30
0.0
 40
5.0
  0
CIRCLE
  5
4D9
  8
SIZE
  6
CONTINUOUS
 62
    30
 10
1965.0203120000001
 20
131.93030300000001
 30
0.0
 40
5.0
  0
LINE
  5
4DA
  8
SIZE
  6
CONTINUOUS
 62
    30
 10
1965.0203120000001
 20
131.93030300000001
 30
0.0
 11
1988.0203120000001
 21
131.93030300000001
 31
0.0
  0
LINE
  5
4DB
  8
SIZE
  6
CONTINUOUS
 62
    30
 10
1965.0203120000001
 20
131.93030300000001
 30
0.0
 11
1988.0203120000001
 21
131.93030300000001
 31
0.0
  0
LINE
  5
4DC
  8
SIZE
  6
CONTINUOUS
 62
    30
 10
1998.0203120000001
 20
131.93030300000001
 30
0.0
 11
2008.0203120000001
 21
131.93030300000001
 31
0.0
  0
POINT
  5
4DD
  8
DEFPOINTS
  6
CONTINUOUS
 62
     7
 10
1965.0203120000001
 20
131.93030300000001
 30
0.0
  0
CIRCLE
  5
4DE
  8
SIZE
  6
CONTINUOUS
 62
    30
 10
1965.0203120000001
 20
131.93030300000001
 30
0.0
 40
5.0
  0
POINT
  5
4DF
  8
DEFPOINTS
  6
CONTINUOUS
 62
     7
 10
1988.0203120000001
 20
30.000008000000001
 30
0.0
  0
LINE
  5
4E0
  8
SIZE
  6
CONTINUOUS
 62
    30
 10
1983.0203120000001
 20
30.000008000000001
 30
0.0
 11
1978.0203120000001
 21
30.000008000000001
 31
0.0
  0
TEXT
  5
4E1
  8
SIZE
  6
CONTINUOUS
 62
    30
 10
2028.124025571429
 20
263.65930300000002
 30
0.0
 40
55.0
  1
16
 41
0.9
 72
     1
 11
2062.3025969999999
 21
263.65930300000002
 31
0.0
  0
LINE
  5
4E2
  8
SIZE
  6
CONTINUOUS
 62
    30
 10
2114.4811690000001
 20
245.65930299999999
 30
0.0
 11
1988.0203120000001
 21
245.65930299999999
 31
0.0
  0
POINT
  5
4E3
  8
DEFPOINTS
  6
CONTINUOUS
 62
     7
 10
1988.0203120000001
 20
245.65930299999999
 30
0.0
  0
LINE
  5
4E4
  8
SIZE
  6
CONTINUOUS
 62
    30
 10
1993.0203120000001
 20
245.65930299999999
 30
0.0
 11
1998.0203120000001
 21
245.65930299999999
 31
0.0
  0
CIRCLE
  5
4E5
  8
SIZE
  6
CONTINUOUS
 62
    30
 10
1988.0203120000001
 20
245.65930299999999
 30
0.0
 40
5.0
  0
LINE
  5
4E6
  8
SIZE
  6
CONTINUOUS
 62
    30
 10
1967.0203120000001
 20
245.65930299999999
 30
0.0
 11
1962.0203120000001
 21
245.65930299999999
 31
0.0
  0
CIRCLE
  5
4E7
  8
SIZE
  6
CONTINUOUS
 62
    30
 10
1972.0203120000001
 20
245.65930299999999
 30
0.0
 40
5.0
  0
LINE
  5
4E8
  8
SIZE
  6
CONTINUOUS
 62
    30
 10
1972.0203120000001
 20
245.65930299999999
 30
0.0
 11
1988.0203120000001
 21
245.65930299999999
 31
0.0
  0
LINE
  5
4E9
  8
SIZE
  6
CONTINUOUS
 62
    30
 10
1972.0203120000001
 20
245.65930299999999
 30
0.0
 11
1988.0203120000001
 21
245.65930299999999
 31
0.0
  0
LINE
  5
4EA
  8
SIZE
  6
CONTINUOUS
 62
    30
 10
1998.0203120000001
 20
245.65930299999999
 30
0.0
 11
2008.0203120000001
 21
245.65930299999999
 31
0.0
  0
POINT
  5
4EB
  8
DEFPOINTS
  6
CONTINUOUS
 62
     7
 10
1972.0203120000001
 20
245.65930299999999
 30
0.0
  0
LINE
  5
4EC
  8
SIZE
  6
CONTINUOUS
 62
    30
 10
1967.0203120000001
 20
245.65930299999999
 30
0.0
 11
1962.0203120000001
 21
245.65930299999999
 31
0.0
  0
CIRCLE
  5
4ED
  8
SIZE
  6
CONTINUOUS
 62
    30
 10
1972.0203120000001
 20
245.65930299999999
 30
0.0
 40
5.0
  0
LINE
  5
4EE
  8
SIZE
  6
CONTINUOUS
 62
    30
 10
2008.0203120000001
 20
581.283053
 30
0.0
 11
2775.2352639999999
 21
581.283053
 31
0.0
  0
LINE
  5
4EF
  8
SIZE
  6
CONTINUOUS
 62
    30
 10
2016.0203120000001
 20
791.28303800000003
 30
0.0
 11
2775.2352639999999
 21
791.28303800000003
 31
0.0
  0
LINE
  5
4F0
  8
SIZE
  6
CONTINUOUS
 62
    30
 10
2016.0203120000001
 20
791.28303800000003
 30
0.0
 11
2775.2352639999999
 21
791.28303800000003
 31
0.0
  0
LINE
  5
4F1
  8
SIZE
  6
CONTINUOUS
 62
    30
 10
2012.0203120000001
 20
808.283053
 30
0.0
 11
2611.758163
 21
808.283053
 31
0.0
  0
LINE
  5
4F2
  8
SIZE
  6
CONTINUOUS
 62
    30
 10
2012.0203120000001
 20
808.283053
 30
0.0
 11
2611.758163
 21
808.283053
 31
0.0
  0
LINE
  5
4F3
  8
SIZE
  6
CONTINUOUS
 62
    30
 10
2008.0203120000001
 20
581.283053
 30
0.0
 11
2611.758163
 21
581.283053
 31
0.0
  0
LINE
  5
4F4
  8
NOTE
  6
CONTINUOUS
 62
     4
 10
2806.8401330000002
 20
364.15106900000001
 30
0.0
 11
2100.9530970000001
 21
364.15106900000001
 31
0.0
  0
TEXT
  5
4F5
  8
NOTE
  6
CONTINUOUS
 62
     4
 10
2115.5007959999998
 20
379.9776
 30
0.0
 40
60.0
  1
AH 4-14×30長穴(M10)
 50
0.000003
 41
0.7
  7
STANDARD1
  0
TEXT
  5
4F6
  8
SIZE
  6
CONTINUOUS
 62
    30
 10
2315.817904
 20
637.91556285714307
 30
0.0
 40
55.0
  1
670
 50
90.0
 41
0.9
 72
     1
 11
2315.817904
 21
701.55842000000007
 31
0.0
  0
LINE
  5
4F7
  8
OUTLINE
  6
CONTINUOUS
 62
     3
 10
1972.0203120000001
 20
581.283053
 30
0.0
 11
1972.0203120000001
 21
791.28303800000003
 31
0.0
  0
LINE
  5
4F8
  8
DETAIL
  6
CONTINUOUS
 62
     5
 10
1988.0203120000001
 20
641.88318300000003
 30
0.0
 11
1988.0203120000001
 21
621.28305299999977
 31
0.0
  0
LINE
  5
4F9
  8
DETAIL
  6
CONTINUOUS
 62
     5
 10
1972.0203120000001
 20
581.283053
 30
0.0
 11
1972.0203120000001
 21
791.28303800000003
 31
0.0
  0
LINE
  5
4FA
  8
SIZE
  6
CONTINUOUS
 62
    30
 10
2000.015478
 20
615.283053
 30
0.0
 11
2359.2933760000001
 21
615.283053
 31
0.0
  0
LINE
  5
4FB
  8
NOTE
  6
CONTINUOUS
 62
     4
 10
2100.9530970000001
 20
364.15106900000001
 30
0.0
 11
1965.0203120000001
 21
615.283053
 31
0.0
  0
LINE
  5
4FC
  8
SIZE
  6
CONTINUOUS
 62
    30
 10
1972.0203120000001
 20
561.283053
 30
0.0
 11
1972.0203120000001
 21
350.415772
 31
0.0
  0
LINE
  5
4FD
  8
SIZE
  6
CONTINUOUS
 62
    30
 10
1967.0203120000001
 20
380.415772
 30
0.0
 11
1962.0203120000001
 21
380.415772
 31
0.0
  0
CIRCLE
  5
4FE
  8
SIZE
  6
CONTINUOUS
 62
    30
 10
1972.0203120000001
 20
380.415772
 30
0.0
 40
5.0
  0
POINT
  5
4FF
  8
DEFPOINTS
  6
CONTINUOUS
 62
     7
 10
1988.0203120000001
 20
581.283053
 30
0.0
  0
POINT
  5
500
  8
DEFPOINTS
  6
CONTINUOUS
 62
     7
 10
1988.0203120000001
 20
581.283053
 30
0.0
  0
POINT
  5
501
  8
DEFPOINTS
  6
CONTINUOUS
 62
     7
 10
1988.0203120000001
 20
581.283053
 30
0.0
  0
POINT
  5
502
  8
DEFPOINTS
  6
CONTINUOUS
 62
     7
 10
1965.0203120000001
 20
600.28788699999996
 30
0.0
  0
POINT
  5
503
  8
DEFPOINTS
  6
CONTINUOUS
 62
     7
 10
1965.0203120000001
 20
600.28788699999996
 30
0.0
  0
POINT
  5
504
  8
DEFPOINTS
  6
CONTINUOUS
 62
     7
 10
1988.0203120000001
 20
581.283053
 30
0.0
  0
LINE
  5
505
  8
NOTE
  6
CONTINUOUS
 62
     4
 10
1965.0203120000001
 20
615.283053
 30
0.0
 11
1988.459554
 21
590.12452399999995
 31
0.0
  0
LINE
  5
506
  8
NOTE
  6
CONTINUOUS
 62
     4
 10
1965.0203120000001
 20
615.283053
 30
0.0
 11
1972.7400259999999
 21
581.77550599999995
 31
0.0
  0
POINT
  5
507
  8
DEFPOINTS
  6
CONTINUOUS
 62
     7
 10
1972.0203120000001
 20
581.283053
 30
0.0
  0
POINT
  5
508
  8
DEFPOINTS
  6
CONTINUOUS
 62
     7
 10
1988.0203120000001
 20
581.283053
 30
0.0
  0
LINE
  5
509
  8
NOTE
  6
CONTINUOUS
 62
     4
 10
1965.0203120000001
 20
630.27821900000004
 30
0.0
 11
1965.0203120000001
 21
600.28788699999996
 31
0.0
  0
LINE
  5
50A
  8
DETAIL
  6
CONTINUOUS
 62
     5
 10
1988.0203120000001
 20
609.283053
 30
0.0
 11
1988.0203120000001
 21
581.283053
 31
0.0
  0
LINE
  5
50B
  8
DETAIL
  6
CONTINUOUS
 62
     5
 10
1972.0203120000001
 20
609.283053
 30
0.0
 11
1988.0203120000001
 21
609.283053
 31
0.0
  0
LINE
  5
50C
  8
DETAIL
  6
CONTINUOUS
 62
     5
 10
1972.0203120000001
 20
621.28305299999977
 30
0.0
 11
1988.0203120000001
 21
621.28305299999977
 31
0.0
  0
LINE
  5
50D
  8
DETAIL
  6
CONTINUOUS
 62
     5
 10
1972.0203120000001
 20
621.28305299999977
 30
0.0
 11
1972.0203120000001
 21
623.283053
 31
0.0
  0
LINE
  5
50E
  8
DETAIL
  6
CONTINUOUS
 62
     5
 10
1972.0203120000001
 20
607.283053
 30
0.0
 11
1972.0203120000001
 21
609.283053
 31
0.0
  0
LINE
  5
50F
  8
DETAIL
  6
CONTINUOUS
 62
     5
 10
1972.0203120000001
 20
607.283053
 30
0.0
 11
1972.0203120000001
 21
609.283053
 31
0.0
  0
LINE
  5
510
  8
DETAIL
  6
CONTINUOUS
 62
     5
 10
1972.0203120000001
 20
621.28305299999977
 30
0.0
 11
1972.0203120000001
 21
623.283053
 31
0.0
  0
LINE
  5
511
  8
DETAIL
  6
CONTINUOUS
 62
     5
 10
1972.0203120000001
 20
621.28305299999977
 30
0.0
 11
1988.0203120000001
 21
621.28305299999977
 31
0.0
  0
LINE
  5
512
  8
DETAIL
  6
CONTINUOUS
 62
     5
 10
1972.0203120000001
 20
609.283053
 30
0.0
 11
1988.0203120000001
 21
609.283053
 31
0.0
  0
LINE
  5
513
  8
SIZE
  6
CONTINUOUS
 62
    30
 10
2329.2933760000001
 20
610.283053
 30
0.0
 11
2329.2933760000001
 21
605.283053
 31
0.0
  0
CIRCLE
  5
514
  8
SIZE
  6
CONTINUOUS
 62
    30
 10
2329.2933760000001
 20
615.283053
 30
0.0
 40
5.0
  0
LINE
  5
515
  8
SIZE
  6
CONTINUOUS
 62
    30
 10
2329.2933760000001
 20
605.283053
 30
0.0
 11
2329.2933760000001
 21
595.28305299999988
 31
0.0
  0
ARC
  5
516
  8
OUTLINE
  6
CONTINUOUS
 62
     3
 10
1996.0203120000001
 20
807.28303800000003
 30
0.0
 40
16.0
 50
270.0
 51
0.0
  0
ARC
  5
517
  8
DETAIL
  6
CONTINUOUS
 62
     5
 10
1996.0203120000001
 20
807.28303800000003
 30
0.0
 40
16.0
 50
270.0
 51
0.0
  0
POINT
  5
518
  8
DEFPOINTS
  6
CONTINUOUS
 62
     7
 10
1996.0203120000001
 20
791.28303800000003
 30
0.0
  0
POINT
  5
519
  8
DEFPOINTS
  6
CONTINUOUS
 62
     7
 10
1996.0203120000001
 20
791.28303800000003
 30
0.0
  0
POINT
  5
51A
  8
DEFPOINTS
  6
CONTINUOUS
 62
     7
 10
1972.0203120000001
 20
641.88318300000003
 30
0.0
  0
POINT
  5
51B
  8
DEFPOINTS
  6
CONTINUOUS
 62
     7
 10
1972.0203120000001
 20
641.88318300000003
 30
0.0
  0
LINE
  5
51C
  8
DETAIL
  6
CONTINUOUS
 62
     5
 10
1972.0203120000001
 20
641.88318300000003
 30
0.0
 11
1988.0203120000001
 21
641.88318300000003
 31
0.0
  0
POINT
  5
51D
  8
DEFPOINTS
  6
CONTINUOUS
 62
     7
 10
1992.0203120000001
 20
808.283053
 30
0.0
  0
POINT
  5
51E
  8
DEFPOINTS
  6
CONTINUOUS
 62
     7
 10
1992.0203120000001
 20
808.283053
 30
0.0
  0
TEXT
  5
51F
  8
SIZE
  6
CONTINUOUS
 62
    30
 10
2727.2352639999999
 20
627.35447457142857
 30
0.0
 40
55.0
  1
210
 50
90.0
 41
0.9
 72
     1
 11
2727.2352639999999
 21
686.28304600000001
 31
0.0
  0
LINE
  5
520
  8
SIZE
  6
CONTINUOUS
 62
    30
 10
2745.2352639999999
 20
781.28303800000003
 30
0.0
 11
2745.2352639999999
 21
591.28305299999988
 31
0.0
  0
TEXT
  5
521
  8
SIZE
  6
CONTINUOUS
 62
    30
 10
2563.758163
 20
631.14019585714288
 30
0.0
 40
55.0
  1
227
 50
90.0
 41
0.9
 72
     1
 11
2563.758163
 21
694.783053
 31
0.0
  0
LINE
  5
522
  8
SIZE
  6
CONTINUOUS
 62
    30
 10
2581.758163
 20
591.28305299999988
 30
0.0
 11
2581.758163
 21
798.283053
 31
0.0
  0
LINE
  5
523
  8
SIZE
  6
CONTINUOUS
 62
    30
 10
2581.758163
 20
586.283053
 30
0.0
 11
2581.758163
 21
591.28305299999988
 31
0.0
  0
CIRCLE
  5
524
  8
SIZE
  6
CONTINUOUS
 62
    30
 10
2581.758163
 20
581.283053
 30
0.0
 40
5.0
  0
CIRCLE
  5
525
  8
SIZE
  6
CONTINUOUS
 62
    30
 10
2745.2352639999999
 20
581.283053
 30
0.0
 40
5.0
  0
POINT
  5
526
  8
DEFPOINTS
  6
CONTINUOUS
 62
     7
 10
2745.2352639999999
 20
581.283053
 30
0.0
  0
LINE
  5
527
  8
SIZE
  6
CONTINUOUS
 62
    30
 10
2745.2352639999999
 20
586.283053
 30
0.0
 11
2745.2352639999999
 21
591.28305299999988
 31
0.0
  0
LINE
  5
528
  8
SIZE
  6
CONTINUOUS
 62
    30
 10
2581.758163
 20
813.28305299999988
 30
0.0
 11
2581.758163
 21
818.283053
 31
0.0
  0
CIRCLE
  5
529
  8
SIZE
  6
CONTINUOUS
 62
    30
 10
2581.758163
 20
808.283053
 30
0.0
 40
5.0
  0
POINT
  5
52A
  8
DEFPOINTS
  6
CONTINUOUS
 62
     7
 10
2581.758163
 20
808.283053
 30
0.0
  0
LINE
  5
52B
  8
SIZE
  6
CONTINUOUS
 62
    30
 10
2581.758163
 20
803.283053
 30
0.0
 11
2581.758163
 21
798.283053
 31
0.0
  0
CIRCLE
  5
52C
  8
SIZE
  6
CONTINUOUS
 62
    30
 10
2581.758163
 20
808.283053
 30
0.0
 40
5.0
  0
CIRCLE
  5
52D
  8
SIZE
  6
CONTINUOUS
 62
    30
 10
2745.2352639999999
 20
791.28303800000003
 30
0.0
 40
5.0
  0
CIRCLE
  5
52E
  8
SIZE
  6
CONTINUOUS
 62
    30
 10
2745.2352639999999
 20
791.28303800000003
 30
0.0
 40
5.0
  0
LINE
  5
52F
  8
SIZE
  6
CONTINUOUS
 62
    30
 10
2745.2352639999999
 20
786.28303800000003
 30
0.0
 11
2745.2352639999999
 21
781.28303800000003
 31
0.0
  0
POINT
  5
530
  8
DEFPOINTS
  6
CONTINUOUS
 62
     7
 10
2745.2352639999999
 20
791.28303800000003
 30
0.0
  0
LINE
  5
531
  8
SIZE
  6
CONTINUOUS
 62
    30
 10
2745.2352639999999
 20
796.28303800000003
 30
0.0
 11
2745.2352639999999
 21
801.28303800000003
 31
0.0
  0
LINE
  5
532
  8
BASIS
  6
DASHDOT
 62
     6
 10
2075.4768330000002
 20
948.78305299999965
 30
0.0
 11
1392.0203120000001
 21
948.78305299999965
 31
0.0
  0
CIRCLE
  5
533
  8
FIX
  6
CONTINUOUS
 62
    11
 10
1965.0203120000001
 20
1285.2830530000001
 30
0.0
 40
12.421498
  0
LINE
  5
534
  8
NOTE
  6
CONTINUOUS
 62
     4
 10
1950.0251459999999
 20
1285.2830530000001
 30
0.0
 11
1980.015478
 21
1285.2830530000001
 31
0.0
  0
LINE
  5
535
  8
OUTLINE
  6
CONTINUOUS
 62
     3
 10
1933.5503120000001
 20
1391.283038
 30
0.0
 11
1996.0203120000001
 21
1391.283038
 31
0.0
  0
LINE
  5
536
  8
DETAIL
  6
CONTINUOUS
 62
     5
 10
1933.5503120000001
 20
1391.283038
 30
0.0
 11
1996.0203120000001
 21
1391.283038
 31
0.0
  0
LINE
  5
537
  8
DETAIL
  6
CONTINUOUS
 62
     5
 10
1392.0203120000001
 20
1291.2797909999999
 30
0.0
 11
1958.5503120000001
 21
1291.2797909999999
 31
0.0
  0
LINE
  5
538
  8
DETAIL
  6
CONTINUOUS
 62
     5
 10
1933.5503120000001
 20
1391.283038
 30
0.0
 11
1933.5503120000001
 21
1354.283038
 31
0.0
  0
LINE
  5
539
  8
DETAIL
  6
CONTINUOUS
 62
     5
 10
1933.5503120000001
 20
1354.283038
 30
0.0
 11
1940.5503120000001
 21
1354.283038
 31
0.0
  0
LINE
  5
53A
  8
DETAIL
  6
CONTINUOUS
 62
     5
 10
1933.5503120000001
 20
1354.283038
 30
0.0
 11
1940.5503120000001
 21
1354.283038
 31
0.0
  0
ARC
  5
53B
  8
DETAIL
  6
CONTINUOUS
 62
     5
 10
1940.5503120000001
 20
1336.283038
 30
0.0
 40
18.0
 50
0.0
 51
90.0
  0
LINE
  5
53C
  8
DETAIL
  6
CONTINUOUS
 62
     5
 10
1933.5503120000001
 20
1391.283038
 30
0.0
 11
1933.5503120000001
 21
1354.283038
 31
0.0
  0
TEXT
  5
53D
  8
SIZE
  6
CONTINUOUS
 62
    30
 10
1145.0296584285711
 20
1601.9063650000001
 30
0.0
 40
55.0
  1
1200（天井開口寸法）
 41
0.9
 72
     1
 11
1452.401087
 21
1601.9063650000001
 31
0.0
  0
TEXT
  5
53E
  8
SIZE
  6
CONTINUOUS
 62
    30
 10
1271.385816
 20
1723.5339779999999
 30
0.0
 40
55.0
  1
1240
 41
0.9
 72
     1
 11
1353.885816
 21
1723.5339779999999
 31
0.0
  0
LINE
  5
53F
  8
SIZE
  6
CONTINUOUS
 62
    30
 10
2012.0203120000001
 20
1395.283038
 30
0.0
 11
2012.0203120000001
 21
1613.9063650000001
 31
0.0
  0
LINE
  5
540
  8
SIZE
  6
CONTINUOUS
 62
    30
 10
1992.0203120000001
 20
1394.2830530000001
 30
0.0
 11
1992.0203120000001
 21
1613.9063650000001
 31
0.0
  0
LINE
  5
541
  8
SIZE
  6
CONTINUOUS
 62
    30
 10
2329.2933760000001
 20
1575.557456
 30
0.0
 11
2329.2933760000001
 21
1391.283038
 31
0.0
  0
LINE
  5
542
  8
SIZE
  6
CONTINUOUS
 62
    30
 10
1992.0203120000001
 20
1393.8842119999999
 30
0.0
 11
1992.0203120000001
 21
1613.9063650000001
 31
0.0
  0
LINE
  5
543
  8
SIZE
  6
CONTINUOUS
 62
    30
 10
2012.0203120000001
 20
1395.283038
 30
0.0
 11
2012.0203120000001
 21
1735.5339779999999
 31
0.0
  0
LINE
  5
544
  8
SIZE
  6
CONTINUOUS
 62
    30
 10
2016.0203120000001
 20
1391.283038
 30
0.0
 11
2775.2352639999999
 21
1391.283038
 31
0.0
  0
LINE
  5
545
  8
SIZE
  6
CONTINUOUS
 62
    30
 10
2012.0203120000001
 20
1374.2830530000001
 30
0.0
 11
2611.758163
 21
1374.2830530000001
 31
0.0
  0
LINE
  5
546
  8
SIZE
  6
CONTINUOUS
 62
    30
 10
2016.0203120000001
 20
1391.283038
 30
0.0
 11
2239.2933760000001
 21
1391.283038
 31
0.0
  0
LINE
  5
547
  8
SIZE
  6
CONTINUOUS
 62
    30
 10
2000.015478
 20
1285.2830530000001
 30
0.0
 11
2359.2933760000001
 21
1285.2830530000001
 31
0.0
  0
LINE
  5
548
  8
SIZE
  6
CONTINUOUS
 62
    30
 10
2000.015478
 20
1285.2830530000001
 30
0.0
 11
2239.2933760000001
 21
1285.2830530000001
 31
0.0
  0
POINT
  5
549
  8
DEFPOINTS
  6
CONTINUOUS
 62
     7
 10
2012.0203120000001
 20
1375.283038
 30
0.0
  0
POINT
  5
54A
  8
DEFPOINTS
  6
CONTINUOUS
 62
     7
 10
1992.0203120000001
 20
1374.2830530000001
 30
0.0
  0
POINT
  5
54B
  8
DEFPOINTS
  6
CONTINUOUS
 62
     7
 10
1996.0203120000001
 20
1391.283038
 30
0.0
  0
POINT
  5
54C
  8
DEFPOINTS
  6
CONTINUOUS
 62
     7
 10
1992.0203120000001
 20
1374.2830530000001
 30
0.0
  0
POINT
  5
54D
  8
DEFPOINTS
  6
CONTINUOUS
 62
     7
 10
1992.0203120000001
 20
1373.8842119999999
 30
0.0
  0
LINE
  5
54E
  8
NOTE
  6
CONTINUOUS
 62
     4
 10
1965.0203120000001
 20
1300.278219
 30
0.0
 11
1965.0203120000001
 21
1270.287887
 31
0.0
  0
POINT
  5
54F
  8
DEFPOINTS
  6
CONTINUOUS
 62
     7
 10
2012.0203120000001
 20
1375.283038
 30
0.0
  0
ARC
  5
550
  8
OUTLINE
  6
CONTINUOUS
 62
     3
 10
1996.0203120000001
 20
1375.283038
 30
0.0
 40
16.0
 50
0.0
 51
90.0
  0
ARC
  5
551
  8
DETAIL
  6
CONTINUOUS
 62
     5
 10
1996.0203120000001
 20
1375.283038
 30
0.0
 40
16.0
 50
0.0
 51
90.0
  0
LINE
  5
552
  8
SIZE
  6
CONTINUOUS
 62
    30
 10
2329.2933760000001
 20
1386.283038
 30
0.0
 11
2329.2933760000001
 21
1381.283038
 31
0.0
  0
CIRCLE
  5
553
  8
SIZE
  6
CONTINUOUS
 62
    30
 10
2329.2933760000001
 20
1391.283038
 30
0.0
 40
5.0
  0
LINE
  5
554
  8
SIZE
  6
CONTINUOUS
 62
    30
 10
2329.2933760000001
 20
1290.2830530000001
 30
0.0
 11
2329.2933760000001
 21
1295.2830530000001
 31
0.0
  0
CIRCLE
  5
555
  8
SIZE
  6
CONTINUOUS
 62
    30
 10
2329.2933760000001
 20
1285.2830530000001
 30
0.0
 40
5.0
  0
LINE
  5
556
  8
SIZE
  6
CONTINUOUS
 62
    30
 10
2329.2933760000001
 20
1295.2830530000001
 30
0.0
 11
2329.2933760000001
 21
1381.283038
 31
0.0
  0
LINE
  5
557
  8
SIZE
  6
CONTINUOUS
 62
    30
 10
2329.2933760000001
 20
1290.2830530000001
 30
0.0
 11
2329.2933760000001
 21
1295.2830530000001
 31
0.0
  0
CIRCLE
  5
558
  8
SIZE
  6
CONTINUOUS
 62
    30
 10
2329.2933760000001
 20
1285.2830530000001
 30
0.0
 40
5.0
  0
LINE
  5
559
  8
SIZE
  6
CONTINUOUS
 62
    30
 10
2329.2933760000001
 20
1295.2830530000001
 30
0.0
 11
2329.2933760000001
 21
1305.2830530000001
 31
0.0
  0
TEXT
  5
55A
  8
SIZE
  6
CONTINUOUS
 62
    30
 10
2311.2933760000001
 20
1442.057456
 30
0.0
 40
55.0
  1
106
 50
90.0
 41
0.9
 72
     1
 11
2311.2933760000001
 21
1499.807456
 31
0.0
  0
TEXT
  5
55B
  8
SIZE
  6
CONTINUOUS
 62
    30
 10
2727.2352639999999
 20
1027.6401808571429
 30
0.0
 40
55.0
  1
600
 50
90.0
 41
0.9
 72
     1
 11
2727.2352639999999
 21
1091.283038
 31
0.0
  0
POINT
  5
55C
  8
DEFPOINTS
  6
CONTINUOUS
 62
     7
 10
2581.758163
 20
1374.2830530000001
 30
0.0
  0
LINE
  5
55D
  8
SIZE
  6
CONTINUOUS
 62
    30
 10
2581.758163
 20
1369.2830530000001
 30
0.0
 11
2581.758163
 21
1364.2830530000001
 31
0.0
  0
CIRCLE
  5
55E
  8
SIZE
  6
CONTINUOUS
 62
    30
 10
2581.758163
 20
1374.2830530000001
 30
0.0
 40
5.0
  0
CIRCLE
  5
55F
  8
SIZE
  6
CONTINUOUS
 62
    30
 10
2745.2352639999999
 20
1391.283038
 30
0.0
 40
5.0
  0
LINE
  5
560
  8
SIZE
  6
CONTINUOUS
 62
    30
 10
2745.2352639999999
 20
1386.283038
 30
0.0
 11
2745.2352639999999
 21
1381.283038
 31
0.0
  0
TEXT
  5
561
  8
SIZE
  6
CONTINUOUS
 62
    30
 10
2059.1820224285721
 20
1601.9063650000001
 30
0.0
 40
55.0
  1
20
 41
0.9
 72
     1
 11
2099.253451
 21
1601.9063650000001
 31
0.0
  0
LINE
  5
562
  8
SIZE
  6
CONTINUOUS
 62
    30
 10
2022.0203120000001
 20
1583.9063650000001
 30
0.0
 11
2157.3248789999998
 21
1583.9063650000001
 31
0.0
  0
POINT
  5
563
  8
DEFPOINTS
  6
CONTINUOUS
 62
     7
 10
2012.0203120000001
 20
1583.9063650000001
 30
0.0
  0
LINE
  5
564
  8
SIZE
  6
CONTINUOUS
 62
    30
 10
2017.0203120000001
 20
1583.9063650000001
 30
0.0
 11
2022.0203120000001
 21
1583.9063650000001
 31
0.0
  0
CIRCLE
  5
565
  8
SIZE
  6
CONTINUOUS
 62
    30
 10
2012.0203120000001
 20
1583.9063650000001
 30
0.0
 40
5.0
  0
LINE
  5
566
  8
SIZE
  6
CONTINUOUS
 62
    30
 10
1987.0203120000001
 20
1583.9063650000001
 30
0.0
 11
1982.0203120000001
 21
1583.9063650000001
 31
0.0
  0
CIRCLE
  5
567
  8
SIZE
  6
CONTINUOUS
 62
    30
 10
1992.0203120000001
 20
1583.9063650000001
 30
0.0
 40
5.0
  0
LINE
  5
568
  8
SIZE
  6
CONTINUOUS
 62
    30
 10
1992.0203120000001
 20
1583.9063650000001
 30
0.0
 11
2012.0203120000001
 21
1583.9063650000001
 31
0.0
  0
LINE
  5
569
  8
SIZE
  6
CONTINUOUS
 62
    30
 10
1982.0203120000001
 20
1583.9063650000001
 30
0.0
 11
1972.0203120000001
 21
1583.9063650000001
 31
0.0
  0
POINT
  5
56A
  8
DEFPOINTS
  6
CONTINUOUS
 62
     7
 10
1992.0203120000001
 20
1583.9063650000001
 30
0.0
  0
LINE
  5
56B
  8
SIZE
  6
CONTINUOUS
 62
    30
 10
1987.0203120000001
 20
1583.9063650000001
 30
0.0
 11
1982.0203120000001
 21
1583.9063650000001
 31
0.0
  0
CIRCLE
  5
56C
  8
SIZE
  6
CONTINUOUS
 62
    30
 10
1992.0203120000001
 20
1583.9063650000001
 30
0.0
 40
5.0
  0
POINT
  5
56D
  8
DEFPOINTS
  6
CONTINUOUS
 62
     7
 10
2012.0203120000001
 20
1705.5339779999999
 30
0.0
  0
LINE
  5
56E
  8
SIZE
  6
CONTINUOUS
 62
    30
 10
2007.0203120000001
 20
1705.5339779999999
 30
0.0
 11
2002.0203120000001
 21
1705.5339779999999
 31
0.0
  0
CIRCLE
  5
56F
  8
SIZE
  6
CONTINUOUS
 62
    30
 10
2012.0203120000001
 20
1705.5339779999999
 30
0.0
 40
5.0
  0
ENDBLK
  5
571
  8
0
 62
     7
  0
ENDSEC
  0
SECTION
  2
ENTITIES
  0
LINE
  5
578
  8
SIZE
  6
CONTINUOUS
 62
    30
 10
-570.0
 20
-703.12374999999975
 30
0.0
 11
570.0
 21
-703.12374999999975
 31
0.0
  0
LINE
  5
579
  8
SIZE
  6
CONTINUOUS
 62
    30
 10
-586.0
 20
-820.04965567413058
 30
0.0
 11
586.0
 21
-820.04965567413058
 31
0.0
  0
LINE
  5
57A
  8
NOTE
  6
CONTINUOUS
 62
     4
 10
-361.94451500000002
 20
-437.5
 30
0.0
 11
-218.055485
 21
-437.5
 31
0.0
  0
LINE
  5
57B
  8
OUTLINE
  6
CONTINUOUS
 62
     3
 10
-580.0
 20
-367.5
 30
0.0
 11
580.0
 21
-367.5
 31
0.0
  0
LINE
  5
57C
  8
DETAIL
  6
CONTINUOUS
 62
     5
 10
-596.0
 20
-367.5
 30
0.0
 11
596.0
 21
-367.5
 31
0.0
  0
LINE
  5
57E
  8
DETAIL
  6
CONTINUOUS
 62
     5
 10
-387.5
 20
-437.5
 30
0.0
 11
-192.5
 21
-437.5
 31
0.0
  0
LINE
  5
57F
  8
DETAIL
  6
CONTINUOUS
 62
     5
 10
-190.0
 20
-397.5
 30
0.0
 11
-390.0
 21
-397.5
 31
0.0
  0
LINE
  5
580
  8
DETAIL
  6
CONTINUOUS
 62
     5
 10
-544.0
 20
-377.5
 30
0.0
 11
544.0
 21
-377.5
 31
0.0
  0
LINE
  5
582
  8
SIZE
  6
CONTINUOUS
 62
    30
 10
-610.0
 20
575.07904858563381
 30
0.0
 11
610.0
 21
575.07904858563381
 31
0.0
  0
LINE
  5
583
  8
OUTLINE
  6
CONTINUOUS
 62
     3
 10
-604.0
 20
-157.50001499999999
 30
0.0
 11
604.0
 21
-157.50001499999999
 31
0.0
  0
LINE
  5
584
  8
OUTLINE
  6
CONTINUOUS
 62
     3
 10
-604.0
 20
442.49998499999981
 30
0.0
 11
604.0
 21
442.49998499999981
 31
0.0
  0
LINE
  5
585
  8
DETAIL
  6
CONTINUOUS
 62
     5
 10
-548.52999999999986
 20
-120.500015
 30
0.0
 11
548.52999999999986
 21
-120.500015
 31
0.0
  0
LINE
  5
586
  8
DETAIL
  6
CONTINUOUS
 62
     5
 10
-548.52999999999986
 20
405.49998499999992
 30
0.0
 11
548.52999999999986
 21
405.49998499999992
 31
0.0
  0
LINE
  5
587
  8
DETAIL
  6
CONTINUOUS
 62
     5
 10
-604.0
 20
-157.50001499999999
 30
0.0
 11
604.0
 21
-157.50001499999999
 31
0.0
  0
LINE
  5
58B
  8
DETAIL
  6
CONTINUOUS
 62
     5
 10
566.52999999999997
 20
-57.496767999999989
 30
0.0
 11
-566.52999999999997
 21
-57.496768000000003
 31
0.0
  0
LINE
  5
58C
  8
DETAIL
  6
CONTINUOUS
 62
     5
 10
566.52999999999997
 20
342.49673799999999
 30
0.0
 11
-566.52999999999997
 21
342.49673799999999
 31
0.0
  0
LINE
  5
58E
  8
NOTE
  6
CONTINUOUS
 62
     4
 10
-733.05553399999985
 20
15.935370000000001
 30
0.0
 11
-616.0
 21
-239.5
 31
0.0
  0
LINE
  5
58F
  8
NOTE
  6
CONTINUOUS
 62
     4
 10
-694.52233699999988
 20
110.204026
 30
0.0
 11
-619.0
 21
-175.5
 31
0.0
  0
LINE
  5
590
  8
OUTLINE
  6
CONTINUOUS
 62
     3
 10
-620.0
 20
426.49998499999992
 30
0.0
 11
-620.0
 21
-141.50001499999999
 31
0.0
  0
LINE
  5
591
  8
DETAIL
  6
CONTINUOUS
 62
     5
 10
-566.52999999999997
 20
387.49998499999998
 30
0.0
 11
-566.52999999999997
 21
-102.500015
 31
0.0
  0
LINE
  5
592
  8
DETAIL
  6
CONTINUOUS
 62
     5
 10
-620.0
 20
426.49998499999992
 30
0.0
 11
-620.0
 21
-141.50001499999999
 31
0.0
  0
CIRCLE
  5
593
  8
SIZE
  6
CONTINUOUS
 62
    30
 10
-618.99914899999976
 20
-615.362526
 30
0.0
 40
5.0
  0
CIRCLE
  5
594
  8
SIZE
  6
CONTINUOUS
 62
    30
 10
-580.0
 20
-615.362526
 30
0.0
 40
5.0
  0
LINE
  5
595
  8
SIZE
  6
CONTINUOUS
 62
    30
 10
-580.0
 20
-387.5
 30
0.0
 11
-580.0
 21
-645.36252599999989
 31
0.0
  0
LINE
  5
596
  8
SIZE
  6
CONTINUOUS
 62
    30
 10
-618.99914899999976
 20
-201.0
 30
0.0
 11
-618.99914899999976
 21
-645.36252599999989
 31
0.0
  0
LINE
  5
59A
  8
SIZE
  6
CONTINUOUS
 62
    30
 10
-580.0
 20
-377.2809324780028
 30
0.0
 11
-580.0
 21
-733.12374999999975
 31
0.0
  0
LINE
  5
59B
  8
SIZE
  6
CONTINUOUS
 62
    30
 10
-580.0
 20
-377.2809324780028
 30
0.0
 11
-580.0
 21
-733.12374999999975
 31
0.0
  0
LINE
  5
59C
  8
SIZE
  6
CONTINUOUS
 62
    30
 10
-596.0
 20
-387.5
 30
0.0
 11
-596.0
 21
-733.12374999999975
 31
0.0
  0
LINE
  5
59D
  8
SIZE
  6
CONTINUOUS
 62
    30
 10
-596.0
 20
-387.5
 30
0.0
 11
-596.0
 21
-853.43581478554916
 31
0.0
  0
CIRCLE
  5
59E
  8
SIZE
  6
CONTINUOUS
 62
    30
 10
-596.0
 20
-820.04965567413058
 30
0.0
 40
5.0
  0
LINE
  5
5AA
  8
SIZE
  6
CONTINUOUS
 62
    30
 10
-591.0
 20
-820.04965567413058
 30
0.0
 11
-586.0
 21
-820.04965567413058
 31
0.0
  0
LINE
  5
5AB
  8
SIZE
  6
CONTINUOUS
 62
    30
 10
-628.99914899999999
 20
-615.362526
 30
0.0
 11
-752.78486299999975
 21
-615.362526
 31
0.0
  0
TEXT
  5
5AC
  8
SIZE
  6
CONTINUOUS
 62
    30
 10
-702.35714242857136
 20
-685.12374999999975
 30
0.0
 40
55.0
  1
16
 41
0.9
 72
     1
 11
-668.17857100000003
 21
-685.12374999999975
 31
0.0
  0
LINE
  5
5AD
  8
SIZE
  6
CONTINUOUS
 62
    30
 10
-606.0
 20
-703.12374999999975
 30
0.0
 11
-720.35714299999995
 21
-703.12374999999975
 31
0.0
  0
POINT
  5
5AE
  8
DEFPOINTS
  6
CONTINUOUS
 62
     7
 10
-580.0
 20
-615.362526
 30
0.0
  0
LINE
  5
5AF
  8
SIZE
  6
CONTINUOUS
 62
    30
 10
-623.99914899999999
 20
-615.362526
 30
0.0
 11
-628.99914899999999
 21
-615.362526
 31
0.0
  0
LINE
  5
5B0
  8
SIZE
  6
CONTINUOUS
 62
    30
 10
-575.0
 20
-615.362526
 30
0.0
 11
-570.0
 21
-615.362526
 31
0.0
  0
LINE
  5
5B1
  8
SIZE
  6
CONTINUOUS
 62
    30
 10
-580.0
 20
-615.362526
 30
0.0
 11
-618.99914899999976
 21
-615.362526
 31
0.0
  0
LINE
  5
5B2
  8
SIZE
  6
CONTINUOUS
 62
    30
 10
-570.0
 20
-615.362526
 30
0.0
 11
-560.0
 21
-615.362526
 31
0.0
  0
LINE
  5
5B3
  8
SIZE
  6
CONTINUOUS
 62
    30
 10
-575.0
 20
-703.12374999999975
 30
0.0
 11
-570.0
 21
-703.12374999999975
 31
0.0
  0
CIRCLE
  5
5B4
  8
SIZE
  6
CONTINUOUS
 62
    30
 10
-580.0
 20
-703.12374999999975
 30
0.0
 40
5.0
  0
POINT
  5
5B5
  8
DEFPOINTS
  6
CONTINUOUS
 62
     7
 10
-580.0
 20
-703.12374999999975
 30
0.0
  0
LINE
  5
5B6
  8
SIZE
  6
CONTINUOUS
 62
    30
 10
-601.0
 20
-703.12374999999975
 30
0.0
 11
-606.0
 21
-703.12374999999975
 31
0.0
  0
CIRCLE
  5
5B7
  8
SIZE
  6
CONTINUOUS
 62
    30
 10
-596.0
 20
-703.12374999999975
 30
0.0
 40
5.0
  0
LINE
  5
5B8
  8
SIZE
  6
CONTINUOUS
 62
    30
 10
-575.0
 20
-703.12374999999975
 30
0.0
 11
-570.0
 21
-703.12374999999975
 31
0.0
  0
CIRCLE
  5
5B9
  8
SIZE
  6
CONTINUOUS
 62
    30
 10
-580.0
 20
-703.12374999999975
 30
0.0
 40
5.0
  0
LINE
  5
5BA
  8
SIZE
  6
CONTINUOUS
 62
    30
 10
-580.0
 20
-703.12374999999975
 30
0.0
 11
-596.0
 21
-703.12374999999975
 31
0.0
  0
LINE
  5
5BB
  8
SIZE
  6
CONTINUOUS
 62
    30
 10
-570.0
 20
-703.12374999999975
 30
0.0
 11
-560.0
 21
-703.12374999999975
 31
0.0
  0
LINE
  5
5BC
  8
SIZE
  6
CONTINUOUS
 62
    30
 10
-644.49000000000001
 20
-175.5
 30
0.0
 11
-958.27877599999999
 21
-175.5
 31
0.0
  0
LINE
  5
5BD
  8
SIZE
  6
CONTINUOUS
 62
    30
 10
-647.25829699999986
 20
-239.5
 30
0.0
 11
-958.27877599999999
 21
-239.5
 31
0.0
  0
LINE
  5
5BE
  8
SIZE
  6
CONTINUOUS
 62
    30
 10
-647.25829699999986
 20
-239.5
 30
0.0
 11
-958.27877599999999
 21
-239.5
 31
0.0
  0
LINE
  5
5BF
  8
SIZE
  6
CONTINUOUS
 62
    30
 10
-600.0
 20
-367.5
 30
0.0
 11
-958.27877599999999
 21
-367.5
 31
0.0
  0
LINE
  5
5C0
  8
SIZE
  6
CONTINUOUS
 62
    30
 10
-407.5
 20
-437.5
 30
0.0
 11
-819.6135919999997
 21
-437.5
 31
0.0
  0
LINE
  5
5C1
  8
SIZE
  6
CONTINUOUS
 62
    30
 10
-410.0
 20
-397.5
 30
0.0
 11
-819.6135919999997
 21
-397.5
 31
0.0
  0
LINE
  5
5C2
  8
SIZE
  6
CONTINUOUS
 62
    30
 10
-620.0
 20
-367.5
 30
0.0
 11
-958.27877599999999
 21
-367.5
 31
0.0
  0
LINE
  5
5C3
  8
SIZE
  6
CONTINUOUS
 62
    30
 10
-407.5
 20
-437.5
 30
0.0
 11
-958.27877599999999
 21
-437.5
 31
0.0
  0
TEXT
  5
5C4
  8
SIZE
  6
CONTINUOUS
 62
    30
 10
-946.27877599999988
 20
-362.42857142857139
 30
0.0
 40
55.0
  1
128
 50
90.0
 41
0.9
 72
     1
 11
-946.27877599999988
 21
-303.5
 31
0.0
  0
LINE
  5
5C5
  8
SIZE
  6
CONTINUOUS
 62
    30
 10
-928.27877599999988
 20
-367.5
 30
0.0
 11
-928.27877599999988
 21
-239.5
 31
0.0
  0
TEXT
  5
5C6
  8
SIZE
  6
CONTINUOUS
 62
    30
 10
-946.27877599999988
 20
-545.64285757142864
 30
0.0
 40
55.0
  1
70
 50
90.0
 41
0.9
 72
     1
 11
-946.27877599999988
 21
-505.57142900000002
 31
0.0
  0
LINE
  5
5C7
  8
SIZE
  6
CONTINUOUS
 62
    30
 10
-789.61359200000004
 20
-447.5
 30
0.0
 11
-789.61359200000004
 21
-578.50229100000001
 31
0.0
  0
LINE
  5
5C8
  8
SIZE
  6
CONTINUOUS
 62
    30
 10
-928.27877599999988
 20
-437.5
 30
0.0
 11
-928.27877599999988
 21
-563.64285700000005
 31
0.0
  0
TEXT
  5
5C9
  8
SIZE
  6
CONTINUOUS
 62
    30
 10
-807.61359200000004
 20
-560.50229157142849
 30
0.0
 40
55.0
  1
40
 50
90.0
 41
0.9
 72
     1
 11
-807.61359200000004
 21
-520.43086300000004
 31
0.0
  0
LINE
  5
5CA
  8
SIZE
  6
CONTINUOUS
 62
    30
 10
-928.27877599999988
 20
-372.5
 30
0.0
 11
-928.27877599999988
 21
-377.5
 31
0.0
  0
CIRCLE
  5
5CB
  8
SIZE
  6
CONTINUOUS
 62
    30
 10
-928.27877599999988
 20
-367.5
 30
0.0
 40
5.0
  0
LINE
  5
5CC
  8
SIZE
  6
CONTINUOUS
 62
    30
 10
-928.27877599999988
 20
-377.5
 30
0.0
 11
-928.27877599999988
 21
-387.5
 31
0.0
  0
POINT
  5
5CD
  8
DEFPOINTS
  6
CONTINUOUS
 62
     7
 10
-928.27877599999988
 20
-367.5
 30
0.0
  0
LINE
  5
5CE
  8
SIZE
  6
CONTINUOUS
 62
    30
 10
-928.27877599999988
 20
-432.5
 30
0.0
 11
-928.27877599999988
 21
-427.5
 31
0.0
  0
CIRCLE
  5
5CF
  8
SIZE
  6
CONTINUOUS
 62
    30
 10
-928.27877599999988
 20
-437.5
 30
0.0
 40
5.0
  0
LINE
  5
5D0
  8
SIZE
  6
CONTINUOUS
 62
    30
 10
-928.27877599999988
 20
-372.5
 30
0.0
 11
-928.27877599999988
 21
-377.5
 31
0.0
  0
CIRCLE
  5
5D1
  8
SIZE
  6
CONTINUOUS
 62
    30
 10
-928.27877599999988
 20
-367.5
 30
0.0
 40
5.0
  0
LINE
  5
5D2
  8
SIZE
  6
CONTINUOUS
 62
    30
 10
-928.27877599999988
 20
-377.5
 30
0.0
 11
-928.27877599999988
 21
-427.5
 31
0.0
  0
POINT
  5
5D3
  8
DEFPOINTS
  6
CONTINUOUS
 62
     7
 10
-789.61359200000004
 20
-437.5
 30
0.0
  0
LINE
  5
5D4
  8
SIZE
  6
CONTINUOUS
 62
    30
 10
-789.61359200000004
 20
-442.49999999999989
 30
0.0
 11
-789.61359200000004
 21
-447.5
 31
0.0
  0
CIRCLE
  5
5D5
  8
SIZE
  6
CONTINUOUS
 62
    30
 10
-789.61359200000004
 20
-437.5
 30
0.0
 40
5.0
  0
LINE
  5
5D6
  8
SIZE
  6
CONTINUOUS
 62
    30
 10
-789.61359200000004
 20
-392.5
 30
0.0
 11
-789.61359200000004
 21
-387.5
 31
0.0
  0
CIRCLE
  5
5D7
  8
SIZE
  6
CONTINUOUS
 62
    30
 10
-789.61359200000004
 20
-397.5
 30
0.0
 40
5.0
  0
LINE
  5
5D8
  8
SIZE
  6
CONTINUOUS
 62
    30
 10
-789.61359200000004
 20
-397.5
 30
0.0
 11
-789.61359200000004
 21
-437.5
 31
0.0
  0
LINE
  5
5D9
  8
SIZE
  6
CONTINUOUS
 62
    30
 10
-789.61359200000004
 20
-387.5
 30
0.0
 11
-789.61359200000004
 21
-377.5
 31
0.0
  0
TEXT
  5
5DA
  8
SIZE
  6
CONTINUOUS
 62
    30
 10
-946.27877599999988
 20
-146.11664300000001
 30
0.0
 40
55.0
  1
64
 50
90.0
 41
0.9
 72
     1
 11
-946.27877599999988
 21
-104.866643
 31
0.0
  0
LINE
  5
5DB
  8
SIZE
  6
CONTINUOUS
 62
    30
 10
-928.27877599999988
 20
-45.616642999999989
 30
0.0
 11
-928.27877599999988
 21
-175.5
 31
0.0
  0
POINT
  5
5DC
  8
DEFPOINTS
  6
CONTINUOUS
 62
     7
 10
-928.27877599999988
 20
-175.5
 30
0.0
  0
LINE
  5
5DD
  8
SIZE
  6
CONTINUOUS
 62
    30
 10
-928.27877599999988
 20
-180.5
 30
0.0
 11
-928.27877599999988
 21
-185.5
 31
0.0
  0
CIRCLE
  5
5DE
  8
SIZE
  6
CONTINUOUS
 62
    30
 10
-928.27877599999988
 20
-175.5
 30
0.0
 40
5.0
  0
LINE
  5
5DF
  8
SIZE
  6
CONTINUOUS
 62
    30
 10
-928.27877599999988
 20
-234.5
 30
0.0
 11
-928.27877599999988
 21
-229.5
 31
0.0
  0
CIRCLE
  5
5E0
  8
SIZE
  6
CONTINUOUS
 62
    30
 10
-928.27877599999988
 20
-239.5
 30
0.0
 40
5.0
  0
LINE
  5
5E1
  8
SIZE
  6
CONTINUOUS
 62
    30
 10
-928.27877599999988
 20
-229.5
 30
0.0
 11
-928.27877599999988
 21
-185.5
 31
0.0
  0
POINT
  5
5E2
  8
DEFPOINTS
  6
CONTINUOUS
 62
     7
 10
-928.27877599999988
 20
-239.5
 30
0.0
  0
LINE
  5
5E3
  8
SIZE
  6
CONTINUOUS
 62
    30
 10
-928.27877599999988
 20
-234.5
 30
0.0
 11
-928.27877599999988
 21
-229.5
 31
0.0
  0
CIRCLE
  5
5E4
  8
SIZE
  6
CONTINUOUS
 62
    30
 10
-928.27877599999988
 20
-239.5
 30
0.0
 40
5.0
  0
LINE
  5
5E5
  8
SIZE
  6
CONTINUOUS
 62
    30
 10
-928.27877599999988
 20
-229.5
 30
0.0
 11
-928.27877599999988
 21
-219.5
 31
0.0
  0
LINE
  5
5E6
  8
SIZE
  6
CONTINUOUS
 62
    30
 10
-616.0
 20
-270.74999600000001
 30
0.0
 11
-616.0
 21
-560.17941800000006
 31
0.0
  0
LINE
  5
5E7
  8
OUTLINE
  6
CONTINUOUS
 62
     3
 10
-580.0
 20
-157.50001499999999
 30
0.0
 11
-580.0
 21
-367.5
 31
0.0
  0
LINE
  5
5E8
  8
DETAIL
  6
CONTINUOUS
 62
     5
 10
-596.0
 20
-306.89987000000002
 30
0.0
 11
-596.0
 21
-327.5
 31
0.0
  0
LINE
  5
5E9
  8
DETAIL
  6
CONTINUOUS
 62
     5
 10
-580.0
 20
-367.5
 30
0.0
 11
-580.0
 21
-157.50001499999999
 31
0.0
  0
TEXT
  5
5EA
  8
SIZE
  6
CONTINUOUS
 62
    30
 10
-731.78571414285716
 20
-512.17941800000006
 30
0.0
 40
55.0
  1
36
 41
0.9
 72
     1
 11
-692.89285700000005
 21
-512.17941800000006
 31
0.0
  0
LINE
  5
5EB
  8
SIZE
  6
CONTINUOUS
 62
    30
 10
-580.0
 20
-387.5
 30
0.0
 11
-580.0
 21
-560.17941800000006
 31
0.0
  0
TEXT
  5
5EC
  8
SIZE
  6
CONTINUOUS
 62
    30
 10
-734.78486314285681
 20
-597.362526
 30
0.0
 40
55.0
  1
39
 41
0.9
 72
     1
 11
-695.8920059999997
 21
-597.362526
 31
0.0
  0
LINE
  5
5ED
  8
SIZE
  6
CONTINUOUS
 62
    30
 10
-626.0
 20
-530.17941800000006
 30
0.0
 11
-749.78571399999976
 21
-530.17941800000006
 31
0.0
  0
POINT
  5
5EE
  8
DEFPOINTS
  6
CONTINUOUS
 62
     7
 10
-616.0
 20
-530.17941800000006
 30
0.0
  0
LINE
  5
5EF
  8
SIZE
  6
CONTINUOUS
 62
    30
 10
-621.0
 20
-530.17941800000006
 30
0.0
 11
-626.0
 21
-530.17941800000006
 31
0.0
  0
CIRCLE
  5
5F0
  8
SIZE
  6
CONTINUOUS
 62
    30
 10
-616.0
 20
-530.17941800000006
 30
0.0
 40
5.0
  0
LINE
  5
5F1
  8
SIZE
  6
CONTINUOUS
 62
    30
 10
-575.0
 20
-530.17941800000006
 30
0.0
 11
-570.0
 21
-530.17941800000006
 31
0.0
  0
CIRCLE
  5
5F2
  8
SIZE
  6
CONTINUOUS
 62
    30
 10
-580.0
 20
-530.17941800000006
 30
0.0
 40
5.0
  0
LINE
  5
5F3
  8
SIZE
  6
CONTINUOUS
 62
    30
 10
-580.0
 20
-530.17941800000006
 30
0.0
 11
-616.0
 21
-530.17941800000006
 31
0.0
  0
LINE
  5
5F4
  8
SIZE
  6
CONTINUOUS
 62
    30
 10
-570.0
 20
-530.17941800000006
 30
0.0
 11
-560.0
 21
-530.17941800000006
 31
0.0
  0
POINT
  5
5F5
  8
DEFPOINTS
  6
CONTINUOUS
 62
     7
 10
-580.0
 20
-367.5
 30
0.0
  0
POINT
  5
5F6
  8
DEFPOINTS
  6
CONTINUOUS
 62
     7
 10
-580.0
 20
-367.5
 30
0.0
  0
POINT
  5
5F7
  8
DEFPOINTS
  6
CONTINUOUS
 62
     7
 10
-580.0
 20
-367.5
 30
0.0
  0
POINT
  5
5FA
  8
DEFPOINTS
  6
CONTINUOUS
 62
     7
 10
-596.0
 20
-367.5
 30
0.0
  0
POINT
  5
5FB
  8
DEFPOINTS
  6
CONTINUOUS
 62
     7
 10
-596.0
 20
-367.5
 30
0.0
  0
POINT
  5
5FC
  8
DEFPOINTS
  6
CONTINUOUS
 62
     7
 10
-600.0
 20
-367.5
 30
0.0
  0
POINT
  5
5FD
  8
DEFPOINTS
  6
CONTINUOUS
 62
     7
 10
-596.0
 20
-367.5
 30
0.0
  0
LINE
  5
601
  8
DETAIL
  6
CONTINUOUS
 62
     5
 10
-596.0
 20
-339.5
 30
0.0
 11
-596.0
 21
-367.5
 31
0.0
  0
LINE
  5
602
  8
DETAIL
  6
CONTINUOUS
 62
     5
 10
-580.0
 20
-339.5
 30
0.0
 11
-596.0
 21
-339.5
 31
0.0
  0
LINE
  5
603
  8
DETAIL
  6
CONTINUOUS
 62
     5
 10
-580.0
 20
-327.5
 30
0.0
 11
-596.0
 21
-327.5
 31
0.0
  0
LINE
  5
608
  8
DETAIL
  6
CONTINUOUS
 62
     5
 10
-580.0
 20
-327.5
 30
0.0
 11
-596.0
 21
-327.5
 31
0.0
  0
LINE
  5
609
  8
DETAIL
  6
CONTINUOUS
 62
     5
 10
-580.0
 20
-339.5
 30
0.0
 11
-596.0
 21
-339.5
 31
0.0
  0
LINE
  5
60A
  8
DETAIL
  6
CONTINUOUS
 62
     5
 10
-544.46833000000004
 20
-377.472489
 30
0.0
 11
-398.82917500000002
 21
-387.56877800000001
 31
0.0
  0
LINE
  5
60B
  8
DETAIL
  6
CONTINUOUS
 62
     5
 10
-548.0
 20
-367.5
 30
0.0
 11
-548.0
 21
-373.5
 31
0.0
  0
ARC
  5
60C
  8
DETAIL
  6
CONTINUOUS
 62
     5
 10
-544.0
 20
-373.5
 30
0.0
 40
4.0
 50
180.0
 51
263.27624300000002
  0
POINT
  5
60D
  8
DEFPOINTS
  6
CONTINUOUS
 62
     7
 10
-387.5
 20
-437.5
 30
0.0
  0
POINT
  5
60E
  8
DEFPOINTS
  6
CONTINUOUS
 62
     7
 10
-390.0
 20
-397.5
 30
0.0
  0
POINT
  5
60F
  8
DEFPOINTS
  6
CONTINUOUS
 62
     7
 10
-387.5
 20
-437.5
 30
0.0
  0
ARC
  5
610
  8
DETAIL
  6
CONTINUOUS
 62
     5
 10
-400.0
 20
-397.5
 30
0.0
 40
10.0
 50
0.0
 51
83.276242999999994
  0
LINE
  5
611
  8
DETAIL
  6
CONTINUOUS
 62
     5
 10
-387.5
 20
-437.5
 30
0.0
 11
-390.0
 21
-397.5
 31
0.0
  0
ARC
  5
613
  8
DETAIL
  6
CONTINUOUS
 62
     5
 10
-548.52999999999986
 20
-102.500015
 30
0.0
 40
18.0
 50
180.0
 51
270.0
  0
LINE
  5
615
  8
NOTE
  6
CONTINUOUS
 62
     4
 10
-619.0
 20
-175.5
 30
0.0
 11
-634.71855100000005
 21
-144.91770399999999
 31
0.0
  0
LINE
  5
616
  8
NOTE
  6
CONTINUOUS
 62
     4
 10
-619.0
 20
-175.5
 30
0.0
 11
-621.33388200000002
 21
-141.193985
 31
0.0
  0
ARC
  5
617
  8
OUTLINE
  6
CONTINUOUS
 62
     3
 10
-604.0
 20
-141.50001499999999
 30
0.0
 40
16.0
 50
180.0
 51
270.0
  0
ARC
  5
618
  8
DETAIL
  6
CONTINUOUS
 62
     5
 10
-604.0
 20
-141.50001499999999
 30
0.0
 40
16.0
 50
180.0
 51
270.0
  0
POINT
  5
619
  8
DEFPOINTS
  6
CONTINUOUS
 62
     7
 10
-624.49000000000001
 20
-175.5
 30
0.0
  0
POINT
  5
61A
  8
DEFPOINTS
  6
CONTINUOUS
 62
     7
 10
-627.25829699999997
 20
-239.5
 30
0.0
  0
POINT
  5
61B
  8
DEFPOINTS
  6
CONTINUOUS
 62
     7
 10
-627.25829699999997
 20
-239.5
 30
0.0
  0
LINE
  5
61C
  8
NOTE
  6
CONTINUOUS
 62
     4
 10
-616.0
 20
-239.5
 30
0.0
 11
-636.70081200000004
 21
-212.04410799999999
 31
0.0
  0
LINE
  5
61D
  8
NOTE
  6
CONTINUOUS
 62
     4
 10
-616.0
 20
-239.5
 30
0.0
 11
-624.14661599999977
 21
-206.09367900000001
 31
0.0
  0
POINT
  5
61E
  8
DEFPOINTS
  6
CONTINUOUS
 62
     7
 10
-618.99914899999976
 20
-181.0
 30
0.0
  0
POINT
  5
61F
  8
DEFPOINTS
  6
CONTINUOUS
 62
     7
 10
-616.0
 20
-250.74999600000001
 30
0.0
  0
POINT
  5
620
  8
DEFPOINTS
  6
CONTINUOUS
 62
     7
 10
-580.0
 20
-306.89987000000002
 30
0.0
  0
POINT
  5
621
  8
DEFPOINTS
  6
CONTINUOUS
 62
     7
 10
-580.0
 20
-306.89987000000002
 30
0.0
  0
LINE
  5
622
  8
DETAIL
  6
CONTINUOUS
 62
     5
 10
-580.0
 20
-306.89987000000002
 30
0.0
 11
-596.0
 21
-306.89987000000002
 31
0.0
  0
LINE
  5
623
  8
NOTE
  6
CONTINUOUS
 62
     4
 10
-604.75
 20
-239.5
 30
0.0
 11
-627.24999999999989
 21
-239.5
 31
0.0
  0
LINE
  5
624
  8
NOTE
  6
CONTINUOUS
 62
     4
 10
-616.0
 20
-228.25000399999999
 30
0.0
 11
-616.0
 21
-250.74999600000001
 31
0.0
  0
LINE
  5
625
  8
NOTE
  6
CONTINUOUS
 62
     4
 10
-613.49999999999977
 20
-175.5
 30
0.0
 11
-624.5
 21
-175.5
 31
0.0
  0
LINE
  5
628
  8
DETAIL
  6
CONTINUOUS
 62
     5
 10
-616.0
 20
-228.25
 30
0.0
 11
-616.0
 21
-250.75
 31
0.0
  0
LINE
  5
629
  8
DETAIL
  6
CONTINUOUS
 62
     5
 10
-579.99000000000001
 20
-251.0
 30
0.0
 11
-590.99829699999975
 21
-251.0
 31
0.0
  0
LINE
  5
62A
  8
DETAIL
  6
CONTINUOUS
 62
     5
 10
-579.99000000000001
 20
-228.0
 30
0.0
 11
-590.99829699999975
 21
-228.0
 31
0.0
  0
LINE
  5
62B
  8
DETAIL
  6
CONTINUOUS
 62
     5
 10
-610.99829699999987
 20
-246.5
 30
0.0
 11
-612.99829699999998
 21
-248.5
 31
0.0
  0
LINE
  5
62D
  8
DETAIL
  6
CONTINUOUS
 62
     5
 10
-610.99829699999987
 20
-246.5
 30
0.0
 11
-612.99829699999998
 21
-244.5
 31
0.0
  0
LINE
  5
62F
  8
DETAIL
  6
CONTINUOUS
 62
     5
 10
-610.99829699999987
 20
-232.5
 30
0.0
 11
-612.99829699999998
 21
-234.5
 31
0.0
  0
LINE
  5
631
  8
DETAIL
  6
CONTINUOUS
 62
     5
 10
-610.99829699999987
 20
-232.5
 30
0.0
 11
-612.99829699999998
 21
-230.5
 31
0.0
  0
LINE
  5
633
  8
DETAIL
  6
CONTINUOUS
 62
     5
 10
-598.99829699999975
 20
-232.5
 30
0.0
 11
-596.99829699999998
 21
-230.5
 31
0.0
  0
LINE
  5
635
  8
DETAIL
  6
CONTINUOUS
 62
     5
 10
-598.99829699999975
 20
-232.5
 30
0.0
 11
-596.99829699999998
 21
-234.5
 31
0.0
  0
LINE
  5
637
  8
DETAIL
  6
CONTINUOUS
 62
     5
 10
-598.99829699999975
 20
-246.5
 30
0.0
 11
-596.99829699999998
 21
-244.5
 31
0.0
  0
LINE
  5
639
  8
DETAIL
  6
CONTINUOUS
 62
     5
 10
-598.99829699999975
 20
-246.5
 30
0.0
 11
-596.99829699999998
 21
-248.5
 31
0.0
  0
LINE
  5
63B
  8
DETAIL
  6
CONTINUOUS
 62
     5
 10
-598.99829699999975
 20
-246.5
 30
0.0
 11
-610.99829699999987
 21
-246.5
 31
0.0
  0
LINE
  5
63D
  8
DETAIL
  6
CONTINUOUS
 62
     5
 10
-598.99829699999975
 20
-232.5
 30
0.0
 11
-610.99829699999987
 21
-232.5
 31
0.0
  0
LINE
  5
63F
  8
DETAIL
  6
CONTINUOUS
 62
     5
 10
-596.99829699999998
 20
-250.5
 30
0.0
 11
-598.99829699999975
 21
-252.5
 31
0.0
  0
LINE
  5
641
  8
DETAIL
  6
CONTINUOUS
 62
     5
 10
-596.99829699999998
 20
-228.5
 30
0.0
 11
-598.99829699999975
 21
-226.5
 31
0.0
  0
LINE
  5
643
  8
DETAIL
  6
CONTINUOUS
 62
     5
 10
-615.99000000000001
 20
-250.74999600000001
 30
0.0
 11
-612.99829699999998
 21
-252.5
 31
0.0
  0
LINE
  5
645
  8
DETAIL
  6
CONTINUOUS
 62
     5
 10
-612.99829699999998
 20
-226.5
 30
0.0
 11
-615.99000000000001
 21
-228.25
 31
0.0
  0
LINE
  5
647
  8
DETAIL
  6
CONTINUOUS
 62
     5
 10
-612.99829699999998
 20
-226.5
 30
0.0
 11
-612.99829699999998
 21
-252.5
 31
0.0
  0
LINE
  5
649
  8
DETAIL
  6
CONTINUOUS
 62
     5
 10
-596.99829699999998
 20
-228.5
 30
0.0
 11
-596.99829699999998
 21
-250.5
 31
0.0
  0
LINE
  5
64B
  8
DETAIL
  6
CONTINUOUS
 62
     5
 10
-598.99829699999975
 20
-252.5
 30
0.0
 11
-612.99829699999998
 21
-252.5
 31
0.0
  0
LINE
  5
64D
  8
DETAIL
  6
CONTINUOUS
 62
     5
 10
-598.99829699999975
 20
-226.5
 30
0.0
 11
-612.99829699999998
 21
-226.5
 31
0.0
  0
LINE
  5
650
  8
DETAIL
  6
CONTINUOUS
 62
     5
 10
-596.99829699999998
 20
-247.44
 30
0.0
 11
-592.99829699999998
 21
-247.44
 31
0.0
  0
LINE
  5
651
  8
DETAIL
  6
CONTINUOUS
 62
     5
 10
-596.99829699999998
 20
-231.56
 30
0.0
 11
-592.99829699999998
 21
-231.56
 31
0.0
  0
LINE
  5
652
  8
DETAIL
  6
CONTINUOUS
 62
     5
 10
-592.99829699999998
 20
-230.0
 30
0.0
 11
-590.99829699999975
 21
-228.0
 31
0.0
  0
LINE
  5
653
  8
DETAIL
  6
CONTINUOUS
 62
     5
 10
-592.99829699999998
 20
-249.0
 30
0.0
 11
-590.99829699999975
 21
-251.0
 31
0.0
  0
LINE
  5
654
  8
DETAIL
  6
CONTINUOUS
 62
     5
 10
-592.99829699999998
 20
-230.0
 30
0.0
 11
-592.99829699999998
 21
-249.0
 31
0.0
  0
LINE
  5
681
  8
NOTE
  6
CONTINUOUS
 62
     4
 10
-619.0
 20
-170.00000800000001
 30
0.0
 11
-619.0
 21
-180.99999199999999
 31
0.0
  0
LINE
  5
682
  8
DETAIL
  6
CONTINUOUS
 62
     5
 10
-599.99914899999999
 20
-181.0
 30
0.0
 11
-579.99914899999999
 21
-181.0
 31
0.0
  0
LINE
  5
683
  8
DETAIL
  6
CONTINUOUS
 62
     5
 10
-598.99914899999999
 20
-185.0
 30
0.0
 11
-579.99914899999999
 21
-185.0
 31
0.0
  0
LINE
  5
684
  8
DETAIL
  6
CONTINUOUS
 62
     5
 10
-598.99914899999999
 20
-166.0
 30
0.0
 11
-579.99914899999999
 21
-166.0
 31
0.0
  0
LINE
  5
685
  8
DETAIL
  6
CONTINUOUS
 62
     5
 10
-599.99914899999999
 20
-170.0
 30
0.0
 11
-579.99914899999999
 21
-170.0
 31
0.0
  0
LINE
  5
686
  8
DETAIL
  6
CONTINUOUS
 62
     5
 10
-615.99914899999999
 20
-186.0
 30
0.0
 11
-602.99914899999999
 21
-186.0
 31
0.0
  0
LINE
  5
687
  8
DETAIL
  6
CONTINUOUS
 62
     5
 10
-614.99914899999976
 20
-181.0
 30
0.0
 11
-601.99914899999976
 21
-181.0
 31
0.0
  0
LINE
  5
688
  8
DETAIL
  6
CONTINUOUS
 62
     5
 10
-619.0
 20
-181.0
 30
0.0
 11
-619.0
 21
-170.0
 31
0.0
  0
LINE
  5
689
  8
DETAIL
  6
CONTINUOUS
 62
     5
 10
-618.99914899999976
 20
-181.0
 30
0.0
 11
-615.99914899999999
 21
-186.0
 31
0.0
  0
LINE
  5
68A
  8
DETAIL
  6
CONTINUOUS
 62
     5
 10
-601.99914899999976
 20
-185.0
 30
0.0
 11
-602.99914899999999
 21
-186.0
 31
0.0
  0
LINE
  5
68B
  8
DETAIL
  6
CONTINUOUS
 62
     5
 10
-599.99914899999999
 20
-184.0
 30
0.0
 11
-598.99914899999999
 21
-185.0
 31
0.0
  0
LINE
  5
68C
  8
DETAIL
  6
CONTINUOUS
 62
     5
 10
-614.99914899999976
 20
-181.0
 30
0.0
 11
-615.99914899999999
 21
-180.0
 31
0.0
  0
LINE
  5
68D
  8
DETAIL
  6
CONTINUOUS
 62
     5
 10
-614.99914899999976
 20
-181.0
 30
0.0
 11
-615.99914899999999
 21
-182.0
 31
0.0
  0
LINE
  5
68E
  8
DETAIL
  6
CONTINUOUS
 62
     5
 10
-601.99914899999976
 20
-180.25999999999999
 30
0.0
 11
-599.99914899999999
 21
-180.25999999999999
 31
0.0
  0
LINE
  5
68F
  8
DETAIL
  6
CONTINUOUS
 62
     5
 10
-599.99914899999999
 20
-184.0
 30
0.0
 11
-599.99914899999999
 21
-167.0
 31
0.0
  0
LINE
  5
690
  8
DETAIL
  6
CONTINUOUS
 62
     5
 10
-601.99914899999976
 20
-185.0
 30
0.0
 11
-601.99914899999976
 21
-166.0
 31
0.0
  0
LINE
  5
691
  8
DETAIL
  6
CONTINUOUS
 62
     5
 10
-615.99914899999999
 20
-165.0
 30
0.0
 11
-602.99914899999999
 21
-165.0
 31
0.0
  0
LINE
  5
692
  8
DETAIL
  6
CONTINUOUS
 62
     5
 10
-615.99914899999999
 20
-186.0
 30
0.0
 11
-615.99914899999999
 21
-165.0
 31
0.0
  0
LINE
  5
693
  8
DETAIL
  6
CONTINUOUS
 62
     5
 10
-614.99914899999976
 20
-170.0
 30
0.0
 11
-601.99914899999976
 21
-170.0
 31
0.0
  0
LINE
  5
694
  8
DETAIL
  6
CONTINUOUS
 62
     5
 10
-618.99914899999976
 20
-170.0
 30
0.0
 11
-615.99914899999999
 21
-165.0
 31
0.0
  0
LINE
  5
695
  8
DETAIL
  6
CONTINUOUS
 62
     5
 10
-602.99914899999999
 20
-165.0
 30
0.0
 11
-601.99914899999976
 21
-166.0
 31
0.0
  0
LINE
  5
696
  8
DETAIL
  6
CONTINUOUS
 62
     5
 10
-599.99914899999999
 20
-167.0
 30
0.0
 11
-598.99914899999999
 21
-166.0
 31
0.0
  0
LINE
  5
697
  8
DETAIL
  6
CONTINUOUS
 62
     5
 10
-614.99914899999976
 20
-170.0
 30
0.0
 11
-615.99914899999999
 21
-169.0
 31
0.0
  0
LINE
  5
698
  8
DETAIL
  6
CONTINUOUS
 62
     5
 10
-614.99914899999976
 20
-170.0
 30
0.0
 11
-615.99914899999999
 21
-171.0
 31
0.0
  0
LINE
  5
699
  8
DETAIL
  6
CONTINUOUS
 62
     5
 10
-601.99914899999976
 20
-170.74000000000001
 30
0.0
 11
-599.99914899999999
 21
-170.74000000000001
 31
0.0
  0
LINE
  5
6A2
  8
DETAIL
  6
CONTINUOUS
 62
     5
 10
-599.99914899999999
 20
-184.0
 30
0.0
 11
-598.99914899999999
 21
-185.0
 31
0.0
  0
LINE
  5
6AD
  8
DETAIL
  6
CONTINUOUS
 62
     5
 10
-599.99914899999999
 20
-167.0
 30
0.0
 11
-598.99914899999999
 21
-166.0
 31
0.0
  0
LINE
  5
6B1
  8
DETAIL
  6
CONTINUOUS
 62
     5
 10
-541.52999999999997
 20
-120.500015
 30
0.0
 11
-541.52999999999997
 21
-157.50001499999999
 31
0.0
  0
TEXT
  5
6B3
  8
ETC
  6
CONTINUOUS
 62
    61
 10
369.15679567438201
 20
648.05752545141513
 30
0.0
 40
80.0
  1
PD-RP71_80FA6_6
 50
0.000003
 41
0.8
  0
LINE
  5
6B7
  8
SIZE
  6
CONTINUOUS
 62
    30
 10
-620.0
 20
446.49998499999981
 30
0.0
 11
-620.0
 21
605.30397772873403
 31
0.0
  0
LINE
  5
6B8
  8
NOTE
  6
CONTINUOUS
 62
     4
 10
-694.52233699999988
 20
110.204026
 30
0.0
 11
-1023.558858
 21
110.204026
 31
0.0
  0
TEXT
  5
6B9
  8
NOTE
  6
CONTINUOUS
 62
     4
 10
-1001.883586
 20
126.030557
 30
0.0
 40
60.0
  1
RL %%C9.52
 50
0.000003
 41
0.7
  7
STANDARD1
  0
LINE
  5
6BA
  8
NOTE
  6
CONTINUOUS
 62
     4
 10
-694.52233699999988
 20
110.204026
 30
0.0
 11
-1023.558858
 21
110.204026
 31
0.0
  0
TEXT
  5
6BB
  8
NOTE
  6
CONTINUOUS
 62
     4
 10
-1001.883586
 20
126.030557
 30
0.0
 40
60.0
  1
RL %%C9.52
 50
0.000003
 41
0.7
  7
STANDARD1
  0
LINE
  5
6BC
  8
NOTE
  6
CONTINUOUS
 62
     4
 10
-733.05553399999985
 20
15.935370000000001
 30
0.0
 11
-1104.8523339999999
 21
15.935370000000001
 31
0.0
  0
TEXT
  5
6BD
  8
NOTE
  6
CONTINUOUS
 62
     4
 10
-1083.177062
 20
31.761901000000002
 30
0.0
 40
60.0
  1
RG %%C15.88
 50
0.000003
 41
0.7
  7
STANDARD1
  0
ARC
  5
6BF
  8
DETAIL
  6
CONTINUOUS
 62
     5
 10
-548.52999999999986
 20
387.49998499999998
 30
0.0
 40
18.0
 50
90.0
 51
180.0
  0
LINE
  5
6C0
  8
DETAIL
  6
CONTINUOUS
 62
     5
 10
604.0
 20
442.49998499999981
 30
0.0
 11
-604.0
 21
442.49998499999981
 31
0.0
  0
POINT
  5
6C1
  8
DEFPOINTS
  6
CONTINUOUS
 62
     7
 10
-620.0
 20
426.49998499999992
 30
0.0
  0
POINT
  5
6C7
  8
DEFPOINTS
  6
CONTINUOUS
 62
     7
 10
-620.0
 20
426.49998499999992
 30
0.0
  0
ARC
  5
6C8
  8
OUTLINE
  6
CONTINUOUS
 62
     3
 10
-604.0
 20
426.49998499999992
 30
0.0
 40
16.0
 50
90.0
 51
180.0
  0
ARC
  5
6C9
  8
DETAIL
  6
CONTINUOUS
 62
     5
 10
-604.0
 20
426.49998499999992
 30
0.0
 40
16.0
 50
90.0
 51
180.0
  0
LINE
  5
6CA
  8
DETAIL
  6
CONTINUOUS
 62
     5
 10
-541.52999999999997
 20
442.49998499999981
 30
0.0
 11
-541.52999999999997
 21
405.49998499999992
 31
0.0
  0
LINE
  5
6D7
  8
SIZE
  6
CONTINUOUS
 62
    30
 10
-615.0
 20
575.07904858563381
 30
0.0
 11
-610.0
 21
575.07904858563381
 31
0.0
  0
CIRCLE
  5
6D8
  8
SIZE
  6
CONTINUOUS
 62
    30
 10
-620.0
 20
575.07904858563381
 30
0.0
 40
5.0
  0
LINE
  5
6D9
  8
BASIS
  6
DASHDOT
 62
     6
 10
0.0
 20
500.0
 30
0.0
 11
0.0
 21
-500.0
 31
0.0
  0
CIRCLE
  5
6DA
  8
ARRANGE
  6
CONTINUOUS
 62
     1
 10
0.0
 20
0.0
 30
0.0
 40
50.0
  0
LINE
  5
6DB
  8
SIZE
  6
CONTINUOUS
 62
    30
 10
774.68491321334454
 20
432.49998499999998
 30
0.0
 11
774.68491321334454
 21
-147.50001499999999
 31
0.0
  0
LINE
  5
6E1
  8
ARRANGE
  6
CONTINUOUS
 62
     1
 10
49.963763
 20
49.596595000000001
 30
0.0
 11
-49.963763
 21
-49.596595000000001
 31
0.0
  0
LINE
  5
6E2
  8
ARRANGE
  6
CONTINUOUS
 62
     1
 10
50.037350000000004
 20
-49.522353000000003
 30
0.0
 11
-50.037350000000004
 21
49.522353000000003
 31
0.0
  0
LINE
  5
6E3
  8
OUTLINE
  6
CONTINUOUS
 62
     3
 10
620.0
 20
426.49998499999992
 30
0.0
 11
620.0
 21
-141.50001499999999
 31
0.0
  0
LINE
  5
6E4
  8
DETAIL
  6
CONTINUOUS
 62
     5
 10
566.52999999999997
 20
387.49998499999998
 30
0.0
 11
566.52999999999997
 21
-102.500015
 31
0.0
  0
LINE
  5
6E5
  8
DETAIL
  6
CONTINUOUS
 62
     5
 10
620.0
 20
426.49998499999992
 30
0.0
 11
620.0
 21
-141.50001499999999
 31
0.0
  0
LINE
  5
6E6
  8
DETAIL
  6
CONTINUOUS
 62
     5
 10
566.52999999999997
 20
387.49998499999998
 30
0.0
 11
566.52999999999997
 21
-102.500015
 31
0.0
  0
LINE
  5
6E9
  8
SIZE
  6
CONTINUOUS
 62
    30
 10
570.0
 20
-703.12374999999975
 30
0.0
 11
560.0
 21
-703.12374999999975
 31
0.0
  0
LINE
  5
6EA
  8
SIZE
  6
CONTINUOUS
 62
    30
 10
570.0
 20
-568.36728099999982
 30
0.0
 11
360.0
 21
-568.36728099999982
 31
0.0
  0
ARC
  5
6EE
  8
DETAIL
  6
CONTINUOUS
 62
     5
 10
548.52999999999986
 20
-102.500015
 30
0.0
 40
18.0
 50
270.0
 51
0.0
  0
TEXT
  5
6F0
  8
SIZE
  6
CONTINUOUS
 62
    30
 10
-76.748706285714277
 20
-802.04965567413046
 30
0.0
 40
55.0
  1
1192
 41
0.9
 72
     1
 11
1.037007999999999
 21
-802.04965567413046
 31
0.0
  0
TEXT
  5
6F1
  8
SIZE
  6
CONTINUOUS
 62
    30
 10
-77.785714285714292
 20
-685.12374999999975
 30
0.0
 40
55.0
  1
1160
 41
0.9
 72
     1
 11
0.0
 21
-685.12374999999975
 31
0.0
  0
TEXT
  5
6F3
  8
NOTE
  6
CONTINUOUS
 62
     4
 10
-174.55960300000001
 20
-257.33504799999997
 30
0.0
 40
60.0
  1
%%C200 吹出円形フランジ
 50
0.000003
 41
0.7
  7
STANDARD1
  0
LINE
  5
6F4
  8
NOTE
  6
CONTINUOUS
 62
     4
 10
403.38408799999979
 20
-272.13071500000001
 30
0.0
 11
-190.93434600000001
 21
-272.13071500000001
 31
0.0
  0
LINE
  5
6F5
  8
SIZE
  6
CONTINUOUS
 62
    30
 10
340.0
 20
-568.36728099999982
 30
0.0
 11
40.0
 21
-568.36728099999982
 31
0.0
  0
LINE
  5
6F6
  8
DETAIL
  6
CONTINUOUS
 62
     5
 10
130.0
 20
-397.5
 30
0.0
 11
-70.0
 21
-397.5
 31
0.0
  0
LINE
  5
6F7
  8
DETAIL
  6
CONTINUOUS
 62
     5
 10
127.5
 20
-437.5
 30
0.0
 11
-67.5
 21
-437.5
 31
0.0
  0
LINE
  5
6F9
  8
NOTE
  6
CONTINUOUS
 62
     4
 10
-190.93434600000001
 20
-272.13071500000001
 30
0.0
 11
-290.0
 21
-437.5
 31
0.0
  0
TEXT
  5
6FA
  8
SIZE
  6
CONTINUOUS
 62
    30
 10
-193.64285714285711
 20
-550.36728099999993
 30
0.0
 40
55.0
  1
320
 41
0.9
 72
     1
 11
-130.0
 21
-550.36728099999993
 31
0.0
  0
LINE
  5
6FB
  8
SIZE
  6
CONTINUOUS
 62
    30
 10
20.0
 20
-568.36728099999982
 30
0.0
 11
-280.0
 21
-568.36728099999982
 31
0.0
  0
ARC
  5
6FC
  8
DETAIL
  6
CONTINUOUS
 62
     5
 10
-131.56525363255119
 20
-518.30972731654526
 30
0.0
 40
135.5922957587872
 50
62.996376904229997
 51
89.338572745656563
  0
LINE
  5
6FD
  8
NOTE
  6
CONTINUOUS
 62
     4
 10
-290.0
 20
-365.55548500000009
 30
0.0
 11
-290.0
 21
-509.44451500000002
 31
0.0
  0
POINT
  5
6FE
  8
DEFPOINTS
  6
CONTINUOUS
 62
     7
 10
-290.0
 20
-568.36728099999982
 30
0.0
  0
POINT
  5
6FF
  8
DEFPOINTS
  6
CONTINUOUS
 62
     7
 10
-290.0
 20
-507.44451500000002
 30
0.0
  0
LINE
  5
700
  8
SIZE
  6
CONTINUOUS
 62
    30
 10
-285.0
 20
-568.36728099999982
 30
0.0
 11
-280.0
 21
-568.36728099999982
 31
0.0
  0
CIRCLE
  5
701
  8
SIZE
  6
CONTINUOUS
 62
    30
 10
-290.0
 20
-568.36728099999982
 30
0.0
 40
5.0
  0
LINE
  5
702
  8
SIZE
  6
CONTINUOUS
 62
    30
 10
-290.0
 20
-527.44451500000002
 30
0.0
 11
-290.0
 21
-598.36728099999982
 31
0.0
  0
LINE
  5
703
  8
NOTE
  6
CONTINUOUS
 62
     4
 10
-290.0
 20
-437.5
 30
0.0
 11
-279.07294200000001
 21
-404.8970999999998
 31
0.0
  0
LINE
  5
704
  8
NOTE
  6
CONTINUOUS
 62
     4
 10
-290.0
 20
-437.5
 30
0.0
 11
-264.23543999999998
 21
-414.72858999999988
 31
0.0
  0
LINE
  5
705
  8
DETAIL
  6
CONTINUOUS
 62
     5
 10
-192.5
 20
-437.5
 30
0.0
 11
-190.0
 21
-397.5
 31
0.0
  0
ARC
  5
706
  8
DETAIL
  6
CONTINUOUS
 62
     5
 10
-125.5539260303227
 20
-530.00965121409695
 30
0.0
 40
147.3502769423483
 50
91.7290769340552
 51
115.9359734160583
  0
LINE
  5
708
  8
NOTE
  6
CONTINUOUS
 62
     4
 10
30.0
 20
-365.55548500000009
 30
0.0
 11
30.0
 21
-509.44451500000002
 31
0.0
  0
POINT
  5
709
  8
DEFPOINTS
  6
CONTINUOUS
 62
     7
 10
30.0
 20
-507.44451500000002
 30
0.0
  0
LINE
  5
70A
  8
SIZE
  6
CONTINUOUS
 62
    30
 10
25.0
 20
-568.36728099999982
 30
0.0
 11
20.0
 21
-568.36728099999982
 31
0.0
  0
CIRCLE
  5
70B
  8
SIZE
  6
CONTINUOUS
 62
    30
 10
30.0
 20
-568.36728099999982
 30
0.0
 40
5.0
  0
LINE
  5
70C
  8
SIZE
  6
CONTINUOUS
 62
    30
 10
30.0
 20
-527.44451500000002
 30
0.0
 11
30.0
 21
-598.36728099999982
 31
0.0
  0
POINT
  5
70D
  8
DEFPOINTS
  6
CONTINUOUS
 62
     7
 10
30.0
 20
-568.36728099999982
 30
0.0
  0
POINT
  5
70E
  8
DEFPOINTS
  6
CONTINUOUS
 62
     7
 10
30.0
 20
-507.44451500000002
 30
0.0
  0
LINE
  5
70F
  8
SIZE
  6
CONTINUOUS
 62
    30
 10
35.0
 20
-568.36728099999982
 30
0.0
 11
40.0
 21
-568.36728099999982
 31
0.0
  0
CIRCLE
  5
710
  8
SIZE
  6
CONTINUOUS
 62
    30
 10
30.0
 20
-568.36728099999982
 30
0.0
 40
5.0
  0
LINE
  5
711
  8
SIZE
  6
CONTINUOUS
 62
    30
 10
30.0
 20
-527.44451500000002
 30
0.0
 11
30.0
 21
-598.36728099999982
 31
0.0
  0
LINE
  5
712
  8
NOTE
  6
CONTINUOUS
 62
     4
 10
-41.944515000000003
 20
-437.5
 30
0.0
 11
101.944515
 21
-437.5
 31
0.0
  0
LINE
  5
714
  8
DETAIL
  6
CONTINUOUS
 62
     5
 10
-67.5
 20
-437.5
 30
0.0
 11
-70.0
 21
-397.5
 31
0.0
  0
LINE
  5
715
  8
SIZE
  6
CONTINUOUS
 62
    30
 10
345.0
 20
-568.36728099999982
 30
0.0
 11
340.0
 21
-568.36728099999982
 31
0.0
  0
LINE
  5
716
  8
NOTE
  6
CONTINUOUS
 62
     4
 10
278.05548500000009
 20
-437.5
 30
0.0
 11
421.94451500000002
 21
-437.5
 31
0.0
  0
LINE
  5
717
  8
DETAIL
  6
CONTINUOUS
 62
     5
 10
447.5
 20
-437.5
 30
0.0
 11
252.5
 21
-437.5
 31
0.0
  0
LINE
  5
718
  8
DETAIL
  6
CONTINUOUS
 62
     5
 10
450.0
 20
-397.5
 30
0.0
 11
250.0
 21
-397.5
 31
0.0
  0
TEXT
  5
719
  8
SIZE
  6
CONTINUOUS
 62
    30
 10
126.3571428571428
 20
-550.36728099999993
 30
0.0
 40
55.0
  1
320
 41
0.9
 72
     1
 11
190.0
 21
-550.36728099999993
 31
0.0
  0
ARC
  5
71A
  8
DETAIL
  6
CONTINUOUS
 62
     5
 10
186.16385456433511
 20
-518.08794359164574
 30
0.0
 40
136.44231603042101
 50
62.104410387246702
 51
88.543454061210426
  0
LINE
  5
71C
  8
DETAIL
  6
CONTINUOUS
 62
     5
 10
127.5
 20
-437.5
 30
0.0
 11
130.0
 21
-397.5
 31
0.0
  0
ARC
  5
71D
  8
DETAIL
  6
CONTINUOUS
 62
     5
 10
190.66729112187539
 20
-505.95734198430279
 30
0.0
 40
124.2719406880186
 50
90.47730436264213
 51
119.2211419360023
  0
LINE
  5
71F
  8
DETAIL
  6
CONTINUOUS
 62
     5
 10
252.5
 20
-437.5
 30
0.0
 11
250.0
 21
-397.5
 31
0.0
  0
LINE
  5
720
  8
NOTE
  6
CONTINUOUS
 62
     4
 10
350.0
 20
-365.55548500000009
 30
0.0
 11
350.0
 21
-509.44451500000002
 31
0.0
  0
TEXT
  5
721
  8
SIZE
  6
CONTINUOUS
 62
    30
 10
401.35714285714278
 20
-550.36728099999993
 30
0.0
 40
55.0
  1
230
 41
0.9
 72
     1
 11
465.0
 21
-550.36728099999993
 31
0.0
  0
POINT
  5
722
  8
DEFPOINTS
  6
CONTINUOUS
 62
     7
 10
350.0
 20
-507.44451500000002
 30
0.0
  0
CIRCLE
  5
723
  8
SIZE
  6
CONTINUOUS
 62
    30
 10
350.0
 20
-568.36728099999982
 30
0.0
 40
5.0
  0
LINE
  5
724
  8
SIZE
  6
CONTINUOUS
 62
    30
 10
350.0
 20
-527.44451500000002
 30
0.0
 11
350.0
 21
-598.36728099999982
 31
0.0
  0
POINT
  5
725
  8
DEFPOINTS
  6
CONTINUOUS
 62
     7
 10
350.0
 20
-568.36728099999982
 30
0.0
  0
POINT
  5
726
  8
DEFPOINTS
  6
CONTINUOUS
 62
     7
 10
350.0
 20
-507.44451500000002
 30
0.0
  0
LINE
  5
727
  8
SIZE
  6
CONTINUOUS
 62
    30
 10
355.0
 20
-568.36728099999982
 30
0.0
 11
360.0
 21
-568.36728099999982
 31
0.0
  0
CIRCLE
  5
728
  8
SIZE
  6
CONTINUOUS
 62
    30
 10
350.0
 20
-568.36728099999982
 30
0.0
 40
5.0
  0
LINE
  5
729
  8
SIZE
  6
CONTINUOUS
 62
    30
 10
350.0
 20
-527.44451500000002
 30
0.0
 11
350.0
 21
-598.36728099999982
 31
0.0
  0
ARC
  5
72A
  8
DETAIL
  6
CONTINUOUS
 62
     5
 10
460.0
 20
-397.5
 30
0.0
 40
10.0
 50
93.959233999999995
 51
180.0
  0
LINE
  5
72B
  8
DETAIL
  6
CONTINUOUS
 62
     5
 10
447.5
 20
-437.5
 30
0.0
 11
450.0
 21
-397.5
 31
0.0
  0
ARC
  5
72C
  8
DETAIL
  6
CONTINUOUS
 62
     5
 10
544.0
 20
-373.5
 30
0.0
 40
4.0
 50
270.0
 51
0.0
  0
LINE
  5
72D
  8
DETAIL
  6
CONTINUOUS
 62
     5
 10
548.0
 20
-367.5
 30
0.0
 11
548.0
 21
-373.5
 31
0.0
  0
LINE
  5
72E
  8
DETAIL
  6
CONTINUOUS
 62
     5
 10
459.30953299999987
 20
-387.523866
 30
0.0
 11
544.0
 21
-377.5
 31
0.0
  0
LINE
  5
72F
  8
DETAIL
  6
CONTINUOUS
 62
     5
 10
541.52999999999997
 20
-120.500015
 30
0.0
 11
541.52999999999997
 21
-157.50001499999999
 31
0.0
  0
LINE
  5
730
  8
DETAIL
  6
CONTINUOUS
 62
     5
 10
541.52999999999997
 20
-120.500015
 30
0.0
 11
541.52999999999997
 21
-157.50001499999999
 31
0.0
  0
LINE
  5
736
  8
SIZE
  6
CONTINUOUS
 62
    30
 10
596.0
 20
-387.5
 30
0.0
 11
596.0
 21
-733.12374999999975
 31
0.0
  0
LINE
  5
737
  8
SIZE
  6
CONTINUOUS
 62
    30
 10
580.0
 20
-387.5
 30
0.0
 11
580.0
 21
-733.12374999999975
 31
0.0
  0
LINE
  5
738
  8
SIZE
  6
CONTINUOUS
 62
    30
 10
580.0
 20
-387.5
 30
0.0
 11
580.0
 21
-733.12374999999975
 31
0.0
  0
LINE
  5
739
  8
SIZE
  6
CONTINUOUS
 62
    30
 10
596.0
 20
-387.5
 30
0.0
 11
596.0
 21
-853.43347910643934
 31
0.0
  0
CIRCLE
  5
73A
  8
SIZE
  6
CONTINUOUS
 62
    30
 10
596.0
 20
-820.04965567413058
 30
0.0
 40
5.0
  0
POINT
  5
746
  8
DEFPOINTS
  6
CONTINUOUS
 62
     7
 10
596.0
 20
-820.04965567413058
 30
0.0
  0
LINE
  5
747
  8
SIZE
  6
CONTINUOUS
 62
    30
 10
591.0
 20
-820.04965567413058
 30
0.0
 11
586.0
 21
-820.04965567413058
 31
0.0
  0
TEXT
  5
748
  8
SIZE
  6
CONTINUOUS
 62
    30
 10
636.10371357142844
 20
-685.12374999999975
 30
0.0
 40
55.0
  1
16
 41
0.9
 72
     1
 11
670.282285
 21
-685.12374999999975
 31
0.0
  0
LINE
  5
749
  8
SIZE
  6
CONTINUOUS
 62
    30
 10
722.46085700000003
 20
-703.12374999999975
 30
0.0
 11
596.0
 21
-703.12374999999975
 31
0.0
  0
POINT
  5
74A
  8
DEFPOINTS
  6
CONTINUOUS
 62
     7
 10
596.0
 20
-703.12374999999975
 30
0.0
  0
LINE
  5
74B
  8
SIZE
  6
CONTINUOUS
 62
    30
 10
601.0
 20
-703.12374999999975
 30
0.0
 11
606.0
 21
-703.12374999999975
 31
0.0
  0
CIRCLE
  5
74C
  8
SIZE
  6
CONTINUOUS
 62
    30
 10
596.0
 20
-703.12374999999975
 30
0.0
 40
5.0
  0
LINE
  5
74D
  8
SIZE
  6
CONTINUOUS
 62
    30
 10
575.0
 20
-703.12374999999975
 30
0.0
 11
570.0
 21
-703.12374999999975
 31
0.0
  0
CIRCLE
  5
74E
  8
SIZE
  6
CONTINUOUS
 62
    30
 10
580.0
 20
-703.12374999999975
 30
0.0
 40
5.0
  0
LINE
  5
74F
  8
SIZE
  6
CONTINUOUS
 62
    30
 10
580.0
 20
-703.12374999999975
 30
0.0
 11
596.0
 21
-703.12374999999975
 31
0.0
  0
LINE
  5
750
  8
SIZE
  6
CONTINUOUS
 62
    30
 10
580.0
 20
-703.12374999999975
 30
0.0
 11
596.0
 21
-703.12374999999975
 31
0.0
  0
LINE
  5
751
  8
SIZE
  6
CONTINUOUS
 62
    30
 10
606.0
 20
-703.12374999999975
 30
0.0
 11
616.0
 21
-703.12374999999975
 31
0.0
  0
POINT
  5
752
  8
DEFPOINTS
  6
CONTINUOUS
 62
     7
 10
580.0
 20
-703.12374999999975
 30
0.0
  0
LINE
  5
753
  8
SIZE
  6
CONTINUOUS
 62
    30
 10
575.0
 20
-703.12374999999975
 30
0.0
 11
570.0
 21
-703.12374999999975
 31
0.0
  0
CIRCLE
  5
754
  8
SIZE
  6
CONTINUOUS
 62
    30
 10
580.0
 20
-703.12374999999975
 30
0.0
 40
5.0
  0
LINE
  5
756
  8
SIZE
  6
CONTINUOUS
 62
    30
 10
624.0
 20
-157.50001499999999
 30
0.0
 11
806.281275887839
 21
-157.50001499999999
 31
0.0
  0
LINE
  5
757
  8
SIZE
  6
CONTINUOUS
 62
    30
 10
624.0
 20
-157.50001499999999
 30
0.0
 11
806.281275887839
 21
-157.50001499999999
 31
0.0
  0
LINE
  5
75A
  8
SIZE
  6
CONTINUOUS
 62
    30
 10
616.0
 20
-367.5
 30
0.0
 11
805.35119526432004
 21
-367.5
 31
0.0
  0
LINE
  5
75E
  8
OUTLINE
  6
CONTINUOUS
 62
     3
 10
580.0
 20
-367.5
 30
0.0
 11
580.0
 21
-157.50001499999999
 31
0.0
  0
LINE
  5
75F
  8
DETAIL
  6
CONTINUOUS
 62
     5
 10
596.0
 20
-306.89987000000002
 30
0.0
 11
596.0
 21
-327.5
 31
0.0
  0
LINE
  5
760
  8
DETAIL
  6
CONTINUOUS
 62
     5
 10
580.0
 20
-367.5
 30
0.0
 11
580.0
 21
-157.50001499999999
 31
0.0
  0
LINE
  5
763
  8
SIZE
  6
CONTINUOUS
 62
    30
 10
580.0
 20
-387.5
 30
0.0
 11
580.0
 21
-598.36728099999982
 31
0.0
  0
LINE
  5
764
  8
SIZE
  6
CONTINUOUS
 62
    30
 10
575.0
 20
-568.36728099999982
 30
0.0
 11
570.0
 21
-568.36728099999982
 31
0.0
  0
CIRCLE
  5
765
  8
SIZE
  6
CONTINUOUS
 62
    30
 10
580.0
 20
-568.36728099999982
 30
0.0
 40
5.0
  0
LINE
  5
771
  8
DETAIL
  6
CONTINUOUS
 62
     5
 10
596.0
 20
-339.5
 30
0.0
 11
596.0
 21
-367.5
 31
0.0
  0
LINE
  5
772
  8
DETAIL
  6
CONTINUOUS
 62
     5
 10
580.0
 20
-339.5
 30
0.0
 11
596.0
 21
-339.5
 31
0.0
  0
LINE
  5
773
  8
DETAIL
  6
CONTINUOUS
 62
     5
 10
580.0
 20
-327.5
 30
0.0
 11
596.0
 21
-327.5
 31
0.0
  0
LINE
  5
778
  8
DETAIL
  6
CONTINUOUS
 62
     5
 10
580.0
 20
-327.5
 30
0.0
 11
596.0
 21
-327.5
 31
0.0
  0
LINE
  5
779
  8
DETAIL
  6
CONTINUOUS
 62
     5
 10
580.0
 20
-339.5
 30
0.0
 11
596.0
 21
-339.5
 31
0.0
  0
ARC
  5
77D
  8
OUTLINE
  6
CONTINUOUS
 62
     3
 10
604.0
 20
-141.50001499999999
 30
0.0
 40
16.0
 50
270.0
 51
0.0
  0
ARC
  5
77E
  8
DETAIL
  6
CONTINUOUS
 62
     5
 10
604.0
 20
-141.50001499999999
 30
0.0
 40
16.0
 50
270.0
 51
0.0
  0
POINT
  5
781
  8
DEFPOINTS
  6
CONTINUOUS
 62
     7
 10
580.0
 20
-306.89987000000002
 30
0.0
  0
POINT
  5
782
  8
DEFPOINTS
  6
CONTINUOUS
 62
     7
 10
580.0
 20
-306.89987000000002
 30
0.0
  0
LINE
  5
783
  8
DETAIL
  6
CONTINUOUS
 62
     5
 10
580.0
 20
-306.89987000000002
 30
0.0
 11
596.0
 21
-306.89987000000002
 31
0.0
  0
TEXT
  5
786
  8
SIZE
  6
CONTINUOUS
 62
    30
 10
756.68491321334454
 20
-321.42857842857143
 30
0.0
 40
55.0
  1
210
 50
90.0
 41
0.9
 72
     1
 11
756.68491321334454
 21
-262.50000699999998
 31
0.0
  0
LINE
  5
787
  8
SIZE
  6
CONTINUOUS
 62
    30
 10
774.68491321334454
 20
-167.50001499999999
 30
0.0
 11
774.68491321334454
 21
-357.5
 31
0.0
  0
CIRCLE
  5
78C
  8
SIZE
  6
CONTINUOUS
 62
    30
 10
774.68491321334454
 20
-367.5
 30
0.0
 40
5.0
  0
POINT
  5
78D
  8
DEFPOINTS
  6
CONTINUOUS
 62
     7
 10
774.68491321334454
 20
-367.5
 30
0.0
  0
LINE
  5
78E
  8
SIZE
  6
CONTINUOUS
 62
    30
 10
774.68491321334454
 20
-362.5
 30
0.0
 11
774.68491321334454
 21
-357.5
 31
0.0
  0
CIRCLE
  5
794
  8
SIZE
  6
CONTINUOUS
 62
    30
 10
774.68491321334454
 20
-157.50001499999999
 30
0.0
 40
5.0
  0
CIRCLE
  5
795
  8
SIZE
  6
CONTINUOUS
 62
    30
 10
774.68491321334454
 20
-157.50001499999999
 30
0.0
 40
5.0
  0
LINE
  5
796
  8
SIZE
  6
CONTINUOUS
 62
    30
 10
774.68491321334454
 20
-162.50001499999999
 30
0.0
 11
774.68491321334454
 21
-167.50001499999999
 31
0.0
  0
POINT
  5
797
  8
DEFPOINTS
  6
CONTINUOUS
 62
     7
 10
774.68491321334454
 20
-157.50001499999999
 30
0.0
  0
LINE
  5
798
  8
SIZE
  6
CONTINUOUS
 62
    30
 10
774.68491321334454
 20
-152.50001499999999
 30
0.0
 11
774.68491321334454
 21
-147.50001499999999
 31
0.0
  0
LINE
  5
799
  8
BASIS
  6
DASHDOT
 62
     6
 10
650.0
 20
0.0
 30
0.0
 11
-650.0
 21
0.0
 31
0.0
  0
LINE
  5
79F
  8
DETAIL
  6
CONTINUOUS
 62
     5
 10
541.52999999999997
 20
442.49998499999981
 30
0.0
 11
541.52999999999997
 21
405.49998499999992
 31
0.0
  0
ARC
  5
7A2
  8
DETAIL
  6
CONTINUOUS
 62
     5
 10
548.52999999999986
 20
387.49998499999998
 30
0.0
 40
18.0
 50
0.0
 51
90.0
  0
LINE
  5
7A3
  8
DETAIL
  6
CONTINUOUS
 62
     5
 10
541.52999999999997
 20
442.49998499999981
 30
0.0
 11
541.52999999999997
 21
405.49998499999992
 31
0.0
  0
TEXT
  5
7A5
  8
SIZE
  6
CONTINUOUS
 62
    30
 10
-120.634496
 20
593.07904858563381
 30
0.0
 40
55.0
  1
1240
 41
0.9
 72
     1
 11
-38.134495999999999
 21
593.07904858563381
 31
0.0
  0
LINE
  5
7AA
  8
SIZE
  6
CONTINUOUS
 62
    30
 10
620.0
 20
446.49998499999981
 30
0.0
 11
620.0
 21
605.42342581813125
 31
0.0
  0
LINE
  5
7AB
  8
SIZE
  6
CONTINUOUS
 62
    30
 10
624.0
 20
442.49998499999981
 30
0.0
 11
804.46440672468464
 21
442.49998499999981
 31
0.0
  0
POINT
  5
7B0
  8
DEFPOINTS
  6
CONTINUOUS
 62
     7
 10
620.0
 20
426.49998499999992
 30
0.0
  0
POINT
  5
7B6
  8
DEFPOINTS
  6
CONTINUOUS
 62
     7
 10
620.0
 20
426.49998499999992
 30
0.0
  0
ARC
  5
7B7
  8
OUTLINE
  6
CONTINUOUS
 62
     3
 10
604.0
 20
426.49998499999992
 30
0.0
 40
16.0
 50
0.0
 51
90.0
  0
ARC
  5
7B8
  8
DETAIL
  6
CONTINUOUS
 62
     5
 10
604.0
 20
426.49998499999992
 30
0.0
 40
16.0
 50
0.0
 51
90.0
  0
TEXT
  5
7C2
  8
SIZE
  6
CONTINUOUS
 62
    30
 10
756.68491321334454
 20
78.857127857142871
 30
0.0
 40
55.0
  1
600
 50
90.0
 41
0.9
 72
     1
 11
756.68491321334454
 21
142.49998500000001
 31
0.0
  0
CIRCLE
  5
7C6
  8
SIZE
  6
CONTINUOUS
 62
    30
 10
774.68491321334454
 20
442.49998499999981
 30
0.0
 40
5.0
  0
LINE
  5
7C7
  8
SIZE
  6
CONTINUOUS
 62
    30
 10
774.68491321334454
 20
437.49998499999998
 30
0.0
 11
774.68491321334454
 21
432.49998499999998
 31
0.0
  0
POINT
  5
7D4
  8
DEFPOINTS
  6
CONTINUOUS
 62
     7
 10
620.0
 20
575.07904858563381
 30
0.0
  0
LINE
  5
7D5
  8
SIZE
  6
CONTINUOUS
 62
    30
 10
615.0
 20
575.07904858563381
 30
0.0
 11
610.0
 21
575.07904858563381
 31
0.0
  0
CIRCLE
  5
7D6
  8
SIZE
  6
CONTINUOUS
 62
    30
 10
620.0
 20
575.07904858563381
 30
0.0
 40
5.0
  0
ENDSEC
  0
EOF
