  0
SECTION
  2
HEADER
  9
$ACADVER
  1
AC1009
  9
$INSBASE
 10
0.0
 20
0.0
 30
0.0
  9
$EXTMIN
 10
-1221.033068348868
 20
-1132.127408822631
 30
-0.0000000000000086
  9
$EXTMAX
 10
1128.7253441338321
 20
1152.577830017784
 30
0.0000000000000067
  9
$LIMMIN
 10
-4267.1522210000003
 20
-2696.0832100000011
  9
$LIMMAX
 10
7190.7174229999991
 20
5141.1553640000002
  9
$ORTHOMODE
 70
     1
  9
$REGENMODE
 70
     1
  9
$FILLMODE
 70
     1
  9
$QTEXTMODE
 70
     0
  9
$MIRRTEXT
 70
     0
  9
$DRAGMODE
 70
     2
  9
$LTSCALE
 40
20.0
  9
$OSMODE
 70
   431
  9
$ATTMODE
 70
     1
  9
$TEXTSIZE
 40
64.0
  9
$TRACEWID
 40
0.05
  9
$TEXTSTYLE
  7
STANDARD
  9
$CLAYER
  8
SYMBOLLINE
  9
$CELTYPE
  6
CONTINUOUS
  9
$CECOLOR
 62
     7
  9
$DIMSCALE
 40
1.0
  9
$DIMASZ
 40
10.0
  9
$DIMEXO
 40
20.0
  9
$DIMDLI
 40
200.0
  9
$DIMRND
 40
0.0
  9
$DIMDLE
 40
0.0
  9
$DIMEXE
 40
30.0
  9
$DIMTP
 40
0.0
  9
$DIMTM
 40
0.0
  9
$DIMTXT
 40
55.0
  9
$DIMCEN
 40
0.0
  9
$DIMTSZ
 40
0.0
  9
$DIMTOL
 70
     0
  9
$DIMLIM
 70
     0
  9
$DIMTIH
 70
     0
  9
$DIMTOH
 70
     0
  9
$DIMSE1
 70
     0
  9
$DIMSE2
 70
     0
  9
$DIMTAD
 70
     1
  9
$DIMZIN
 70
     8
  9
$DIMBLK
  1

  9
$DIMASO
 70
     1
  9
$DIMSHO
 70
     0
  9
$DIMPOST
  1

  9
$DIMAPOST
  1

  9
$DIMALT
 70
     0
  9
$DIMALTD
 70
     2
  9
$DIMALTF
 40
25.399999999999999
  9
$DIMLFAC
 40
1.0
  9
$DIMTOFL
 70
     1
  9
$DIMTVP
 40
0.0
  9
$DIMTIX
 70
     1
  9
$DIMSOXD
 70
     0
  9
$DIMSAH
 70
     1
  9
$DIMBLK1
  1
DOTBLANK
  9
$DIMBLK2
  1
DOTBLANK
  9
$DIMSTYLE
  2
STANDARD
  9
$DIMCLRD
 70
     0
  9
$DIMCLRE
 70
     0
  9
$DIMCLRT
 70
     0
  9
$DIMTFAC
 40
1.0
  9
$DIMGAP
 40
0.09
  9
$LUNITS
 70
     2
  9
$LUPREC
 70
     4
  9
$SKETCHINC
 40
0.1
  9
$FILLETRAD
 40
30.0
  9
$AUNITS
 70
     1
  9
$AUPREC
 70
     3
  9
$MENU
  1
ACAD
  9
$ELEVATION
 40
0.0
  9
$PELEVATION
 40
0.0
  9
$THICKNESS
 40
0.0
  9
$LIMCHECK
 70
     0
  9
$BLIPMODE
 70
     0
  9
$CHAMFERA
 40
0.0
  9
$CHAMFERB
 40
0.0
  9
$SKPOLY
 70
     0
  9
$TDCREATE
 40
2450330.4399309959
  9
$TDUPDATE
 40
2456776.433782998
  9
$TDINDWG
 40
3.5521519213000001
  9
$TDUSRTIMER
 40
3.5521456712999999
  9
$USRTIMER
 70
     1
  9
$ANGBASE
 50
0.0
  9
$ANGDIR
 70
     0
  9
$PDMODE
 70
     3
  9
$PDSIZE
 40
-2.0
  9
$PLINEWID
 40
0.0
  9
$COORDS
 70
     1
  9
$SPLFRAME
 70
     0
  9
$SPLINETYPE
 70
     6
  9
$SPLINESEGS
 70
     8
  9
$ATTDIA
 70
     0
  9
$ATTREQ
 70
     1
  9
$HANDLING
 70
     1
  9
$HANDSEED
  5
1395
  9
$SURFTAB1
 70
     6
  9
$SURFTAB2
 70
     6
  9
$SURFTYPE
 70
     6
  9
$SURFU
 70
     6
  9
$SURFV
 70
     6
  9
$UCSNAME
  2

  9
$UCSORG
 10
0.0
 20
0.0
 30
0.0
  9
$UCSXDIR
 10
1.0
 20
0.0
 30
0.0
  9
$UCSYDIR
 10
0.0
 20
1.0
 30
0.0
  9
$PUCSNAME
  2

  9
$PUCSORG
 10
0.0
 20
0.0
 30
0.0
  9
$PUCSXDIR
 10
1.0
 20
0.0
 30
0.0
  9
$PUCSYDIR
 10
0.0
 20
1.0
 30
0.0
  9
$USERI1
 70
     0
  9
$USERI2
 70
     0
  9
$USERI3
 70
     0
  9
$USERI4
 70
     0
  9
$USERI5
 70
     0
  9
$USERR1
 40
20.0
  9
$USERR2
 40
0.0
  9
$USERR3
 40
0.0
  9
$USERR4
 40
0.0
  9
$USERR5
 40
0.0
  9
$WORLDVIEW
 70
     1
  9
$SHADEDGE
 70
     3
  9
$SHADEDIF
 70
    70
  9
$TILEMODE
 70
     1
  9
$MAXACTVP
 70
    48
  9
$PLIMCHECK
 70
     0
  9
$PEXTMIN
 10
1.0000000000000000E+020
 20
1.0000000000000000E+020
 30
1.0000000000000000E+020
  9
$PEXTMAX
 10
-1.0000000000000000E+020
 20
-1.0000000000000000E+020
 30
-1.0000000000000000E+020
  9
$PLIMMIN
 10
0.0
 20
0.0
  9
$PLIMMAX
 10
12.0
 20
9.0
  9
$UNITMODE
 70
     0
  9
$VISRETAIN
 70
     1
  9
$PLINEGEN
 70
     0
  9
$PSLTSCALE
 70
     1
  0
ENDSEC
  0
SECTION
  2
TABLES
  0
TABLE
  2
VPORT
 70
     1
  0
VPORT
  2
*ACTIVE
 70
     0
 10
0.0
 20
0.0
 11
1.0
 21
1.0
 12
-46.153862107517959
 22
10.22521059757673
 13
0.0
 23
0.0
 14
50.0
 24
50.0
 15
100.0
 25
100.0
 16
0.0
 26
0.0
 36
1.0
 17
0.0
 27
0.0
 37
0.0
 40
2302.1014716234649
 41
1.5540025412960601
 42
50.0
 43
0.0
 44
0.0
 50
0.0
 51
0.0
 71
     0
 72
  1000
 73
     1
 74
     0
 75
     0
 76
     0
 77
     0
 78
     0
  0
ENDTAB
  0
TABLE
  2
LTYPE
 70
     3
  0
LTYPE
  2
CONTINUOUS
 70
     0
  3
実線
 72
    65
 73
     0
 40
0.0
  0
LTYPE
  2
DASHDOT
 70
     0
  3
____ _ ____ _ ____ _ ____ _ ____ _ ____ _ ____
 72
    65
 73
     4
 40
5.5
 49
4.0
 49
-0.6
 49
0.3
 49
-0.6
  0
ENDTAB
  0
TABLE
  2
LAYER
 70
    12
  0
LAYER
  2
0
 70
     0
 62
     7
  6
CONTINUOUS
  0
LAYER
  2
SYMBOLLINE
 70
     0
 62
    15
  6
CONTINUOUS
  0
LAYER
  2
SIZE
 70
     0
 62
    30
  6
CONTINUOUS
  0
LAYER
  2
OUTLINE
 70
     0
 62
     3
  6
CONTINUOUS
  0
LAYER
  2
DETAIL
 70
     0
 62
     5
  6
CONTINUOUS
  0
LAYER
  2
BASIS
 70
     0
 62
     6
  6
DASHDOT
  0
LAYER
  2
NOTE
 70
     0
 62
     4
  6
CONTINUOUS
  0
LAYER
  2
ARRANGE
 70
     0
 62
     1
  6
CONTINUOUS
  0
LAYER
  2
FIX
 70
     0
 62
    11
  6
CONTINUOUS
  0
LAYER
  2
SERVICESPACE
 70
     0
 62
     2
  6
DASHDOT
  0
LAYER
  2
ETC
 70
     0
 62
    61
  6
CONTINUOUS
  0
LAYER
  2
DEFPOINTS
 70
     0
 62
     7
  6
CONTINUOUS
  0
ENDTAB
  0
TABLE
  2
STYLE
 70
     4
  0
STYLE
  2
STANDARD
 70
     0
 40
0.0
 41
0.9
 50
0.0
 71
     0
 42
64.0
  3
SIMPLEX
  4
BIGFONT
  0
STYLE
  2
ANNOTATIVE
 70
     0
 40
0.0
 41
1.0
 50
0.0
 71
     0
 42
0.2
  3
txt
  4

  0
STYLE
  2
STANDARD1
 70
     0
 40
0.0
 41
1.0
 50
0.0
 71
     0
 42
64.0
  3
MONOTXT
  4
BIGFONT
  0
STYLE
  2
NOTE
 70
     0
 40
0.0
 41
0.7
 50
0.0
 71
     0
 42
64.0
  3
SIMPLEX.shx
  4
BIGFONT.shx
  0
ENDTAB
  0
TABLE
  2
VIEW
 70
     1
  0
VIEW
  2
ALL
 70
     0
 40
9000.0
 10
241.50664699999999
 20
0.0
 41
12483.01
 11
0.0
 21
0.0
 31
1.0
 12
0.0
 22
0.0
 32
0.0
 42
50.0
 43
0.0
 44
0.0
 50
0.0
 71
     0
  0
ENDTAB
  0
TABLE
  2
UCS
 70
     0
  0
ENDTAB
  0
TABLE
  2
APPID
 70
     4
  0
APPID
  2
ACAD
 70
     0
  0
APPID
  2
ACADANNOTATIVE
 70
     0
  0
APPID
  2
ACAD_MLEADERVER
 70
     0
  0
APPID
  2
ACAD_EXEMPT_FROM_CAD_STANDARDS
 70
     0
  0
ENDTAB
  0
TABLE
  2
DIMSTYLE
 70
     3
  0
DIMSTYLE
  2
STANDARD
 70
     0
  3

  4

  5

  6

  7

 40
1.0
 41
0.18
 42
0.0625
 43
0.38
 44
0.18
 45
0.0
 46
0.0
 47
0.0
 48
0.0
140
0.18
141
0.09
142
0.0
143
25.399999999999999
144
1.0
145
0.0
146
1.0
147
0.09
 71
     0
 72
     0
 73
     1
 74
     1
 75
     0
 76
     0
 77
     0
 78
     0
170
     0
171
     2
172
     0
173
     0
174
     0
175
     0
176
     0
177
     0
178
     0
  0
DIMSTYLE
  2
ANNOTATIVE
 70
     0
  3

  4

  5

  6

  7

 40
1.0
 41
0.18
 42
0.0625
 43
0.38
 44
0.18
 45
0.0
 46
0.0
 47
0.0
 48
0.0
140
0.18
141
0.09
142
0.0
143
25.399999999999999
144
1.0
145
0.0
146
1.0
147
0.09
 71
     0
 72
     0
 73
     1
 74
     1
 75
     0
 76
     0
 77
     0
 78
     0
170
     0
171
     2
172
     0
173
     0
174
     0
175
     0
176
     0
177
     0
178
     0
  0
ENDTAB
  0
ENDSEC
  0
SECTION
  2
BLOCKS
  0
BLOCK
  8
0
  2
$MODEL_SPACE
 70
     0
 10
0.0
 20
0.0
 30
0.0
  3
$MODEL_SPACE
  1

  0
ENDBLK
  5
10B6
  8
0
  0
BLOCK
 67
     1
  8
0
  2
$PAPER_SPACE
 70
     0
 10
0.0
 20
0.0
 30
0.0
  3
$PAPER_SPACE
  1

  0
ENDBLK
  5
10B2
 67
     1
  8
0
  0
BLOCK
  8
0
  2
_DOTBLANK
 70
     0
 10
0.0
 20
0.0
 30
0.0
  3
_DOTBLANK
  1

  0
CIRCLE
  5
32
  8
0
  6
CONTINUOUS
 62
     7
 10
0.0
 20
0.0
 30
0.0
 40
0.5
  0
LINE
  5
33
  8
0
  6
CONTINUOUS
 62
     7
 10
-0.5
 20
0.0
 30
0.0
 11
-1.0
 21
0.0
 31
0.0
  0
ENDBLK
  5
34
  8
0
  0
BLOCK
  8
0
 62
     7
  2
A$C66CD4E45
 70
     0
 10
0.0
 20
0.0
 30
0.0
  3
A$C66CD4E45
  1

  0
TEXT
  5
3B0
  8
ETC
  6
CONTINUOUS
 62
    61
 10
107.850876
 20
1776.6329599999999
 30
0.0
 40
80.0
  1
MPD-RP71_80FA3_1
 50
0.000003
 41
0.8
  0
LINE
  5
3B1
  8
SIZE
  6
CONTINUOUS
 62
    30
 10
706.96627699999965
 20
1722.5864979999999
 30
0.0
 11
1926.966277
 21
1722.5864979999999
 31
0.0
  0
LINE
  5
3B2
  8
DETAIL
  6
CONTINUOUS
 62
     5
 10
696.96627699999999
 20
1391.2830530000001
 30
0.0
 11
1936.966277
 21
1391.2830530000001
 31
0.0
  0
LINE
  5
3B3
  8
OUTLINE
  6
CONTINUOUS
 62
     3
 10
696.96627699999999
 20
1391.2830530000001
 30
0.0
 11
1936.966277
 21
1391.2830530000001
 31
0.0
  0
TEXT
  5
3B4
  8
SIZE
  6
CONTINUOUS
 62
    30
 10
969.75913414285708
 20
149.33506499999999
 30
0.0
 40
55.0
  1
1146(吊りボルトピッチ)
 41
0.9
 72
     1
 11
1316.966277
 21
149.33506499999999
 31
0.0
  0
LINE
  5
3B5
  8
SIZE
  6
CONTINUOUS
 62
    30
 10
753.96627699999988
 20
131.93030300000001
 30
0.0
 11
1879.966277
 21
131.93030300000001
 31
0.0
  0
LINE
  5
3B6
  8
SIZE
  6
CONTINUOUS
 62
    30
 10
746.96627699999999
 20
245.65930299999999
 30
0.0
 11
1886.966277
 21
245.65930299999999
 31
0.0
  0
LINE
  5
3B7
  8
SIZE
  6
CONTINUOUS
 62
    30
 10
730.96627699999999
 20
30.000008000000001
 30
0.0
 11
1902.966277
 21
30.000008000000001
 31
0.0
  0
LINE
  5
3B8
  8
SIZE
  6
CONTINUOUS
 62
    30
 10
726.96627699999999
 20
1584.3052049999999
 30
0.0
 11
1906.966277
 21
1584.3052049999999
 31
0.0
  0
LINE
  5
3B9
  8
NOTE
  6
CONTINUOUS
 62
     4
 10
955.02176199999974
 20
511.283053
 30
0.0
 11
1098.9107919999999
 21
511.283053
 31
0.0
  0
LINE
  5
3BA
  8
OUTLINE
  6
CONTINUOUS
 62
     3
 10
1896.966277
 20
1316.2830530000001
 30
0.0
 11
736.96627699999988
 21
1316.2830530000001
 31
0.0
  0
LINE
  5
3BB
  8
OUTLINE
  6
CONTINUOUS
 62
     3
 10
736.96627699999988
 20
581.283053
 30
0.0
 11
1896.966277
 21
581.283053
 31
0.0
  0
LINE
  5
3BC
  8
SERVICESPACE
  6
CONTINUOUS
 62
     2
 10
716.96627699999999
 20
808.283053
 30
0.0
 11
1896.966277
 21
808.283053
 31
0.0
  0
LINE
  5
3BD
  8
SERVICESPACE
  6
CONTINUOUS
 62
     2
 10
716.96627699999999
 20
1374.2830530000001
 30
0.0
 11
1916.966277
 21
1374.2830530000001
 31
0.0
  0
LINE
  5
3BE
  8
BASIS
  6
DASHDOT
 62
     6
 10
633.50975599999981
 20
948.78305299999965
 30
0.0
 11
1316.966277
 21
948.78305299999965
 31
0.0
  0
LINE
  5
3BF
  8
DETAIL
  6
CONTINUOUS
 62
     5
 10
720.96627699999999
 20
1316.2830530000001
 30
0.0
 11
1912.966277
 21
1316.2830530000001
 31
0.0
  0
LINE
  5
3C0
  8
DETAIL
  6
CONTINUOUS
 62
     5
 10
720.96627699999999
 20
581.283053
 30
0.0
 11
1912.966277
 21
581.283053
 31
0.0
  0
LINE
  5
3C1
  8
DETAIL
  6
CONTINUOUS
 62
     5
 10
736.96627699999988
 20
581.283053
 30
0.0
 11
1896.966277
 21
581.283053
 31
0.0
  0
LINE
  5
3C2
  8
DETAIL
  6
CONTINUOUS
 62
     5
 10
769.96627699999988
 20
1299.2830530000001
 30
0.0
 11
1863.966277
 21
1299.2830530000001
 31
0.0
  0
LINE
  5
3C3
  8
DETAIL
  6
CONTINUOUS
 62
     5
 10
769.96627699999988
 20
1299.2830530000001
 30
0.0
 11
1863.966277
 21
1299.2830530000001
 31
0.0
  0
LINE
  5
3C4
  8
DETAIL
  6
CONTINUOUS
 62
     5
 10
929.46627699999999
 20
511.283053
 30
0.0
 11
1124.466277
 21
511.283053
 31
0.0
  0
LINE
  5
3C5
  8
DETAIL
  6
CONTINUOUS
 62
     5
 10
1127.2694279999989
 20
551.283053
 30
0.0
 11
926.96627699999999
 21
551.283053
 31
0.0
  0
LINE
  5
3C6
  8
DETAIL
  6
CONTINUOUS
 62
     5
 10
772.96627699999999
 20
571.28305299999965
 30
0.0
 11
1860.966277
 21
571.28305299999965
 31
0.0
  0
LINE
  5
3C7
  8
SIZE
  6
CONTINUOUS
 62
    30
 10
736.96627699999988
 20
929.28305299999988
 30
0.0
 11
736.96627699999988
 21
1107.5281379999999
 31
0.0
  0
LINE
  5
3C8
  8
SIZE
  6
CONTINUOUS
 62
    30
 10
700.96627699999999
 20
740.533053
 30
0.0
 11
700.96627699999999
 21
1107.5281379999999
 31
0.0
  0
LINE
  5
3C9
  8
DETAIL
  6
CONTINUOUS
 62
     5
 10
696.96627699999999
 20
791.28305299999988
 30
0.0
 11
696.96627699999999
 21
1391.2830530000001
 31
0.0
  0
LINE
  5
3CA
  8
OUTLINE
  6
CONTINUOUS
 62
     3
 10
696.96627699999999
 20
791.28305299999988
 30
0.0
 11
696.96627699999999
 21
1391.2830530000001
 31
0.0
  0
LINE
  5
3CB
  8
SIZE
  6
CONTINUOUS
 62
    30
 10
702.96627699999965
 20
874.28305299999988
 30
0.0
 11
702.96627699999965
 21
1014.430442
 31
0.0
  0
LINE
  5
3CC
  8
SIZE
  6
CONTINUOUS
 62
    30
 10
736.96627699999988
 20
890.64014899999984
 30
0.0
 11
736.96627699999988
 21
1014.430442
 31
0.0
  0
TEXT
  5
3CD
  8
SIZE
  6
CONTINUOUS
 62
    30
 10
346.05115699999999
 20
885.14019585714254
 30
0.0
 40
55.0
  1
735
 50
90.0
 41
0.9
 72
     1
 11
346.05115699999999
 21
948.78305299999965
 31
0.0
  0
LINE
  5
3CE
  8
SIZE
  6
CONTINUOUS
 62
    30
 10
364.05115699999999
 20
591.28305299999988
 30
0.0
 11
364.05115699999999
 21
1306.2830530000001
 31
0.0
  0
LINE
  5
3CF
  8
NOTE
  6
CONTINUOUS
 62
     4
 10
624.01557000000003
 20
1376.2928240000001
 30
0.0
 11
702.96627699999965
 21
854.28305299999988
 31
0.0
  0
LINE
  5
3D0
  8
OUTLINE
  6
CONTINUOUS
 62
     3
 10
736.96627699999988
 20
1316.2830530000001
 30
0.0
 11
736.96627699999988
 21
581.283053
 31
0.0
  0
LINE
  5
3D1
  8
SERVICESPACE
  6
CONTINUOUS
 62
     2
 10
716.96627699999999
 20
1374.2830530000001
 30
0.0
 11
716.96627699999999
 21
838.28305299999988
 31
0.0
  0
LINE
  5
3D2
  8
NOTE
  6
CONTINUOUS
 62
     4
 10
343.71356800000001
 20
1144.2358830000001
 30
0.0
 11
697.96627699999999
 21
773.283053
 31
0.0
  0
LINE
  5
3D3
  8
DETAIL
  6
CONTINUOUS
 62
     5
 10
736.96627699999988
 20
641.88318300000003
 30
0.0
 11
736.96627699999988
 21
1255.6829230000001
 31
0.0
  0
LINE
  5
3D4
  8
SIZE
  6
CONTINUOUS
 62
    30
 10
743.96627699999988
 20
580.28788699999996
 30
0.0
 11
743.96627699999988
 21
101.93030299999999
 31
0.0
  0
LINE
  5
3D5
  8
SIZE
  6
CONTINUOUS
 62
    30
 10
743.96627699999988
 20
580.28788699999996
 30
0.0
 11
743.96627699999988
 21
101.93030299999999
 31
0.0
  0
LINE
  5
3D6
  8
SIZE
  6
CONTINUOUS
 62
    30
 10
720.96627699999999
 20
561.283053
 30
0.0
 11
720.96627699999999
 21
101.93030299999999
 31
0.0
  0
LINE
  5
3D7
  8
SIZE
  6
CONTINUOUS
 62
    30
 10
736.96627699999988
 20
621.88318300000003
 30
0.0
 11
736.96627699999988
 21
215.65930299999999
 31
0.0
  0
LINE
  5
3D8
  8
SIZE
  6
CONTINUOUS
 62
    30
 10
736.96627699999988
 20
621.88318300000003
 30
0.0
 11
736.96627699999988
 21
215.65930299999999
 31
0.0
  0
LINE
  5
3D9
  8
SIZE
  6
CONTINUOUS
 62
    30
 10
720.96627699999999
 20
561.283053
 30
0.0
 11
720.96627699999999
 21
215.65930299999999
 31
0.0
  0
LINE
  5
3DA
  8
SIZE
  6
CONTINUOUS
 62
    30
 10
720.96627699999999
 20
561.283053
 30
0.0
 11
720.96627699999999
 21
0.000008
 31
0.0
  0
CIRCLE
  5
3DB
  8
SIZE
  6
CONTINUOUS
 62
    30
 10
720.96627699999999
 20
30.000008000000001
 30
0.0
 40
5.0
  0
TEXT
  5
3DC
  8
SIZE
  6
CONTINUOUS
 62
    30
 10
602.82341942857136
 20
149.93030300000001
 30
0.0
 40
55.0
  1
23
 41
0.9
 72
     1
 11
642.89484800000002
 21
149.93030300000001
 31
0.0
  0
LINE
  5
3DD
  8
SIZE
  6
CONTINUOUS
 62
    30
 10
710.96627699999988
 20
131.93030300000001
 30
0.0
 11
584.82342000000017
 21
131.93030300000001
 31
0.0
  0
LINE
  5
3DE
  8
SIZE
  6
CONTINUOUS
 62
    30
 10
748.96627699999988
 20
131.93030300000001
 30
0.0
 11
753.96627699999988
 21
131.93030300000001
 31
0.0
  0
CIRCLE
  5
3DF
  8
SIZE
  6
CONTINUOUS
 62
    30
 10
743.96627699999988
 20
131.93030300000001
 30
0.0
 40
5.0
  0
POINT
  5
3E0
  8
DEFPOINTS
  6
CONTINUOUS
 62
     7
 10
743.96627699999988
 20
131.93030300000001
 30
0.0
  0
LINE
  5
3E1
  8
SIZE
  6
CONTINUOUS
 62
    30
 10
715.96627699999965
 20
131.93030300000001
 30
0.0
 11
710.96627699999988
 21
131.93030300000001
 31
0.0
  0
CIRCLE
  5
3E2
  8
SIZE
  6
CONTINUOUS
 62
    30
 10
720.96627699999999
 20
131.93030300000001
 30
0.0
 40
5.0
  0
LINE
  5
3E3
  8
SIZE
  6
CONTINUOUS
 62
    30
 10
748.96627699999988
 20
131.93030300000001
 30
0.0
 11
753.96627699999988
 21
131.93030300000001
 31
0.0
  0
CIRCLE
  5
3E4
  8
SIZE
  6
CONTINUOUS
 62
    30
 10
743.96627699999988
 20
131.93030300000001
 30
0.0
 40
5.0
  0
LINE
  5
3E5
  8
SIZE
  6
CONTINUOUS
 62
    30
 10
743.96627699999988
 20
131.93030300000001
 30
0.0
 11
720.96627699999999
 21
131.93030300000001
 31
0.0
  0
LINE
  5
3E6
  8
SIZE
  6
CONTINUOUS
 62
    30
 10
753.96627699999988
 20
131.93030300000001
 30
0.0
 11
763.96627699999999
 21
131.93030300000001
 31
0.0
  0
LINE
  5
3E7
  8
SIZE
  6
CONTINUOUS
 62
    30
 10
725.96627699999999
 20
30.000008000000001
 30
0.0
 11
730.96627699999999
 21
30.000008000000001
 31
0.0
  0
TEXT
  5
3E8
  8
SIZE
  6
CONTINUOUS
 62
    30
 10
614.6091345714284
 20
263.65930300000002
 30
0.0
 40
55.0
  1
16
 41
0.9
 72
     1
 11
648.78770599999984
 21
263.65930300000002
 31
0.0
  0
LINE
  5
3E9
  8
SIZE
  6
CONTINUOUS
 62
    30
 10
710.96627699999988
 20
245.65930299999999
 30
0.0
 11
596.60913400000004
 21
245.65930299999999
 31
0.0
  0
LINE
  5
3EA
  8
SIZE
  6
CONTINUOUS
 62
    30
 10
741.96627699999999
 20
245.65930299999999
 30
0.0
 11
746.96627699999999
 21
245.65930299999999
 31
0.0
  0
CIRCLE
  5
3EB
  8
SIZE
  6
CONTINUOUS
 62
    30
 10
736.96627699999988
 20
245.65930299999999
 30
0.0
 40
5.0
  0
POINT
  5
3EC
  8
DEFPOINTS
  6
CONTINUOUS
 62
     7
 10
736.96627699999988
 20
245.65930299999999
 30
0.0
  0
LINE
  5
3ED
  8
SIZE
  6
CONTINUOUS
 62
    30
 10
715.96627699999965
 20
245.65930299999999
 30
0.0
 11
710.96627699999988
 21
245.65930299999999
 31
0.0
  0
CIRCLE
  5
3EE
  8
SIZE
  6
CONTINUOUS
 62
    30
 10
720.96627699999999
 20
245.65930299999999
 30
0.0
 40
5.0
  0
LINE
  5
3EF
  8
SIZE
  6
CONTINUOUS
 62
    30
 10
741.96627699999999
 20
245.65930299999999
 30
0.0
 11
746.96627699999999
 21
245.65930299999999
 31
0.0
  0
CIRCLE
  5
3F0
  8
SIZE
  6
CONTINUOUS
 62
    30
 10
736.96627699999988
 20
245.65930299999999
 30
0.0
 40
5.0
  0
LINE
  5
3F1
  8
SIZE
  6
CONTINUOUS
 62
    30
 10
736.96627699999988
 20
245.65930299999999
 30
0.0
 11
720.96627699999999
 21
245.65930299999999
 31
0.0
  0
LINE
  5
3F2
  8
SIZE
  6
CONTINUOUS
 62
    30
 10
746.96627699999999
 20
245.65930299999999
 30
0.0
 11
756.96627699999988
 21
245.65930299999999
 31
0.0
  0
LINE
  5
3F3
  8
SIZE
  6
CONTINUOUS
 62
    30
 10
696.96627699999999
 20
581.283053
 30
0.0
 11
334.05115699999999
 21
581.283053
 31
0.0
  0
LINE
  5
3F4
  8
SIZE
  6
CONTINUOUS
 62
    30
 10
696.96627699999999
 20
581.283053
 30
0.0
 11
334.05115699999999
 21
581.283053
 31
0.0
  0
LINE
  5
3F5
  8
SIZE
  6
CONTINUOUS
 62
    30
 10
909.46627699999988
 20
511.283053
 30
0.0
 11
334.05115699999999
 21
511.283053
 31
0.0
  0
LINE
  5
3F6
  8
SIZE
  6
CONTINUOUS
 62
    30
 10
700.96627699999999
 20
581.283053
 30
0.0
 11
460.945807
 21
581.283053
 31
0.0
  0
LINE
  5
3F7
  8
SIZE
  6
CONTINUOUS
 62
    30
 10
666.24962500000004
 20
854.28305299999988
 30
0.0
 11
460.945807
 21
854.28305299999988
 31
0.0
  0
TEXT
  5
3F8
  8
SIZE
  6
CONTINUOUS
 62
    30
 10
591.65602899999965
 20
723.36651099999983
 30
0.0
 40
55.0
  1
64
 50
90.0
 41
0.9
 72
     1
 11
591.65602899999965
 21
764.61651099999983
 31
0.0
  0
TEXT
  5
3F9
  8
SIZE
  6
CONTINUOUS
 62
    30
 10
591.44019400000002
 20
586.35448157142844
 30
0.0
 40
55.0
  1
128
 50
90.0
 41
0.9
 72
     1
 11
591.44019400000002
 21
645.28305299999988
 31
0.0
  0
LINE
  5
3FA
  8
NOTE
  6
CONTINUOUS
 62
     4
 10
539.45948999999985
 20
382.62104799999997
 30
0.0
 11
700.96627699999999
 21
709.283053
 31
0.0
  0
LINE
  5
3FB
  8
SIZE
  6
CONTINUOUS
 62
    30
 10
490.945807
 20
844.28305299999965
 30
0.0
 11
490.945807
 21
591.28305299999988
 31
0.0
  0
TEXT
  5
3FC
  8
SIZE
  6
CONTINUOUS
 62
    30
 10
346.05115699999999
 20
506.2116244285711
 30
0.0
 40
55.0
  1
70
 50
90.0
 41
0.9
 72
     1
 11
346.05115699999999
 21
546.28305299999965
 31
0.0
  0
LINE
  5
3FD
  8
NOTE
  6
CONTINUOUS
 62
     4
 10
539.45948999999985
 20
382.62104799999997
 30
0.0
 11
145.85677200000001
 21
382.62104799999997
 31
0.0
  0
TEXT
  5
3FE
  8
NOTE
  6
CONTINUOUS
 62
     4
 10
167.53204400000001
 20
398.44757900000002
 30
0.0
 40
60.0
  1
RG %%C15.88
 50
0.000003
 41
0.7
  7
STANDARD1
  0
LINE
  5
3FF
  8
SIZE
  6
CONTINUOUS
 62
    30
 10
364.05115699999999
 20
586.283053
 30
0.0
 11
364.05115699999999
 21
591.28305299999988
 31
0.0
  0
CIRCLE
  5
400
  8
SIZE
  6
CONTINUOUS
 62
    30
 10
364.05115699999999
 20
581.283053
 30
0.0
 40
5.0
  0
POINT
  5
401
  8
DEFPOINTS
  6
CONTINUOUS
 62
     7
 10
364.05115699999999
 20
581.283053
 30
0.0
  0
LINE
  5
402
  8
SIZE
  6
CONTINUOUS
 62
    30
 10
364.05115699999999
 20
586.283053
 30
0.0
 11
364.05115699999999
 21
591.28305299999988
 31
0.0
  0
CIRCLE
  5
403
  8
SIZE
  6
CONTINUOUS
 62
    30
 10
364.05115699999999
 20
581.283053
 30
0.0
 40
5.0
  0
LINE
  5
404
  8
SIZE
  6
CONTINUOUS
 62
    30
 10
364.05115699999999
 20
506.283053
 30
0.0
 11
364.05115699999999
 21
501.283053
 31
0.0
  0
CIRCLE
  5
405
  8
SIZE
  6
CONTINUOUS
 62
    30
 10
364.05115699999999
 20
511.283053
 30
0.0
 40
5.0
  0
LINE
  5
406
  8
SIZE
  6
CONTINUOUS
 62
    30
 10
364.05115699999999
 20
511.283053
 30
0.0
 11
364.05115699999999
 21
581.283053
 31
0.0
  0
LINE
  5
407
  8
SIZE
  6
CONTINUOUS
 62
    30
 10
364.05115699999999
 20
591.28305299999988
 30
0.0
 11
364.05115699999999
 21
601.283053
 31
0.0
  0
LINE
  5
408
  8
SIZE
  6
CONTINUOUS
 62
    30
 10
364.05115699999999
 20
501.283053
 30
0.0
 11
364.05115699999999
 21
491.283053
 31
0.0
  0
POINT
  5
409
  8
DEFPOINTS
  6
CONTINUOUS
 62
     7
 10
490.945807
 20
581.283053
 30
0.0
  0
LINE
  5
40A
  8
SIZE
  6
CONTINUOUS
 62
    30
 10
490.945807
 20
586.283053
 30
0.0
 11
490.945807
 21
591.28305299999988
 31
0.0
  0
CIRCLE
  5
40B
  8
SIZE
  6
CONTINUOUS
 62
    30
 10
490.945807
 20
581.283053
 30
0.0
 40
5.0
  0
TEXT
  5
40C
  8
SIZE
  6
CONTINUOUS
 62
    30
 10
472.94580699999989
 20
654.14019585714277
 30
0.0
 40
55.0
  1
273
 50
90.0
 41
0.9
 72
     1
 11
472.94580699999989
 21
717.783053
 31
0.0
  0
LINE
  5
40D
  8
SIZE
  6
CONTINUOUS
 62
    30
 10
490.945807
 20
849.28305299999988
 30
0.0
 11
490.945807
 21
844.28305299999965
 31
0.0
  0
CIRCLE
  5
40E
  8
SIZE
  6
CONTINUOUS
 62
    30
 10
490.945807
 20
854.28305299999988
 30
0.0
 40
5.0
  0
LINE
  5
40F
  8
SIZE
  6
CONTINUOUS
 62
    30
 10
700.96627699999999
 20
689.283053
 30
0.0
 11
700.96627699999999
 21
351.625134
 31
0.0
  0
LINE
  5
410
  8
SIZE
  6
CONTINUOUS
 62
    30
 10
609.44019400000002
 20
581.283053
 30
0.0
 11
609.44019400000002
 21
709.283053
 31
0.0
  0
LINE
  5
411
  8
DETAIL
  6
CONTINUOUS
 62
     5
 10
758.93694200000004
 20
581.283053
 30
0.0
 11
758.93694200000004
 21
641.88318300000003
 31
0.0
  0
LINE
  5
412
  8
DETAIL
  6
CONTINUOUS
 62
     5
 10
720.96627699999999
 20
641.88318300000003
 30
0.0
 11
720.96627699999999
 21
621.28305299999965
 31
0.0
  0
LINE
  5
413
  8
SIZE
  6
CONTINUOUS
 62
    30
 10
736.96627699999988
 20
621.88318300000003
 30
0.0
 11
736.96627699999988
 21
351.625134
 31
0.0
  0
TEXT
  5
414
  8
SIZE
  6
CONTINUOUS
 62
    30
 10
585.18056285714306
 20
399.625134
 30
0.0
 40
55.0
  1
36
 41
0.9
 72
     1
 11
624.07342000000017
 21
399.625134
 31
0.0
  0
LINE
  5
415
  8
SIZE
  6
CONTINUOUS
 62
    30
 10
690.96627699999965
 20
381.625134
 30
0.0
 11
567.18056300000001
 21
381.625134
 31
0.0
  0
POINT
  5
416
  8
DEFPOINTS
  6
CONTINUOUS
 62
     7
 10
736.96627699999988
 20
381.625134
 30
0.0
  0
LINE
  5
417
  8
SIZE
  6
CONTINUOUS
 62
    30
 10
695.96627699999999
 20
381.625134
 30
0.0
 11
690.96627699999965
 21
381.625134
 31
0.0
  0
CIRCLE
  5
418
  8
SIZE
  6
CONTINUOUS
 62
    30
 10
700.96627699999999
 20
381.625134
 30
0.0
 40
5.0
  0
LINE
  5
419
  8
SIZE
  6
CONTINUOUS
 62
    30
 10
741.96627699999999
 20
381.625134
 30
0.0
 11
746.96627699999999
 21
381.625134
 31
0.0
  0
CIRCLE
  5
41A
  8
SIZE
  6
CONTINUOUS
 62
    30
 10
736.96627699999988
 20
381.625134
 30
0.0
 40
5.0
  0
LINE
  5
41B
  8
SIZE
  6
CONTINUOUS
 62
    30
 10
736.96627699999988
 20
381.625134
 30
0.0
 11
700.96627699999999
 21
381.625134
 31
0.0
  0
LINE
  5
41C
  8
SIZE
  6
CONTINUOUS
 62
    30
 10
746.96627699999999
 20
381.625134
 30
0.0
 11
756.96627699999988
 21
381.625134
 31
0.0
  0
LINE
  5
41D
  8
SIZE
  6
CONTINUOUS
 62
    30
 10
716.96627699999999
 20
581.283053
 30
0.0
 11
579.44019400000002
 21
581.283053
 31
0.0
  0
LINE
  5
41E
  8
SIZE
  6
CONTINUOUS
 62
    30
 10
609.44019400000002
 20
576.283053
 30
0.0
 11
609.44019400000002
 21
571.28305299999965
 31
0.0
  0
CIRCLE
  5
41F
  8
SIZE
  6
CONTINUOUS
 62
    30
 10
609.44019400000002
 20
581.283053
 30
0.0
 40
5.0
  0
LINE
  5
420
  8
SIZE
  6
CONTINUOUS
 62
    30
 10
609.44019400000002
 20
571.28305299999965
 30
0.0
 11
609.44019400000002
 21
561.283053
 31
0.0
  0
POINT
  5
421
  8
DEFPOINTS
  6
CONTINUOUS
 62
     7
 10
743.96627699999988
 20
600.28788699999996
 30
0.0
  0
POINT
  5
422
  8
DEFPOINTS
  6
CONTINUOUS
 62
     7
 10
743.96627699999988
 20
600.28788699999996
 30
0.0
  0
POINT
  5
423
  8
DEFPOINTS
  6
CONTINUOUS
 62
     7
 10
720.96627699999999
 20
581.283053
 30
0.0
  0
POINT
  5
424
  8
DEFPOINTS
  6
CONTINUOUS
 62
     7
 10
720.96627699999999
 20
581.283053
 30
0.0
  0
POINT
  5
425
  8
DEFPOINTS
  6
CONTINUOUS
 62
     7
 10
716.96627699999999
 20
581.283053
 30
0.0
  0
POINT
  5
426
  8
DEFPOINTS
  6
CONTINUOUS
 62
     7
 10
716.96627699999999
 20
581.283053
 30
0.0
  0
POINT
  5
427
  8
DEFPOINTS
  6
CONTINUOUS
 62
     7
 10
720.96627699999999
 20
581.283053
 30
0.0
  0
POINT
  5
428
  8
DEFPOINTS
  6
CONTINUOUS
 62
     7
 10
736.96627699999988
 20
581.283053
 30
0.0
  0
POINT
  5
429
  8
DEFPOINTS
  6
CONTINUOUS
 62
     7
 10
720.96627699999999
 20
581.283053
 30
0.0
  0
CIRCLE
  5
42A
  8
FIX
  6
CONTINUOUS
 62
    11
 10
743.96627699999988
 20
615.283053
 30
0.0
 40
12.421498
  0
LINE
  5
42B
  8
NOTE
  6
CONTINUOUS
 62
     4
 10
743.96627699999988
 20
630.27821900000004
 30
0.0
 11
743.96627699999988
 21
600.28788699999996
 31
0.0
  0
LINE
  5
42C
  8
NOTE
  6
CONTINUOUS
 62
     4
 10
728.97111099999984
 20
615.283053
 30
0.0
 11
758.96144299999969
 21
615.283053
 31
0.0
  0
LINE
  5
42D
  8
DETAIL
  6
CONTINUOUS
 62
     5
 10
720.96627699999999
 20
609.283053
 30
0.0
 11
720.96627699999999
 21
581.283053
 31
0.0
  0
LINE
  5
42E
  8
DETAIL
  6
CONTINUOUS
 62
     5
 10
750.96627699999999
 20
607.283053
 30
0.0
 11
750.96627699999999
 21
623.283053
 31
0.0
  0
LINE
  5
42F
  8
DETAIL
  6
CONTINUOUS
 62
     5
 10
736.96627699999988
 20
609.283053
 30
0.0
 11
720.96627699999999
 21
609.283053
 31
0.0
  0
LINE
  5
430
  8
DETAIL
  6
CONTINUOUS
 62
     5
 10
736.96627699999988
 20
621.28305299999965
 30
0.0
 11
720.96627699999999
 21
621.28305299999965
 31
0.0
  0
LINE
  5
431
  8
DETAIL
  6
CONTINUOUS
 62
     5
 10
736.96627699999988
 20
621.28305299999965
 30
0.0
 11
736.96627699999988
 21
623.283053
 31
0.0
  0
ARC
  5
432
  8
DETAIL
  6
CONTINUOUS
 62
     5
 10
743.96627699999988
 20
607.283053
 30
0.0
 40
7.0
 50
180.0
 51
0.0
  0
ARC
  5
433
  8
DETAIL
  6
CONTINUOUS
 62
     5
 10
743.96627699999988
 20
623.283053
 30
0.0
 40
7.0
 50
0.0
 51
180.0
  0
LINE
  5
434
  8
DETAIL
  6
CONTINUOUS
 62
     5
 10
736.96627699999988
 20
607.283053
 30
0.0
 11
736.96627699999988
 21
609.283053
 31
0.0
  0
LINE
  5
435
  8
DETAIL
  6
CONTINUOUS
 62
     5
 10
736.96627699999988
 20
607.283053
 30
0.0
 11
736.96627699999988
 21
609.283053
 31
0.0
  0
ARC
  5
436
  8
DETAIL
  6
CONTINUOUS
 62
     5
 10
743.96627699999988
 20
623.283053
 30
0.0
 40
7.0
 50
0.0
 51
180.0
  0
ARC
  5
437
  8
DETAIL
  6
CONTINUOUS
 62
     5
 10
743.96627699999988
 20
607.283053
 30
0.0
 40
7.0
 50
180.0
 51
0.0
  0
LINE
  5
438
  8
DETAIL
  6
CONTINUOUS
 62
     5
 10
736.96627699999988
 20
621.28305299999965
 30
0.0
 11
736.96627699999988
 21
623.283053
 31
0.0
  0
LINE
  5
439
  8
DETAIL
  6
CONTINUOUS
 62
     5
 10
736.96627699999988
 20
621.28305299999965
 30
0.0
 11
720.96627699999999
 21
621.28305299999965
 31
0.0
  0
LINE
  5
43A
  8
DETAIL
  6
CONTINUOUS
 62
     5
 10
736.96627699999988
 20
609.283053
 30
0.0
 11
720.96627699999999
 21
609.283053
 31
0.0
  0
LINE
  5
43B
  8
DETAIL
  6
CONTINUOUS
 62
     5
 10
750.96627699999999
 20
607.283053
 30
0.0
 11
750.96627699999999
 21
623.283053
 31
0.0
  0
LINE
  5
43C
  8
SIZE
  6
CONTINUOUS
 62
    30
 10
863.48515599999985
 20
501.283053
 30
0.0
 11
863.48515599999985
 21
375.140196
 31
0.0
  0
TEXT
  5
43D
  8
SIZE
  6
CONTINUOUS
 62
    30
 10
845.48515599999985
 20
393.14019542857142
 30
0.0
 40
55.0
  1
40
 50
90.0
 41
0.9
 72
     1
 11
845.48515599999985
 21
433.21162399999992
 31
0.0
  0
LINE
  5
43E
  8
SIZE
  6
CONTINUOUS
 62
    30
 10
909.46627699999988
 20
511.283053
 30
0.0
 11
833.48515599999985
 21
511.283053
 31
0.0
  0
LINE
  5
43F
  8
SIZE
  6
CONTINUOUS
 62
    30
 10
906.96627699999999
 20
551.283053
 30
0.0
 11
833.48515599999985
 21
551.283053
 31
0.0
  0
LINE
  5
440
  8
DETAIL
  6
CONTINUOUS
 62
     5
 10
772.49794699999984
 20
571.310564
 30
0.0
 11
918.13710199999957
 21
561.21427500000004
 31
0.0
  0
POINT
  5
441
  8
DEFPOINTS
  6
CONTINUOUS
 62
     7
 10
863.48515599999985
 20
511.283053
 30
0.0
  0
LINE
  5
442
  8
SIZE
  6
CONTINUOUS
 62
    30
 10
863.48515599999985
 20
506.283053
 30
0.0
 11
863.48515599999985
 21
501.283053
 31
0.0
  0
CIRCLE
  5
443
  8
SIZE
  6
CONTINUOUS
 62
    30
 10
863.48515599999985
 20
511.283053
 30
0.0
 40
5.0
  0
LINE
  5
444
  8
SIZE
  6
CONTINUOUS
 62
    30
 10
863.48515599999985
 20
556.283053
 30
0.0
 11
863.48515599999985
 21
561.283053
 31
0.0
  0
CIRCLE
  5
445
  8
SIZE
  6
CONTINUOUS
 62
    30
 10
863.48515599999985
 20
551.283053
 30
0.0
 40
5.0
  0
LINE
  5
446
  8
SIZE
  6
CONTINUOUS
 62
    30
 10
863.48515599999985
 20
551.283053
 30
0.0
 11
863.48515599999985
 21
511.283053
 31
0.0
  0
LINE
  5
447
  8
SIZE
  6
CONTINUOUS
 62
    30
 10
863.48515599999985
 20
561.283053
 30
0.0
 11
863.48515599999985
 21
571.28305299999965
 31
0.0
  0
LINE
  5
448
  8
DETAIL
  6
CONTINUOUS
 62
     5
 10
768.96627699999988
 20
581.283053
 30
0.0
 11
768.96627699999988
 21
575.28305299999965
 31
0.0
  0
ARC
  5
449
  8
DETAIL
  6
CONTINUOUS
 62
     5
 10
772.96627699999999
 20
575.28305299999965
 30
0.0
 40
4.0
 50
180.0
 51
263.27624300000002
  0
POINT
  5
44A
  8
DEFPOINTS
  6
CONTINUOUS
 62
     7
 10
929.46627699999999
 20
511.283053
 30
0.0
  0
POINT
  5
44B
  8
DEFPOINTS
  6
CONTINUOUS
 62
     7
 10
926.96627699999999
 20
551.283053
 30
0.0
  0
POINT
  5
44C
  8
DEFPOINTS
  6
CONTINUOUS
 62
     7
 10
929.46627699999999
 20
511.283053
 30
0.0
  0
ARC
  5
44D
  8
DETAIL
  6
CONTINUOUS
 62
     5
 10
916.96627699999999
 20
551.283053
 30
0.0
 40
10.0
 50
0.0
 51
83.27624299999998
  0
LINE
  5
44E
  8
DETAIL
  6
CONTINUOUS
 62
     5
 10
929.46627699999999
 20
511.283053
 30
0.0
 11
926.96627699999999
 21
551.283053
 31
0.0
  0
LINE
  5
44F
  8
SIZE
  6
CONTINUOUS
 62
    30
 10
746.95712800000001
 20
741.82720599999982
 30
0.0
 11
870.74284299999999
 21
741.82720599999982
 31
0.0
  0
LINE
  5
450
  8
NOTE
  6
CONTINUOUS
 62
     4
 10
697.96627699999999
 20
773.283053
 30
0.0
 11
682.85219199999995
 21
804.16855299999963
 31
0.0
  0
LINE
  5
451
  8
SIZE
  6
CONTINUOUS
 62
    30
 10
672.46627699999999
 20
773.283053
 30
0.0
 11
579.44019400000002
 21
773.283053
 31
0.0
  0
LINE
  5
452
  8
SIZE
  6
CONTINUOUS
 62
    30
 10
669.69798000000003
 20
709.283053
 30
0.0
 11
579.44019400000002
 21
709.283053
 31
0.0
  0
LINE
  5
453
  8
SIZE
  6
CONTINUOUS
 62
    30
 10
669.69798000000003
 20
709.283053
 30
0.0
 11
579.44019400000002
 21
709.283053
 31
0.0
  0
POINT
  5
454
  8
DEFPOINTS
  6
CONTINUOUS
 62
     7
 10
609.44019400000002
 20
773.283053
 30
0.0
  0
LINE
  5
455
  8
SIZE
  6
CONTINUOUS
 62
    30
 10
609.44019400000002
 20
768.283053
 30
0.0
 11
609.44019400000002
 21
763.28305299999988
 31
0.0
  0
CIRCLE
  5
456
  8
SIZE
  6
CONTINUOUS
 62
    30
 10
609.44019400000002
 20
773.283053
 30
0.0
 40
5.0
  0
LINE
  5
457
  8
SIZE
  6
CONTINUOUS
 62
    30
 10
609.44019400000002
 20
714.283053
 30
0.0
 11
609.44019400000002
 21
719.283053
 31
0.0
  0
CIRCLE
  5
458
  8
SIZE
  6
CONTINUOUS
 62
    30
 10
609.44019400000002
 20
709.283053
 30
0.0
 40
5.0
  0
LINE
  5
459
  8
SIZE
  6
CONTINUOUS
 62
    30
 10
609.44019400000002
 20
719.283053
 30
0.0
 11
609.44019400000002
 21
763.28305299999988
 31
0.0
  0
POINT
  5
45A
  8
DEFPOINTS
  6
CONTINUOUS
 62
     7
 10
609.44019400000002
 20
709.283053
 30
0.0
  0
LINE
  5
45B
  8
SIZE
  6
CONTINUOUS
 62
    30
 10
609.44019400000002
 20
714.283053
 30
0.0
 11
609.44019400000002
 21
719.283053
 31
0.0
  0
CIRCLE
  5
45C
  8
SIZE
  6
CONTINUOUS
 62
    30
 10
609.44019400000002
 20
709.283053
 30
0.0
 40
5.0
  0
LINE
  5
45D
  8
SIZE
  6
CONTINUOUS
 62
    30
 10
609.44019400000002
 20
719.283053
 30
0.0
 11
609.44019400000002
 21
729.28305299999988
 31
0.0
  0
POINT
  5
45E
  8
DEFPOINTS
  6
CONTINUOUS
 62
     7
 10
700.96627699999999
 20
720.533053
 30
0.0
  0
LINE
  5
45F
  8
NOTE
  6
CONTINUOUS
 62
     4
 10
697.96627699999999
 20
778.78304500000002
 30
0.0
 11
697.96627699999999
 21
767.78306099999998
 31
0.0
  0
LINE
  5
460
  8
DETAIL
  6
CONTINUOUS
 62
     5
 10
716.95712800000001
 20
767.783053
 30
0.0
 11
736.95712800000001
 21
767.783053
 31
0.0
  0
LINE
  5
461
  8
DETAIL
  6
CONTINUOUS
 62
     5
 10
717.95712800000001
 20
763.783053
 30
0.0
 11
736.95712800000001
 21
763.783053
 31
0.0
  0
LINE
  5
462
  8
DETAIL
  6
CONTINUOUS
 62
     5
 10
717.95712800000001
 20
782.78305299999988
 30
0.0
 11
736.95712800000001
 21
782.78305299999988
 31
0.0
  0
LINE
  5
463
  8
DETAIL
  6
CONTINUOUS
 62
     5
 10
716.95712800000001
 20
778.78305299999988
 30
0.0
 11
736.95712800000001
 21
778.78305299999988
 31
0.0
  0
LINE
  5
464
  8
DETAIL
  6
CONTINUOUS
 62
     5
 10
700.95712800000001
 20
762.78305299999988
 30
0.0
 11
713.95712800000001
 21
762.78305299999988
 31
0.0
  0
LINE
  5
465
  8
DETAIL
  6
CONTINUOUS
 62
     5
 10
701.95712800000001
 20
767.783053
 30
0.0
 11
714.9571279999999
 21
767.783053
 31
0.0
  0
LINE
  5
466
  8
DETAIL
  6
CONTINUOUS
 62
     5
 10
714.9571279999999
 20
763.783053
 30
0.0
 11
713.95712800000001
 21
762.78305299999988
 31
0.0
  0
LINE
  5
467
  8
DETAIL
  6
CONTINUOUS
 62
     5
 10
716.95712800000001
 20
764.783053
 30
0.0
 11
717.95712800000001
 21
763.783053
 31
0.0
  0
LINE
  5
468
  8
DETAIL
  6
CONTINUOUS
 62
     5
 10
701.95712800000001
 20
767.783053
 30
0.0
 11
700.95712800000001
 21
768.783053
 31
0.0
  0
LINE
  5
469
  8
DETAIL
  6
CONTINUOUS
 62
     5
 10
701.95712800000001
 20
767.783053
 30
0.0
 11
700.95712800000001
 21
766.78305299999988
 31
0.0
  0
LINE
  5
46A
  8
DETAIL
  6
CONTINUOUS
 62
     5
 10
714.9571279999999
 20
768.53305299999988
 30
0.0
 11
716.95712800000001
 21
768.53305299999988
 31
0.0
  0
LINE
  5
46B
  8
DETAIL
  6
CONTINUOUS
 62
     5
 10
716.95712800000001
 20
764.783053
 30
0.0
 11
716.95712800000001
 21
781.783053
 31
0.0
  0
LINE
  5
46C
  8
DETAIL
  6
CONTINUOUS
 62
     5
 10
714.9571279999999
 20
763.783053
 30
0.0
 11
714.9571279999999
 21
782.78305299999988
 31
0.0
  0
LINE
  5
46D
  8
DETAIL
  6
CONTINUOUS
 62
     5
 10
700.95712800000001
 20
783.78305299999988
 30
0.0
 11
713.95712800000001
 21
783.78305299999988
 31
0.0
  0
LINE
  5
46E
  8
DETAIL
  6
CONTINUOUS
 62
     5
 10
700.95712800000001
 20
762.78305299999988
 30
0.0
 11
700.95712800000001
 21
783.78305299999988
 31
0.0
  0
LINE
  5
46F
  8
DETAIL
  6
CONTINUOUS
 62
     5
 10
701.95712800000001
 20
778.78305299999988
 30
0.0
 11
714.9571279999999
 21
778.78305299999988
 31
0.0
  0
LINE
  5
470
  8
DETAIL
  6
CONTINUOUS
 62
     5
 10
713.95712800000001
 20
783.78305299999988
 30
0.0
 11
714.9571279999999
 21
782.78305299999988
 31
0.0
  0
LINE
  5
471
  8
DETAIL
  6
CONTINUOUS
 62
     5
 10
716.95712800000001
 20
781.783053
 30
0.0
 11
717.95712800000001
 21
782.78305299999988
 31
0.0
  0
LINE
  5
472
  8
DETAIL
  6
CONTINUOUS
 62
     5
 10
701.95712800000001
 20
778.78305299999988
 30
0.0
 11
700.95712800000001
 21
779.78305299999988
 31
0.0
  0
LINE
  5
473
  8
DETAIL
  6
CONTINUOUS
 62
     5
 10
701.95712800000001
 20
778.78305299999988
 30
0.0
 11
700.95712800000001
 21
777.783053
 31
0.0
  0
LINE
  5
474
  8
DETAIL
  6
CONTINUOUS
 62
     5
 10
714.9571279999999
 20
778.033053
 30
0.0
 11
716.95712800000001
 21
778.033053
 31
0.0
  0
LINE
  5
475
  8
DETAIL
  6
CONTINUOUS
 62
     5
 10
716.95712800000001
 20
778.78305299999988
 30
0.0
 11
733.96627699999999
 21
778.78305299999988
 31
0.0
  0
LINE
  5
476
  8
DETAIL
  6
CONTINUOUS
 62
     5
 10
717.95712800000001
 20
782.78305299999988
 30
0.0
 11
733.96627699999999
 21
782.78305299999988
 31
0.0
  0
LINE
  5
477
  8
DETAIL
  6
CONTINUOUS
 62
     5
 10
717.95712800000001
 20
763.783053
 30
0.0
 11
733.96627699999999
 21
763.783053
 31
0.0
  0
LINE
  5
478
  8
DETAIL
  6
CONTINUOUS
 62
     5
 10
700.95712800000001
 20
762.78305299999988
 30
0.0
 11
713.95712800000001
 21
762.78305299999988
 31
0.0
  0
LINE
  5
479
  8
DETAIL
  6
CONTINUOUS
 62
     5
 10
716.95712800000001
 20
767.783053
 30
0.0
 11
733.96627699999999
 21
767.783053
 31
0.0
  0
LINE
  5
47A
  8
DETAIL
  6
CONTINUOUS
 62
     5
 10
701.95712800000001
 20
767.783053
 30
0.0
 11
714.9571279999999
 21
767.783053
 31
0.0
  0
LINE
  5
47B
  8
DETAIL
  6
CONTINUOUS
 62
     5
 10
697.96627699999999
 20
767.783053
 30
0.0
 11
697.96627699999999
 21
778.78305299999988
 31
0.0
  0
LINE
  5
47C
  8
DETAIL
  6
CONTINUOUS
 62
     5
 10
697.96627699999999
 20
767.783053
 30
0.0
 11
700.95712800000001
 21
762.78305299999988
 31
0.0
  0
LINE
  5
47D
  8
DETAIL
  6
CONTINUOUS
 62
     5
 10
714.9571279999999
 20
763.783053
 30
0.0
 11
713.95712800000001
 21
762.78305299999988
 31
0.0
  0
LINE
  5
47E
  8
DETAIL
  6
CONTINUOUS
 62
     5
 10
716.95712800000001
 20
764.783053
 30
0.0
 11
717.95712800000001
 21
763.783053
 31
0.0
  0
LINE
  5
47F
  8
DETAIL
  6
CONTINUOUS
 62
     5
 10
701.95712800000001
 20
767.783053
 30
0.0
 11
700.95712800000001
 21
768.783053
 31
0.0
  0
LINE
  5
480
  8
DETAIL
  6
CONTINUOUS
 62
     5
 10
701.95712800000001
 20
767.783053
 30
0.0
 11
700.95712800000001
 21
766.78305299999988
 31
0.0
  0
LINE
  5
481
  8
DETAIL
  6
CONTINUOUS
 62
     5
 10
714.9571279999999
 20
768.53305299999988
 30
0.0
 11
716.95712800000001
 21
768.53305299999988
 31
0.0
  0
LINE
  5
482
  8
DETAIL
  6
CONTINUOUS
 62
     5
 10
716.95712800000001
 20
764.783053
 30
0.0
 11
716.95712800000001
 21
781.783053
 31
0.0
  0
LINE
  5
483
  8
DETAIL
  6
CONTINUOUS
 62
     5
 10
714.9571279999999
 20
763.783053
 30
0.0
 11
714.9571279999999
 21
782.78305299999988
 31
0.0
  0
LINE
  5
484
  8
DETAIL
  6
CONTINUOUS
 62
     5
 10
700.95712800000001
 20
783.78305299999988
 30
0.0
 11
713.95712800000001
 21
783.78305299999988
 31
0.0
  0
LINE
  5
485
  8
DETAIL
  6
CONTINUOUS
 62
     5
 10
700.95712800000001
 20
762.78305299999988
 30
0.0
 11
700.95712800000001
 21
783.78305299999988
 31
0.0
  0
LINE
  5
486
  8
DETAIL
  6
CONTINUOUS
 62
     5
 10
701.95712800000001
 20
778.78305299999988
 30
0.0
 11
714.9571279999999
 21
778.78305299999988
 31
0.0
  0
LINE
  5
487
  8
DETAIL
  6
CONTINUOUS
 62
     5
 10
697.96627699999999
 20
778.78305299999988
 30
0.0
 11
700.95712800000001
 21
783.78305299999988
 31
0.0
  0
LINE
  5
488
  8
DETAIL
  6
CONTINUOUS
 62
     5
 10
713.95712800000001
 20
783.78305299999988
 30
0.0
 11
714.9571279999999
 21
782.78305299999988
 31
0.0
  0
LINE
  5
489
  8
DETAIL
  6
CONTINUOUS
 62
     5
 10
716.95712800000001
 20
781.783053
 30
0.0
 11
717.95712800000001
 21
782.78305299999988
 31
0.0
  0
LINE
  5
48A
  8
DETAIL
  6
CONTINUOUS
 62
     5
 10
701.95712800000001
 20
778.78305299999988
 30
0.0
 11
700.95712800000001
 21
779.78305299999988
 31
0.0
  0
LINE
  5
48B
  8
DETAIL
  6
CONTINUOUS
 62
     5
 10
701.95712800000001
 20
778.78305299999988
 30
0.0
 11
700.95712800000001
 21
777.783053
 31
0.0
  0
LINE
  5
48C
  8
DETAIL
  6
CONTINUOUS
 62
     5
 10
714.9571279999999
 20
778.033053
 30
0.0
 11
716.95712800000001
 21
778.033053
 31
0.0
  0
LINE
  5
48D
  8
NOTE
  6
CONTINUOUS
 62
     4
 10
700.96627699999999
 20
720.53304900000001
 30
0.0
 11
700.96627699999999
 21
698.03305699999964
 31
0.0
  0
LINE
  5
48E
  8
DETAIL
  6
CONTINUOUS
 62
     5
 10
700.96627699999999
 20
720.533053
 30
0.0
 11
700.96627699999999
 21
698.03305299999965
 31
0.0
  0
LINE
  5
48F
  8
DETAIL
  6
CONTINUOUS
 62
     5
 10
736.96627699999988
 20
697.783053
 30
0.0
 11
725.95712800000001
 21
697.783053
 31
0.0
  0
LINE
  5
490
  8
DETAIL
  6
CONTINUOUS
 62
     5
 10
736.95712800000001
 20
720.78305299999988
 30
0.0
 11
725.95712800000001
 21
720.78305299999988
 31
0.0
  0
LINE
  5
491
  8
DETAIL
  6
CONTINUOUS
 62
     5
 10
705.95712800000001
 20
702.283053
 30
0.0
 11
703.95712800000001
 21
700.28305299999965
 31
0.0
  0
LINE
  5
492
  8
DETAIL
  6
CONTINUOUS
 62
     5
 10
705.95712800000001
 20
702.283053
 30
0.0
 11
703.95712800000001
 21
700.28305299999965
 31
0.0
  0
LINE
  5
493
  8
DETAIL
  6
CONTINUOUS
 62
     5
 10
705.95712800000001
 20
702.283053
 30
0.0
 11
703.95712800000001
 21
704.28305299999965
 31
0.0
  0
LINE
  5
494
  8
DETAIL
  6
CONTINUOUS
 62
     5
 10
705.95712800000001
 20
702.283053
 30
0.0
 11
703.95712800000001
 21
704.28305299999965
 31
0.0
  0
LINE
  5
495
  8
DETAIL
  6
CONTINUOUS
 62
     5
 10
705.95712800000001
 20
716.28305299999988
 30
0.0
 11
703.95712800000001
 21
714.283053
 31
0.0
  0
LINE
  5
496
  8
DETAIL
  6
CONTINUOUS
 62
     5
 10
705.95712800000001
 20
716.28305299999988
 30
0.0
 11
703.95712800000001
 21
714.283053
 31
0.0
  0
LINE
  5
497
  8
DETAIL
  6
CONTINUOUS
 62
     5
 10
705.95712800000001
 20
716.28305299999988
 30
0.0
 11
703.95712800000001
 21
718.283053
 31
0.0
  0
LINE
  5
498
  8
DETAIL
  6
CONTINUOUS
 62
     5
 10
705.95712800000001
 20
716.28305299999988
 30
0.0
 11
703.95712800000001
 21
718.283053
 31
0.0
  0
LINE
  5
499
  8
DETAIL
  6
CONTINUOUS
 62
     5
 10
717.95712800000001
 20
716.28305299999988
 30
0.0
 11
719.95712800000001
 21
718.283053
 31
0.0
  0
LINE
  5
49A
  8
DETAIL
  6
CONTINUOUS
 62
     5
 10
717.95712800000001
 20
716.28305299999988
 30
0.0
 11
719.95712800000001
 21
718.283053
 31
0.0
  0
LINE
  5
49B
  8
DETAIL
  6
CONTINUOUS
 62
     5
 10
717.95712800000001
 20
716.28305299999988
 30
0.0
 11
719.95712800000001
 21
714.283053
 31
0.0
  0
LINE
  5
49C
  8
DETAIL
  6
CONTINUOUS
 62
     5
 10
717.95712800000001
 20
716.28305299999988
 30
0.0
 11
719.95712800000001
 21
714.283053
 31
0.0
  0
LINE
  5
49D
  8
DETAIL
  6
CONTINUOUS
 62
     5
 10
717.95712800000001
 20
702.283053
 30
0.0
 11
719.95712800000001
 21
704.28305299999965
 31
0.0
  0
LINE
  5
49E
  8
DETAIL
  6
CONTINUOUS
 62
     5
 10
717.95712800000001
 20
702.283053
 30
0.0
 11
719.95712800000001
 21
704.28305299999965
 31
0.0
  0
LINE
  5
49F
  8
DETAIL
  6
CONTINUOUS
 62
     5
 10
717.95712800000001
 20
702.283053
 30
0.0
 11
719.95712800000001
 21
700.28305299999965
 31
0.0
  0
LINE
  5
4A0
  8
DETAIL
  6
CONTINUOUS
 62
     5
 10
717.95712800000001
 20
702.283053
 30
0.0
 11
719.95712800000001
 21
700.28305299999965
 31
0.0
  0
LINE
  5
4A1
  8
DETAIL
  6
CONTINUOUS
 62
     5
 10
717.95712800000001
 20
702.283053
 30
0.0
 11
705.95712800000001
 21
702.283053
 31
0.0
  0
LINE
  5
4A2
  8
DETAIL
  6
CONTINUOUS
 62
     5
 10
717.95712800000001
 20
702.283053
 30
0.0
 11
705.95712800000001
 21
702.283053
 31
0.0
  0
LINE
  5
4A3
  8
DETAIL
  6
CONTINUOUS
 62
     5
 10
717.95712800000001
 20
716.28305299999988
 30
0.0
 11
705.95712800000001
 21
716.28305299999988
 31
0.0
  0
LINE
  5
4A4
  8
DETAIL
  6
CONTINUOUS
 62
     5
 10
717.95712800000001
 20
716.28305299999988
 30
0.0
 11
705.95712800000001
 21
716.28305299999988
 31
0.0
  0
LINE
  5
4A5
  8
DETAIL
  6
CONTINUOUS
 62
     5
 10
719.95712800000001
 20
698.283053
 30
0.0
 11
717.95712800000001
 21
696.28305299999965
 31
0.0
  0
LINE
  5
4A6
  8
DETAIL
  6
CONTINUOUS
 62
     5
 10
719.95712800000001
 20
698.283053
 30
0.0
 11
717.95712800000001
 21
696.28305299999965
 31
0.0
  0
LINE
  5
4A7
  8
DETAIL
  6
CONTINUOUS
 62
     5
 10
719.95712800000001
 20
720.28305299999988
 30
0.0
 11
717.95712800000001
 21
722.283053
 31
0.0
  0
LINE
  5
4A8
  8
DETAIL
  6
CONTINUOUS
 62
     5
 10
719.95712800000001
 20
720.28305299999988
 30
0.0
 11
717.95712800000001
 21
722.283053
 31
0.0
  0
LINE
  5
4A9
  8
DETAIL
  6
CONTINUOUS
 62
     5
 10
700.96627699999999
 20
698.03305299999965
 30
0.0
 11
703.95712800000001
 21
696.28305299999965
 31
0.0
  0
LINE
  5
4AA
  8
DETAIL
  6
CONTINUOUS
 62
     5
 10
703.95712800000001
 20
722.283053
 30
0.0
 11
700.96627699999999
 21
720.53304900000001
 31
0.0
  0
LINE
  5
4AB
  8
DETAIL
  6
CONTINUOUS
 62
     5
 10
703.95712800000001
 20
722.283053
 30
0.0
 11
703.95712800000001
 21
696.28305299999965
 31
0.0
  0
LINE
  5
4AC
  8
DETAIL
  6
CONTINUOUS
 62
     5
 10
703.95712800000001
 20
722.283053
 30
0.0
 11
703.95712800000001
 21
696.28305299999965
 31
0.0
  0
LINE
  5
4AD
  8
DETAIL
  6
CONTINUOUS
 62
     5
 10
719.95712800000001
 20
720.28305299999988
 30
0.0
 11
719.95712800000001
 21
698.283053
 31
0.0
  0
LINE
  5
4AE
  8
DETAIL
  6
CONTINUOUS
 62
     5
 10
719.95712800000001
 20
720.28305299999988
 30
0.0
 11
719.95712800000001
 21
698.283053
 31
0.0
  0
LINE
  5
4AF
  8
DETAIL
  6
CONTINUOUS
 62
     5
 10
717.95712800000001
 20
696.28305299999965
 30
0.0
 11
703.95712800000001
 21
696.28305299999965
 31
0.0
  0
LINE
  5
4B0
  8
DETAIL
  6
CONTINUOUS
 62
     5
 10
717.95712800000001
 20
696.28305299999965
 30
0.0
 11
703.95712800000001
 21
696.28305299999965
 31
0.0
  0
LINE
  5
4B1
  8
DETAIL
  6
CONTINUOUS
 62
     5
 10
717.95712800000001
 20
722.283053
 30
0.0
 11
703.95712800000001
 21
722.283053
 31
0.0
  0
LINE
  5
4B2
  8
DETAIL
  6
CONTINUOUS
 62
     5
 10
717.95712800000001
 20
722.283053
 30
0.0
 11
703.95712800000001
 21
722.283053
 31
0.0
  0
LINE
  5
4B3
  8
DETAIL
  6
CONTINUOUS
 62
     5
 10
719.95712800000001
 20
717.28305299999965
 30
0.0
 11
719.95712800000001
 21
701.283053
 31
0.0
  0
LINE
  5
4B4
  8
DETAIL
  6
CONTINUOUS
 62
     5
 10
719.95712800000001
 20
701.283053
 30
0.0
 11
723.95712799999967
 21
701.283053
 31
0.0
  0
LINE
  5
4B5
  8
DETAIL
  6
CONTINUOUS
 62
     5
 10
719.95712800000001
 20
717.28305299999965
 30
0.0
 11
723.95712799999967
 21
717.28305299999965
 31
0.0
  0
LINE
  5
4B6
  8
DETAIL
  6
CONTINUOUS
 62
     5
 10
723.95712799999967
 20
718.783053
 30
0.0
 11
725.95712800000001
 21
720.78305299999988
 31
0.0
  0
LINE
  5
4B7
  8
DETAIL
  6
CONTINUOUS
 62
     5
 10
723.95712799999967
 20
699.78305299999965
 30
0.0
 11
725.95712800000001
 21
697.783053
 31
0.0
  0
LINE
  5
4B8
  8
DETAIL
  6
CONTINUOUS
 62
     5
 10
723.95712799999967
 20
718.783053
 30
0.0
 11
723.95712799999967
 21
699.78305299999965
 31
0.0
  0
LINE
  5
4B9
  8
DETAIL
  6
CONTINUOUS
 62
     5
 10
705.95712800000001
 20
702.283053
 30
0.0
 11
703.95712800000001
 21
700.28305299999965
 31
0.0
  0
LINE
  5
4BA
  8
DETAIL
  6
CONTINUOUS
 62
     5
 10
705.95712800000001
 20
702.283053
 30
0.0
 11
703.95712800000001
 21
700.28305299999965
 31
0.0
  0
LINE
  5
4BB
  8
DETAIL
  6
CONTINUOUS
 62
     5
 10
705.95712800000001
 20
702.283053
 30
0.0
 11
703.95712800000001
 21
704.28305299999965
 31
0.0
  0
LINE
  5
4BC
  8
DETAIL
  6
CONTINUOUS
 62
     5
 10
705.95712800000001
 20
702.283053
 30
0.0
 11
703.95712800000001
 21
704.28305299999965
 31
0.0
  0
LINE
  5
4BD
  8
DETAIL
  6
CONTINUOUS
 62
     5
 10
705.95712800000001
 20
716.28305299999988
 30
0.0
 11
703.95712800000001
 21
714.283053
 31
0.0
  0
LINE
  5
4BE
  8
DETAIL
  6
CONTINUOUS
 62
     5
 10
705.95712800000001
 20
716.28305299999988
 30
0.0
 11
703.95712800000001
 21
714.283053
 31
0.0
  0
LINE
  5
4BF
  8
DETAIL
  6
CONTINUOUS
 62
     5
 10
705.95712800000001
 20
716.28305299999988
 30
0.0
 11
703.95712800000001
 21
718.283053
 31
0.0
  0
LINE
  5
4C0
  8
DETAIL
  6
CONTINUOUS
 62
     5
 10
705.95712800000001
 20
716.28305299999988
 30
0.0
 11
703.95712800000001
 21
718.283053
 31
0.0
  0
LINE
  5
4C1
  8
DETAIL
  6
CONTINUOUS
 62
     5
 10
717.95712800000001
 20
716.28305299999988
 30
0.0
 11
719.95712800000001
 21
718.283053
 31
0.0
  0
LINE
  5
4C2
  8
DETAIL
  6
CONTINUOUS
 62
     5
 10
717.95712800000001
 20
716.28305299999988
 30
0.0
 11
719.95712800000001
 21
718.283053
 31
0.0
  0
LINE
  5
4C3
  8
DETAIL
  6
CONTINUOUS
 62
     5
 10
717.95712800000001
 20
716.28305299999988
 30
0.0
 11
719.95712800000001
 21
714.283053
 31
0.0
  0
LINE
  5
4C4
  8
DETAIL
  6
CONTINUOUS
 62
     5
 10
717.95712800000001
 20
716.28305299999988
 30
0.0
 11
719.95712800000001
 21
714.283053
 31
0.0
  0
LINE
  5
4C5
  8
DETAIL
  6
CONTINUOUS
 62
     5
 10
717.95712800000001
 20
702.283053
 30
0.0
 11
719.95712800000001
 21
704.28305299999965
 31
0.0
  0
LINE
  5
4C6
  8
DETAIL
  6
CONTINUOUS
 62
     5
 10
717.95712800000001
 20
702.283053
 30
0.0
 11
719.95712800000001
 21
704.28305299999965
 31
0.0
  0
LINE
  5
4C7
  8
DETAIL
  6
CONTINUOUS
 62
     5
 10
717.95712800000001
 20
702.283053
 30
0.0
 11
719.95712800000001
 21
700.28305299999965
 31
0.0
  0
LINE
  5
4C8
  8
DETAIL
  6
CONTINUOUS
 62
     5
 10
717.95712800000001
 20
702.283053
 30
0.0
 11
719.95712800000001
 21
700.28305299999965
 31
0.0
  0
LINE
  5
4C9
  8
DETAIL
  6
CONTINUOUS
 62
     5
 10
717.95712800000001
 20
702.283053
 30
0.0
 11
705.95712800000001
 21
702.283053
 31
0.0
  0
LINE
  5
4CA
  8
DETAIL
  6
CONTINUOUS
 62
     5
 10
717.95712800000001
 20
702.283053
 30
0.0
 11
705.95712800000001
 21
702.283053
 31
0.0
  0
LINE
  5
4CB
  8
DETAIL
  6
CONTINUOUS
 62
     5
 10
717.95712800000001
 20
716.28305299999988
 30
0.0
 11
705.95712800000001
 21
716.28305299999988
 31
0.0
  0
LINE
  5
4CC
  8
DETAIL
  6
CONTINUOUS
 62
     5
 10
717.95712800000001
 20
716.28305299999988
 30
0.0
 11
705.95712800000001
 21
716.28305299999988
 31
0.0
  0
LINE
  5
4CD
  8
DETAIL
  6
CONTINUOUS
 62
     5
 10
719.95712800000001
 20
698.283053
 30
0.0
 11
717.95712800000001
 21
696.28305299999965
 31
0.0
  0
LINE
  5
4CE
  8
DETAIL
  6
CONTINUOUS
 62
     5
 10
719.95712800000001
 20
698.283053
 30
0.0
 11
717.95712800000001
 21
696.28305299999965
 31
0.0
  0
LINE
  5
4CF
  8
DETAIL
  6
CONTINUOUS
 62
     5
 10
719.95712800000001
 20
720.28305299999988
 30
0.0
 11
717.95712800000001
 21
722.283053
 31
0.0
  0
LINE
  5
4D0
  8
DETAIL
  6
CONTINUOUS
 62
     5
 10
719.95712800000001
 20
720.28305299999988
 30
0.0
 11
717.95712800000001
 21
722.283053
 31
0.0
  0
LINE
  5
4D1
  8
DETAIL
  6
CONTINUOUS
 62
     5
 10
703.95712800000001
 20
722.283053
 30
0.0
 11
703.95712800000001
 21
696.28305299999965
 31
0.0
  0
LINE
  5
4D2
  8
DETAIL
  6
CONTINUOUS
 62
     5
 10
703.95712800000001
 20
722.283053
 30
0.0
 11
703.95712800000001
 21
696.28305299999965
 31
0.0
  0
LINE
  5
4D3
  8
DETAIL
  6
CONTINUOUS
 62
     5
 10
719.95712800000001
 20
720.28305299999988
 30
0.0
 11
719.95712800000001
 21
698.283053
 31
0.0
  0
LINE
  5
4D4
  8
DETAIL
  6
CONTINUOUS
 62
     5
 10
719.95712800000001
 20
720.28305299999988
 30
0.0
 11
719.95712800000001
 21
698.283053
 31
0.0
  0
LINE
  5
4D5
  8
DETAIL
  6
CONTINUOUS
 62
     5
 10
717.95712800000001
 20
696.28305299999965
 30
0.0
 11
703.95712800000001
 21
696.28305299999965
 31
0.0
  0
LINE
  5
4D6
  8
DETAIL
  6
CONTINUOUS
 62
     5
 10
717.95712800000001
 20
696.28305299999965
 30
0.0
 11
703.95712800000001
 21
696.28305299999965
 31
0.0
  0
LINE
  5
4D7
  8
DETAIL
  6
CONTINUOUS
 62
     5
 10
717.95712800000001
 20
722.283053
 30
0.0
 11
703.95712800000001
 21
722.283053
 31
0.0
  0
LINE
  5
4D8
  8
DETAIL
  6
CONTINUOUS
 62
     5
 10
717.95712800000001
 20
722.283053
 30
0.0
 11
703.95712800000001
 21
722.283053
 31
0.0
  0
LINE
  5
4D9
  8
DETAIL
  6
CONTINUOUS
 62
     5
 10
719.95712800000001
 20
717.28305299999965
 30
0.0
 11
719.95712800000001
 21
701.283053
 31
0.0
  0
LINE
  5
4DA
  8
DETAIL
  6
CONTINUOUS
 62
     5
 10
719.95712800000001
 20
701.283053
 30
0.0
 11
723.95712799999967
 21
701.283053
 31
0.0
  0
LINE
  5
4DB
  8
DETAIL
  6
CONTINUOUS
 62
     5
 10
719.95712800000001
 20
717.28305299999965
 30
0.0
 11
723.95712799999967
 21
717.28305299999965
 31
0.0
  0
LINE
  5
4DC
  8
DETAIL
  6
CONTINUOUS
 62
     5
 10
723.95712799999967
 20
718.783053
 30
0.0
 11
725.95712800000001
 21
720.78305299999988
 31
0.0
  0
LINE
  5
4DD
  8
DETAIL
  6
CONTINUOUS
 62
     5
 10
723.95712799999967
 20
699.78305299999965
 30
0.0
 11
725.95712800000001
 21
697.783053
 31
0.0
  0
LINE
  5
4DE
  8
DETAIL
  6
CONTINUOUS
 62
     5
 10
723.95712799999967
 20
718.783053
 30
0.0
 11
723.95712799999967
 21
699.78305299999965
 31
0.0
  0
LINE
  5
4DF
  8
DETAIL
  6
CONTINUOUS
 62
     5
 10
736.95712800000001
 20
720.78305299999988
 30
0.0
 11
725.95712800000001
 21
720.78305299999988
 31
0.0
  0
LINE
  5
4E0
  8
DETAIL
  6
CONTINUOUS
 62
     5
 10
736.95712800000001
 20
697.783053
 30
0.0
 11
725.95712800000001
 21
697.783053
 31
0.0
  0
LINE
  5
4E1
  8
DETAIL
  6
CONTINUOUS
 62
     5
 10
736.96627699999988
 20
791.28305299999988
 30
0.0
 11
696.96627699999999
 21
791.28305299999988
 31
0.0
  0
LINE
  5
4E2
  8
OUTLINE
  6
CONTINUOUS
 62
     3
 10
736.96627699999988
 20
791.28305299999988
 30
0.0
 11
696.96627699999999
 21
791.28305299999988
 31
0.0
  0
POINT
  5
4E3
  8
DEFPOINTS
  6
CONTINUOUS
 62
     7
 10
736.96627699999988
 20
641.88318300000003
 30
0.0
  0
POINT
  5
4E4
  8
DEFPOINTS
  6
CONTINUOUS
 62
     7
 10
736.96627699999988
 20
641.88318300000003
 30
0.0
  0
POINT
  5
4E5
  8
DEFPOINTS
  6
CONTINUOUS
 62
     7
 10
736.95712800000001
 20
741.82720599999982
 30
0.0
  0
POINT
  5
4E6
  8
DEFPOINTS
  6
CONTINUOUS
 62
     7
 10
736.95712800000001
 20
763.783053
 30
0.0
  0
POINT
  5
4E7
  8
DEFPOINTS
  6
CONTINUOUS
 62
     7
 10
697.96627699999999
 20
773.283053
 30
0.0
  0
LINE
  5
4E8
  8
SIZE
  6
CONTINUOUS
 62
    30
 10
741.95712800000001
 20
741.82720599999982
 30
0.0
 11
746.95712800000001
 21
741.82720599999982
 31
0.0
  0
CIRCLE
  5
4E9
  8
SIZE
  6
CONTINUOUS
 62
    30
 10
736.95712800000001
 20
741.82720599999982
 30
0.0
 40
5.0
  0
LINE
  5
4EA
  8
SIZE
  6
CONTINUOUS
 62
    30
 10
692.95712800000001
 20
741.82720599999982
 30
0.0
 11
687.95712800000001
 21
741.82720599999982
 31
0.0
  0
CIRCLE
  5
4EB
  8
SIZE
  6
CONTINUOUS
 62
    30
 10
697.95712800000001
 20
741.82720599999982
 30
0.0
 40
5.0
  0
LINE
  5
4EC
  8
SIZE
  6
CONTINUOUS
 62
    30
 10
697.95712800000001
 20
741.82720599999982
 30
0.0
 11
736.95712800000001
 21
741.82720599999982
 31
0.0
  0
LINE
  5
4ED
  8
SIZE
  6
CONTINUOUS
 62
    30
 10
687.95712800000001
 20
741.82720599999982
 30
0.0
 11
677.95712799999978
 21
741.82720599999982
 31
0.0
  0
LINE
  5
4EE
  8
SIZE
  6
CONTINUOUS
 62
    30
 10
736.95712800000001
 20
743.783053
 30
0.0
 11
736.95712800000001
 21
711.82720599999982
 31
0.0
  0
LINE
  5
4EF
  8
SIZE
  6
CONTINUOUS
 62
    30
 10
697.95712800000001
 20
753.283053
 30
0.0
 11
697.95712800000001
 21
711.82720599999982
 31
0.0
  0
POINT
  5
4F0
  8
DEFPOINTS
  6
CONTINUOUS
 62
     7
 10
736.96627699999988
 20
641.88318300000003
 30
0.0
  0
POINT
  5
4F1
  8
DEFPOINTS
  6
CONTINUOUS
 62
     7
 10
700.96627699999999
 20
709.283053
 30
0.0
  0
POINT
  5
4F2
  8
DEFPOINTS
  6
CONTINUOUS
 62
     7
 10
692.46627699999999
 20
773.283053
 30
0.0
  0
POINT
  5
4F3
  8
DEFPOINTS
  6
CONTINUOUS
 62
     7
 10
689.69798000000003
 20
709.283053
 30
0.0
  0
POINT
  5
4F4
  8
DEFPOINTS
  6
CONTINUOUS
 62
     7
 10
689.69798000000003
 20
709.283053
 30
0.0
  0
LINE
  5
4F5
  8
NOTE
  6
CONTINUOUS
 62
     4
 10
712.20798000000002
 20
709.283053
 30
0.0
 11
689.70798000000002
 21
709.283053
 31
0.0
  0
LINE
  5
4F6
  8
NOTE
  6
CONTINUOUS
 62
     4
 10
700.96627699999999
 20
709.283053
 30
0.0
 11
692.6981679999999
 21
675.90659400000004
 31
0.0
  0
LINE
  5
4F7
  8
NOTE
  6
CONTINUOUS
 62
     4
 10
700.96627699999999
 20
709.283053
 30
0.0
 11
677.11765499999979
 21
684.51224599999978
 31
0.0
  0
LINE
  5
4F8
  8
NOTE
  6
CONTINUOUS
 62
     4
 10
703.46627699999965
 20
773.283053
 30
0.0
 11
692.46627699999999
 21
773.283053
 31
0.0
  0
LINE
  5
4F9
  8
NOTE
  6
CONTINUOUS
 62
     4
 10
697.96627699999999
 20
773.283053
 30
0.0
 11
669.43434599999978
 21
792.47363799999982
 31
0.0
  0
LINE
  5
4FA
  8
DETAIL
  6
CONTINUOUS
 62
     5
 10
758.93694200000004
 20
641.88318300000003
 30
0.0
 11
720.96627699999999
 21
641.88318300000003
 31
0.0
  0
LINE
  5
4FB
  8
DETAIL
  6
CONTINUOUS
 62
     5
 10
736.96627699999988
 20
641.88318300000003
 30
0.0
 11
721.16627699999981
 21
641.88318300000003
 31
0.0
  0
POINT
  5
4FC
  8
DEFPOINTS
  6
CONTINUOUS
 62
     7
 10
736.96627699999988
 20
909.28305299999965
 30
0.0
  0
LINE
  5
4FD
  8
SERVICESPACE
  6
CONTINUOUS
 62
     2
 10
716.96627699999999
 20
838.28305299999988
 30
0.0
 11
716.96627699999999
 21
808.283053
 31
0.0
  0
POINT
  5
4FE
  8
DEFPOINTS
  6
CONTINUOUS
 62
     7
 10
702.96627699999965
 20
854.28305299999988
 30
0.0
  0
POINT
  5
4FF
  8
DEFPOINTS
  6
CONTINUOUS
 62
     7
 10
736.96627699999988
 20
870.64014899999995
 30
0.0
  0
POINT
  5
500
  8
DEFPOINTS
  6
CONTINUOUS
 62
     7
 10
686.24962500000004
 20
854.28305299999988
 30
0.0
  0
LINE
  5
501
  8
NOTE
  6
CONTINUOUS
 62
     4
 10
719.68292900000006
 20
854.28305299999988
 30
0.0
 11
686.24962500000004
 21
854.28305299999988
 31
0.0
  0
LINE
  5
502
  8
NOTE
  6
CONTINUOUS
 62
     4
 10
702.96627699999965
 20
870.99970499999984
 30
0.0
 11
702.96627699999965
 21
837.5664009999997
 31
0.0
  0
LINE
  5
503
  8
NOTE
  6
CONTINUOUS
 62
     4
 10
702.96627699999965
 20
854.28305299999988
 30
0.0
 11
689.08408699999995
 21
885.74150899999984
 31
0.0
  0
LINE
  5
504
  8
NOTE
  6
CONTINUOUS
 62
     4
 10
702.96627699999965
 20
854.28305299999988
 30
0.0
 11
706.67317700000001
 21
888.4679699999997
 31
0.0
  0
LINE
  5
505
  8
DETAIL
  6
CONTINUOUS
 62
     5
 10
727.96627699999988
 20
838.08305299999995
 30
0.0
 11
736.96627699999988
 21
837.92595700000004
 31
0.0
  0
LINE
  5
506
  8
DETAIL
  6
CONTINUOUS
 62
     5
 10
727.96627699999988
 20
870.48305299999981
 30
0.0
 11
736.96627699999988
 21
870.64014899999995
 31
0.0
  0
ARC
  5
507
  8
DETAIL
  6
CONTINUOUS
 62
     5
 10
703.46627699999965
 20
838.783053
 30
0.0
 40
0.5
 50
180.0
 51
270.0
  0
ARC
  5
508
  8
DETAIL
  6
CONTINUOUS
 62
     5
 10
703.46627699999965
 20
869.78305299999988
 30
0.0
 40
0.5
 50
90.0
 51
180.0
  0
LINE
  5
509
  8
DETAIL
  6
CONTINUOUS
 62
     5
 10
727.96627699999988
 20
870.48305299999981
 30
0.0
 11
727.96627699999988
 21
838.08305299999995
 31
0.0
  0
LINE
  5
50A
  8
DETAIL
  6
CONTINUOUS
 62
     5
 10
727.96627699999988
 20
838.28305299999988
 30
0.0
 11
703.46627699999965
 21
838.28305299999988
 31
0.0
  0
LINE
  5
50B
  8
DETAIL
  6
CONTINUOUS
 62
     5
 10
727.96627699999988
 20
870.28305299999965
 30
0.0
 11
703.46627699999965
 21
870.28305299999965
 31
0.0
  0
LINE
  5
50C
  8
DETAIL
  6
CONTINUOUS
 62
     5
 10
702.96627699999965
 20
869.78305299999988
 30
0.0
 11
702.96627699999965
 21
838.783053
 31
0.0
  0
LINE
  5
50D
  8
DETAIL
  6
CONTINUOUS
 62
     5
 10
702.96627699999965
 20
869.78305299999988
 30
0.0
 11
702.96627699999965
 21
838.783053
 31
0.0
  0
LINE
  5
50E
  8
DETAIL
  6
CONTINUOUS
 62
     5
 10
727.96627699999988
 20
870.28305299999965
 30
0.0
 11
703.46627699999965
 21
870.28305299999965
 31
0.0
  0
LINE
  5
50F
  8
DETAIL
  6
CONTINUOUS
 62
     5
 10
727.96627699999988
 20
838.28305299999988
 30
0.0
 11
703.46627699999965
 21
838.28305299999988
 31
0.0
  0
LINE
  5
510
  8
DETAIL
  6
CONTINUOUS
 62
     5
 10
727.96627699999988
 20
870.48305299999981
 30
0.0
 11
727.96627699999988
 21
838.08305299999995
 31
0.0
  0
ARC
  5
511
  8
DETAIL
  6
CONTINUOUS
 62
     5
 10
703.46627699999965
 20
869.78305299999988
 30
0.0
 40
0.5
 50
90.0
 51
180.0
  0
ARC
  5
512
  8
DETAIL
  6
CONTINUOUS
 62
     5
 10
703.46627699999965
 20
838.783053
 30
0.0
 40
0.5
 50
180.0
 51
270.0
  0
LINE
  5
513
  8
DETAIL
  6
CONTINUOUS
 62
     5
 10
727.96627699999988
 20
838.08305299999995
 30
0.0
 11
736.96627699999988
 21
837.92595700000004
 31
0.0
  0
LINE
  5
514
  8
DETAIL
  6
CONTINUOUS
 62
     5
 10
727.96627699999988
 20
870.48305299999981
 30
0.0
 11
736.96627699999988
 21
870.64014899999995
 31
0.0
  0
TEXT
  5
515
  8
SIZE
  6
CONTINUOUS
 62
    30
 10
775.96496585714294
 20
745.72463600000003
 30
0.0
 40
55.0
  1
39
 41
0.9
 72
     1
 11
814.85782300000005
 21
745.72463600000003
 31
0.0
  0
LINE
  5
516
  8
NOTE
  6
CONTINUOUS
 62
     4
 10
343.71356800000001
 20
1144.2358830000001
 30
0.0
 11
-0.000014
 21
1144.2358830000001
 31
0.0
  0
TEXT
  5
517
  8
NOTE
  6
CONTINUOUS
 62
     4
 10
21.675257999999999
 20
1160.062414
 30
0.0
 40
60.0
  1
RL %%C9.52
 50
0.000003
 41
0.7
  7
STANDARD1
  0
LINE
  5
518
  8
SIZE
  6
CONTINUOUS
 62
    30
 10
696.96627699999999
 20
1411.2830530000001
 30
0.0
 11
696.96627699999999
 21
1752.5864979999999
 31
0.0
  0
LINE
  5
519
  8
SIZE
  6
CONTINUOUS
 62
    30
 10
716.96627699999999
 20
1394.2830530000001
 30
0.0
 11
716.96627699999999
 21
1614.3052049999999
 31
0.0
  0
LINE
  5
51A
  8
SIZE
  6
CONTINUOUS
 62
    30
 10
700.96627699999999
 20
1316.2830530000001
 30
0.0
 11
334.05115699999999
 21
1316.2830530000001
 31
0.0
  0
LINE
  5
51B
  8
NOTE
  6
CONTINUOUS
 62
     4
 10
624.01557000000003
 20
1376.2928240000001
 30
0.0
 11
278.26552099999998
 21
1376.2928240000001
 31
0.0
  0
TEXT
  5
51C
  8
NOTE
  6
CONTINUOUS
 62
     4
 10
299.94079299999999
 20
1392.119355
 30
0.0
 40
60.0
  1
D1 VP-25
 50
0.000003
 41
0.7
  7
STANDARD1
  0
POINT
  5
51D
  8
DEFPOINTS
  6
CONTINUOUS
 62
     7
 10
364.05115699999999
 20
1316.2830530000001
 30
0.0
  0
LINE
  5
51E
  8
SIZE
  6
CONTINUOUS
 62
    30
 10
364.05115699999999
 20
1311.2830530000001
 30
0.0
 11
364.05115699999999
 21
1306.2830530000001
 31
0.0
  0
CIRCLE
  5
51F
  8
SIZE
  6
CONTINUOUS
 62
    30
 10
364.05115699999999
 20
1316.2830530000001
 30
0.0
 40
5.0
  0
LINE
  5
520
  8
SIZE
  6
CONTINUOUS
 62
    30
 10
746.96627699999999
 20
1077.5281379999999
 30
0.0
 11
870.75199099999998
 21
1077.5281379999999
 31
0.0
  0
LINE
  5
521
  8
SIZE
  6
CONTINUOUS
 62
    30
 10
746.96627699999999
 20
984.43044199999997
 30
0.0
 11
882.72187599999995
 21
984.43044199999997
 31
0.0
  0
POINT
  5
522
  8
DEFPOINTS
  6
CONTINUOUS
 62
     7
 10
736.96627699999988
 20
1077.5281379999999
 30
0.0
  0
LINE
  5
523
  8
SIZE
  6
CONTINUOUS
 62
    30
 10
741.96627699999999
 20
1077.5281379999999
 30
0.0
 11
746.96627699999999
 21
1077.5281379999999
 31
0.0
  0
CIRCLE
  5
524
  8
SIZE
  6
CONTINUOUS
 62
    30
 10
736.96627699999988
 20
1077.5281379999999
 30
0.0
 40
5.0
  0
LINE
  5
525
  8
SIZE
  6
CONTINUOUS
 62
    30
 10
695.96627699999999
 20
1077.5281379999999
 30
0.0
 11
690.96627699999965
 21
1077.5281379999999
 31
0.0
  0
CIRCLE
  5
526
  8
SIZE
  6
CONTINUOUS
 62
    30
 10
700.96627699999999
 20
1077.5281379999999
 30
0.0
 40
5.0
  0
LINE
  5
527
  8
SIZE
  6
CONTINUOUS
 62
    30
 10
700.96627699999999
 20
1077.5281379999999
 30
0.0
 11
736.96627699999988
 21
1077.5281379999999
 31
0.0
  0
LINE
  5
528
  8
SIZE
  6
CONTINUOUS
 62
    30
 10
690.96627699999965
 20
1077.5281379999999
 30
0.0
 11
680.96627699999999
 21
1077.5281379999999
 31
0.0
  0
POINT
  5
529
  8
DEFPOINTS
  6
CONTINUOUS
 62
     7
 10
702.96627699999965
 20
984.43044199999997
 30
0.0
  0
LINE
  5
52A
  8
SIZE
  6
CONTINUOUS
 62
    30
 10
741.96627699999999
 20
984.43044199999997
 30
0.0
 11
746.96627699999999
 21
984.43044199999997
 31
0.0
  0
CIRCLE
  5
52B
  8
SIZE
  6
CONTINUOUS
 62
    30
 10
736.96627699999988
 20
984.43044199999997
 30
0.0
 40
5.0
  0
LINE
  5
52C
  8
SIZE
  6
CONTINUOUS
 62
    30
 10
697.96627699999999
 20
984.43044199999997
 30
0.0
 11
692.96627699999999
 21
984.43044199999997
 31
0.0
  0
CIRCLE
  5
52D
  8
SIZE
  6
CONTINUOUS
 62
    30
 10
702.96627699999965
 20
984.43044199999997
 30
0.0
 40
5.0
  0
LINE
  5
52E
  8
SIZE
  6
CONTINUOUS
 62
    30
 10
702.96627699999965
 20
984.43044199999997
 30
0.0
 11
736.96627699999988
 21
984.43044199999997
 31
0.0
  0
LINE
  5
52F
  8
SIZE
  6
CONTINUOUS
 62
    30
 10
692.96627699999999
 20
984.43044199999997
 30
0.0
 11
682.96627699999965
 21
984.43044199999997
 31
0.0
  0
TEXT
  5
530
  8
SIZE
  6
CONTINUOUS
 62
    30
 10
774.96627685714304
 20
1095.5281379999999
 30
0.0
 40
55.0
  1
36
 41
0.9
 72
     1
 11
813.85913400000015
 21
1095.5281379999999
 31
0.0
  0
TEXT
  5
531
  8
SIZE
  6
CONTINUOUS
 62
    30
 10
782.22187599999984
 20
1002.430442
 30
0.0
 40
55.0
  1
34
 41
0.9
 72
     1
 11
823.47187599999984
 21
1002.430442
 31
0.0
  0
LINE
  5
532
  8
SIZE
  6
CONTINUOUS
 62
    30
 10
820.98427000000015
 20
1478.192865
 30
0.0
 11
720.96627699999999
 21
1478.192865
 31
0.0
  0
LINE
  5
533
  8
SIZE
  6
CONTINUOUS
 62
    30
 10
720.96627699999999
 20
1336.2830530000001
 30
0.0
 11
720.96627699999999
 21
1508.192865
 31
0.0
  0
LINE
  5
534
  8
SIZE
  6
CONTINUOUS
 62
    30
 10
716.96627699999999
 20
1394.2830530000001
 30
0.0
 11
716.96627699999999
 21
1508.192865
 31
0.0
  0
LINE
  5
535
  8
SIZE
  6
CONTINUOUS
 62
    30
 10
716.96627699999999
 20
1394.2830530000001
 30
0.0
 11
716.96627699999999
 21
1508.192865
 31
0.0
  0
POINT
  5
536
  8
DEFPOINTS
  6
CONTINUOUS
 62
     7
 10
696.96627699999999
 20
1391.2830530000001
 30
0.0
  0
POINT
  5
537
  8
DEFPOINTS
  6
CONTINUOUS
 62
     7
 10
720.96627699999999
 20
1316.2830530000001
 30
0.0
  0
POINT
  5
538
  8
DEFPOINTS
  6
CONTINUOUS
 62
     7
 10
716.96627699999999
 20
1374.2830530000001
 30
0.0
  0
POINT
  5
539
  8
DEFPOINTS
  6
CONTINUOUS
 62
     7
 10
716.96627699999999
 20
1374.2830530000001
 30
0.0
  0
POINT
  5
53A
  8
DEFPOINTS
  6
CONTINUOUS
 62
     7
 10
696.96627699999999
 20
1391.2830530000001
 30
0.0
  0
POINT
  5
53B
  8
DEFPOINTS
  6
CONTINUOUS
 62
     7
 10
720.96627699999999
 20
1316.2830530000001
 30
0.0
  0
POINT
  5
53C
  8
DEFPOINTS
  6
CONTINUOUS
 62
     7
 10
716.96627699999999
 20
1374.2830530000001
 30
0.0
  0
CIRCLE
  5
53D
  8
FIX
  6
CONTINUOUS
 62
    11
 10
743.96627699999988
 20
1285.2830530000001
 30
0.0
 40
12.421498
  0
LINE
  5
53E
  8
NOTE
  6
CONTINUOUS
 62
     4
 10
743.96627699999988
 20
1300.278219
 30
0.0
 11
743.96627699999988
 21
1270.287887
 31
0.0
  0
LINE
  5
53F
  8
NOTE
  6
CONTINUOUS
 62
     4
 10
728.97111099999984
 20
1285.2830530000001
 30
0.0
 11
758.96144299999969
 21
1285.2830530000001
 31
0.0
  0
LINE
  5
540
  8
DETAIL
  6
CONTINUOUS
 62
     5
 10
758.93694200000004
 20
1316.2830530000001
 30
0.0
 11
758.93694200000004
 21
1255.6829230000001
 31
0.0
  0
LINE
  5
541
  8
DETAIL
  6
CONTINUOUS
 62
     5
 10
720.96627699999999
 20
1291.2830530000001
 30
0.0
 11
720.96627699999999
 21
1316.2830530000001
 31
0.0
  0
LINE
  5
542
  8
DETAIL
  6
CONTINUOUS
 62
     5
 10
720.96627699999999
 20
1255.6829230000001
 30
0.0
 11
720.96627699999999
 21
1279.2830530000001
 31
0.0
  0
LINE
  5
543
  8
DETAIL
  6
CONTINUOUS
 62
     5
 10
758.93694200000004
 20
1255.6829230000001
 30
0.0
 11
720.96627699999999
 21
1255.6829230000001
 31
0.0
  0
LINE
  5
544
  8
DETAIL
  6
CONTINUOUS
 62
     5
 10
750.96627699999999
 20
1293.2830530000001
 30
0.0
 11
750.96627699999999
 21
1277.2830530000001
 31
0.0
  0
LINE
  5
545
  8
DETAIL
  6
CONTINUOUS
 62
     5
 10
736.96627699999988
 20
1291.2830530000001
 30
0.0
 11
720.96627699999999
 21
1291.2830530000001
 31
0.0
  0
LINE
  5
546
  8
DETAIL
  6
CONTINUOUS
 62
     5
 10
736.96627699999988
 20
1279.2830530000001
 30
0.0
 11
720.96627699999999
 21
1279.2830530000001
 31
0.0
  0
LINE
  5
547
  8
DETAIL
  6
CONTINUOUS
 62
     5
 10
736.96627699999988
 20
1279.2830530000001
 30
0.0
 11
736.96627699999988
 21
1277.2830530000001
 31
0.0
  0
ARC
  5
548
  8
DETAIL
  6
CONTINUOUS
 62
     5
 10
743.96627699999988
 20
1293.2830530000001
 30
0.0
 40
7.0
 50
0.0
 51
180.0
  0
ARC
  5
549
  8
DETAIL
  6
CONTINUOUS
 62
     5
 10
743.96627699999988
 20
1277.2830530000001
 30
0.0
 40
7.0
 50
180.0
 51
0.0
  0
LINE
  5
54A
  8
DETAIL
  6
CONTINUOUS
 62
     5
 10
736.96627699999988
 20
1293.2830530000001
 30
0.0
 11
736.96627699999988
 21
1291.2830530000001
 31
0.0
  0
LINE
  5
54B
  8
DETAIL
  6
CONTINUOUS
 62
     5
 10
736.96627699999988
 20
1293.2830530000001
 30
0.0
 11
736.96627699999988
 21
1291.2830530000001
 31
0.0
  0
ARC
  5
54C
  8
DETAIL
  6
CONTINUOUS
 62
     5
 10
743.96627699999988
 20
1277.2830530000001
 30
0.0
 40
7.0
 50
180.0
 51
0.0
  0
ARC
  5
54D
  8
DETAIL
  6
CONTINUOUS
 62
     5
 10
743.96627699999988
 20
1293.2830530000001
 30
0.0
 40
7.0
 50
0.0
 51
180.0
  0
LINE
  5
54E
  8
DETAIL
  6
CONTINUOUS
 62
     5
 10
736.96627699999988
 20
1279.2830530000001
 30
0.0
 11
736.96627699999988
 21
1277.2830530000001
 31
0.0
  0
LINE
  5
54F
  8
DETAIL
  6
CONTINUOUS
 62
     5
 10
736.96627699999988
 20
1255.6829230000001
 30
0.0
 11
721.16627699999981
 21
1255.6829230000001
 31
0.0
  0
LINE
  5
550
  8
DETAIL
  6
CONTINUOUS
 62
     5
 10
736.96627699999988
 20
1279.2830530000001
 30
0.0
 11
720.96627699999999
 21
1279.2830530000001
 31
0.0
  0
LINE
  5
551
  8
DETAIL
  6
CONTINUOUS
 62
     5
 10
736.96627699999988
 20
1291.2830530000001
 30
0.0
 11
720.96627699999999
 21
1291.2830530000001
 31
0.0
  0
LINE
  5
552
  8
DETAIL
  6
CONTINUOUS
 62
     5
 10
750.96627699999999
 20
1293.2830530000001
 30
0.0
 11
750.96627699999999
 21
1277.2830530000001
 31
0.0
  0
TEXT
  5
553
  8
SIZE
  6
CONTINUOUS
 62
    30
 10
578.82341942857136
 20
1496.192865
 30
0.0
 40
55.0
  1
20
 41
0.9
 72
     1
 11
618.89484800000002
 21
1496.192865
 31
0.0
  0
LINE
  5
554
  8
SIZE
  6
CONTINUOUS
 62
    30
 10
686.96627699999965
 20
1478.192865
 30
0.0
 11
560.82342000000006
 21
1478.192865
 31
0.0
  0
POINT
  5
555
  8
DEFPOINTS
  6
CONTINUOUS
 62
     7
 10
720.96627699999999
 20
1478.192865
 30
0.0
  0
LINE
  5
556
  8
SIZE
  6
CONTINUOUS
 62
    30
 10
725.96627699999999
 20
1478.192865
 30
0.0
 11
730.96627699999999
 21
1478.192865
 31
0.0
  0
CIRCLE
  5
557
  8
SIZE
  6
CONTINUOUS
 62
    30
 10
720.96627699999999
 20
1478.192865
 30
0.0
 40
5.0
  0
LINE
  5
558
  8
SIZE
  6
CONTINUOUS
 62
    30
 10
711.96627699999965
 20
1478.192865
 30
0.0
 11
706.96627699999965
 21
1478.192865
 31
0.0
  0
CIRCLE
  5
559
  8
SIZE
  6
CONTINUOUS
 62
    30
 10
716.96627699999999
 20
1478.192865
 30
0.0
 40
5.0
  0
LINE
  5
55A
  8
SIZE
  6
CONTINUOUS
 62
    30
 10
716.96627699999999
 20
1478.192865
 30
0.0
 11
720.96627699999999
 21
1478.192865
 31
0.0
  0
LINE
  5
55B
  8
SIZE
  6
CONTINUOUS
 62
    30
 10
716.96627699999999
 20
1478.192865
 30
0.0
 11
720.96627699999999
 21
1478.192865
 31
0.0
  0
LINE
  5
55C
  8
SIZE
  6
CONTINUOUS
 62
    30
 10
730.96627699999999
 20
1478.192865
 30
0.0
 11
740.96627699999988
 21
1478.192865
 31
0.0
  0
LINE
  5
55D
  8
SIZE
  6
CONTINUOUS
 62
    30
 10
706.96627699999965
 20
1478.192865
 30
0.0
 11
696.96627699999999
 21
1478.192865
 31
0.0
  0
POINT
  5
55E
  8
DEFPOINTS
  6
CONTINUOUS
 62
     7
 10
716.96627699999999
 20
1478.192865
 30
0.0
  0
LINE
  5
55F
  8
SIZE
  6
CONTINUOUS
 62
    30
 10
691.96627699999999
 20
1478.192865
 30
0.0
 11
686.96627699999965
 21
1478.192865
 31
0.0
  0
CIRCLE
  5
560
  8
SIZE
  6
CONTINUOUS
 62
    30
 10
696.96627699999999
 20
1478.192865
 30
0.0
 40
5.0
  0
LINE
  5
561
  8
SIZE
  6
CONTINUOUS
 62
    30
 10
721.96627699999999
 20
1478.192865
 30
0.0
 11
726.96627699999999
 21
1478.192865
 31
0.0
  0
CIRCLE
  5
562
  8
SIZE
  6
CONTINUOUS
 62
    30
 10
716.96627699999999
 20
1478.192865
 30
0.0
 40
5.0
  0
LINE
  5
563
  8
SIZE
  6
CONTINUOUS
 62
    30
 10
716.96627699999999
 20
1478.192865
 30
0.0
 11
696.96627699999999
 21
1478.192865
 31
0.0
  0
LINE
  5
564
  8
SIZE
  6
CONTINUOUS
 62
    30
 10
726.96627699999999
 20
1478.192865
 30
0.0
 11
736.96627699999988
 21
1478.192865
 31
0.0
  0
LINE
  5
565
  8
SIZE
  6
CONTINUOUS
 62
    30
 10
696.96627699999999
 20
1411.2830530000001
 30
0.0
 11
696.96627699999999
 21
1508.192865
 31
0.0
  0
LINE
  5
566
  8
DETAIL
  6
CONTINUOUS
 62
     5
 10
766.96627699999999
 20
1302.2830530000001
 30
0.0
 11
769.96627699999988
 21
1299.2830530000001
 31
0.0
  0
LINE
  5
567
  8
DETAIL
  6
CONTINUOUS
 62
     5
 10
766.96627699999999
 20
1302.2830530000001
 30
0.0
 11
766.96627699999999
 21
1316.2830530000001
 31
0.0
  0
LINE
  5
568
  8
DETAIL
  6
CONTINUOUS
 62
     5
 10
766.96627699999999
 20
1302.2830530000001
 30
0.0
 11
766.96627699999999
 21
1316.2830530000001
 31
0.0
  0
LINE
  5
569
  8
DETAIL
  6
CONTINUOUS
 62
     5
 10
766.96627699999999
 20
1302.2830530000001
 30
0.0
 11
769.96627699999988
 21
1299.2830530000001
 31
0.0
  0
TEXT
  5
56A
  8
SIZE
  6
CONTINUOUS
 62
    30
 10
767.62712757142845
 20
1496.192865
 30
0.0
 40
55.0
  1
4
 41
0.9
 72
     1
 11
785.30569899999989
 21
1496.192865
 31
0.0
  0
LINE
  5
56B
  8
SIZE
  6
CONTINUOUS
 62
    30
 10
721.96627699999999
 20
1584.3052049999999
 30
0.0
 11
726.96627699999999
 21
1584.3052049999999
 31
0.0
  0
CIRCLE
  5
56C
  8
SIZE
  6
CONTINUOUS
 62
    30
 10
716.96627699999999
 20
1584.3052049999999
 30
0.0
 40
5.0
  0
LINE
  5
56D
  8
SIZE
  6
CONTINUOUS
 62
    30
 10
701.96627699999999
 20
1722.5864979999999
 30
0.0
 11
706.96627699999965
 21
1722.5864979999999
 31
0.0
  0
CIRCLE
  5
56E
  8
SIZE
  6
CONTINUOUS
 62
    30
 10
696.96627699999999
 20
1722.5864979999999
 30
0.0
 40
5.0
  0
LINE
  5
56F
  8
BASIS
  6
DASHDOT
 62
     6
 10
1316.966277
 20
1418.7830530000001
 30
0.0
 11
1316.966277
 21
428.783053
 31
0.0
  0
CIRCLE
  5
570
  8
ARRANGE
  6
CONTINUOUS
 62
     1
 10
1316.966277
 20
948.78305299999965
 30
0.0
 40
50.0
  0
LINE
  5
571
  8
SIZE
  6
CONTINUOUS
 62
    30
 10
2192.3339430000001
 20
1275.2830530000001
 30
0.0
 11
2192.3339430000001
 21
625.28305299999965
 31
0.0
  0
TEXT
  5
572
  8
SIZE
  6
CONTINUOUS
 62
    30
 10
2178.0597269999998
 20
815.49822299999983
 30
0.0
 40
60.0
  1
(吊りボルトピッチ)
 50
90.000003000000007
 41
0.7
  7
STANDARD1
  0
LINE
  5
573
  8
SIZE
  6
CONTINUOUS
 62
    30
 10
2660.0314990000002
 20
801.283053
 30
0.0
 11
2660.0314990000002
 21
1381.2830530000001
 31
0.0
  0
TEXT
  5
574
  8
SIZE
  6
CONTINUOUS
 62
    30
 10
2490.2993660000002
 20
817.6187672857144
 30
0.0
 40
55.0
  1
566(天井開口寸法)
 50
90.0
 41
0.9
 72
     1
 11
2490.2993660000002
 21
1091.2830530000001
 31
0.0
  0
LINE
  5
575
  8
SIZE
  6
CONTINUOUS
 62
    30
 10
2506.7041280000012
 20
818.283053
 30
0.0
 11
2506.7041280000012
 21
1364.2830530000001
 31
0.0
  0
LINE
  5
576
  8
DETAIL
  6
CONTINUOUS
 62
     5
 10
1936.966277
 20
1391.2830530000001
 30
0.0
 11
1936.966277
 21
791.28305299999988
 31
0.0
  0
LINE
  5
577
  8
OUTLINE
  6
CONTINUOUS
 62
     3
 10
1936.966277
 20
1391.2830530000001
 30
0.0
 11
1936.966277
 21
791.28305299999988
 31
0.0
  0
LINE
  5
578
  8
OUTLINE
  6
CONTINUOUS
 62
     3
 10
1896.966277
 20
581.283053
 30
0.0
 11
1896.966277
 21
1316.2830530000001
 31
0.0
  0
LINE
  5
579
  8
SERVICESPACE
  6
CONTINUOUS
 62
     2
 10
1916.966277
 20
808.283053
 30
0.0
 11
1916.966277
 21
1374.2830530000001
 31
0.0
  0
LINE
  5
57A
  8
ARRANGE
  6
CONTINUOUS
 62
     1
 10
1366.93004
 20
998.37964799999997
 30
0.0
 11
1267.002514
 21
899.1864579999999
 31
0.0
  0
LINE
  5
57B
  8
ARRANGE
  6
CONTINUOUS
 62
     1
 10
1367.0036270000001
 20
899.26070000000016
 30
0.0
 11
1266.9289269999999
 21
998.30540599999983
 31
0.0
  0
LINE
  5
57C
  8
DETAIL
  6
CONTINUOUS
 62
     5
 10
1896.966277
 20
641.88318300000003
 30
0.0
 11
1896.966277
 21
1255.6829230000001
 31
0.0
  0
LINE
  5
57D
  8
SIZE
  6
CONTINUOUS
 62
    30
 10
1884.966277
 20
131.93030300000001
 30
0.0
 11
1879.966277
 21
131.93030300000001
 31
0.0
  0
LINE
  5
57E
  8
SIZE
  6
CONTINUOUS
 62
    30
 10
1884.966277
 20
131.93030300000001
 30
0.0
 11
1879.966277
 21
131.93030300000001
 31
0.0
  0
LINE
  5
57F
  8
SIZE
  6
CONTINUOUS
 62
    30
 10
1886.966277
 20
245.65930299999999
 30
0.0
 11
1876.966277
 21
245.65930299999999
 31
0.0
  0
LINE
  5
580
  8
SIZE
  6
CONTINUOUS
 62
    30
 10
1886.966277
 20
380.415772
 30
0.0
 11
1676.966277
 21
380.415772
 31
0.0
  0
CIRCLE
  5
581
  8
FIX
  6
CONTINUOUS
 62
    11
 10
1889.966277
 20
615.283053
 30
0.0
 40
12.421498
  0
LINE
  5
582
  8
NOTE
  6
CONTINUOUS
 62
     4
 10
1874.9711110000001
 20
615.283053
 30
0.0
 11
1904.9614429999999
 21
615.283053
 31
0.0
  0
LINE
  5
583
  8
DETAIL
  6
CONTINUOUS
 62
     5
 10
1874.9956119999999
 20
641.88318300000003
 30
0.0
 11
1912.966277
 21
641.88318300000003
 31
0.0
  0
ARC
  5
584
  8
DETAIL
  6
CONTINUOUS
 62
     5
 10
1889.966277
 20
607.283053
 30
0.0
 40
7.0
 50
180.0
 51
0.0
  0
ARC
  5
585
  8
DETAIL
  6
CONTINUOUS
 62
     5
 10
1889.966277
 20
623.283053
 30
0.0
 40
7.0
 50
0.0
 51
180.0
  0
ARC
  5
586
  8
DETAIL
  6
CONTINUOUS
 62
     5
 10
1889.966277
 20
623.283053
 30
0.0
 40
7.0
 50
0.0
 51
180.0
  0
ARC
  5
587
  8
DETAIL
  6
CONTINUOUS
 62
     5
 10
1889.966277
 20
607.283053
 30
0.0
 40
7.0
 50
180.0
 51
0.0
  0
TEXT
  5
588
  8
SIZE
  6
CONTINUOUS
 62
    30
 10
1240.217570714286
 20
48.000008000000001
 30
0.0
 40
55.0
  1
1192
 41
0.9
 72
     1
 11
1318.003285
 21
48.000008000000001
 31
0.0
  0
TEXT
  5
589
  8
SIZE
  6
CONTINUOUS
 62
    30
 10
1239.180562714286
 20
263.65930300000002
 30
0.0
 40
55.0
  1
1160
 41
0.9
 72
     1
 11
1316.966277
 21
263.65930300000002
 31
0.0
  0
LINE
  5
58A
  8
SIZE
  6
CONTINUOUS
 62
    30
 10
1879.966277
 20
131.93030300000001
 30
0.0
 11
1869.966277
 21
131.93030300000001
 31
0.0
  0
LINE
  5
58B
  8
SIZE
  6
CONTINUOUS
 62
    30
 10
1656.966277
 20
380.415772
 30
0.0
 11
1356.966277
 21
380.415772
 31
0.0
  0
TEXT
  5
58C
  8
NOTE
  6
CONTINUOUS
 62
     4
 10
1136.090318
 20
715.52307699999994
 30
0.0
 40
60.0
  1
%%C200 吹出円形フランジ
 50
0.000003
 41
0.7
  7
STANDARD1
  0
LINE
  5
58D
  8
NOTE
  6
CONTINUOUS
 62
     4
 10
1714.0340100000001
 20
700.72740999999996
 30
0.0
 11
1114.768926
 21
700.72740999999996
 31
0.0
  0
LINE
  5
58E
  8
DETAIL
  6
CONTINUOUS
 62
     5
 10
1446.966277
 20
551.283053
 30
0.0
 11
1246.6631259999999
 21
551.283053
 31
0.0
  0
LINE
  5
58F
  8
DETAIL
  6
CONTINUOUS
 62
     5
 10
1444.466277
 20
511.283053
 30
0.0
 11
1249.466277
 21
511.283053
 31
0.0
  0
LINE
  5
590
  8
NOTE
  6
CONTINUOUS
 62
     4
 10
1114.768926
 20
700.72740999999996
 30
0.0
 11
1026.966277
 21
511.283053
 31
0.0
  0
TEXT
  5
591
  8
SIZE
  6
CONTINUOUS
 62
    30
 10
1123.3234198571431
 20
398.415772
 30
0.0
 40
55.0
  1
320
 41
0.9
 72
     1
 11
1186.966277
 21
398.415772
 31
0.0
  0
LINE
  5
592
  8
SIZE
  6
CONTINUOUS
 62
    30
 10
1336.966277
 20
380.415772
 30
0.0
 11
1036.966277
 21
380.415772
 31
0.0
  0
ARC
  5
593
  8
DETAIL
  6
CONTINUOUS
 62
     5
 10
1194.2275299999999
 20
466.32056399999999
 30
0.0
 40
100.0
 50
58.772114000000002
 51
94.164056000000002
  0
LINE
  5
594
  8
NOTE
  6
CONTINUOUS
 62
     4
 10
1026.966277
 20
583.22756800000002
 30
0.0
 11
1026.966277
 21
439.3385379999998
 31
0.0
  0
POINT
  5
595
  8
DEFPOINTS
  6
CONTINUOUS
 62
     7
 10
1026.966277
 20
380.415772
 30
0.0
  0
POINT
  5
596
  8
DEFPOINTS
  6
CONTINUOUS
 62
     7
 10
1026.966277
 20
441.33853800000003
 30
0.0
  0
LINE
  5
597
  8
SIZE
  6
CONTINUOUS
 62
    30
 10
1031.966277
 20
380.415772
 30
0.0
 11
1036.966277
 21
380.415772
 31
0.0
  0
CIRCLE
  5
598
  8
SIZE
  6
CONTINUOUS
 62
    30
 10
1026.966277
 20
380.415772
 30
0.0
 40
5.0
  0
LINE
  5
599
  8
SIZE
  6
CONTINUOUS
 62
    30
 10
1026.966277
 20
421.33853800000003
 30
0.0
 11
1026.966277
 21
350.415772
 31
0.0
  0
LINE
  5
59A
  8
NOTE
  6
CONTINUOUS
 62
     4
 10
1026.966277
 20
511.283053
 30
0.0
 11
1034.3918590000001
 21
544.85700699999995
 31
0.0
  0
LINE
  5
59B
  8
NOTE
  6
CONTINUOUS
 62
     4
 10
1026.966277
 20
511.283053
 30
0.0
 11
1050.1839970000001
 21
536.64615900000001
 31
0.0
  0
LINE
  5
59C
  8
DETAIL
  6
CONTINUOUS
 62
     5
 10
1124.466277
 20
511.283053
 30
0.0
 11
1126.90148
 21
550.24630000000002
 31
0.0
  0
ARC
  5
59D
  8
DETAIL
  6
CONTINUOUS
 62
     5
 10
1179.7050240000001
 20
466.32056399999999
 30
0.0
 40
100.0
 50
85.835943999999998
 51
121.227886
  0
ARC
  5
59E
  8
DETAIL
  6
CONTINUOUS
 62
     5
 10
1128.8975849999999
 20
550.12154299999997
 30
0.0
 40
2.0
 50
121.227886
 51
176.423666
  0
LINE
  5
59F
  8
NOTE
  6
CONTINUOUS
 62
     4
 10
1346.966277
 20
583.22756800000002
 30
0.0
 11
1346.966277
 21
439.3385379999998
 31
0.0
  0
POINT
  5
5A0
  8
DEFPOINTS
  6
CONTINUOUS
 62
     7
 10
1346.966277
 20
441.33853800000003
 30
0.0
  0
LINE
  5
5A1
  8
SIZE
  6
CONTINUOUS
 62
    30
 10
1341.966277
 20
380.415772
 30
0.0
 11
1336.966277
 21
380.415772
 31
0.0
  0
CIRCLE
  5
5A2
  8
SIZE
  6
CONTINUOUS
 62
    30
 10
1346.966277
 20
380.415772
 30
0.0
 40
5.0
  0
LINE
  5
5A3
  8
SIZE
  6
CONTINUOUS
 62
    30
 10
1346.966277
 20
421.33853800000003
 30
0.0
 11
1346.966277
 21
350.415772
 31
0.0
  0
POINT
  5
5A4
  8
DEFPOINTS
  6
CONTINUOUS
 62
     7
 10
1346.966277
 20
380.415772
 30
0.0
  0
POINT
  5
5A5
  8
DEFPOINTS
  6
CONTINUOUS
 62
     7
 10
1346.966277
 20
441.33853800000003
 30
0.0
  0
LINE
  5
5A6
  8
SIZE
  6
CONTINUOUS
 62
    30
 10
1351.966277
 20
380.415772
 30
0.0
 11
1356.966277
 21
380.415772
 31
0.0
  0
CIRCLE
  5
5A7
  8
SIZE
  6
CONTINUOUS
 62
    30
 10
1346.966277
 20
380.415772
 30
0.0
 40
5.0
  0
LINE
  5
5A8
  8
SIZE
  6
CONTINUOUS
 62
    30
 10
1346.966277
 20
421.33853800000003
 30
0.0
 11
1346.966277
 21
350.415772
 31
0.0
  0
LINE
  5
5A9
  8
NOTE
  6
CONTINUOUS
 62
     4
 10
1275.0217620000001
 20
511.283053
 30
0.0
 11
1418.9107919999999
 21
511.283053
 31
0.0
  0
ARC
  5
5AA
  8
DETAIL
  6
CONTINUOUS
 62
     5
 10
1245.034969
 20
550.12154299999997
 30
0.0
 40
2.0
 50
3.5763339999999948
 51
58.772114000000002
  0
LINE
  5
5AB
  8
DETAIL
  6
CONTINUOUS
 62
     5
 10
1249.466277
 20
511.283053
 30
0.0
 11
1247.031074
 21
550.24630000000002
 31
0.0
  0
LINE
  5
5AC
  8
DETAIL
  6
CONTINUOUS
 62
     5
 10
1874.9956119999999
 20
581.283053
 30
0.0
 11
1874.9956119999999
 21
641.88318300000003
 31
0.0
  0
LINE
  5
5AD
  8
SIZE
  6
CONTINUOUS
 62
    30
 10
1661.966277
 20
380.415772
 30
0.0
 11
1656.966277
 21
380.415772
 31
0.0
  0
LINE
  5
5AE
  8
NOTE
  6
CONTINUOUS
 62
     4
 10
1595.0217620000001
 20
511.283053
 30
0.0
 11
1738.9107919999999
 21
511.283053
 31
0.0
  0
LINE
  5
5AF
  8
DETAIL
  6
CONTINUOUS
 62
     5
 10
1764.466277
 20
511.283053
 30
0.0
 11
1569.466277
 21
511.283053
 31
0.0
  0
LINE
  5
5B0
  8
DETAIL
  6
CONTINUOUS
 62
     5
 10
1766.966277
 20
551.283053
 30
0.0
 11
1566.9569409999999
 21
551.283053
 31
0.0
  0
TEXT
  5
5B1
  8
SIZE
  6
CONTINUOUS
 62
    30
 10
1443.3234198571431
 20
398.415772
 30
0.0
 40
55.0
  1
320
 41
0.9
 72
     1
 11
1506.966277
 21
398.415772
 31
0.0
  0
ARC
  5
5B2
  8
DETAIL
  6
CONTINUOUS
 62
     5
 10
1513.859582
 20
467.35731700000002
 30
0.0
 40
100.0
 50
58.556399999999996
 51
94.164056000000002
  0
ARC
  5
5B3
  8
DETAIL
  6
CONTINUOUS
 62
     5
 10
1448.979319
 20
551.42928800000004
 30
0.0
 40
2.0
 50
120.920929
 51
176.423666
  0
LINE
  5
5B4
  8
DETAIL
  6
CONTINUOUS
 62
     5
 10
1444.466277
 20
511.283053
 30
0.0
 11
1446.9832140000001
 21
551.55404499999986
 31
0.0
  0
ARC
  5
5B5
  8
DETAIL
  6
CONTINUOUS
 62
     5
 10
1499.337076
 20
467.35731700000002
 30
0.0
 40
100.0
 50
85.835943999999998
 51
120.920929
  0
ARC
  5
5B6
  8
DETAIL
  6
CONTINUOUS
 62
     5
 10
1564.982164
 20
550.96641699999986
 30
0.0
 40
2.0
 50
3.5763339999999948
 51
58.556399999999996
  0
LINE
  5
5B7
  8
DETAIL
  6
CONTINUOUS
 62
     5
 10
1569.466277
 20
511.283053
 30
0.0
 11
1566.978269
 21
551.09117300000003
 31
0.0
  0
LINE
  5
5B8
  8
NOTE
  6
CONTINUOUS
 62
     4
 10
1666.966277
 20
583.22756800000002
 30
0.0
 11
1666.966277
 21
439.3385379999998
 31
0.0
  0
TEXT
  5
5B9
  8
SIZE
  6
CONTINUOUS
 62
    30
 10
1718.3234198571431
 20
398.415772
 30
0.0
 40
55.0
  1
230
 41
0.9
 72
     1
 11
1781.966277
 21
398.415772
 31
0.0
  0
POINT
  5
5BA
  8
DEFPOINTS
  6
CONTINUOUS
 62
     7
 10
1666.966277
 20
441.33853800000003
 30
0.0
  0
CIRCLE
  5
5BB
  8
SIZE
  6
CONTINUOUS
 62
    30
 10
1666.966277
 20
380.415772
 30
0.0
 40
5.0
  0
LINE
  5
5BC
  8
SIZE
  6
CONTINUOUS
 62
    30
 10
1666.966277
 20
421.33853800000003
 30
0.0
 11
1666.966277
 21
350.415772
 31
0.0
  0
POINT
  5
5BD
  8
DEFPOINTS
  6
CONTINUOUS
 62
     7
 10
1666.966277
 20
380.415772
 30
0.0
  0
POINT
  5
5BE
  8
DEFPOINTS
  6
CONTINUOUS
 62
     7
 10
1666.966277
 20
441.33853800000003
 30
0.0
  0
LINE
  5
5BF
  8
SIZE
  6
CONTINUOUS
 62
    30
 10
1671.966277
 20
380.415772
 30
0.0
 11
1676.966277
 21
380.415772
 31
0.0
  0
CIRCLE
  5
5C0
  8
SIZE
  6
CONTINUOUS
 62
    30
 10
1666.966277
 20
380.415772
 30
0.0
 40
5.0
  0
LINE
  5
5C1
  8
SIZE
  6
CONTINUOUS
 62
    30
 10
1666.966277
 20
421.33853800000003
 30
0.0
 11
1666.966277
 21
350.415772
 31
0.0
  0
ARC
  5
5C2
  8
DETAIL
  6
CONTINUOUS
 62
     5
 10
1776.966277
 20
551.283053
 30
0.0
 40
10.0
 50
93.959233999999995
 51
180.0
  0
LINE
  5
5C3
  8
DETAIL
  6
CONTINUOUS
 62
     5
 10
1764.466277
 20
511.283053
 30
0.0
 11
1766.966277
 21
551.283053
 31
0.0
  0
LINE
  5
5C4
  8
DETAIL
  6
CONTINUOUS
 62
     5
 10
1882.966277
 20
607.283053
 30
0.0
 11
1882.966277
 21
623.283053
 31
0.0
  0
LINE
  5
5C5
  8
DETAIL
  6
CONTINUOUS
 62
     5
 10
1882.966277
 20
607.283053
 30
0.0
 11
1882.966277
 21
623.283053
 31
0.0
  0
ARC
  5
5C6
  8
DETAIL
  6
CONTINUOUS
 62
     5
 10
1860.966277
 20
575.28305299999965
 30
0.0
 40
4.0
 50
270.0
 51
0.0
  0
LINE
  5
5C7
  8
DETAIL
  6
CONTINUOUS
 62
     5
 10
1864.966277
 20
581.283053
 30
0.0
 11
1864.966277
 21
575.28305299999965
 31
0.0
  0
LINE
  5
5C8
  8
DETAIL
  6
CONTINUOUS
 62
     5
 10
1776.2758100000001
 20
561.259187
 30
0.0
 11
1860.966277
 21
571.28305299999965
 31
0.0
  0
LINE
  5
5C9
  8
SIZE
  6
CONTINUOUS
 62
    30
 10
1912.966277
 20
561.283053
 30
0.0
 11
1912.966277
 21
101.93030299999999
 31
0.0
  0
LINE
  5
5CA
  8
SIZE
  6
CONTINUOUS
 62
    30
 10
1889.966277
 20
580.28788699999996
 30
0.0
 11
1889.966277
 21
101.93030299999999
 31
0.0
  0
LINE
  5
5CB
  8
SIZE
  6
CONTINUOUS
 62
    30
 10
1889.966277
 20
580.28788699999996
 30
0.0
 11
1889.966277
 21
101.93030299999999
 31
0.0
  0
LINE
  5
5CC
  8
SIZE
  6
CONTINUOUS
 62
    30
 10
1912.966277
 20
561.283053
 30
0.0
 11
1912.966277
 21
215.65930299999999
 31
0.0
  0
LINE
  5
5CD
  8
SIZE
  6
CONTINUOUS
 62
    30
 10
1896.966277
 20
621.88318300000003
 30
0.0
 11
1896.966277
 21
215.65930299999999
 31
0.0
  0
LINE
  5
5CE
  8
SIZE
  6
CONTINUOUS
 62
    30
 10
1896.966277
 20
621.88318300000003
 30
0.0
 11
1896.966277
 21
215.65930299999999
 31
0.0
  0
LINE
  5
5CF
  8
SIZE
  6
CONTINUOUS
 62
    30
 10
1912.966277
 20
561.283053
 30
0.0
 11
1912.966277
 21
0.000008
 31
0.0
  0
CIRCLE
  5
5D0
  8
SIZE
  6
CONTINUOUS
 62
    30
 10
1912.966277
 20
30.000008000000001
 30
0.0
 40
5.0
  0
TEXT
  5
5D1
  8
SIZE
  6
CONTINUOUS
 62
    30
 10
1954.6461274285709
 20
149.93030300000001
 30
0.0
 40
55.0
  1
23
 41
0.9
 72
     1
 11
1994.7175560000001
 21
149.93030300000001
 31
0.0
  0
LINE
  5
5D2
  8
SIZE
  6
CONTINUOUS
 62
    30
 10
2052.7889850000001
 20
131.93030300000001
 30
0.0
 11
1912.966277
 21
131.93030300000001
 31
0.0
  0
POINT
  5
5D3
  8
DEFPOINTS
  6
CONTINUOUS
 62
     7
 10
1912.966277
 20
131.93030300000001
 30
0.0
  0
LINE
  5
5D4
  8
SIZE
  6
CONTINUOUS
 62
    30
 10
1917.966277
 20
131.93030300000001
 30
0.0
 11
1922.966277
 21
131.93030300000001
 31
0.0
  0
CIRCLE
  5
5D5
  8
SIZE
  6
CONTINUOUS
 62
    30
 10
1912.966277
 20
131.93030300000001
 30
0.0
 40
5.0
  0
CIRCLE
  5
5D6
  8
SIZE
  6
CONTINUOUS
 62
    30
 10
1889.966277
 20
131.93030300000001
 30
0.0
 40
5.0
  0
LINE
  5
5D7
  8
SIZE
  6
CONTINUOUS
 62
    30
 10
1889.966277
 20
131.93030300000001
 30
0.0
 11
1912.966277
 21
131.93030300000001
 31
0.0
  0
LINE
  5
5D8
  8
SIZE
  6
CONTINUOUS
 62
    30
 10
1889.966277
 20
131.93030300000001
 30
0.0
 11
1912.966277
 21
131.93030300000001
 31
0.0
  0
LINE
  5
5D9
  8
SIZE
  6
CONTINUOUS
 62
    30
 10
1922.966277
 20
131.93030300000001
 30
0.0
 11
1932.966277
 21
131.93030300000001
 31
0.0
  0
POINT
  5
5DA
  8
DEFPOINTS
  6
CONTINUOUS
 62
     7
 10
1889.966277
 20
131.93030300000001
 30
0.0
  0
CIRCLE
  5
5DB
  8
SIZE
  6
CONTINUOUS
 62
    30
 10
1889.966277
 20
131.93030300000001
 30
0.0
 40
5.0
  0
POINT
  5
5DC
  8
DEFPOINTS
  6
CONTINUOUS
 62
     7
 10
1912.966277
 20
30.000008000000001
 30
0.0
  0
LINE
  5
5DD
  8
SIZE
  6
CONTINUOUS
 62
    30
 10
1907.966277
 20
30.000008000000001
 30
0.0
 11
1902.966277
 21
30.000008000000001
 31
0.0
  0
TEXT
  5
5DE
  8
SIZE
  6
CONTINUOUS
 62
    30
 10
1953.069990571428
 20
263.65930300000002
 30
0.0
 40
55.0
  1
16
 41
0.9
 72
     1
 11
1987.248562
 21
263.65930300000002
 31
0.0
  0
LINE
  5
5DF
  8
SIZE
  6
CONTINUOUS
 62
    30
 10
2039.427134
 20
245.65930299999999
 30
0.0
 11
1912.966277
 21
245.65930299999999
 31
0.0
  0
POINT
  5
5E0
  8
DEFPOINTS
  6
CONTINUOUS
 62
     7
 10
1912.966277
 20
245.65930299999999
 30
0.0
  0
LINE
  5
5E1
  8
SIZE
  6
CONTINUOUS
 62
    30
 10
1917.966277
 20
245.65930299999999
 30
0.0
 11
1922.966277
 21
245.65930299999999
 31
0.0
  0
CIRCLE
  5
5E2
  8
SIZE
  6
CONTINUOUS
 62
    30
 10
1912.966277
 20
245.65930299999999
 30
0.0
 40
5.0
  0
LINE
  5
5E3
  8
SIZE
  6
CONTINUOUS
 62
    30
 10
1891.966277
 20
245.65930299999999
 30
0.0
 11
1886.966277
 21
245.65930299999999
 31
0.0
  0
CIRCLE
  5
5E4
  8
SIZE
  6
CONTINUOUS
 62
    30
 10
1896.966277
 20
245.65930299999999
 30
0.0
 40
5.0
  0
LINE
  5
5E5
  8
SIZE
  6
CONTINUOUS
 62
    30
 10
1896.966277
 20
245.65930299999999
 30
0.0
 11
1912.966277
 21
245.65930299999999
 31
0.0
  0
LINE
  5
5E6
  8
SIZE
  6
CONTINUOUS
 62
    30
 10
1896.966277
 20
245.65930299999999
 30
0.0
 11
1912.966277
 21
245.65930299999999
 31
0.0
  0
LINE
  5
5E7
  8
SIZE
  6
CONTINUOUS
 62
    30
 10
1922.966277
 20
245.65930299999999
 30
0.0
 11
1932.966277
 21
245.65930299999999
 31
0.0
  0
POINT
  5
5E8
  8
DEFPOINTS
  6
CONTINUOUS
 62
     7
 10
1896.966277
 20
245.65930299999999
 30
0.0
  0
LINE
  5
5E9
  8
SIZE
  6
CONTINUOUS
 62
    30
 10
1891.966277
 20
245.65930299999999
 30
0.0
 11
1886.966277
 21
245.65930299999999
 31
0.0
  0
CIRCLE
  5
5EA
  8
SIZE
  6
CONTINUOUS
 62
    30
 10
1896.966277
 20
245.65930299999999
 30
0.0
 40
5.0
  0
LINE
  5
5EB
  8
SIZE
  6
CONTINUOUS
 62
    30
 10
1956.966277
 20
791.28305299999988
 30
0.0
 11
2690.0314990000002
 21
791.28305299999988
 31
0.0
  0
LINE
  5
5EC
  8
SIZE
  6
CONTINUOUS
 62
    30
 10
1956.966277
 20
791.28305299999988
 30
0.0
 11
2690.0314990000002
 21
791.28305299999988
 31
0.0
  0
LINE
  5
5ED
  8
SIZE
  6
CONTINUOUS
 62
    30
 10
1932.966277
 20
581.283053
 30
0.0
 11
2690.0314990000002
 21
581.283053
 31
0.0
  0
LINE
  5
5EE
  8
SIZE
  6
CONTINUOUS
 62
    30
 10
1936.966277
 20
808.283053
 30
0.0
 11
2536.7041279999999
 21
808.283053
 31
0.0
  0
LINE
  5
5EF
  8
SIZE
  6
CONTINUOUS
 62
    30
 10
1936.966277
 20
808.283053
 30
0.0
 11
2536.7041279999999
 21
808.283053
 31
0.0
  0
LINE
  5
5F0
  8
SIZE
  6
CONTINUOUS
 62
    30
 10
1932.966277
 20
581.283053
 30
0.0
 11
2536.7041279999999
 21
581.283053
 31
0.0
  0
LINE
  5
5F1
  8
NOTE
  6
CONTINUOUS
 62
     4
 10
2731.7860980000009
 20
364.15106900000001
 30
0.0
 11
2025.899062
 21
364.15106900000001
 31
0.0
  0
TEXT
  5
5F2
  8
NOTE
  6
CONTINUOUS
 62
     4
 10
2040.4467609999999
 20
379.9776
 30
0.0
 40
60.0
  1
AH 4-14×30長穴(M10)
 50
0.000003
 41
0.7
  7
STANDARD1
  0
TEXT
  5
5F3
  8
SIZE
  6
CONTINUOUS
 62
    30
 10
2178.8584700000001
 20
637.91556285714307
 30
0.0
 40
55.0
  1
670
 50
90.0
 41
0.9
 72
     1
 11
2178.8584700000001
 21
701.55842000000007
 31
0.0
  0
LINE
  5
5F4
  8
DETAIL
  6
CONTINUOUS
 62
     5
 10
1912.966277
 20
641.88318300000003
 30
0.0
 11
1912.966277
 21
621.28305299999965
 31
0.0
  0
LINE
  5
5F5
  8
SIZE
  6
CONTINUOUS
 62
    30
 10
1924.9614429999999
 20
615.283053
 30
0.0
 11
2222.3339430000001
 21
615.283053
 31
0.0
  0
LINE
  5
5F6
  8
NOTE
  6
CONTINUOUS
 62
     4
 10
2025.899062
 20
364.15106900000001
 30
0.0
 11
1889.966277
 21
615.283053
 31
0.0
  0
LINE
  5
5F7
  8
SIZE
  6
CONTINUOUS
 62
    30
 10
1896.966277
 20
561.283053
 30
0.0
 11
1896.966277
 21
350.415772
 31
0.0
  0
LINE
  5
5F8
  8
SIZE
  6
CONTINUOUS
 62
    30
 10
1891.966277
 20
380.415772
 30
0.0
 11
1886.966277
 21
380.415772
 31
0.0
  0
CIRCLE
  5
5F9
  8
SIZE
  6
CONTINUOUS
 62
    30
 10
1896.966277
 20
380.415772
 30
0.0
 40
5.0
  0
POINT
  5
5FA
  8
DEFPOINTS
  6
CONTINUOUS
 62
     7
 10
1912.966277
 20
581.283053
 30
0.0
  0
POINT
  5
5FB
  8
DEFPOINTS
  6
CONTINUOUS
 62
     7
 10
1912.966277
 20
581.283053
 30
0.0
  0
POINT
  5
5FC
  8
DEFPOINTS
  6
CONTINUOUS
 62
     7
 10
1912.966277
 20
581.283053
 30
0.0
  0
POINT
  5
5FD
  8
DEFPOINTS
  6
CONTINUOUS
 62
     7
 10
1889.966277
 20
600.28788699999996
 30
0.0
  0
POINT
  5
5FE
  8
DEFPOINTS
  6
CONTINUOUS
 62
     7
 10
1889.966277
 20
600.28788699999996
 30
0.0
  0
POINT
  5
5FF
  8
DEFPOINTS
  6
CONTINUOUS
 62
     7
 10
1912.966277
 20
581.283053
 30
0.0
  0
LINE
  5
600
  8
NOTE
  6
CONTINUOUS
 62
     4
 10
1889.966277
 20
615.283053
 30
0.0
 11
1913.4055189999999
 21
590.12452399999995
 31
0.0
  0
LINE
  5
601
  8
NOTE
  6
CONTINUOUS
 62
     4
 10
1889.966277
 20
615.283053
 30
0.0
 11
1897.6859910000001
 21
581.77550599999995
 31
0.0
  0
POINT
  5
602
  8
DEFPOINTS
  6
CONTINUOUS
 62
     7
 10
1896.966277
 20
581.283053
 30
0.0
  0
POINT
  5
603
  8
DEFPOINTS
  6
CONTINUOUS
 62
     7
 10
1912.966277
 20
581.283053
 30
0.0
  0
LINE
  5
604
  8
NOTE
  6
CONTINUOUS
 62
     4
 10
1889.966277
 20
630.27821900000004
 30
0.0
 11
1889.966277
 21
600.28788699999996
 31
0.0
  0
LINE
  5
605
  8
DETAIL
  6
CONTINUOUS
 62
     5
 10
1912.966277
 20
609.283053
 30
0.0
 11
1912.966277
 21
581.283053
 31
0.0
  0
LINE
  5
606
  8
DETAIL
  6
CONTINUOUS
 62
     5
 10
1896.966277
 20
609.283053
 30
0.0
 11
1912.966277
 21
609.283053
 31
0.0
  0
LINE
  5
607
  8
DETAIL
  6
CONTINUOUS
 62
     5
 10
1896.966277
 20
621.28305299999965
 30
0.0
 11
1912.966277
 21
621.28305299999965
 31
0.0
  0
LINE
  5
608
  8
DETAIL
  6
CONTINUOUS
 62
     5
 10
1896.966277
 20
621.28305299999965
 30
0.0
 11
1896.966277
 21
623.283053
 31
0.0
  0
LINE
  5
609
  8
DETAIL
  6
CONTINUOUS
 62
     5
 10
1896.966277
 20
607.283053
 30
0.0
 11
1896.966277
 21
609.283053
 31
0.0
  0
LINE
  5
60A
  8
DETAIL
  6
CONTINUOUS
 62
     5
 10
1896.966277
 20
607.283053
 30
0.0
 11
1896.966277
 21
609.283053
 31
0.0
  0
LINE
  5
60B
  8
DETAIL
  6
CONTINUOUS
 62
     5
 10
1896.966277
 20
621.28305299999965
 30
0.0
 11
1896.966277
 21
623.283053
 31
0.0
  0
LINE
  5
60C
  8
DETAIL
  6
CONTINUOUS
 62
     5
 10
1896.966277
 20
621.28305299999965
 30
0.0
 11
1912.966277
 21
621.28305299999965
 31
0.0
  0
LINE
  5
60D
  8
DETAIL
  6
CONTINUOUS
 62
     5
 10
1896.966277
 20
609.283053
 30
0.0
 11
1912.966277
 21
609.283053
 31
0.0
  0
LINE
  5
60E
  8
SIZE
  6
CONTINUOUS
 62
    30
 10
2192.3339430000001
 20
620.28305299999988
 30
0.0
 11
2192.3339430000001
 21
625.28305299999965
 31
0.0
  0
CIRCLE
  5
60F
  8
SIZE
  6
CONTINUOUS
 62
    30
 10
2192.3339430000001
 20
615.283053
 30
0.0
 40
5.0
  0
CIRCLE
  5
610
  8
SIZE
  6
CONTINUOUS
 62
    30
 10
2056.3589510000002
 20
791.28305299999988
 30
0.0
 40
5.0
  0
LINE
  5
611
  8
SIZE
  6
CONTINUOUS
 62
    30
 10
2056.3589510000002
 20
808.283053
 30
0.0
 11
2056.3589510000002
 21
791.28305299999988
 31
0.0
  0
TEXT
  5
612
  8
SIZE
  6
CONTINUOUS
 62
    30
 10
2038.3589510000011
 20
682.56876714285693
 30
0.0
 40
55.0
  1
17
 50
90.0
 41
0.9
 72
     1
 11
2038.3589510000011
 21
717.92590999999982
 31
0.0
  0
LINE
  5
613
  8
SIZE
  6
CONTINUOUS
 62
    30
 10
1956.966277
 20
791.28305299999988
 30
0.0
 11
2086.3589510000002
 21
791.28305299999988
 31
0.0
  0
POINT
  5
614
  8
DEFPOINTS
  6
CONTINUOUS
 62
     7
 10
1936.966277
 20
791.28305299999988
 30
0.0
  0
POINT
  5
615
  8
DEFPOINTS
  6
CONTINUOUS
 62
     7
 10
1936.966277
 20
791.28305299999988
 30
0.0
  0
POINT
  5
616
  8
DEFPOINTS
  6
CONTINUOUS
 62
     7
 10
1936.966277
 20
791.28305299999988
 30
0.0
  0
LINE
  5
617
  8
DETAIL
  6
CONTINUOUS
 62
     5
 10
1936.966277
 20
791.28305299999988
 30
0.0
 11
1896.966277
 21
791.28305299999988
 31
0.0
  0
LINE
  5
618
  8
OUTLINE
  6
CONTINUOUS
 62
     3
 10
1936.966277
 20
791.28305299999988
 30
0.0
 11
1896.966277
 21
791.28305299999988
 31
0.0
  0
POINT
  5
619
  8
DEFPOINTS
  6
CONTINUOUS
 62
     7
 10
1896.966277
 20
641.88318300000003
 30
0.0
  0
POINT
  5
61A
  8
DEFPOINTS
  6
CONTINUOUS
 62
     7
 10
1896.966277
 20
641.88318300000003
 30
0.0
  0
LINE
  5
61B
  8
DETAIL
  6
CONTINUOUS
 62
     5
 10
1896.966277
 20
641.88318300000003
 30
0.0
 11
1912.966277
 21
641.88318300000003
 31
0.0
  0
POINT
  5
61C
  8
DEFPOINTS
  6
CONTINUOUS
 62
     7
 10
2056.3589510000002
 20
791.28305299999988
 30
0.0
  0
LINE
  5
61D
  8
SIZE
  6
CONTINUOUS
 62
    30
 10
2056.3589510000002
 20
786.283053
 30
0.0
 11
2056.3589510000002
 21
781.283053
 31
0.0
  0
LINE
  5
61E
  8
SIZE
  6
CONTINUOUS
 62
    30
 10
2056.3589510000002
 20
781.283053
 30
0.0
 11
2056.3589510000002
 21
664.56876699999998
 31
0.0
  0
LINE
  5
61F
  8
SIZE
  6
CONTINUOUS
 62
    30
 10
1936.966277
 20
808.283053
 30
0.0
 11
2086.3589510000002
 21
808.283053
 31
0.0
  0
POINT
  5
620
  8
DEFPOINTS
  6
CONTINUOUS
 62
     7
 10
1916.966277
 20
808.283053
 30
0.0
  0
POINT
  5
621
  8
DEFPOINTS
  6
CONTINUOUS
 62
     7
 10
1916.966277
 20
808.283053
 30
0.0
  0
POINT
  5
622
  8
DEFPOINTS
  6
CONTINUOUS
 62
     7
 10
1916.966277
 20
808.283053
 30
0.0
  0
LINE
  5
623
  8
SERVICESPACE
  6
CONTINUOUS
 62
     2
 10
1896.966277
 20
808.283053
 30
0.0
 11
1916.966277
 21
808.283053
 31
0.0
  0
LINE
  5
624
  8
SIZE
  6
CONTINUOUS
 62
    30
 10
2056.3589510000002
 20
813.28305299999988
 30
0.0
 11
2056.3589510000002
 21
818.283053
 31
0.0
  0
CIRCLE
  5
625
  8
SIZE
  6
CONTINUOUS
 62
    30
 10
2056.3589510000002
 20
808.283053
 30
0.0
 40
5.0
  0
LINE
  5
626
  8
SIZE
  6
CONTINUOUS
 62
    30
 10
2056.3589510000002
 20
818.283053
 30
0.0
 11
2056.3589510000002
 21
828.283053
 31
0.0
  0
TEXT
  5
627
  8
SIZE
  6
CONTINUOUS
 62
    30
 10
2642.0314990000002
 20
627.35448157142855
 30
0.0
 40
55.0
  1
210
 50
90.0
 41
0.9
 72
     1
 11
2642.0314990000002
 21
686.283053
 31
0.0
  0
LINE
  5
628
  8
SIZE
  6
CONTINUOUS
 62
    30
 10
2660.0314990000002
 20
591.28305299999988
 30
0.0
 11
2660.0314990000002
 21
781.283053
 31
0.0
  0
TEXT
  5
629
  8
SIZE
  6
CONTINUOUS
 62
    30
 10
2488.7041280000012
 20
631.14019585714288
 30
0.0
 40
55.0
  1
227
 50
90.0
 41
0.9
 72
     1
 11
2488.7041280000012
 21
694.783053
 31
0.0
  0
LINE
  5
62A
  8
SIZE
  6
CONTINUOUS
 62
    30
 10
2506.7041280000012
 20
591.28305299999988
 30
0.0
 11
2506.7041280000012
 21
798.283053
 31
0.0
  0
LINE
  5
62B
  8
SIZE
  6
CONTINUOUS
 62
    30
 10
2506.7041280000012
 20
586.283053
 30
0.0
 11
2506.7041280000012
 21
591.28305299999988
 31
0.0
  0
CIRCLE
  5
62C
  8
SIZE
  6
CONTINUOUS
 62
    30
 10
2506.7041280000012
 20
581.283053
 30
0.0
 40
5.0
  0
LINE
  5
62D
  8
SIZE
  6
CONTINUOUS
 62
    30
 10
2660.0314990000002
 20
586.283053
 30
0.0
 11
2660.0314990000002
 21
591.28305299999988
 31
0.0
  0
CIRCLE
  5
62E
  8
SIZE
  6
CONTINUOUS
 62
    30
 10
2660.0314990000002
 20
581.283053
 30
0.0
 40
5.0
  0
LINE
  5
62F
  8
SIZE
  6
CONTINUOUS
 62
    30
 10
2506.7041280000012
 20
813.28305299999988
 30
0.0
 11
2506.7041280000012
 21
818.283053
 31
0.0
  0
CIRCLE
  5
630
  8
SIZE
  6
CONTINUOUS
 62
    30
 10
2506.7041280000012
 20
808.283053
 30
0.0
 40
5.0
  0
POINT
  5
631
  8
DEFPOINTS
  6
CONTINUOUS
 62
     7
 10
2506.7041280000012
 20
808.283053
 30
0.0
  0
LINE
  5
632
  8
SIZE
  6
CONTINUOUS
 62
    30
 10
2506.7041280000012
 20
803.283053
 30
0.0
 11
2506.7041280000012
 21
798.283053
 31
0.0
  0
CIRCLE
  5
633
  8
SIZE
  6
CONTINUOUS
 62
    30
 10
2506.7041280000012
 20
808.283053
 30
0.0
 40
5.0
  0
CIRCLE
  5
634
  8
SIZE
  6
CONTINUOUS
 62
    30
 10
2660.0314990000002
 20
791.28305299999988
 30
0.0
 40
5.0
  0
CIRCLE
  5
635
  8
SIZE
  6
CONTINUOUS
 62
    30
 10
2660.0314990000002
 20
791.28305299999988
 30
0.0
 40
5.0
  0
POINT
  5
636
  8
DEFPOINTS
  6
CONTINUOUS
 62
     7
 10
2660.0314990000002
 20
791.28305299999988
 30
0.0
  0
LINE
  5
637
  8
SIZE
  6
CONTINUOUS
 62
    30
 10
2660.0314990000002
 20
786.283053
 30
0.0
 11
2660.0314990000002
 21
781.283053
 31
0.0
  0
LINE
  5
638
  8
SIZE
  6
CONTINUOUS
 62
    30
 10
2660.0314990000002
 20
796.28305299999988
 30
0.0
 11
2660.0314990000002
 21
801.283053
 31
0.0
  0
LINE
  5
639
  8
BASIS
  6
DASHDOT
 62
     6
 10
2000.4227980000001
 20
948.78305299999965
 30
0.0
 11
1316.966277
 21
948.78305299999965
 31
0.0
  0
LINE
  5
63A
  8
SIZE
  6
CONTINUOUS
 62
    30
 10
1812.9482840000001
 20
1478.192865
 30
0.0
 11
1912.966277
 21
1478.192865
 31
0.0
  0
CIRCLE
  5
63B
  8
FIX
  6
CONTINUOUS
 62
    11
 10
1889.966277
 20
1285.2830530000001
 30
0.0
 40
12.421498
  0
LINE
  5
63C
  8
NOTE
  6
CONTINUOUS
 62
     4
 10
1874.9711110000001
 20
1285.2830530000001
 30
0.0
 11
1904.9614429999999
 21
1285.2830530000001
 31
0.0
  0
LINE
  5
63D
  8
DETAIL
  6
CONTINUOUS
 62
     5
 10
1874.9956119999999
 20
1255.6829230000001
 30
0.0
 11
1912.966277
 21
1255.6829230000001
 31
0.0
  0
ARC
  5
63E
  8
DETAIL
  6
CONTINUOUS
 62
     5
 10
1889.966277
 20
1293.2830530000001
 30
0.0
 40
7.0
 50
0.0
 51
180.0
  0
ARC
  5
63F
  8
DETAIL
  6
CONTINUOUS
 62
     5
 10
1889.966277
 20
1277.2830530000001
 30
0.0
 40
7.0
 50
180.0
 51
0.0
  0
ARC
  5
640
  8
DETAIL
  6
CONTINUOUS
 62
     5
 10
1889.966277
 20
1277.2830530000001
 30
0.0
 40
7.0
 50
180.0
 51
0.0
  0
ARC
  5
641
  8
DETAIL
  6
CONTINUOUS
 62
     5
 10
1889.966277
 20
1293.2830530000001
 30
0.0
 40
7.0
 50
0.0
 51
180.0
  0
LINE
  5
642
  8
DETAIL
  6
CONTINUOUS
 62
     5
 10
1874.9956119999999
 20
1316.2830530000001
 30
0.0
 11
1874.9956119999999
 21
1255.6829230000001
 31
0.0
  0
LINE
  5
643
  8
DETAIL
  6
CONTINUOUS
 62
     5
 10
1882.966277
 20
1293.2830530000001
 30
0.0
 11
1882.966277
 21
1277.2830530000001
 31
0.0
  0
LINE
  5
644
  8
DETAIL
  6
CONTINUOUS
 62
     5
 10
1882.966277
 20
1293.2830530000001
 30
0.0
 11
1882.966277
 21
1277.2830530000001
 31
0.0
  0
LINE
  5
645
  8
DETAIL
  6
CONTINUOUS
 62
     5
 10
1863.966277
 20
1299.2830530000001
 30
0.0
 11
1866.966277
 21
1302.2830530000001
 31
0.0
  0
LINE
  5
646
  8
DETAIL
  6
CONTINUOUS
 62
     5
 10
1866.966277
 20
1302.2830530000001
 30
0.0
 11
1866.966277
 21
1316.2830530000001
 31
0.0
  0
LINE
  5
647
  8
DETAIL
  6
CONTINUOUS
 62
     5
 10
1866.966277
 20
1302.2830530000001
 30
0.0
 11
1866.966277
 21
1316.2830530000001
 31
0.0
  0
LINE
  5
648
  8
DETAIL
  6
CONTINUOUS
 62
     5
 10
1863.966277
 20
1299.2830530000001
 30
0.0
 11
1866.966277
 21
1302.2830530000001
 31
0.0
  0
TEXT
  5
649
  8
SIZE
  6
CONTINUOUS
 62
    30
 10
1830.948283571428
 20
1496.192865
 30
0.0
 40
55.0
  1
4
 41
0.9
 72
     1
 11
1848.626855
 21
1496.192865
 31
0.0
  0
TEXT
  5
64A
  8
SIZE
  6
CONTINUOUS
 62
    30
 10
1069.975623428571
 20
1602.3052049999999
 30
0.0
 40
55.0
  1
1200（天井開口寸法）
 41
0.9
 72
     1
 11
1377.3470520000001
 21
1602.3052049999999
 31
0.0
  0
TEXT
  5
64B
  8
SIZE
  6
CONTINUOUS
 62
    30
 10
1234.466277
 20
1740.5864979999999
 30
0.0
 40
55.0
  1
1240
 41
0.9
 72
     1
 11
1316.966277
 21
1740.5864979999999
 31
0.0
  0
LINE
  5
64C
  8
SIZE
  6
CONTINUOUS
 62
    30
 10
1936.966277
 20
1411.2830530000001
 30
0.0
 11
1936.966277
 21
1752.5864979999999
 31
0.0
  0
LINE
  5
64D
  8
SIZE
  6
CONTINUOUS
 62
    30
 10
1916.966277
 20
1394.2830530000001
 30
0.0
 11
1916.966277
 21
1614.3052049999999
 31
0.0
  0
LINE
  5
64E
  8
SIZE
  6
CONTINUOUS
 62
    30
 10
1956.966277
 20
1391.2830530000001
 30
0.0
 11
2690.0314990000002
 21
1391.2830530000001
 31
0.0
  0
LINE
  5
64F
  8
SIZE
  6
CONTINUOUS
 62
    30
 10
1936.966277
 20
1374.2830530000001
 30
0.0
 11
2536.7041279999999
 21
1374.2830530000001
 31
0.0
  0
LINE
  5
650
  8
SIZE
  6
CONTINUOUS
 62
    30
 10
2192.3339430000001
 20
1300.7830530000001
 30
0.0
 11
2305.9837910000001
 21
1199.3409260000001
 31
0.0
  0
TEXT
  5
651
  8
SIZE
  6
CONTINUOUS
 62
    30
 10
2287.9837910000001
 20
1122.4123542857139
 30
0.0
 40
55.0
  1
31
 50
90.0
 41
0.9
 72
     1
 11
2287.9837910000001
 21
1151.87664
 31
0.0
  0
LINE
  5
652
  8
SIZE
  6
CONTINUOUS
 62
    30
 10
2305.9837910000001
 20
1199.3409260000001
 30
0.0
 11
2305.9837910000001
 21
1104.4123540000001
 31
0.0
  0
LINE
  5
653
  8
SIZE
  6
CONTINUOUS
 62
    30
 10
1924.9614429999999
 20
1285.2830530000001
 30
0.0
 11
2222.3339430000001
 21
1285.2830530000001
 31
0.0
  0
LINE
  5
654
  8
SIZE
  6
CONTINUOUS
 62
    30
 10
1924.9614429999999
 20
1285.2830530000001
 30
0.0
 11
2222.3339430000001
 21
1285.2830530000001
 31
0.0
  0
LINE
  5
655
  8
SIZE
  6
CONTINUOUS
 62
    30
 10
1932.966277
 20
1316.2830530000001
 30
0.0
 11
2222.3339430000001
 21
1316.2830530000001
 31
0.0
  0
LINE
  5
656
  8
SIZE
  6
CONTINUOUS
 62
    30
 10
1932.966277
 20
1316.2830530000001
 30
0.0
 11
2222.3339430000001
 21
1316.2830530000001
 31
0.0
  0
LINE
  5
657
  8
SIZE
  6
CONTINUOUS
 62
    30
 10
1936.966277
 20
1374.2830530000001
 30
0.0
 11
2222.3339430000001
 21
1374.2830530000001
 31
0.0
  0
LINE
  5
658
  8
SIZE
  6
CONTINUOUS
 62
    30
 10
1936.966277
 20
1374.2830530000001
 30
0.0
 11
2222.3339430000001
 21
1374.2830530000001
 31
0.0
  0
LINE
  5
659
  8
SIZE
  6
CONTINUOUS
 62
    30
 10
1956.966277
 20
1391.2830530000001
 30
0.0
 11
2222.3339430000001
 21
1391.2830530000001
 31
0.0
  0
LINE
  5
65A
  8
SIZE
  6
CONTINUOUS
 62
    30
 10
1912.966277
 20
1336.2830530000001
 30
0.0
 11
1912.966277
 21
1508.192865
 31
0.0
  0
LINE
  5
65B
  8
SIZE
  6
CONTINUOUS
 62
    30
 10
1916.966277
 20
1394.2830530000001
 30
0.0
 11
1916.966277
 21
1508.192865
 31
0.0
  0
LINE
  5
65C
  8
SIZE
  6
CONTINUOUS
 62
    30
 10
1916.966277
 20
1394.2830530000001
 30
0.0
 11
1916.966277
 21
1508.192865
 31
0.0
  0
POINT
  5
65D
  8
DEFPOINTS
  6
CONTINUOUS
 62
     7
 10
1936.966277
 20
1391.2830530000001
 30
0.0
  0
POINT
  5
65E
  8
DEFPOINTS
  6
CONTINUOUS
 62
     7
 10
1916.966277
 20
1374.2830530000001
 30
0.0
  0
POINT
  5
65F
  8
DEFPOINTS
  6
CONTINUOUS
 62
     7
 10
1904.9614429999999
 20
1285.2830530000001
 30
0.0
  0
POINT
  5
660
  8
DEFPOINTS
  6
CONTINUOUS
 62
     7
 10
1912.966277
 20
1316.2830530000001
 30
0.0
  0
POINT
  5
661
  8
DEFPOINTS
  6
CONTINUOUS
 62
     7
 10
1912.966277
 20
1316.2830530000001
 30
0.0
  0
POINT
  5
662
  8
DEFPOINTS
  6
CONTINUOUS
 62
     7
 10
1916.966277
 20
1374.2830530000001
 30
0.0
  0
POINT
  5
663
  8
DEFPOINTS
  6
CONTINUOUS
 62
     7
 10
1916.966277
 20
1374.2830530000001
 30
0.0
  0
POINT
  5
664
  8
DEFPOINTS
  6
CONTINUOUS
 62
     7
 10
1936.966277
 20
1391.2830530000001
 30
0.0
  0
POINT
  5
665
  8
DEFPOINTS
  6
CONTINUOUS
 62
     7
 10
1936.966277
 20
1391.2830530000001
 30
0.0
  0
POINT
  5
666
  8
DEFPOINTS
  6
CONTINUOUS
 62
     7
 10
1912.966277
 20
1316.2830530000001
 30
0.0
  0
POINT
  5
667
  8
DEFPOINTS
  6
CONTINUOUS
 62
     7
 10
1916.966277
 20
1374.2830530000001
 30
0.0
  0
POINT
  5
668
  8
DEFPOINTS
  6
CONTINUOUS
 62
     7
 10
1916.966277
 20
1374.2830530000001
 30
0.0
  0
POINT
  5
669
  8
DEFPOINTS
  6
CONTINUOUS
 62
     7
 10
1936.966277
 20
1391.2830530000001
 30
0.0
  0
POINT
  5
66A
  8
DEFPOINTS
  6
CONTINUOUS
 62
     7
 10
1916.966277
 20
1374.2830530000001
 30
0.0
  0
LINE
  5
66B
  8
NOTE
  6
CONTINUOUS
 62
     4
 10
1889.966277
 20
1300.278219
 30
0.0
 11
1889.966277
 21
1270.287887
 31
0.0
  0
LINE
  5
66C
  8
DETAIL
  6
CONTINUOUS
 62
     5
 10
1912.966277
 20
1279.2830530000001
 30
0.0
 11
1912.966277
 21
1255.6829230000001
 31
0.0
  0
LINE
  5
66D
  8
DETAIL
  6
CONTINUOUS
 62
     5
 10
1912.966277
 20
1316.2830530000001
 30
0.0
 11
1912.966277
 21
1291.2830530000001
 31
0.0
  0
LINE
  5
66E
  8
DETAIL
  6
CONTINUOUS
 62
     5
 10
1896.966277
 20
1255.6829230000001
 30
0.0
 11
1912.966277
 21
1255.6829230000001
 31
0.0
  0
LINE
  5
66F
  8
DETAIL
  6
CONTINUOUS
 62
     5
 10
1896.966277
 20
1291.2830530000001
 30
0.0
 11
1912.966277
 21
1291.2830530000001
 31
0.0
  0
LINE
  5
670
  8
DETAIL
  6
CONTINUOUS
 62
     5
 10
1896.966277
 20
1279.2830530000001
 30
0.0
 11
1912.966277
 21
1279.2830530000001
 31
0.0
  0
LINE
  5
671
  8
DETAIL
  6
CONTINUOUS
 62
     5
 10
1896.966277
 20
1279.2830530000001
 30
0.0
 11
1896.966277
 21
1277.2830530000001
 31
0.0
  0
LINE
  5
672
  8
DETAIL
  6
CONTINUOUS
 62
     5
 10
1896.966277
 20
1293.2830530000001
 30
0.0
 11
1896.966277
 21
1291.2830530000001
 31
0.0
  0
LINE
  5
673
  8
DETAIL
  6
CONTINUOUS
 62
     5
 10
1896.966277
 20
1293.2830530000001
 30
0.0
 11
1896.966277
 21
1291.2830530000001
 31
0.0
  0
LINE
  5
674
  8
DETAIL
  6
CONTINUOUS
 62
     5
 10
1896.966277
 20
1279.2830530000001
 30
0.0
 11
1896.966277
 21
1277.2830530000001
 31
0.0
  0
LINE
  5
675
  8
DETAIL
  6
CONTINUOUS
 62
     5
 10
1896.966277
 20
1279.2830530000001
 30
0.0
 11
1912.966277
 21
1279.2830530000001
 31
0.0
  0
LINE
  5
676
  8
DETAIL
  6
CONTINUOUS
 62
     5
 10
1896.966277
 20
1291.2830530000001
 30
0.0
 11
1912.966277
 21
1291.2830530000001
 31
0.0
  0
TEXT
  5
677
  8
SIZE
  6
CONTINUOUS
 62
    30
 10
1974.9662774285709
 20
1496.192865
 30
0.0
 40
55.0
  1
20
 41
0.9
 72
     1
 11
2015.0377060000001
 21
1496.192865
 31
0.0
  0
LINE
  5
678
  8
SIZE
  6
CONTINUOUS
 62
    30
 10
1946.966277
 20
1478.192865
 30
0.0
 11
2073.1091339999998
 21
1478.192865
 31
0.0
  0
POINT
  5
679
  8
DEFPOINTS
  6
CONTINUOUS
 62
     7
 10
1912.966277
 20
1478.192865
 30
0.0
  0
LINE
  5
67A
  8
SIZE
  6
CONTINUOUS
 62
    30
 10
1907.966277
 20
1478.192865
 30
0.0
 11
1902.966277
 21
1478.192865
 31
0.0
  0
CIRCLE
  5
67B
  8
SIZE
  6
CONTINUOUS
 62
    30
 10
1912.966277
 20
1478.192865
 30
0.0
 40
5.0
  0
LINE
  5
67C
  8
SIZE
  6
CONTINUOUS
 62
    30
 10
1921.966277
 20
1478.192865
 30
0.0
 11
1926.966277
 21
1478.192865
 31
0.0
  0
CIRCLE
  5
67D
  8
SIZE
  6
CONTINUOUS
 62
    30
 10
1916.966277
 20
1478.192865
 30
0.0
 40
5.0
  0
LINE
  5
67E
  8
SIZE
  6
CONTINUOUS
 62
    30
 10
1916.966277
 20
1478.192865
 30
0.0
 11
1912.966277
 21
1478.192865
 31
0.0
  0
LINE
  5
67F
  8
SIZE
  6
CONTINUOUS
 62
    30
 10
1916.966277
 20
1478.192865
 30
0.0
 11
1912.966277
 21
1478.192865
 31
0.0
  0
LINE
  5
680
  8
SIZE
  6
CONTINUOUS
 62
    30
 10
1902.966277
 20
1478.192865
 30
0.0
 11
1892.966277
 21
1478.192865
 31
0.0
  0
LINE
  5
681
  8
SIZE
  6
CONTINUOUS
 62
    30
 10
1926.966277
 20
1478.192865
 30
0.0
 11
1936.966277
 21
1478.192865
 31
0.0
  0
POINT
  5
682
  8
DEFPOINTS
  6
CONTINUOUS
 62
     7
 10
1916.966277
 20
1478.192865
 30
0.0
  0
LINE
  5
683
  8
SIZE
  6
CONTINUOUS
 62
    30
 10
1941.966277
 20
1478.192865
 30
0.0
 11
1946.966277
 21
1478.192865
 31
0.0
  0
CIRCLE
  5
684
  8
SIZE
  6
CONTINUOUS
 62
    30
 10
1936.966277
 20
1478.192865
 30
0.0
 40
5.0
  0
LINE
  5
685
  8
SIZE
  6
CONTINUOUS
 62
    30
 10
1911.966277
 20
1478.192865
 30
0.0
 11
1906.966277
 21
1478.192865
 31
0.0
  0
CIRCLE
  5
686
  8
SIZE
  6
CONTINUOUS
 62
    30
 10
1916.966277
 20
1478.192865
 30
0.0
 40
5.0
  0
LINE
  5
687
  8
SIZE
  6
CONTINUOUS
 62
    30
 10
1916.966277
 20
1478.192865
 30
0.0
 11
1936.966277
 21
1478.192865
 31
0.0
  0
LINE
  5
688
  8
SIZE
  6
CONTINUOUS
 62
    30
 10
1906.966277
 20
1478.192865
 30
0.0
 11
1896.966277
 21
1478.192865
 31
0.0
  0
LINE
  5
689
  8
SIZE
  6
CONTINUOUS
 62
    30
 10
1936.966277
 20
1411.2830530000001
 30
0.0
 11
1936.966277
 21
1508.192865
 31
0.0
  0
LINE
  5
68A
  8
SIZE
  6
CONTINUOUS
 62
    30
 10
2192.3339430000001
 20
1345.2830530000001
 30
0.0
 11
2310.4144740000002
 21
1418.7147030000001
 31
0.0
  0
LINE
  5
68B
  8
SIZE
  6
CONTINUOUS
 62
    30
 10
2192.3339430000001
 20
1401.2830530000001
 30
0.0
 11
2192.3339430000001
 21
1517.997339
 31
0.0
  0
LINE
  5
68C
  8
SIZE
  6
CONTINUOUS
 62
    30
 10
2192.3339430000001
 20
1280.2830530000001
 30
0.0
 11
2192.3339430000001
 21
1275.2830530000001
 31
0.0
  0
CIRCLE
  5
68D
  8
SIZE
  6
CONTINUOUS
 62
    30
 10
2192.3339430000001
 20
1285.2830530000001
 30
0.0
 40
5.0
  0
POINT
  5
68E
  8
DEFPOINTS
  6
CONTINUOUS
 62
     7
 10
2192.3339430000001
 20
1285.2830530000001
 30
0.0
  0
LINE
  5
68F
  8
SIZE
  6
CONTINUOUS
 62
    30
 10
2192.3339430000001
 20
1280.2830530000001
 30
0.0
 11
2192.3339430000001
 21
1275.2830530000001
 31
0.0
  0
CIRCLE
  5
690
  8
SIZE
  6
CONTINUOUS
 62
    30
 10
2192.3339430000001
 20
1285.2830530000001
 30
0.0
 40
5.0
  0
LINE
  5
691
  8
SIZE
  6
CONTINUOUS
 62
    30
 10
2192.3339430000001
 20
1321.2830530000001
 30
0.0
 11
2192.3339430000001
 21
1326.2830530000001
 31
0.0
  0
CIRCLE
  5
692
  8
SIZE
  6
CONTINUOUS
 62
    30
 10
2192.3339430000001
 20
1316.2830530000001
 30
0.0
 40
5.0
  0
LINE
  5
693
  8
SIZE
  6
CONTINUOUS
 62
    30
 10
2192.3339430000001
 20
1316.2830530000001
 30
0.0
 11
2192.3339430000001
 21
1285.2830530000001
 31
0.0
  0
LINE
  5
694
  8
SIZE
  6
CONTINUOUS
 62
    30
 10
2192.3339430000001
 20
1316.2830530000001
 30
0.0
 11
2192.3339430000001
 21
1285.2830530000001
 31
0.0
  0
LINE
  5
695
  8
SIZE
  6
CONTINUOUS
 62
    30
 10
2192.3339430000001
 20
1275.2830530000001
 30
0.0
 11
2192.3339430000001
 21
1265.2830530000001
 31
0.0
  0
LINE
  5
696
  8
SIZE
  6
CONTINUOUS
 62
    30
 10
2192.3339430000001
 20
1326.2830530000001
 30
0.0
 11
2192.3339430000001
 21
1336.2830530000001
 31
0.0
  0
POINT
  5
697
  8
DEFPOINTS
  6
CONTINUOUS
 62
     7
 10
2192.3339430000001
 20
1316.2830530000001
 30
0.0
  0
LINE
  5
698
  8
SIZE
  6
CONTINUOUS
 62
    30
 10
2192.3339430000001
 20
1321.2830530000001
 30
0.0
 11
2192.3339430000001
 21
1326.2830530000001
 31
0.0
  0
CIRCLE
  5
699
  8
SIZE
  6
CONTINUOUS
 62
    30
 10
2192.3339430000001
 20
1316.2830530000001
 30
0.0
 40
5.0
  0
LINE
  5
69A
  8
SIZE
  6
CONTINUOUS
 62
    30
 10
2192.3339430000001
 20
1369.2830530000001
 30
0.0
 11
2192.3339430000001
 21
1364.2830530000001
 31
0.0
  0
CIRCLE
  5
69B
  8
SIZE
  6
CONTINUOUS
 62
    30
 10
2192.3339430000001
 20
1374.2830530000001
 30
0.0
 40
5.0
  0
LINE
  5
69C
  8
SIZE
  6
CONTINUOUS
 62
    30
 10
2192.3339430000001
 20
1364.2830530000001
 30
0.0
 11
2192.3339430000001
 21
1326.2830530000001
 31
0.0
  0
POINT
  5
69D
  8
DEFPOINTS
  6
CONTINUOUS
 62
     7
 10
2192.3339430000001
 20
1374.2830530000001
 30
0.0
  0
LINE
  5
69E
  8
SIZE
  6
CONTINUOUS
 62
    30
 10
2192.3339430000001
 20
1396.2830530000001
 30
0.0
 11
2192.3339430000001
 21
1401.2830530000001
 31
0.0
  0
CIRCLE
  5
69F
  8
SIZE
  6
CONTINUOUS
 62
    30
 10
2192.3339430000001
 20
1391.2830530000001
 30
0.0
 40
5.0
  0
LINE
  5
6A0
  8
SIZE
  6
CONTINUOUS
 62
    30
 10
2192.3339430000001
 20
1369.2830530000001
 30
0.0
 11
2192.3339430000001
 21
1364.2830530000001
 31
0.0
  0
CIRCLE
  5
6A1
  8
SIZE
  6
CONTINUOUS
 62
    30
 10
2192.3339430000001
 20
1374.2830530000001
 30
0.0
 40
5.0
  0
LINE
  5
6A2
  8
SIZE
  6
CONTINUOUS
 62
    30
 10
2192.3339430000001
 20
1374.2830530000001
 30
0.0
 11
2192.3339430000001
 21
1391.2830530000001
 31
0.0
  0
LINE
  5
6A3
  8
SIZE
  6
CONTINUOUS
 62
    30
 10
2192.3339430000001
 20
1364.2830530000001
 30
0.0
 11
2192.3339430000001
 21
1354.2830530000001
 31
0.0
  0
TEXT
  5
6A4
  8
SIZE
  6
CONTINUOUS
 62
    30
 10
2174.3339430000001
 20
1429.2830531428569
 30
0.0
 40
55.0
  1
17
 50
90.0
 41
0.9
 72
     1
 11
2174.3339430000001
 21
1464.6401960000001
 31
0.0
  0
TEXT
  5
6A5
  8
SIZE
  6
CONTINUOUS
 62
    30
 10
2292.4144740000002
 20
1436.7147024285709
 30
0.0
 40
55.0
  1
58
 50
90.0
 41
0.9
 72
     1
 11
2292.4144740000002
 21
1476.7861310000001
 31
0.0
  0
LINE
  5
6A6
  8
SIZE
  6
CONTINUOUS
 62
    30
 10
2310.4144740000002
 20
1418.7147030000001
 30
0.0
 11
2310.4144740000002
 21
1534.8575599999999
 31
0.0
  0
TEXT
  5
6A7
  8
SIZE
  6
CONTINUOUS
 62
    30
 10
2642.0314990000002
 20
1027.640195857143
 30
0.0
 40
55.0
  1
600
 50
90.0
 41
0.9
 72
     1
 11
2642.0314990000002
 21
1091.2830530000001
 31
0.0
  0
POINT
  5
6A8
  8
DEFPOINTS
  6
CONTINUOUS
 62
     7
 10
2506.7041280000012
 20
1374.2830530000001
 30
0.0
  0
LINE
  5
6A9
  8
SIZE
  6
CONTINUOUS
 62
    30
 10
2506.7041280000012
 20
1369.2830530000001
 30
0.0
 11
2506.7041280000012
 21
1364.2830530000001
 31
0.0
  0
CIRCLE
  5
6AA
  8
SIZE
  6
CONTINUOUS
 62
    30
 10
2506.7041280000012
 20
1374.2830530000001
 30
0.0
 40
5.0
  0
POINT
  5
6AB
  8
DEFPOINTS
  6
CONTINUOUS
 62
     7
 10
2660.0314990000002
 20
1391.2830530000001
 30
0.0
  0
LINE
  5
6AC
  8
SIZE
  6
CONTINUOUS
 62
    30
 10
2660.0314990000002
 20
1386.2830530000001
 30
0.0
 11
2660.0314990000002
 21
1381.2830530000001
 31
0.0
  0
CIRCLE
  5
6AD
  8
SIZE
  6
CONTINUOUS
 62
    30
 10
2660.0314990000002
 20
1391.2830530000001
 30
0.0
 40
5.0
  0
POINT
  5
6AE
  8
DEFPOINTS
  6
CONTINUOUS
 62
     7
 10
1916.966277
 20
1584.3052049999999
 30
0.0
  0
LINE
  5
6AF
  8
SIZE
  6
CONTINUOUS
 62
    30
 10
1911.966277
 20
1584.3052049999999
 30
0.0
 11
1906.966277
 21
1584.3052049999999
 31
0.0
  0
CIRCLE
  5
6B0
  8
SIZE
  6
CONTINUOUS
 62
    30
 10
1916.966277
 20
1584.3052049999999
 30
0.0
 40
5.0
  0
POINT
  5
6B1
  8
DEFPOINTS
  6
CONTINUOUS
 62
     7
 10
1936.966277
 20
1722.5864979999999
 30
0.0
  0
LINE
  5
6B2
  8
SIZE
  6
CONTINUOUS
 62
    30
 10
1931.966277
 20
1722.5864979999999
 30
0.0
 11
1926.966277
 21
1722.5864979999999
 31
0.0
  0
CIRCLE
  5
6B3
  8
SIZE
  6
CONTINUOUS
 62
    30
 10
1936.966277
 20
1722.5864979999999
 30
0.0
 40
5.0
  0
ENDBLK
  5
6B5
  8
0
 62
     7
  0
BLOCK
  8
0
  2
_SMALL
 70
     0
 10
0.0
 20
0.0
 30
0.0
  3
_SMALL
  1

  0
CIRCLE
  5
10E3
  8
0
  6
CONTINUOUS
 62
     7
 10
0.0
 20
0.0
 30
0.0
 40
0.25
  0
ENDBLK
  5
10E4
  8
0
  0
ENDSEC
  0
SECTION
  2
ENTITIES
  0
LINE
  5
6BD
  8
SIZE
  6
CONTINUOUS
 62
    30
 10
-570.0
 20
-987.88672024081359
 30
0.0
 11
570.0
 21
-987.88672024081359
 31
0.0
  0
LINE
  5
6BE
  8
SIZE
  6
CONTINUOUS
 62
    30
 10
-586.0
 20
-1095.863453159649
 30
0.0
 11
586.0
 21
-1095.863453159649
 31
0.0
  0
LINE
  5
6C2
  8
OUTLINE
  6
CONTINUOUS
 62
     3
 10
-580.0
 20
-367.5
 30
0.0
 11
580.0
 21
-367.5
 31
0.0
  0
LINE
  5
6C7
  8
DETAIL
  6
CONTINUOUS
 62
     5
 10
-596.0
 20
-367.5
 30
0.0
 11
596.0
 21
-367.5
 31
0.0
  0
LINE
  5
6D9
  8
NOTE
  6
CONTINUOUS
 62
     4
 10
-852.29700159259448
 20
-673.88173872994867
 30
0.0
 11
-622.0
 21
-175.5
 31
0.0
  0
LINE
  5
6DA
  8
DETAIL
  6
CONTINUOUS
 62
     5
 10
-580.0
 20
-367.5
 30
0.0
 11
-580.0
 21
-143.4999997369159
 31
0.0
  0
LINE
  5
6DE
  8
SIZE
  6
CONTINUOUS
 62
    30
 10
-580.0
 20
-378.6760810528686
 30
0.0
 11
-580.0
 21
-1017.886720240813
 31
0.0
  0
LINE
  5
6DF
  8
SIZE
  6
CONTINUOUS
 62
    30
 10
-580.0
 20
-378.6760810528686
 30
0.0
 11
-580.0
 21
-1017.886720240813
 31
0.0
  0
LINE
  5
6E0
  8
SIZE
  6
CONTINUOUS
 62
    30
 10
-596.0
 20
-387.5
 30
0.0
 11
-596.0
 21
-1017.886720240813
 31
0.0
  0
LINE
  5
6E1
  8
SIZE
  6
CONTINUOUS
 62
    30
 10
-596.0
 20
-387.5
 30
0.0
 11
-596.0
 21
-1125.863453159649
 31
0.0
  0
CIRCLE
  5
6E2
  8
SIZE
  6
CONTINUOUS
 62
    30
 10
-596.0
 20
-1095.863453159649
 30
0.0
 40
5.0
  0
LINE
  5
6EE
  8
SIZE
  6
CONTINUOUS
 62
    30
 10
-591.0
 20
-1095.863453159649
 30
0.0
 11
-586.0
 21
-1095.863453159649
 31
0.0
  0
TEXT
  5
6EF
  8
SIZE
  6
CONTINUOUS
 62
    30
 10
-702.35714242857136
 20
-969.88672024081359
 30
0.0
 40
55.0
  1
16
 41
0.9
 72
     1
 11
-668.17857100000003
 21
-969.88672024081359
 31
0.0
  0
LINE
  5
6F0
  8
SIZE
  6
CONTINUOUS
 62
    30
 10
-606.0
 20
-987.88672024081359
 30
0.0
 11
-720.35714299999995
 21
-987.88672024081359
 31
0.0
  0
LINE
  5
6F1
  8
SIZE
  6
CONTINUOUS
 62
    30
 10
-575.0
 20
-987.88672024081359
 30
0.0
 11
-570.0
 21
-987.88672024081359
 31
0.0
  0
CIRCLE
  5
6F2
  8
SIZE
  6
CONTINUOUS
 62
    30
 10
-580.0
 20
-987.88672024081359
 30
0.0
 40
5.0
  0
POINT
  5
6F3
  8
DEFPOINTS
  6
CONTINUOUS
 62
     7
 10
-580.0
 20
-987.88672024081359
 30
0.0
  0
LINE
  5
6F4
  8
SIZE
  6
CONTINUOUS
 62
    30
 10
-601.0
 20
-987.88672024081359
 30
0.0
 11
-606.0
 21
-987.88672024081359
 31
0.0
  0
CIRCLE
  5
6F5
  8
SIZE
  6
CONTINUOUS
 62
    30
 10
-596.0
 20
-987.88672024081359
 30
0.0
 40
5.0
  0
LINE
  5
6F6
  8
SIZE
  6
CONTINUOUS
 62
    30
 10
-575.0
 20
-987.88672024081359
 30
0.0
 11
-570.0
 21
-987.88672024081359
 31
0.0
  0
CIRCLE
  5
6F7
  8
SIZE
  6
CONTINUOUS
 62
    30
 10
-580.0
 20
-987.88672024081359
 30
0.0
 40
5.0
  0
LINE
  5
6F8
  8
SIZE
  6
CONTINUOUS
 62
    30
 10
-580.0
 20
-987.88672024081359
 30
0.0
 11
-596.0
 21
-987.88672024081359
 31
0.0
  0
LINE
  5
6F9
  8
SIZE
  6
CONTINUOUS
 62
    30
 10
-570.0
 20
-987.88672024081359
 30
0.0
 11
-560.0
 21
-987.88672024081359
 31
0.0
  0
TEXT
  5
6FF
  8
SIZE
  6
CONTINUOUS
 62
    30
 10
-858.23637619100941
 20
-225.41654199999999
 30
0.0
 40
55.0
  1
64
 50
90.0
 41
0.9
 72
     1
 11
-858.23637619100941
 21
-184.16654199999999
 31
0.0
  0
TEXT
  5
700
  8
SIZE
  6
CONTINUOUS
 62
    30
 10
-858.45221119100916
 20
-362.42857142857139
 30
0.0
 40
55.0
  1
128
 50
90.0
 41
0.9
 72
     1
 11
-858.45221119100916
 21
-303.5
 31
0.0
  0
LINE
  5
701
  8
NOTE
  6
CONTINUOUS
 62
     4
 10
-826.86484413864332
 20
-804.32399883514142
 30
0.0
 11
-632.0
 21
-239.5
 31
0.0
  0
LINE
  5
704
  8
NOTE
  6
CONTINUOUS
 62
     4
 10
-826.86484413864332
 20
-804.32399883514142
 30
0.0
 11
-1220.467562138643
 21
-804.32399883514142
 31
0.0
  0
TEXT
  5
705
  8
NOTE
  6
CONTINUOUS
 62
     4
 10
-1198.792290138643
 20
-788.49746783514126
 30
0.0
 40
60.0
  1
RG %%C15.88
 50
0.000003
 41
0.7
  7
STANDARD1
  0
POINT
  5
710
  8
DEFPOINTS
  6
CONTINUOUS
 62
     7
 10
-826.02047000000005
 20
-367.5
 30
0.0
  0
LINE
  5
716
  8
SIZE
  6
CONTINUOUS
 62
    30
 10
-632.0
 20
-259.5
 30
0.0
 11
-632.0
 21
-899.87962195321563
 31
0.0
  0
LINE
  5
717
  8
SIZE
  6
CONTINUOUS
 62
    30
 10
-840.45221119100916
 20
-367.5
 30
0.0
 11
-840.45221119100916
 21
-239.5
 31
0.0
  0
LINE
  5
719
  8
DETAIL
  6
CONTINUOUS
 62
     5
 10
-596.0
 20
-306.89987000000002
 30
0.0
 11
-596.0
 21
-327.5
 31
0.0
  0
LINE
  5
71A
  8
SIZE
  6
CONTINUOUS
 62
    30
 10
-580.0
 20
-378.6760810528686
 30
0.0
 11
-580.0
 21
-899.87962195321563
 31
0.0
  0
TEXT
  5
71B
  8
SIZE
  6
CONTINUOUS
 62
    30
 10
-748.9642855714286
 20
-851.87962195321563
 30
0.0
 40
55.0
  1
52
 41
0.9
 72
     1
 11
-708.89285700000005
 21
-851.87962195321563
 31
0.0
  0
LINE
  5
71C
  8
SIZE
  6
CONTINUOUS
 62
    30
 10
-642.0
 20
-869.87962195321552
 30
0.0
 11
-765.78571399999964
 21
-869.87962195321552
 31
0.0
  0
POINT
  5
71D
  8
DEFPOINTS
  6
CONTINUOUS
 62
     7
 10
-580.0
 20
-869.87962195321552
 30
0.0
  0
LINE
  5
71E
  8
SIZE
  6
CONTINUOUS
 62
    30
 10
-637.0
 20
-869.87962195321552
 30
0.0
 11
-642.0
 21
-869.87962195321552
 31
0.0
  0
CIRCLE
  5
71F
  8
SIZE
  6
CONTINUOUS
 62
    30
 10
-632.0
 20
-869.87962195321552
 30
0.0
 40
5.0
  0
LINE
  5
720
  8
SIZE
  6
CONTINUOUS
 62
    30
 10
-575.0
 20
-869.87962195321552
 30
0.0
 11
-570.0
 21
-869.87962195321552
 31
0.0
  0
CIRCLE
  5
721
  8
SIZE
  6
CONTINUOUS
 62
    30
 10
-580.0
 20
-869.87962195321552
 30
0.0
 40
5.0
  0
LINE
  5
722
  8
SIZE
  6
CONTINUOUS
 62
    30
 10
-580.0
 20
-869.87962195321552
 30
0.0
 11
-632.0
 21
-869.87962195321552
 31
0.0
  0
LINE
  5
723
  8
SIZE
  6
CONTINUOUS
 62
    30
 10
-570.0
 20
-869.87962195321552
 30
0.0
 11
-560.0
 21
-869.87962195321552
 31
0.0
  0
LINE
  5
724
  8
SIZE
  6
CONTINUOUS
 62
    30
 10
-600.0
 20
-367.5
 30
0.0
 11
-870.45221119100916
 21
-367.5
 31
0.0
  0
LINE
  5
725
  8
SIZE
  6
CONTINUOUS
 62
    30
 10
-840.45221119100916
 20
-372.5
 30
0.0
 11
-840.45221119100916
 21
-377.5
 31
0.0
  0
CIRCLE
  5
726
  8
SIZE
  6
CONTINUOUS
 62
    30
 10
-840.45221119100916
 20
-367.5
 30
0.0
 40
5.0
  0
LINE
  5
727
  8
SIZE
  6
CONTINUOUS
 62
    30
 10
-840.45221119100916
 20
-377.5
 30
0.0
 11
-840.45221119100916
 21
-387.5
 31
0.0
  0
POINT
  5
72A
  8
DEFPOINTS
  6
CONTINUOUS
 62
     7
 10
-596.0
 20
-367.5
 30
0.0
  0
POINT
  5
72B
  8
DEFPOINTS
  6
CONTINUOUS
 62
     7
 10
-596.0
 20
-367.5
 30
0.0
  0
POINT
  5
72C
  8
DEFPOINTS
  6
CONTINUOUS
 62
     7
 10
-600.0
 20
-367.5
 30
0.0
  0
POINT
  5
72D
  8
DEFPOINTS
  6
CONTINUOUS
 62
     7
 10
-600.0
 20
-367.5
 30
0.0
  0
POINT
  5
72E
  8
DEFPOINTS
  6
CONTINUOUS
 62
     7
 10
-596.0
 20
-367.5
 30
0.0
  0
POINT
  5
72F
  8
DEFPOINTS
  6
CONTINUOUS
 62
     7
 10
-580.0
 20
-367.5
 30
0.0
  0
POINT
  5
730
  8
DEFPOINTS
  6
CONTINUOUS
 62
     7
 10
-596.0
 20
-367.5
 30
0.0
  0
LINE
  5
734
  8
DETAIL
  6
CONTINUOUS
 62
     5
 10
-596.0
 20
-339.5
 30
0.0
 11
-596.0
 21
-367.5
 31
0.0
  0
LINE
  5
736
  8
DETAIL
  6
CONTINUOUS
 62
     5
 10
-580.0
 20
-339.5
 30
0.0
 11
-596.0
 21
-339.5
 31
0.0
  0
LINE
  5
737
  8
DETAIL
  6
CONTINUOUS
 62
     5
 10
-580.0
 20
-327.5
 30
0.0
 11
-596.0
 21
-327.5
 31
0.0
  0
LINE
  5
740
  8
DETAIL
  6
CONTINUOUS
 62
     5
 10
-580.0
 20
-327.5
 30
0.0
 11
-596.0
 21
-327.5
 31
0.0
  0
LINE
  5
741
  8
DETAIL
  6
CONTINUOUS
 62
     5
 10
-580.0
 20
-339.5
 30
0.0
 11
-596.0
 21
-339.5
 31
0.0
  0
LINE
  5
756
  8
SIZE
  6
CONTINUOUS
 62
    30
 10
-570.00914899999998
 20
-206.95584700000001
 30
0.0
 11
-446.223434
 21
-206.95584700000001
 31
0.0
  0
LINE
  5
757
  8
NOTE
  6
CONTINUOUS
 62
     4
 10
-622.0
 20
-175.50000000000011
 30
0.0
 11
-643.09850120340775
 21
-202.65148103892341
 31
0.0
  0
LINE
  5
758
  8
SIZE
  6
CONTINUOUS
 62
    30
 10
-644.5
 20
-175.5
 30
0.0
 11
-870.45221119100916
 21
-175.5
 31
0.0
  0
LINE
  5
759
  8
SIZE
  6
CONTINUOUS
 62
    30
 10
-647.26829699999996
 20
-239.5
 30
0.0
 11
-870.45221119100916
 21
-239.5
 31
0.0
  0
LINE
  5
75A
  8
SIZE
  6
CONTINUOUS
 62
    30
 10
-647.26829699999996
 20
-239.5
 30
0.0
 11
-870.45221119100916
 21
-239.5
 31
0.0
  0
LINE
  5
75C
  8
SIZE
  6
CONTINUOUS
 62
    30
 10
-840.45221119100916
 20
-180.5
 30
0.0
 11
-840.45221119100916
 21
-185.5
 31
0.0
  0
CIRCLE
  5
75D
  8
SIZE
  6
CONTINUOUS
 62
    30
 10
-840.45221119100916
 20
-175.5
 30
0.0
 40
5.0
  0
LINE
  5
75E
  8
SIZE
  6
CONTINUOUS
 62
    30
 10
-840.45221119100916
 20
-234.5
 30
0.0
 11
-840.45221119100916
 21
-229.5
 31
0.0
  0
CIRCLE
  5
75F
  8
SIZE
  6
CONTINUOUS
 62
    30
 10
-840.45221119100916
 20
-239.5
 30
0.0
 40
5.0
  0
LINE
  5
760
  8
SIZE
  6
CONTINUOUS
 62
    30
 10
-840.45221119100916
 20
-229.5
 30
0.0
 11
-840.45221119100916
 21
-185.5
 31
0.0
  0
LINE
  5
762
  8
SIZE
  6
CONTINUOUS
 62
    30
 10
-840.45221119100916
 20
-234.5
 30
0.0
 11
-840.45221119100916
 21
-229.5
 31
0.0
  0
CIRCLE
  5
763
  8
SIZE
  6
CONTINUOUS
 62
    30
 10
-840.45221119100916
 20
-239.5
 30
0.0
 40
5.0
  0
LINE
  5
764
  8
SIZE
  6
CONTINUOUS
 62
    30
 10
-840.45221119100916
 20
-229.5
 30
0.0
 11
-840.45221119100916
 21
-219.5
 31
0.0
  0
POINT
  5
765
  8
DEFPOINTS
  6
CONTINUOUS
 62
     7
 10
-632.0
 20
-228.25
 30
0.0
  0
LINE
  5
766
  8
NOTE
  6
CONTINUOUS
 62
     4
 10
-622.0
 20
-170.00000800000001
 30
0.0
 11
-622.0
 21
-180.99999199999999
 31
0.0
  0
LINE
  5
767
  8
DETAIL
  6
CONTINUOUS
 62
     5
 10
-600.00914899999987
 20
-181.0
 30
0.0
 11
-580.00914899999975
 21
-181.0
 31
0.0
  0
LINE
  5
768
  8
DETAIL
  6
CONTINUOUS
 62
     5
 10
-599.00914899999998
 20
-185.0
 30
0.0
 11
-580.00914899999975
 21
-185.0
 31
0.0
  0
LINE
  5
769
  8
DETAIL
  6
CONTINUOUS
 62
     5
 10
-599.00914899999998
 20
-166.0
 30
0.0
 11
-580.00914899999975
 21
-166.0
 31
0.0
  0
LINE
  5
76A
  8
DETAIL
  6
CONTINUOUS
 62
     5
 10
-600.00914899999987
 20
-170.0
 30
0.0
 11
-580.00914899999975
 21
-170.0
 31
0.0
  0
LINE
  5
76B
  8
DETAIL
  6
CONTINUOUS
 62
     5
 10
-619.00914899999998
 20
-186.0
 30
0.0
 11
-606.00914899999975
 21
-186.0
 31
0.0
  0
LINE
  5
76C
  8
DETAIL
  6
CONTINUOUS
 62
     5
 10
-618.00914899999975
 20
-181.0
 30
0.0
 11
-605.00914899999975
 21
-181.0
 31
0.0
  0
LINE
  5
76D
  8
DETAIL
  6
CONTINUOUS
 62
     5
 10
-605.00914899999975
 20
-185.0
 30
0.0
 11
-606.00914899999975
 21
-186.0
 31
0.0
  0
LINE
  5
76E
  8
DETAIL
  6
CONTINUOUS
 62
     5
 10
-600.00914899999987
 20
-184.0
 30
0.0
 11
-599.00914899999998
 21
-185.0
 31
0.0
  0
LINE
  5
76F
  8
DETAIL
  6
CONTINUOUS
 62
     5
 10
-618.00914899999975
 20
-181.0
 30
0.0
 11
-619.00914899999998
 21
-180.0
 31
0.0
  0
LINE
  5
770
  8
DETAIL
  6
CONTINUOUS
 62
     5
 10
-618.00914899999975
 20
-181.0
 30
0.0
 11
-619.00914899999998
 21
-182.0
 31
0.0
  0
LINE
  5
771
  8
DETAIL
  6
CONTINUOUS
 62
     5
 10
-605.00914899999975
 20
-180.25999999999999
 30
0.0
 11
-600.00914899999987
 21
-180.25999999999999
 31
0.0
  0
LINE
  5
772
  8
DETAIL
  6
CONTINUOUS
 62
     5
 10
-600.00914899999987
 20
-184.0
 30
0.0
 11
-600.00914899999987
 21
-167.0
 31
0.0
  0
LINE
  5
773
  8
DETAIL
  6
CONTINUOUS
 62
     5
 10
-605.00914899999975
 20
-185.0
 30
0.0
 11
-605.00914899999975
 21
-166.0
 31
0.0
  0
LINE
  5
774
  8
DETAIL
  6
CONTINUOUS
 62
     5
 10
-619.00914899999998
 20
-165.0
 30
0.0
 11
-606.00914899999975
 21
-165.0
 31
0.0
  0
LINE
  5
775
  8
DETAIL
  6
CONTINUOUS
 62
     5
 10
-619.00914899999998
 20
-186.0
 30
0.0
 11
-619.00914899999998
 21
-165.0
 31
0.0
  0
LINE
  5
776
  8
DETAIL
  6
CONTINUOUS
 62
     5
 10
-618.00914899999975
 20
-170.0
 30
0.0
 11
-605.00914899999975
 21
-170.0
 31
0.0
  0
LINE
  5
777
  8
DETAIL
  6
CONTINUOUS
 62
     5
 10
-606.00914899999975
 20
-165.0
 30
0.0
 11
-605.00914899999975
 21
-166.0
 31
0.0
  0
LINE
  5
778
  8
DETAIL
  6
CONTINUOUS
 62
     5
 10
-600.00914899999987
 20
-167.0
 30
0.0
 11
-599.00914899999998
 21
-166.0
 31
0.0
  0
LINE
  5
779
  8
DETAIL
  6
CONTINUOUS
 62
     5
 10
-618.00914899999975
 20
-170.0
 30
0.0
 11
-619.00914899999998
 21
-169.0
 31
0.0
  0
LINE
  5
77A
  8
DETAIL
  6
CONTINUOUS
 62
     5
 10
-618.00914899999975
 20
-170.0
 30
0.0
 11
-619.00914899999998
 21
-171.0
 31
0.0
  0
LINE
  5
77B
  8
DETAIL
  6
CONTINUOUS
 62
     5
 10
-605.00914899999975
 20
-170.74000000000001
 30
0.0
 11
-600.00914899999987
 21
-170.74000000000001
 31
0.0
  0
LINE
  5
782
  8
DETAIL
  6
CONTINUOUS
 62
     5
 10
-622.0
 20
-181.0
 30
0.0
 11
-622.0
 21
-170.0
 31
0.0
  0
LINE
  5
783
  8
DETAIL
  6
CONTINUOUS
 62
     5
 10
-622.0
 20
-181.0
 30
0.0
 11
-619.00914899999998
 21
-186.0
 31
0.0
  0
LINE
  5
784
  8
DETAIL
  6
CONTINUOUS
 62
     5
 10
-605.00914899999975
 20
-185.0
 30
0.0
 11
-606.00914899999975
 21
-186.0
 31
0.0
  0
LINE
  5
78E
  8
DETAIL
  6
CONTINUOUS
 62
     5
 10
-622.0
 20
-170.0
 30
0.0
 11
-619.00914899999998
 21
-165.0
 31
0.0
  0
LINE
  5
794
  8
NOTE
  6
CONTINUOUS
 62
     4
 10
-632.0
 20
-228.25000399999999
 30
0.0
 11
-632.0
 21
-250.74999600000001
 31
0.0
  0
LINE
  5
795
  8
DETAIL
  6
CONTINUOUS
 62
     5
 10
-632.0
 20
-228.25
 30
0.0
 11
-632.0
 21
-250.75
 31
0.0
  0
LINE
  5
796
  8
DETAIL
  6
CONTINUOUS
 62
     5
 10
-580.0
 20
-251.0
 30
0.0
 11
-607.00914899999998
 21
-251.0
 31
0.0
  0
LINE
  5
797
  8
DETAIL
  6
CONTINUOUS
 62
     5
 10
-580.0
 20
-228.0
 30
0.0
 11
-607.00914899999998
 21
-228.0
 31
0.0
  0
LINE
  5
798
  8
DETAIL
  6
CONTINUOUS
 62
     5
 10
-627.00914899999975
 20
-246.5
 30
0.0
 11
-629.00914899999975
 21
-248.5
 31
0.0
  0
LINE
  5
79A
  8
DETAIL
  6
CONTINUOUS
 62
     5
 10
-627.00914899999975
 20
-246.5
 30
0.0
 11
-629.00914899999975
 21
-244.5
 31
0.0
  0
LINE
  5
79C
  8
DETAIL
  6
CONTINUOUS
 62
     5
 10
-627.00914899999975
 20
-232.5
 30
0.0
 11
-629.00914899999975
 21
-234.5
 31
0.0
  0
LINE
  5
79E
  8
DETAIL
  6
CONTINUOUS
 62
     5
 10
-627.00914899999975
 20
-232.5
 30
0.0
 11
-629.00914899999975
 21
-230.5
 31
0.0
  0
LINE
  5
7A0
  8
DETAIL
  6
CONTINUOUS
 62
     5
 10
-615.00914899999998
 20
-232.5
 30
0.0
 11
-613.00914899999975
 21
-230.5
 31
0.0
  0
LINE
  5
7A2
  8
DETAIL
  6
CONTINUOUS
 62
     5
 10
-615.00914899999998
 20
-232.5
 30
0.0
 11
-613.00914899999975
 21
-234.5
 31
0.0
  0
LINE
  5
7A4
  8
DETAIL
  6
CONTINUOUS
 62
     5
 10
-615.00914899999998
 20
-246.5
 30
0.0
 11
-613.00914899999975
 21
-244.5
 31
0.0
  0
LINE
  5
7A6
  8
DETAIL
  6
CONTINUOUS
 62
     5
 10
-615.00914899999998
 20
-246.5
 30
0.0
 11
-613.00914899999975
 21
-248.5
 31
0.0
  0
LINE
  5
7A8
  8
DETAIL
  6
CONTINUOUS
 62
     5
 10
-615.00914899999998
 20
-246.5
 30
0.0
 11
-627.00914899999975
 21
-246.5
 31
0.0
  0
LINE
  5
7AA
  8
DETAIL
  6
CONTINUOUS
 62
     5
 10
-615.00914899999998
 20
-232.5
 30
0.0
 11
-627.00914899999975
 21
-232.5
 31
0.0
  0
LINE
  5
7AC
  8
DETAIL
  6
CONTINUOUS
 62
     5
 10
-613.00914899999975
 20
-250.5
 30
0.0
 11
-615.00914899999998
 21
-252.5
 31
0.0
  0
LINE
  5
7AE
  8
DETAIL
  6
CONTINUOUS
 62
     5
 10
-613.00914899999975
 20
-228.5
 30
0.0
 11
-615.00914899999998
 21
-226.5
 31
0.0
  0
LINE
  5
7B0
  8
DETAIL
  6
CONTINUOUS
 62
     5
 10
-632.0
 20
-250.75
 30
0.0
 11
-629.00914899999975
 21
-252.5
 31
0.0
  0
LINE
  5
7B1
  8
DETAIL
  6
CONTINUOUS
 62
     5
 10
-629.00914899999975
 20
-226.5
 30
0.0
 11
-632.0
 21
-228.25000399999999
 31
0.0
  0
LINE
  5
7B2
  8
DETAIL
  6
CONTINUOUS
 62
     5
 10
-629.00914899999975
 20
-226.5
 30
0.0
 11
-629.00914899999975
 21
-252.5
 31
0.0
  0
LINE
  5
7B4
  8
DETAIL
  6
CONTINUOUS
 62
     5
 10
-613.00914899999975
 20
-228.5
 30
0.0
 11
-613.00914899999975
 21
-250.5
 31
0.0
  0
LINE
  5
7B5
  8
DETAIL
  6
CONTINUOUS
 62
     5
 10
-613.00914899999975
 20
-228.5
 30
0.0
 11
-613.00914899999975
 21
-250.5
 31
0.0
  0
LINE
  5
7B6
  8
DETAIL
  6
CONTINUOUS
 62
     5
 10
-615.00914899999998
 20
-252.5
 30
0.0
 11
-629.00914899999975
 21
-252.5
 31
0.0
  0
LINE
  5
7B8
  8
DETAIL
  6
CONTINUOUS
 62
     5
 10
-615.00914899999998
 20
-226.5
 30
0.0
 11
-629.00914899999975
 21
-226.5
 31
0.0
  0
LINE
  5
7BA
  8
DETAIL
  6
CONTINUOUS
 62
     5
 10
-613.00914899999975
 20
-231.5
 30
0.0
 11
-613.00914899999975
 21
-247.5
 31
0.0
  0
LINE
  5
7BB
  8
DETAIL
  6
CONTINUOUS
 62
     5
 10
-613.00914899999975
 20
-247.44
 30
0.0
 11
-609.00914899999975
 21
-247.44
 31
0.0
  0
LINE
  5
7BC
  8
DETAIL
  6
CONTINUOUS
 62
     5
 10
-613.00914899999975
 20
-231.56
 30
0.0
 11
-609.00914899999975
 21
-231.56
 31
0.0
  0
LINE
  5
7BD
  8
DETAIL
  6
CONTINUOUS
 62
     5
 10
-609.00914899999975
 20
-230.0
 30
0.0
 11
-607.00914899999998
 21
-228.0
 31
0.0
  0
LINE
  5
7BE
  8
DETAIL
  6
CONTINUOUS
 62
     5
 10
-609.00914899999975
 20
-249.0
 30
0.0
 11
-607.00914899999998
 21
-251.0
 31
0.0
  0
LINE
  5
7BF
  8
DETAIL
  6
CONTINUOUS
 62
     5
 10
-609.00914899999975
 20
-230.0
 30
0.0
 11
-609.00914899999975
 21
-249.0
 31
0.0
  0
POINT
  5
7EA
  8
DEFPOINTS
  6
CONTINUOUS
 62
     7
 10
-580.0
 20
-306.89987000000002
 30
0.0
  0
POINT
  5
7EB
  8
DEFPOINTS
  6
CONTINUOUS
 62
     7
 10
-580.0
 20
-306.89987000000002
 30
0.0
  0
POINT
  5
7EC
  8
DEFPOINTS
  6
CONTINUOUS
 62
     7
 10
-580.00914899999975
 20
-206.95584700000001
 30
0.0
  0
POINT
  5
7EE
  8
DEFPOINTS
  6
CONTINUOUS
 62
     7
 10
-622.0
 20
-175.5
 30
0.0
  0
LINE
  5
7EF
  8
SIZE
  6
CONTINUOUS
 62
    30
 10
-575.00914899999987
 20
-206.95584700000001
 30
0.0
 11
-570.00914899999998
 21
-206.95584700000001
 31
0.0
  0
CIRCLE
  5
7F0
  8
SIZE
  6
CONTINUOUS
 62
    30
 10
-580.00914899999975
 20
-206.95584700000001
 30
0.0
 40
5.0
  0
LINE
  5
7F1
  8
SIZE
  6
CONTINUOUS
 62
    30
 10
-627.00914899999975
 20
-206.95584700000001
 30
0.0
 11
-632.00914899999998
 21
-206.95584700000001
 31
0.0
  0
CIRCLE
  5
7F2
  8
SIZE
  6
CONTINUOUS
 62
    30
 10
-622.00914899999975
 20
-206.95584700000001
 30
0.0
 40
5.0
  0
LINE
  5
7F3
  8
SIZE
  6
CONTINUOUS
 62
    30
 10
-622.0
 20
-206.95584700000001
 30
0.0
 11
-580.0
 21
-206.95584700000001
 31
0.0
  0
LINE
  5
7F4
  8
SIZE
  6
CONTINUOUS
 62
    30
 10
-632.00914899999998
 20
-206.95584700000001
 30
0.0
 11
-642.00914899999975
 21
-206.95584700000001
 31
0.0
  0
LINE
  5
7F5
  8
SIZE
  6
CONTINUOUS
 62
    30
 10
-580.00914899999975
 20
-187.59344330381279
 30
0.0
 11
-580.00914899999975
 21
-224.00051294943481
 31
0.0
  0
LINE
  5
7F6
  8
SIZE
  6
CONTINUOUS
 62
    30
 10
-622.00914899999975
 20
-185.67727406036281
 30
0.0
 11
-622.00914899999975
 21
-224.00051294943481
 31
0.0
  0
POINT
  5
7F7
  8
DEFPOINTS
  6
CONTINUOUS
 62
     7
 10
-580.0
 20
-306.89987000000002
 30
0.0
  0
POINT
  5
7F8
  8
DEFPOINTS
  6
CONTINUOUS
 62
     7
 10
-632.0
 20
-239.5
 30
0.0
  0
POINT
  5
7F9
  8
DEFPOINTS
  6
CONTINUOUS
 62
     7
 10
-627.5
 20
-175.5
 30
0.0
  0
POINT
  5
7FA
  8
DEFPOINTS
  6
CONTINUOUS
 62
     7
 10
-643.26829699999985
 20
-239.5
 30
0.0
  0
POINT
  5
7FB
  8
DEFPOINTS
  6
CONTINUOUS
 62
     7
 10
-643.26829699999985
 20
-239.5
 30
0.0
  0
LINE
  5
7FC
  8
NOTE
  6
CONTINUOUS
 62
     4
 10
-620.75
 20
-239.5
 30
0.0
 11
-643.24999999999989
 21
-239.5
 31
0.0
  0
LINE
  5
7FD
  8
NOTE
  6
CONTINUOUS
 62
     4
 10
-632.0
 20
-239.5
 30
0.0
 11
-633.87715435678547
 21
-273.83403462069901
 31
0.0
  0
LINE
  5
7FE
  8
NOTE
  6
CONTINUOUS
 62
     4
 10
-632.0
 20
-239.5
 30
0.0
 11
-650.79268071173897
 21
-268.29556914521311
 31
0.0
  0
LINE
  5
7FF
  8
NOTE
  6
CONTINUOUS
 62
     4
 10
-616.49999999999977
 20
-175.5
 30
0.0
 11
-627.5
 21
-175.5
 31
0.0
  0
LINE
  5
800
  8
NOTE
  6
CONTINUOUS
 62
     4
 10
-622.0
 20
-175.50000000000011
 30
0.0
 11
-626.69609765526104
 21
-209.56312237659989
 31
0.0
  0
LINE
  5
801
  8
DETAIL
  6
CONTINUOUS
 62
     5
 10
-580.0
 20
-306.89987000000002
 30
0.0
 11
-596.0
 21
-306.89987000000002
 31
0.0
  0
TEXT
  5
81C
  8
SIZE
  6
CONTINUOUS
 62
    30
 10
-542.17988257142861
 20
-203.05841699999999
 30
0.0
 40
55.0
  1
42
 41
0.9
 72
     1
 11
-502.10845399999999
 21
-203.05841699999999
 31
0.0
  0
LINE
  5
81D
  8
NOTE
  6
CONTINUOUS
 62
     4
 10
-852.29700159259448
 20
-673.88173872994867
 30
0.0
 11
-1196.010583592594
 21
-673.88173872994867
 31
0.0
  0
TEXT
  5
81E
  8
NOTE
  6
CONTINUOUS
 62
     4
 10
-1174.3353115925941
 20
-658.05520772994885
 30
0.0
 40
60.0
  1
RL %%C9.52
 50
0.000003
 41
0.7
  7
STANDARD1
  0
LINE
  5
876
  8
BASIS
  6
DASHDOT
 62
     6
 10
0.0
 20
500.0
 30
0.0
 11
0.0
 21
-500.0
 31
0.0
  0
CIRCLE
  5
877
  8
ARRANGE
  6
CONTINUOUS
 62
     1
 10
0.0
 20
0.0
 30
0.0
 40
50.0
  0
LINE
  5
87F
  8
OUTLINE
  6
CONTINUOUS
 62
     3
 10
580.0
 20
-367.5
 30
0.0
 11
580.0
 21
-143.4999997369159
 31
0.0
  0
LINE
  5
881
  8
ARRANGE
  6
CONTINUOUS
 62
     1
 10
49.963763
 20
49.596595000000001
 30
0.0
 11
-49.963763
 21
-49.596595000000001
 31
0.0
  0
LINE
  5
882
  8
ARRANGE
  6
CONTINUOUS
 62
     1
 10
50.037350000000004
 20
-49.522353000000003
 30
0.0
 11
-50.037350000000004
 21
49.522353000000003
 31
0.0
  0
LINE
  5
883
  8
DETAIL
  6
CONTINUOUS
 62
     5
 10
580.0
 20
-367.5
 30
0.0
 11
580.0
 21
-143.4999997369159
 31
0.0
  0
LINE
  5
886
  8
SIZE
  6
CONTINUOUS
 62
    30
 10
570.0
 20
-987.88672024081359
 30
0.0
 11
560.0
 21
-987.88672024081359
 31
0.0
  0
LINE
  5
88A
  8
DETAIL
  6
CONTINUOUS
 62
     5
 10
580.0
 20
-306.89987000000002
 30
0.0
 11
596.0
 21
-306.89987000000002
 31
0.0
  0
TEXT
  5
88F
  8
SIZE
  6
CONTINUOUS
 62
    30
 10
-76.748706285714277
 20
-1077.863453159649
 30
0.0
 40
55.0
  1
1192
 41
0.9
 72
     1
 11
1.037007999999999
 21
-1077.863453159649
 31
0.0
  0
TEXT
  5
890
  8
SIZE
  6
CONTINUOUS
 62
    30
 10
-77.785714285714292
 20
-969.88672024081359
 30
0.0
 40
55.0
  1
1160
 41
0.9
 72
     1
 11
0.0
 21
-969.88672024081359
 31
0.0
  0
LINE
  5
8D0
  8
SIZE
  6
CONTINUOUS
 62
    30
 10
596.0
 20
-387.5
 30
0.0
 11
596.0
 21
-1131.615720240814
 31
0.0
  0
LINE
  5
8D3
  8
SIZE
  6
CONTINUOUS
 62
    30
 10
596.0
 20
-387.5
 30
0.0
 11
596.0
 21
-1017.886720240813
 31
0.0
  0
LINE
  5
8D4
  8
SIZE
  6
CONTINUOUS
 62
    30
 10
580.0
 20
-387.5
 30
0.0
 11
580.0
 21
-1017.886720240813
 31
0.0
  0
LINE
  5
8D5
  8
SIZE
  6
CONTINUOUS
 62
    30
 10
580.0
 20
-387.5
 30
0.0
 11
580.0
 21
-1017.886720240813
 31
0.0
  0
LINE
  5
8D6
  8
SIZE
  6
CONTINUOUS
 62
    30
 10
596.0
 20
-387.5
 30
0.0
 11
596.0
 21
-1125.863453159649
 31
0.0
  0
CIRCLE
  5
8D7
  8
SIZE
  6
CONTINUOUS
 62
    30
 10
596.0
 20
-1095.863453159649
 30
0.0
 40
5.0
  0
POINT
  5
8E3
  8
DEFPOINTS
  6
CONTINUOUS
 62
     7
 10
596.0
 20
-1095.863453159649
 30
0.0
  0
LINE
  5
8E4
  8
SIZE
  6
CONTINUOUS
 62
    30
 10
591.0
 20
-1095.863453159649
 30
0.0
 11
586.0
 21
-1095.863453159649
 31
0.0
  0
TEXT
  5
8E5
  8
SIZE
  6
CONTINUOUS
 62
    30
 10
636.10371357142844
 20
-969.88672024081359
 30
0.0
 40
55.0
  1
16
 41
0.9
 72
     1
 11
670.282285
 21
-969.88672024081359
 31
0.0
  0
LINE
  5
8E6
  8
SIZE
  6
CONTINUOUS
 62
    30
 10
722.46085700000003
 20
-987.88672024081359
 30
0.0
 11
596.0
 21
-987.88672024081359
 31
0.0
  0
POINT
  5
8E7
  8
DEFPOINTS
  6
CONTINUOUS
 62
     7
 10
596.0
 20
-987.88672024081359
 30
0.0
  0
LINE
  5
8E8
  8
SIZE
  6
CONTINUOUS
 62
    30
 10
601.0
 20
-987.88672024081359
 30
0.0
 11
606.0
 21
-987.88672024081359
 31
0.0
  0
CIRCLE
  5
8E9
  8
SIZE
  6
CONTINUOUS
 62
    30
 10
596.0
 20
-987.88672024081359
 30
0.0
 40
5.0
  0
LINE
  5
8EA
  8
SIZE
  6
CONTINUOUS
 62
    30
 10
575.0
 20
-987.88672024081359
 30
0.0
 11
570.0
 21
-987.88672024081359
 31
0.0
  0
CIRCLE
  5
8EB
  8
SIZE
  6
CONTINUOUS
 62
    30
 10
580.0
 20
-987.88672024081359
 30
0.0
 40
5.0
  0
LINE
  5
8EC
  8
SIZE
  6
CONTINUOUS
 62
    30
 10
580.0
 20
-987.88672024081359
 30
0.0
 11
596.0
 21
-987.88672024081359
 31
0.0
  0
LINE
  5
8ED
  8
SIZE
  6
CONTINUOUS
 62
    30
 10
580.0
 20
-987.88672024081359
 30
0.0
 11
596.0
 21
-987.88672024081359
 31
0.0
  0
LINE
  5
8EE
  8
SIZE
  6
CONTINUOUS
 62
    30
 10
606.0
 20
-987.88672024081359
 30
0.0
 11
616.0
 21
-987.88672024081359
 31
0.0
  0
POINT
  5
8EF
  8
DEFPOINTS
  6
CONTINUOUS
 62
     7
 10
580.0
 20
-987.88672024081359
 30
0.0
  0
LINE
  5
8F0
  8
SIZE
  6
CONTINUOUS
 62
    30
 10
575.0
 20
-987.88672024081359
 30
0.0
 11
570.0
 21
-987.88672024081359
 31
0.0
  0
CIRCLE
  5
8F1
  8
SIZE
  6
CONTINUOUS
 62
    30
 10
580.0
 20
-987.88672024081359
 30
0.0
 40
5.0
  0
LINE
  5
8FB
  8
DETAIL
  6
CONTINUOUS
 62
     5
 10
596.0
 20
-306.89987000000002
 30
0.0
 11
596.0
 21
-327.5
 31
0.0
  0
POINT
  5
901
  8
DEFPOINTS
  6
CONTINUOUS
 62
     7
 10
596.0
 20
-367.5
 30
0.0
  0
POINT
  5
902
  8
DEFPOINTS
  6
CONTINUOUS
 62
     7
 10
596.0
 20
-367.5
 30
0.0
  0
POINT
  5
903
  8
DEFPOINTS
  6
CONTINUOUS
 62
     7
 10
596.0
 20
-367.5
 30
0.0
  0
POINT
  5
906
  8
DEFPOINTS
  6
CONTINUOUS
 62
     7
 10
596.0
 20
-367.5
 30
0.0
  0
POINT
  5
909
  8
DEFPOINTS
  6
CONTINUOUS
 62
     7
 10
580.0
 20
-367.5
 30
0.0
  0
POINT
  5
90A
  8
DEFPOINTS
  6
CONTINUOUS
 62
     7
 10
596.0
 20
-367.5
 30
0.0
  0
LINE
  5
90C
  8
DETAIL
  6
CONTINUOUS
 62
     5
 10
596.0
 20
-339.5
 30
0.0
 11
596.0
 21
-367.5
 31
0.0
  0
LINE
  5
90D
  8
DETAIL
  6
CONTINUOUS
 62
     5
 10
580.0
 20
-339.5
 30
0.0
 11
596.0
 21
-339.5
 31
0.0
  0
LINE
  5
90E
  8
DETAIL
  6
CONTINUOUS
 62
     5
 10
580.0
 20
-327.5
 30
0.0
 11
596.0
 21
-327.5
 31
0.0
  0
LINE
  5
913
  8
DETAIL
  6
CONTINUOUS
 62
     5
 10
580.0
 20
-327.5
 30
0.0
 11
596.0
 21
-327.5
 31
0.0
  0
LINE
  5
914
  8
DETAIL
  6
CONTINUOUS
 62
     5
 10
580.0
 20
-339.5
 30
0.0
 11
596.0
 21
-339.5
 31
0.0
  0
POINT
  5
920
  8
DEFPOINTS
  6
CONTINUOUS
 62
     7
 10
580.0
 20
-306.89987000000002
 30
0.0
  0
POINT
  5
921
  8
DEFPOINTS
  6
CONTINUOUS
 62
     7
 10
580.0
 20
-306.89987000000002
 30
0.0
  0
LINE
  5
940
  8
BASIS
  6
DASHDOT
 62
     6
 10
650.0
 20
0.0
 30
0.0
 11
-965.36530069709363
 21
0.0
 31
0.0
  0
CIRCLE
  5
F15
  8
ARRANGE
  6
CONTINUOUS
 62
     1
 10
0.0
 20
0.0
 30
0.0
 40
50.0
  0
LINE
  5
F16
  8
DETAIL
  6
CONTINUOUS
 62
     5
 10
545.0000034544546
 20
-397.49999783918332
 30
0.0
 11
-545.0
 21
-397.5
 31
0.0
  0
LINE
  5
F17
  8
DETAIL
  6
CONTINUOUS
 62
     5
 10
-545.0
 20
-397.50000221439592
 30
0.0
 11
-545.0
 21
-367.5
 31
0.0
  0
LINE
  5
F18
  8
DETAIL
  6
CONTINUOUS
 62
     5
 10
545.0000034544546
 20
-397.49999783918332
 30
0.0
 11
545.0000034544546
 21
-367.5
 31
0.0
  0
CIRCLE
  5
F19
  8
DETAIL
  6
CONTINUOUS
 62
     5
 10
487.50000000001
 20
-387.5
 30
0.0
 40
1.5
  0
LINE
  5
F1A
  8
NOTE
  6
CONTINUOUS
 62
     4
 10
496.49999976322943
 20
-387.49999999999483
 30
0.0
 11
478.50000023677057
 21
-387.49999999999483
 31
0.0
  0
LINE
  5
F1B
  8
NOTE
  6
CONTINUOUS
 62
     4
 10
487.50000000001
 20
-378.50000023677421
 30
0.0
 11
487.50000000001
 21
-396.49999976322579
 31
0.0
  0
CIRCLE
  5
F1C
  8
DETAIL
  6
CONTINUOUS
 62
     5
 10
422.50000000001
 20
-387.5
 30
0.0
 40
1.5
  0
LINE
  5
F1D
  8
NOTE
  6
CONTINUOUS
 62
     4
 10
431.49999976322943
 20
-387.49999999999483
 30
0.0
 11
413.5000002367704
 21
-387.49999999999483
 31
0.0
  0
LINE
  5
F1E
  8
NOTE
  6
CONTINUOUS
 62
     4
 10
422.50000000001
 20
-378.50000023677421
 30
0.0
 11
422.50000000001
 21
-396.49999976322579
 31
0.0
  0
CIRCLE
  5
F1F
  8
DETAIL
  6
CONTINUOUS
 62
     5
 10
487.50000000001
 20
-387.5
 30
0.0
 40
1.5
  0
LINE
  5
F20
  8
NOTE
  6
CONTINUOUS
 62
     4
 10
496.49999976322943
 20
-387.49999999999483
 30
0.0
 11
478.50000023677057
 21
-387.49999999999483
 31
0.0
  0
LINE
  5
F21
  8
NOTE
  6
CONTINUOUS
 62
     4
 10
487.50000000001
 20
-378.50000023677421
 30
0.0
 11
487.50000000001
 21
-396.49999976322579
 31
0.0
  0
CIRCLE
  5
F22
  8
DETAIL
  6
CONTINUOUS
 62
     5
 10
357.5000000000104
 20
-387.5
 30
0.0
 40
1.5
  0
LINE
  5
F23
  8
NOTE
  6
CONTINUOUS
 62
     4
 10
366.49999976322943
 20
-387.49999999999483
 30
0.0
 11
348.50000023677057
 21
-387.49999999999483
 31
0.0
  0
LINE
  5
F24
  8
NOTE
  6
CONTINUOUS
 62
     4
 10
357.5000000000104
 20
-378.50000023677421
 30
0.0
 11
357.5000000000104
 21
-396.49999976322579
 31
0.0
  0
CIRCLE
  5
F25
  8
DETAIL
  6
CONTINUOUS
 62
     5
 10
292.50000000001
 20
-387.5
 30
0.0
 40
1.5
  0
LINE
  5
F26
  8
NOTE
  6
CONTINUOUS
 62
     4
 10
301.49999976322943
 20
-387.49999999999483
 30
0.0
 11
283.50000023677057
 21
-387.49999999999483
 31
0.0
  0
LINE
  5
F27
  8
NOTE
  6
CONTINUOUS
 62
     4
 10
292.50000000001
 20
-378.50000023677421
 30
0.0
 11
292.50000000001
 21
-396.49999976322579
 31
0.0
  0
CIRCLE
  5
F28
  8
DETAIL
  6
CONTINUOUS
 62
     5
 10
292.50000000001
 20
-387.5
 30
0.0
 40
1.5
  0
LINE
  5
F29
  8
NOTE
  6
CONTINUOUS
 62
     4
 10
301.49999976322943
 20
-387.49999999999483
 30
0.0
 11
283.50000023677057
 21
-387.49999999999483
 31
0.0
  0
LINE
  5
F2A
  8
NOTE
  6
CONTINUOUS
 62
     4
 10
292.50000000001
 20
-378.50000023677421
 30
0.0
 11
292.50000000001
 21
-396.49999976322579
 31
0.0
  0
CIRCLE
  5
F2B
  8
DETAIL
  6
CONTINUOUS
 62
     5
 10
227.50000000001
 20
-387.5
 30
0.0
 40
1.5
  0
LINE
  5
F2C
  8
NOTE
  6
CONTINUOUS
 62
     4
 10
236.4999997632294
 20
-387.49999999999483
 30
0.0
 11
218.5000002367706
 21
-387.49999999999483
 31
0.0
  0
LINE
  5
F2D
  8
NOTE
  6
CONTINUOUS
 62
     4
 10
227.50000000001
 20
-378.50000023677421
 30
0.0
 11
227.50000000001
 21
-396.49999976322579
 31
0.0
  0
CIRCLE
  5
F2E
  8
DETAIL
  6
CONTINUOUS
 62
     5
 10
227.50000000001
 20
-387.5
 30
0.0
 40
1.5
  0
LINE
  5
F2F
  8
NOTE
  6
CONTINUOUS
 62
     4
 10
236.4999997632294
 20
-387.49999999999483
 30
0.0
 11
218.5000002367706
 21
-387.49999999999483
 31
0.0
  0
LINE
  5
F30
  8
NOTE
  6
CONTINUOUS
 62
     4
 10
227.50000000001
 20
-378.50000023677421
 30
0.0
 11
227.50000000001
 21
-396.49999976322579
 31
0.0
  0
CIRCLE
  5
F31
  8
DETAIL
  6
CONTINUOUS
 62
     5
 10
162.5000000000104
 20
-387.5
 30
0.0
 40
1.5
  0
LINE
  5
F32
  8
NOTE
  6
CONTINUOUS
 62
     4
 10
171.4999997632294
 20
-387.49999999999483
 30
0.0
 11
153.50000023677049
 21
-387.49999999999483
 31
0.0
  0
LINE
  5
F33
  8
NOTE
  6
CONTINUOUS
 62
     4
 10
162.5000000000104
 20
-378.50000023677421
 30
0.0
 11
162.5000000000104
 21
-396.49999976322579
 31
0.0
  0
CIRCLE
  5
F34
  8
DETAIL
  6
CONTINUOUS
 62
     5
 10
162.5000000000104
 20
-387.5
 30
0.0
 40
1.5
  0
LINE
  5
F35
  8
NOTE
  6
CONTINUOUS
 62
     4
 10
171.4999997632294
 20
-387.49999999999483
 30
0.0
 11
153.50000023677049
 21
-387.49999999999483
 31
0.0
  0
LINE
  5
F36
  8
NOTE
  6
CONTINUOUS
 62
     4
 10
162.5000000000104
 20
-378.50000023677421
 30
0.0
 11
162.5000000000104
 21
-396.49999976322579
 31
0.0
  0
CIRCLE
  5
F37
  8
DETAIL
  6
CONTINUOUS
 62
     5
 10
97.500000000010004
 20
-387.5
 30
0.0
 40
1.5
  0
LINE
  5
F38
  8
NOTE
  6
CONTINUOUS
 62
     4
 10
106.4999997632294
 20
-387.49999999999483
 30
0.0
 11
88.500000236770575
 21
-387.49999999999483
 31
0.0
  0
LINE
  5
F39
  8
NOTE
  6
CONTINUOUS
 62
     4
 10
97.500000000010004
 20
-378.50000023677421
 30
0.0
 11
97.500000000010004
 21
-396.49999976322579
 31
0.0
  0
CIRCLE
  5
F3A
  8
DETAIL
  6
CONTINUOUS
 62
     5
 10
97.500000000010004
 20
-387.5
 30
0.0
 40
1.5
  0
LINE
  5
F3B
  8
NOTE
  6
CONTINUOUS
 62
     4
 10
106.4999997632294
 20
-387.49999999999483
 30
0.0
 11
88.500000236770575
 21
-387.49999999999483
 31
0.0
  0
LINE
  5
F3C
  8
NOTE
  6
CONTINUOUS
 62
     4
 10
97.500000000010004
 20
-378.50000023677421
 30
0.0
 11
97.500000000010004
 21
-396.49999976322579
 31
0.0
  0
CIRCLE
  5
F3D
  8
DETAIL
  6
CONTINUOUS
 62
     5
 10
32.500000000010452
 20
-387.5
 30
0.0
 40
1.5
  0
LINE
  5
F3E
  8
NOTE
  6
CONTINUOUS
 62
     4
 10
41.499999763229397
 20
-387.49999999999483
 30
0.0
 11
23.500000236770571
 21
-387.49999999999483
 31
0.0
  0
LINE
  5
F3F
  8
NOTE
  6
CONTINUOUS
 62
     4
 10
32.500000000010452
 20
-378.50000023677421
 30
0.0
 11
32.500000000010452
 21
-396.49999976322579
 31
0.0
  0
CIRCLE
  5
F40
  8
DETAIL
  6
CONTINUOUS
 62
     5
 10
32.500000000010452
 20
-387.5
 30
0.0
 40
1.5
  0
LINE
  5
F41
  8
NOTE
  6
CONTINUOUS
 62
     4
 10
41.499999763229397
 20
-387.49999999999483
 30
0.0
 11
23.500000236770571
 21
-387.49999999999483
 31
0.0
  0
LINE
  5
F42
  8
NOTE
  6
CONTINUOUS
 62
     4
 10
32.500000000010452
 20
-378.50000023677421
 30
0.0
 11
32.500000000010452
 21
-396.49999976322579
 31
0.0
  0
CIRCLE
  5
F43
  8
DETAIL
  6
CONTINUOUS
 62
     5
 10
-32.499999999989541
 20
-387.5
 30
0.0
 40
1.5
  0
LINE
  5
F44
  8
NOTE
  6
CONTINUOUS
 62
     4
 10
-23.500000236770571
 20
-387.49999999999483
 30
0.0
 11
-41.499999763229397
 21
-387.49999999999483
 31
0.0
  0
LINE
  5
F45
  8
NOTE
  6
CONTINUOUS
 62
     4
 10
-32.499999999989541
 20
-378.50000023677421
 30
0.0
 11
-32.499999999989541
 21
-396.49999976322579
 31
0.0
  0
CIRCLE
  5
F46
  8
DETAIL
  6
CONTINUOUS
 62
     5
 10
-32.499999999989541
 20
-387.5
 30
0.0
 40
1.5
  0
LINE
  5
F47
  8
NOTE
  6
CONTINUOUS
 62
     4
 10
-23.500000236770571
 20
-387.49999999999483
 30
0.0
 11
-41.499999763229397
 21
-387.49999999999483
 31
0.0
  0
LINE
  5
F48
  8
NOTE
  6
CONTINUOUS
 62
     4
 10
-32.499999999989541
 20
-378.50000023677421
 30
0.0
 11
-32.499999999989541
 21
-396.49999976322579
 31
0.0
  0
CIRCLE
  5
F49
  8
DETAIL
  6
CONTINUOUS
 62
     5
 10
-97.499999999989569
 20
-387.5
 30
0.0
 40
1.5
  0
LINE
  5
F4A
  8
NOTE
  6
CONTINUOUS
 62
     4
 10
-88.500000236770575
 20
-387.49999999999483
 30
0.0
 11
-106.4999997632294
 21
-387.49999999999483
 31
0.0
  0
LINE
  5
F4B
  8
NOTE
  6
CONTINUOUS
 62
     4
 10
-97.499999999989569
 20
-378.50000023677421
 30
0.0
 11
-97.499999999989569
 21
-396.49999976322579
 31
0.0
  0
CIRCLE
  5
F4C
  8
DETAIL
  6
CONTINUOUS
 62
     5
 10
-97.499999999989569
 20
-387.5
 30
0.0
 40
1.5
  0
LINE
  5
F4D
  8
NOTE
  6
CONTINUOUS
 62
     4
 10
-88.500000236770575
 20
-387.49999999999483
 30
0.0
 11
-106.4999997632294
 21
-387.49999999999483
 31
0.0
  0
LINE
  5
F4E
  8
NOTE
  6
CONTINUOUS
 62
     4
 10
-97.499999999989569
 20
-378.50000023677421
 30
0.0
 11
-97.499999999989569
 21
-396.49999976322579
 31
0.0
  0
CIRCLE
  5
F4F
  8
DETAIL
  6
CONTINUOUS
 62
     5
 10
-162.49999999999
 20
-387.5
 30
0.0
 40
1.5
  0
LINE
  5
F50
  8
NOTE
  6
CONTINUOUS
 62
     4
 10
-153.50000023677049
 20
-387.49999999999483
 30
0.0
 11
-171.4999997632294
 21
-387.49999999999483
 31
0.0
  0
LINE
  5
F51
  8
NOTE
  6
CONTINUOUS
 62
     4
 10
-162.49999999999
 20
-378.50000023677421
 30
0.0
 11
-162.49999999999
 21
-396.49999976322579
 31
0.0
  0
CIRCLE
  5
F52
  8
DETAIL
  6
CONTINUOUS
 62
     5
 10
-162.49999999999
 20
-387.5
 30
0.0
 40
1.5
  0
LINE
  5
F53
  8
NOTE
  6
CONTINUOUS
 62
     4
 10
-153.50000023677049
 20
-387.49999999999483
 30
0.0
 11
-171.4999997632294
 21
-387.49999999999483
 31
0.0
  0
LINE
  5
F54
  8
NOTE
  6
CONTINUOUS
 62
     4
 10
-162.49999999999
 20
-378.50000023677421
 30
0.0
 11
-162.49999999999
 21
-396.49999976322579
 31
0.0
  0
CIRCLE
  5
F55
  8
DETAIL
  6
CONTINUOUS
 62
     5
 10
-227.49999999998951
 20
-387.5
 30
0.0
 40
1.5
  0
LINE
  5
F56
  8
NOTE
  6
CONTINUOUS
 62
     4
 10
-218.5000002367706
 20
-387.49999999999483
 30
0.0
 11
-236.4999997632294
 21
-387.49999999999483
 31
0.0
  0
LINE
  5
F57
  8
NOTE
  6
CONTINUOUS
 62
     4
 10
-227.49999999998951
 20
-378.50000023677421
 30
0.0
 11
-227.49999999998951
 21
-396.49999976322579
 31
0.0
  0
CIRCLE
  5
F58
  8
DETAIL
  6
CONTINUOUS
 62
     5
 10
-227.49999999998951
 20
-387.5
 30
0.0
 40
1.5
  0
LINE
  5
F59
  8
NOTE
  6
CONTINUOUS
 62
     4
 10
-218.5000002367706
 20
-387.49999999999483
 30
0.0
 11
-236.4999997632294
 21
-387.49999999999483
 31
0.0
  0
LINE
  5
F5A
  8
NOTE
  6
CONTINUOUS
 62
     4
 10
-227.49999999998951
 20
-378.50000023677421
 30
0.0
 11
-227.49999999998951
 21
-396.49999976322579
 31
0.0
  0
CIRCLE
  5
F5B
  8
DETAIL
  6
CONTINUOUS
 62
     5
 10
-292.49999999998948
 20
-387.5
 30
0.0
 40
1.5
  0
LINE
  5
F5C
  8
NOTE
  6
CONTINUOUS
 62
     4
 10
-283.50000023677057
 20
-387.49999999999483
 30
0.0
 11
-301.49999976322943
 21
-387.49999999999483
 31
0.0
  0
LINE
  5
F5D
  8
NOTE
  6
CONTINUOUS
 62
     4
 10
-292.49999999998948
 20
-378.50000023677421
 30
0.0
 11
-292.49999999998948
 21
-396.49999976322579
 31
0.0
  0
LINE
  5
F64
  8
NOTE
  6
CONTINUOUS
 62
     4
 10
646.23044377086671
 20
-771.23652428495836
 30
0.0
 11
1128.3118548257889
 21
-771.236524284962
 31
0.0
  0
TEXT
  5
F65
  8
NOTE
  6
CONTINUOUS
 62
     4
 10
653.58411248677555
 20
-759.03398207847567
 30
0.0
 40
60.0
  1
2x16-%%C3 取付穴
 50
359.9999970000153
 41
0.7
  7
STANDARD1
  0
LINE
  5
F66
  8
SIZE
  6
CONTINUOUS
 62
    30
 10
487.50000000001
 20
-417.49999999999989
 30
0.0
 11
487.50000000001
 21
-549.66319333840602
 31
0.0
  0
LINE
  5
F67
  8
SIZE
  6
CONTINUOUS
 62
    30
 10
422.50000000001
 20
-416.49999976322567
 30
0.0
 11
422.50000000001
 21
-549.66319333840602
 31
0.0
  0
LINE
  5
F68
  8
SIZE
  6
CONTINUOUS
 62
    30
 10
477.50000000000978
 20
-519.66319333840602
 30
0.0
 11
432.5000000000104
 21
-519.66319333840602
 31
0.0
  0
LINE
  5
F69
  8
SIZE
  6
CONTINUOUS
 62
    30
 10
422.50000000001
 20
-519.66319333840602
 30
0.0
 11
296.18625834074919
 21
-519.66319333840602
 31
0.0
  0
LINE
  5
F6A
  8
SIZE
  6
CONTINUOUS
 62
    30
 10
487.50000000001
 20
-416.49999976322567
 30
0.0
 11
487.50000000001
 21
-691.92308038460487
 31
0.0
  0
LINE
  5
F6B
  8
SIZE
  6
CONTINUOUS
 62
    30
 10
497.50000000001
 20
-661.92308038460487
 30
0.0
 11
570.0
 21
-661.92308038460487
 31
0.0
  0
LINE
  5
F6C
  8
SIZE
  6
CONTINUOUS
 62
    30
 10
580.0
 20
-661.92308038460487
 30
0.0
 11
741.1915669004303
 21
-661.92308038460487
 31
0.0
  0
LINE
  5
F6D
  8
SIZE
  6
CONTINUOUS
 62
    30
 10
-487.49999999998948
 20
-416.49999976322567
 30
0.0
 11
-487.49999999998948
 21
-691.92308038460487
 31
0.0
  0
LINE
  5
F6E
  8
SIZE
  6
CONTINUOUS
 62
    30
 10
487.50000000001
 20
-416.49999976322567
 30
0.0
 11
487.50000000001
 21
-691.92308038460487
 31
0.0
  0
LINE
  5
F6F
  8
SIZE
  6
CONTINUOUS
 62
    30
 10
-477.49999999998983
 20
-661.92308038460487
 30
0.0
 11
477.5000000000104
 21
-661.92308038460487
 31
0.0
  0
LINE
  5
F70
  8
SIZE
  6
CONTINUOUS
 62
    30
 10
-545.0
 20
-417.49999999999989
 30
0.0
 11
-545.0
 21
-798.58545693397809
 31
0.0
  0
LINE
  5
F71
  8
SIZE
  6
CONTINUOUS
 62
    30
 10
545.0000034544546
 20
-417.49999783918332
 30
0.0
 11
545.0000034544546
 21
-798.58545693397809
 31
0.0
  0
LINE
  5
F72
  8
SIZE
  6
CONTINUOUS
 62
    30
 10
-535.0
 20
-768.58545693397809
 30
0.0
 11
535.0000034544546
 21
-768.58545693397809
 31
0.0
  0
TEXT
  5
F73
  8
SIZE
  6
CONTINUOUS
 62
    30
 10
310.76489231846512
 20
-502.04469010789239
 30
0.0
 40
55.0
  1
65
 41
0.9
 72
     1
 11
350.83632088989373
 21
-502.04469010789239
 31
0.0
  0
CIRCLE
  5
F74
  8
SIZE
  6
CONTINUOUS
 62
    30
 10
422.50000000001
 20
-519.66319333840602
 30
0.0
 40
5.0
  0
LINE
  5
F75
  8
SIZE
  6
CONTINUOUS
 62
    30
 10
427.5000000000104
 20
-519.66319333840602
 30
0.0
 11
432.5000000000104
 21
-519.66319333840602
 31
0.0
  0
CIRCLE
  5
F76
  8
SIZE
  6
CONTINUOUS
 62
    30
 10
487.50000000001
 20
-519.66319333840602
 30
0.0
 40
5.0
  0
LINE
  5
F77
  8
SIZE
  6
CONTINUOUS
 62
    30
 10
482.50000000001
 20
-519.66319333840602
 30
0.0
 11
477.50000000000978
 21
-519.66319333840602
 31
0.0
  0
TEXT
  5
F78
  8
SIZE
  6
CONTINUOUS
 62
    30
 10
601.1796968952865
 20
-644.30457715409091
 30
0.0
 40
55.0
  1
92.5
 41
0.9
 72
     1
 11
676.60826832385806
 21
-644.30457715409091
 31
0.0
  0
CIRCLE
  5
F79
  8
SIZE
  6
CONTINUOUS
 62
    30
 10
580.0
 20
-661.92308038460487
 30
0.0
 40
5.0
  0
LINE
  5
F7A
  8
SIZE
  6
CONTINUOUS
 62
    30
 10
575.0
 20
-661.92308038460487
 30
0.0
 11
570.0
 21
-661.92308038460487
 31
0.0
  0
CIRCLE
  5
F7B
  8
SIZE
  6
CONTINUOUS
 62
    30
 10
487.50000000001
 20
-661.92308038460487
 30
0.0
 40
5.0
  0
LINE
  5
F7C
  8
SIZE
  6
CONTINUOUS
 62
    30
 10
492.50000000001029
 20
-661.92308038460487
 30
0.0
 11
497.50000000001
 21
-661.92308038460487
 31
0.0
  0
TEXT
  5
F7D
  8
SIZE
  6
CONTINUOUS
 62
    30
 10
-63.6428571428469
 20
-644.30457715409091
 30
0.0
 40
55.0
  1
975
 41
0.9
 72
     1
 11
0.0000000000102318
 21
-644.30457715409091
 31
0.0
  0
CIRCLE
  5
F7E
  8
SIZE
  6
CONTINUOUS
 62
    30
 10
487.50000000001
 20
-661.92308038460487
 30
0.0
 40
5.0
  0
LINE
  5
F7F
  8
SIZE
  6
CONTINUOUS
 62
    30
 10
482.5000000000104
 20
-661.92308038460487
 30
0.0
 11
477.5000000000104
 21
-661.92308038460487
 31
0.0
  0
CIRCLE
  5
F80
  8
SIZE
  6
CONTINUOUS
 62
    30
 10
-487.49999999998948
 20
-661.92308038460487
 30
0.0
 40
5.0
  0
LINE
  5
F81
  8
SIZE
  6
CONTINUOUS
 62
    30
 10
-482.49999999998948
 20
-661.92308038460487
 30
0.0
 11
-477.49999999998983
 21
-661.92308038460487
 31
0.0
  0
TEXT
  5
F82
  8
SIZE
  6
CONTINUOUS
 62
    30
 10
-277.67142684420128
 20
-750.96695370346401
 30
0.0
 40
55.0
  1
1090（ダクト外寸）
 41
0.9
 72
     1
 11
0.0000017272272999
 21
-750.96695370346401
 31
0.0
  0
CIRCLE
  5
F83
  8
SIZE
  6
CONTINUOUS
 62
    30
 10
545.0000034544546
 20
-768.58545693397809
 30
0.0
 40
5.0
  0
LINE
  5
F84
  8
SIZE
  6
CONTINUOUS
 62
    30
 10
540.0000034544546
 20
-768.58545693397809
 30
0.0
 11
535.0000034544546
 21
-768.58545693397809
 31
0.0
  0
CIRCLE
  5
F85
  8
SIZE
  6
CONTINUOUS
 62
    30
 10
-545.0
 20
-768.58545693397809
 30
0.0
 40
5.0
  0
LINE
  5
F86
  8
SIZE
  6
CONTINUOUS
 62
    30
 10
-540.0
 20
-768.58545693397809
 30
0.0
 11
-535.0
 21
-768.58545693397809
 31
0.0
  0
LINE
  5
F87
  8
SIZE
  6
CONTINUOUS
 62
    30
 10
518.99999976322943
 20
-387.49999999999483
 30
0.0
 11
706.25808089397287
 21
-387.49999999999483
 31
0.0
  0
LINE
  5
F88
  8
SIZE
  6
CONTINUOUS
 62
    30
 10
565.0
 20
-397.5
 30
0.0
 11
706.25808089397287
 21
-397.5
 31
0.0
  0
LINE
  5
F89
  8
SIZE
  6
CONTINUOUS
 62
    30
 10
676.25808089397287
 20
-407.5
 30
0.0
 11
676.25808089397287
 21
-492.68394230347559
 31
0.0
  0
LINE
  5
F8A
  8
SIZE
  6
CONTINUOUS
 62
    30
 10
676.25808089397287
 20
-387.49999999999483
 30
0.0
 11
676.25808089397287
 21
-397.5
 31
0.0
  0
TEXT
  5
F8B
  8
SIZE
  6
CONTINUOUS
 62
    30
 10
661.64958456859108
 20
-486.01353167305172
 30
0.0
 40
55.0
  1
10
 50
90.0
 41
0.9
 72
     1
 11
661.64958456859108
 21
-450.65638881590888
 31
0.0
  0
CIRCLE
  5
F8C
  8
SIZE
  6
CONTINUOUS
 62
    30
 10
676.25808089397287
 20
-397.5
 30
0.0
 40
5.0
  0
LINE
  5
F8D
  8
SIZE
  6
CONTINUOUS
 62
    30
 10
676.25808089397287
 20
-402.5
 30
0.0
 11
676.25808089397287
 21
-407.5
 31
0.0
  0
CIRCLE
  5
F8E
  8
SIZE
  6
CONTINUOUS
 62
    30
 10
676.25808089397287
 20
-387.49999999999483
 30
0.0
 40
5.0
  0
LINE
  5
F9D
  8
SIZE
  6
CONTINUOUS
 62
    30
 10
580.0000031554755
 20
-387.49999898497032
 30
0.0
 11
580.0000031554755
 21
-691.92307936957525
 31
0.0
  0
CIRCLE
  5
FFD
  8
DETAIL
  6
CONTINUOUS
 62
     5
 10
-357.49999999998948
 20
-387.5
 30
0.0
 40
1.5
  0
LINE
  5
FFE
  8
NOTE
  6
CONTINUOUS
 62
     4
 10
-348.50000023677057
 20
-387.49999999999483
 30
0.0
 11
-366.49999976322943
 21
-387.49999999999483
 31
0.0
  0
LINE
  5
FFF
  8
NOTE
  6
CONTINUOUS
 62
     4
 10
-357.49999999998948
 20
-378.50000023677421
 30
0.0
 11
-357.49999999998948
 21
-396.49999976322579
 31
0.0
  0
CIRCLE
  5
1000
  8
DETAIL
  6
CONTINUOUS
 62
     5
 10
-357.49999999998948
 20
-387.5
 30
0.0
 40
1.5
  0
LINE
  5
1001
  8
NOTE
  6
CONTINUOUS
 62
     4
 10
-348.50000023677057
 20
-387.49999999999483
 30
0.0
 11
-366.49999976322943
 21
-387.49999999999483
 31
0.0
  0
LINE
  5
1002
  8
NOTE
  6
CONTINUOUS
 62
     4
 10
-357.49999999998948
 20
-378.50000023677421
 30
0.0
 11
-357.49999999998948
 21
-396.49999976322579
 31
0.0
  0
CIRCLE
  5
1003
  8
DETAIL
  6
CONTINUOUS
 62
     5
 10
-422.49999999998943
 20
-387.5
 30
0.0
 40
1.5
  0
LINE
  5
1004
  8
NOTE
  6
CONTINUOUS
 62
     4
 10
-413.5000002367704
 20
-387.49999999999483
 30
0.0
 11
-431.49999976322943
 21
-387.49999999999483
 31
0.0
  0
LINE
  5
1005
  8
NOTE
  6
CONTINUOUS
 62
     4
 10
-422.49999999998943
 20
-378.50000023677421
 30
0.0
 11
-422.49999999998943
 21
-396.49999976322579
 31
0.0
  0
CIRCLE
  5
1006
  8
DETAIL
  6
CONTINUOUS
 62
     5
 10
-422.49999999998943
 20
-387.5
 30
0.0
 40
1.5
  0
LINE
  5
1007
  8
NOTE
  6
CONTINUOUS
 62
     4
 10
-413.5000002367704
 20
-387.49999999999483
 30
0.0
 11
-431.49999976322943
 21
-387.49999999999483
 31
0.0
  0
LINE
  5
1008
  8
NOTE
  6
CONTINUOUS
 62
     4
 10
-422.49999999998943
 20
-378.50000023677421
 30
0.0
 11
-422.49999999998943
 21
-396.49999976322579
 31
0.0
  0
CIRCLE
  5
1009
  8
DETAIL
  6
CONTINUOUS
 62
     5
 10
-487.49999999998948
 20
-387.5
 30
0.0
 40
1.5
  0
LINE
  5
100A
  8
NOTE
  6
CONTINUOUS
 62
     4
 10
-478.50000023677057
 20
-387.49999999999483
 30
0.0
 11
-496.49999976322943
 21
-387.49999999999483
 31
0.0
  0
LINE
  5
100B
  8
NOTE
  6
CONTINUOUS
 62
     4
 10
-487.49999999998948
 20
-378.50000023677421
 30
0.0
 11
-487.49999999998948
 21
-396.49999976322579
 31
0.0
  0
CIRCLE
  5
100C
  8
DETAIL
  6
CONTINUOUS
 62
     5
 10
-487.49999999998948
 20
-387.5
 30
0.0
 40
1.5
  0
LINE
  5
100D
  8
NOTE
  6
CONTINUOUS
 62
     4
 10
-478.50000023677057
 20
-387.49999999999483
 30
0.0
 11
-496.49999976322943
 21
-387.49999999999483
 31
0.0
  0
LINE
  5
100E
  8
NOTE
  6
CONTINUOUS
 62
     4
 10
-487.49999999998948
 20
-378.50000023677421
 30
0.0
 11
-487.49999999998948
 21
-396.49999976322579
 31
0.0
  0
TEXT
  5
10DA
  8
ETC
  6
CONTINUOUS
 62
    61
 10
-6.9247714733028261
 20
1072.1668457578351
 30
0.0
 40
80.0
  1
PD-RP71_80FA9_6
 50
0.000003
 41
0.8
  0
TEXT
  5
10DB
  8
ETC
  6
CONTINUOUS
 62
    61
 10
116.21835973380441
 20
944.52598801866498
 30
0.0
 40
80.0
  1
(後吸込・角ダクト組込)
 50
0.000003
 41
0.8
  0
LINE
  5
11C5
  8
DETAIL
  6
CONTINUOUS
 62
     5
 10
-828.0000008418491
 20
-143.4999997369159
 30
0.0
 11
-579.99999999999807
 21
-143.4999997369159
 31
0.0
  0
LINE
  5
11F6
  8
SIZE
  6
CONTINUOUS
 62
    30
 10
-828.0000008418491
 20
516.49998316272422
 30
0.0
 11
-828.0000008418491
 21
721.79601412499392
 31
0.0
  0
LINE
  5
11F7
  8
SIZE
  6
CONTINUOUS
 62
    30
 10
611.99999771120633
 20
516.49998316272422
 30
0.0
 11
611.99999771120633
 21
721.79601412499392
 31
0.0
  0
LINE
  5
11F8
  8
SIZE
  6
CONTINUOUS
 62
    30
 10
-828.0000008418491
 20
701.79601412499392
 30
0.0
 11
611.99999771120633
 21
701.79601412499392
 31
0.0
  0
CIRCLE
  5
11F9
  8
SIZE
  6
CONTINUOUS
 62
    30
 10
-828.0000008418491
 20
701.79601412499392
 30
0.0
 40
5.0
  0
CIRCLE
  5
11FA
  8
SIZE
  6
CONTINUOUS
 62
    30
 10
611.99999771120633
 20
701.79601412499392
 30
0.0
 40
5.0
  0
TEXT
  5
11FB
  8
SIZE
  6
CONTINUOUS
 62
    30
 10
-190.5000015653215
 20
716.79601412499414
 30
0.0
 40
55.0
  1
1440
 41
0.9
 72
     1
 11
-108.0000015653215
 21
716.79601412499414
 31
0.0
  0
POINT
  5
11FE
  8
DEFPOINTS
  6
CONTINUOUS
 62
     7
 10
611.99999771120633
 20
701.79601412499392
 30
0.0
  0
CIRCLE
  5
1269
  8
ARRANGE
  6
CONTINUOUS
 62
     1
 10
0.0
 20
0.0
 30
0.0
 40
50.0
  0
LINE
  5
126A
  8
OUTLINE
  6
CONTINUOUS
 62
     3
 10
-579.99999999999807
 20
-143.4999997369159
 30
0.0
 11
-828.0000008418491
 21
-143.4999997369159
 31
0.0
  0
LINE
  5
1285
  8
NOTE
  6
CONTINUOUS
 62
     4
 10
487.49999999994361
 20
-387.49999999983942
 30
0.0
 11
646.23044377086671
 21
-771.23652428495836
 31
0.0
  0
LINE
  5
1286
  8
NOTE
  6
CONTINUOUS
 62
     4
 10
487.49999999990581
 20
-387.49999999987438
 30
0.0
 11
509.4502903197066
 21
-413.96761136938483
 31
0.0
  0
LINE
  5
1287
  8
NOTE
  6
CONTINUOUS
 62
     4
 10
487.49999999990581
 20
-387.49999999987438
 30
0.0
 11
493.27570208568977
 21
-421.39676881812301
 31
0.0
  0
LINE
  5
1320
  8
DETAIL
  6
CONTINUOUS
 62
     5
 10
-827.99999939490579
 20
-143.4999997369159
 30
0.0
 11
-827.99999939490579
 21
506.49998316272462
 31
0.0
  0
LINE
  5
1321
  8
DETAIL
  6
CONTINUOUS
 62
     5
 10
-827.99999939490579
 20
506.49998316272462
 30
0.0
 11
611.9999991581501
 21
506.49998316272462
 31
0.0
  0
LINE
  5
1322
  8
DETAIL
  6
CONTINUOUS
 62
     5
 10
611.9999991581501
 20
506.49998316272462
 30
0.0
 11
611.9999991581501
 21
-143.4999997369159
 31
0.0
  0
LINE
  5
1323
  8
DETAIL
  6
CONTINUOUS
 62
     5
 10
-827.99999939490579
 20
-143.4999997369159
 30
0.0
 11
611.9999991581501
 21
-143.4999997369159
 31
0.0
  0
POINT
  5
1324
  8
DEFPOINTS
  6
CONTINUOUS
 62
     7
 10
611.9999991581501
 20
506.49998316272462
 30
0.0
  0
POINT
  5
1325
  8
DEFPOINTS
  6
CONTINUOUS
 62
     7
 10
-827.99999939490579
 20
506.49998316272462
 30
0.0
  0
POINT
  5
1326
  8
DEFPOINTS
  6
CONTINUOUS
 62
     7
 10
-827.99999939490579
 20
506.49998316272462
 30
0.0
  0
POINT
  5
1327
  8
DEFPOINTS
  6
CONTINUOUS
 62
     7
 10
611.99999915814942
 20
506.49998316272462
 30
0.0
  0
LINE
  5
1328
  8
OUTLINE
  6
CONTINUOUS
 62
     3
 10
611.9999991581501
 20
-143.4999997369159
 30
0.0
 11
-827.99999939490556
 21
-143.4999997369159
 31
0.0
  0
LINE
  5
1329
  8
OUTLINE
  6
CONTINUOUS
 62
     3
 10
-827.99999939490579
 20
-143.4999997369159
 30
0.0
 11
-827.99999939490579
 21
506.49998316272462
 31
0.0
  0
LINE
  5
132A
  8
OUTLINE
  6
CONTINUOUS
 62
     3
 10
-827.99999939490579
 20
506.49998316272462
 30
0.0
 11
611.9999991581501
 21
506.49998316272462
 31
0.0
  0
LINE
  5
132B
  8
OUTLINE
  6
CONTINUOUS
 62
     3
 10
611.9999991581501
 20
506.49998316272462
 30
0.0
 11
611.9999991581501
 21
-143.4999997369159
 31
0.0
  0
LINE
  5
132C
  8
DETAIL
  6
CONTINUOUS
 62
     5
 10
567.00000034200775
 20
-106.5000007103226
 30
0.0
 11
-783.00000057878435
 21
-106.5000007103226
 31
0.0
  0
LINE
  5
132D
  8
DETAIL
  6
CONTINUOUS
 62
     5
 10
532.00000126280065
 20
-71.500001631115083
 30
0.0
 11
-748.00000149957646
 21
-71.500001631115083
 31
0.0
  0
LINE
  5
132E
  8
DETAIL
  6
CONTINUOUS
 62
     5
 10
-748.00000149957646
 20
434.49998505691292
 30
0.0
 11
532.00000126280065
 21
434.49998505691292
 31
0.0
  0
LINE
  5
132F
  8
DETAIL
  6
CONTINUOUS
 62
     5
 10
-783.00000057878435
 20
469.49998413612951
 30
0.0
 11
567.00000034200775
 21
469.49998413612951
 31
0.0
  0
LINE
  5
1330
  8
DETAIL
  6
CONTINUOUS
 62
     5
 10
-748.00000149957646
 20
434.49998505691292
 30
0.0
 11
-748.00000149957646
 21
-71.500001631115083
 31
0.0
  0
LINE
  5
1331
  8
DETAIL
  6
CONTINUOUS
 62
     5
 10
-783.00000057878435
 20
469.49998413612951
 30
0.0
 11
-783.00000057878435
 21
-106.5000007103226
 31
0.0
  0
LINE
  5
1332
  8
DETAIL
  6
CONTINUOUS
 62
     5
 10
-827.99999939490579
 20
-143.4999997369159
 30
0.0
 11
-748.00000149957646
 21
-71.500001631115083
 31
0.0
  0
LINE
  5
1333
  8
DETAIL
  6
CONTINUOUS
 62
     5
 10
-827.99999939490579
 20
506.49998316272462
 30
0.0
 11
-748.00000149957646
 21
434.49998505691292
 31
0.0
  0
LINE
  5
1334
  8
DETAIL
  6
CONTINUOUS
 62
     5
 10
532.00000126280065
 20
434.49998505691292
 30
0.0
 11
532.00000126280065
 21
-71.500001631115083
 31
0.0
  0
LINE
  5
1335
  8
DETAIL
  6
CONTINUOUS
 62
     5
 10
567.00000034200775
 20
469.49998413612951
 30
0.0
 11
567.00000034200775
 21
-106.5000007103226
 31
0.0
  0
LINE
  5
1336
  8
DETAIL
  6
CONTINUOUS
 62
     5
 10
532.00000126280065
 20
-71.500001631115083
 30
0.0
 11
611.9999991581501
 21
-143.4999997369159
 31
0.0
  0
LINE
  5
1337
  8
DETAIL
  6
CONTINUOUS
 62
     5
 10
532.00000126280065
 20
434.49998505691292
 30
0.0
 11
611.9999991581501
 21
506.49998316272462
 31
0.0
  0
POINT
  5
1338
  8
DEFPOINTS
  6
CONTINUOUS
 62
     7
 10
611.9999991581501
 20
506.49998316272462
 30
0.0
  0
LINE
  5
1339
  8
SIZE
  6
CONTINUOUS
 62
    30
 10
621.99999915814988
 20
506.49998316272462
 30
0.0
 11
837.09710903147231
 21
506.49998316272462
 31
0.0
  0
LINE
  5
133A
  8
SIZE
  6
CONTINUOUS
 62
    30
 10
621.99999915814988
 20
-143.4999997369159
 30
0.0
 11
837.09710903147231
 21
-143.4999997369159
 31
0.0
  0
LINE
  5
133B
  8
SIZE
  6
CONTINUOUS
 62
    30
 10
817.09710903147288
 20
506.49998316272462
 30
0.0
 11
817.09710903147243
 21
-143.4999997369159
 31
0.0
  0
CIRCLE
  5
133C
  8
SIZE
  6
CONTINUOUS
 62
    30
 10
817.09710903147288
 20
506.49998316272462
 30
0.0
 40
5.0
  0
CIRCLE
  5
133D
  8
SIZE
  6
CONTINUOUS
 62
    30
 10
817.09710903147243
 20
-143.4999997369159
 30
0.0
 40
5.0
  0
TEXT
  5
133E
  8
SIZE
  6
CONTINUOUS
 62
    30
 10
802.09710903147231
 20
117.85713457004719
 30
0.0
 40
55.0
  1
650
 50
90.0
 41
0.9
 72
     1
 11
802.09710903147231
 21
181.4999917129044
 31
0.0
  0
POINT
  5
133F
  8
DEFPOINTS
  6
CONTINUOUS
 62
     7
 10
611.9999991581501
 20
506.49998316272462
 30
0.0
  0
POINT
  5
1340
  8
DEFPOINTS
  6
CONTINUOUS
 62
     7
 10
817.09710903147243
 20
-143.4999997369159
 30
0.0
  0
LINE
  5
1341
  8
SIZE
  6
CONTINUOUS
 62
    30
 10
631.9999991581501
 20
-143.4999997369159
 30
0.0
 11
847.09710903147254
 21
-143.4999997369159
 31
0.0
  0
LINE
  5
1342
  8
SIZE
  6
CONTINUOUS
 62
    30
 10
600.0
 20
-367.5
 30
0.0
 11
847.09710903147254
 21
-367.5
 31
0.0
  0
LINE
  5
1343
  8
SIZE
  6
CONTINUOUS
 62
    30
 10
817.09710903147243
 20
-153.4999997369159
 30
0.0
 11
817.09710903147243
 21
-357.5
 31
0.0
  0
TEXT
  5
1344
  8
SIZE
  6
CONTINUOUS
 62
    30
 10
801.99245528794552
 20
-320.32142843988652
 30
0.0
 40
55.0
  1
224
 50
90.0
 41
0.9
 72
     1
 11
801.99245528794552
 21
-255.49999986845791
 31
0.0
  0
CIRCLE
  5
1345
  8
SIZE
  6
CONTINUOUS
 62
    30
 10
817.09710903147243
 20
-367.5
 30
0.0
 40
5.0
  0
LINE
  5
1346
  8
SIZE
  6
CONTINUOUS
 62
    30
 10
817.09710903147243
 20
-362.5
 30
0.0
 11
817.09710903147243
 21
-357.5
 31
0.0
  0
CIRCLE
  5
1347
  8
SIZE
  6
CONTINUOUS
 62
    30
 10
817.09710903147243
 20
-143.4999997369159
 30
0.0
 40
5.0
  0
LINE
  5
1348
  8
SIZE
  6
CONTINUOUS
 62
    30
 10
817.09710903147243
 20
-148.4999997369159
 30
0.0
 11
817.09710903147243
 21
-153.4999997369159
 31
0.0
  0
LINE
  5
1361
  8
OUTLINE
  6
CONTINUOUS
 62
     3
 10
-580.0
 20
-143.4999997369159
 30
0.0
 11
-580.0
 21
-367.5
 31
0.0
  0
ENDSEC
  0
EOF
