  0
SECTION
  2
HEADER
  9
$ACADVER
  1
AC1015
  9
$ACADMAINTVER
 70
    20
  9
$DWGCODEPAGE
  3
ANSI_932
  9
$INSBASE
 10
0.0
 20
0.0
 30
0.0
  9
$EXTMIN
 10
-1631.460010995194
 20
-793.4770273630072
 30
0.0
  9
$EXTMAX
 10
1010.102430045565
 20
792.5161523693561
 30
0.0
  9
$LIMMIN
 10
-4267.152221060483
 20
-2696.083210198413
  9
$LIMMAX
 10
7190.717422586465
 20
5141.155363923066
  9
$ORTHOMODE
 70
     0
  9
$REGENMODE
 70
     1
  9
$FILLMODE
 70
     1
  9
$QTEXTMODE
 70
     0
  9
$MIRRTEXT
 70
     0
  9
$LTSCALE
 40
20.0
  9
$ATTMODE
 70
     1
  9
$TEXTSIZE
 40
53.0
  9
$TRACEWID
 40
0.05
  9
$TEXTSTYLE
  7
KAIGAI_STANDARD_1
  9
$CLAYER
  8
NOTE
  9
$CELTYPE
  6
CONTINUOUS
  9
$CECOLOR
 62
     7
  9
$CELTSCALE
 40
1.0
  9
$DISPSILH
 70
     0
  9
$DIMSCALE
 40
1.0
  9
$DIMASZ
 40
30.0
  9
$DIMEXO
 40
20.0
  9
$DIMDLI
 40
80.0
  9
$DIMRND
 40
0.0
  9
$DIMDLE
 40
0.0
  9
$DIMEXE
 40
20.0
  9
$DIMTP
 40
0.0
  9
$DIMTM
 40
0.0
  9
$DIMTXT
 40
40.0
  9
$DIMCEN
 40
0.09
  9
$DIMTSZ
 40
0.0
  9
$DIMTOL
 70
     0
  9
$DIMLIM
 70
     0
  9
$DIMTIH
 70
     0
  9
$DIMTOH
 70
     0
  9
$DIMSE1
 70
     0
  9
$DIMSE2
 70
     0
  9
$DIMTAD
 70
     1
  9
$DIMZIN
 70
     8
  9
$DIMBLK
  1

  9
$DIMASO
 70
     1
  9
$DIMSHO
 70
     0
  9
$DIMPOST
  1

  9
$DIMAPOST
  1

  9
$DIMALT
 70
     0
  9
$DIMALTD
 70
     2
  9
$DIMALTF
 40
25.4
  9
$DIMLFAC
 40
1.0
  9
$DIMTOFL
 70
     1
  9
$DIMTVP
 40
0.0
  9
$DIMTIX
 70
     0
  9
$DIMSOXD
 70
     0
  9
$DIMSAH
 70
     0
  9
$DIMBLK1
  1

  9
$DIMBLK2
  1

  9
$DIMSTYLE
  2
Standard
  9
$DIMCLRD
 70
     0
  9
$DIMCLRE
 70
     0
  9
$DIMCLRT
 70
     0
  9
$DIMTFAC
 40
1.0
  9
$DIMGAP
 40
0.09
  9
$DIMJUST
 70
     0
  9
$DIMSD1
 70
     0
  9
$DIMSD2
 70
     0
  9
$DIMTOLJ
 70
     1
  9
$DIMTZIN
 70
     0
  9
$DIMALTZ
 70
     0
  9
$DIMALTTZ
 70
     0
  9
$DIMUPT
 70
     0
  9
$DIMDEC
 70
     4
  9
$DIMTDEC
 70
     4
  9
$DIMALTU
 70
     2
  9
$DIMALTTD
 70
     2
  9
$DIMTXSTY
  7
STANDARD
  9
$DIMAUNIT
 70
     0
  9
$DIMADEC
 70
     0
  9
$DIMALTRND
 40
0.0
  9
$DIMAZIN
 70
     0
  9
$DIMDSEP
 70
    46
  9
$DIMATFIT
 70
     3
  9
$DIMFRAC
 70
     0
  9
$DIMLDRBLK
  1

  9
$DIMLUNIT
 70
     2
  9
$DIMLWD
 70
    -2
  9
$DIMLWE
 70
    -2
  9
$DIMTMOVE
 70
     0
  9
$LUNITS
 70
     2
  9
$LUPREC
 70
     4
  9
$SKETCHINC
 40
0.1
  9
$FILLETRAD
 40
0.0
  9
$AUNITS
 70
     1
  9
$AUPREC
 70
     3
  9
$MENU
  1
ACAD
  9
$ELEVATION
 40
0.0
  9
$PELEVATION
 40
0.0
  9
$THICKNESS
 40
0.0
  9
$LIMCHECK
 70
     0
  9
$CHAMFERA
 40
0.0
  9
$CHAMFERB
 40
0.0
  9
$CHAMFERC
 40
0.0
  9
$CHAMFERD
 40
0.0
  9
$SKPOLY
 70
     0
  9
$TDCREATE
 40
2455902.607164352
  9
$TDUCREATE
 40
2455902.232164352
  9
$TDUPDATE
 40
2459096.669386574
  9
$TDUUPDATE
 40
2459096.294386574
  9
$TDINDWG
 40
1.6408219907
  9
$TDUSRTIMER
 40
1.6408183796
  9
$USRTIMER
 70
     1
  9
$ANGBASE
 50
0.0
  9
$ANGDIR
 70
     0
  9
$PDMODE
 70
     3
  9
$PDSIZE
 40
-2.0
  9
$PLINEWID
 40
0.0
  9
$SPLFRAME
 70
     0
  9
$SPLINETYPE
 70
     6
  9
$SPLINESEGS
 70
     8
  9
$HANDSEED
  5
469
  9
$SURFTAB1
 70
     6
  9
$SURFTAB2
 70
     6
  9
$SURFTYPE
 70
     6
  9
$SURFU
 70
     6
  9
$SURFV
 70
     6
  9
$UCSBASE
  2

  9
$UCSNAME
  2

  9
$UCSORG
 10
0.0
 20
0.0
 30
0.0
  9
$UCSXDIR
 10
1.0
 20
0.0
 30
0.0
  9
$UCSYDIR
 10
0.0
 20
1.0
 30
0.0
  9
$UCSORTHOREF
  2

  9
$UCSORTHOVIEW
 70
     0
  9
$UCSORGTOP
 10
0.0
 20
0.0
 30
0.0
  9
$UCSORGBOTTOM
 10
0.0
 20
0.0
 30
0.0
  9
$UCSORGLEFT
 10
0.0
 20
0.0
 30
0.0
  9
$UCSORGRIGHT
 10
0.0
 20
0.0
 30
0.0
  9
$UCSORGFRONT
 10
0.0
 20
0.0
 30
0.0
  9
$UCSORGBACK
 10
0.0
 20
0.0
 30
0.0
  9
$PUCSBASE
  2

  9
$PUCSNAME
  2

  9
$PUCSORG
 10
0.0
 20
0.0
 30
0.0
  9
$PUCSXDIR
 10
1.0
 20
0.0
 30
0.0
  9
$PUCSYDIR
 10
0.0
 20
1.0
 30
0.0
  9
$PUCSORTHOREF
  2

  9
$PUCSORTHOVIEW
 70
     0
  9
$PUCSORGTOP
 10
0.0
 20
0.0
 30
0.0
  9
$PUCSORGBOTTOM
 10
0.0
 20
0.0
 30
0.0
  9
$PUCSORGLEFT
 10
0.0
 20
0.0
 30
0.0
  9
$PUCSORGRIGHT
 10
0.0
 20
0.0
 30
0.0
  9
$PUCSORGFRONT
 10
0.0
 20
0.0
 30
0.0
  9
$PUCSORGBACK
 10
0.0
 20
0.0
 30
0.0
  9
$USERI1
 70
     0
  9
$USERI2
 70
     0
  9
$USERI3
 70
     0
  9
$USERI4
 70
     0
  9
$USERI5
 70
     0
  9
$USERR1
 40
20.0
  9
$USERR2
 40
0.0
  9
$USERR3
 40
0.0
  9
$USERR4
 40
0.0
  9
$USERR5
 40
0.0
  9
$WORLDVIEW
 70
     1
  9
$SHADEDGE
 70
     3
  9
$SHADEDIF
 70
    70
  9
$TILEMODE
 70
     1
  9
$MAXACTVP
 70
    64
  9
$PINSBASE
 10
0.0
 20
0.0
 30
0.0
  9
$PLIMCHECK
 70
     0
  9
$PEXTMIN
 10
1.000000000000000E+20
 20
1.000000000000000E+20
 30
1.000000000000000E+20
  9
$PEXTMAX
 10
-1.000000000000000E+20
 20
-1.000000000000000E+20
 30
-1.000000000000000E+20
  9
$PLIMMIN
 10
0.0
 20
0.0
  9
$PLIMMAX
 10
12.0
 20
9.0
  9
$UNITMODE
 70
     0
  9
$VISRETAIN
 70
     1
  9
$PLINEGEN
 70
     0
  9
$PSLTSCALE
 70
     1
  9
$TREEDEPTH
 70
  3020
  9
$CMLSTYLE
  2
Standard
  9
$CMLJUST
 70
     0
  9
$CMLSCALE
 40
1.0
  9
$PROXYGRAPHICS
 70
     1
  9
$MEASUREMENT
 70
     0
  9
$CELWEIGHT
370
    -1
  9
$ENDCAPS
280
     0
  9
$JOINSTYLE
280
     0
  9
$LWDISPLAY
290
     0
  9
$INSUNITS
 70
     0
  9
$HYPERLINKBASE
  1

  9
$STYLESHEET
  1

  9
$XEDIT
290
     1
  9
$CEPSNTYPE
380
     0
  9
$PSTYLEMODE
290
     1
  9
$FINGERPRINTGUID
  2
{4A6ABB96-8BD4-E248-97AC-10D2285BBBFC}
  9
$VERSIONGUID
  2
{5BBCE1A0-0169-8B40-90C6-9FAD7A4A3B82}
  9
$EXTNAMES
290
     1
  9
$PSVPSCALE
 40
0.0
  9
$OLESTARTUP
290
     0
  0
ENDSEC
  0
SECTION
  2
CLASSES
  0
CLASS
  1
ACDBDICTIONARYWDFLT
  2
AcDbDictionaryWithDefault
  3
ObjectDBX Classes
 90
        0
280
     0
281
     0
  0
CLASS
  1
MATERIAL
  2
AcDbMaterial
  3
ObjectDBX Classes
 90
     1153
280
     0
281
     0
  0
CLASS
  1
VISUALSTYLE
  2
AcDbVisualStyle
  3
ObjectDBX Classes
 90
     4095
280
     0
281
     0
  0
CLASS
  1
SCALE
  2
AcDbScale
  3
ObjectDBX Classes
 90
     1153
280
     0
281
     0
  0
CLASS
  1
TABLESTYLE
  2
AcDbTableStyle
  3
ObjectDBX Classes
 90
     4095
280
     0
281
     0
  0
CLASS
  1
MLEADERSTYLE
  2
AcDbMLeaderStyle
  3
ACDB_MLEADERSTYLE_CLASS
 90
     4095
280
     0
281
     0
  0
CLASS
  1
ACDBSECTIONVIEWSTYLE
  2
AcDbSectionViewStyle
  3
ObjectDBX Classes
 90
     1025
280
     0
281
     0
  0
CLASS
  1
ACDBDETAILVIEWSTYLE
  2
AcDbDetailViewStyle
  3
ObjectDBX Classes
 90
     1025
280
     0
281
     0
  0
CLASS
  1
DICTIONARYVAR
  2
AcDbDictionaryVar
  3
ObjectDBX Classes
 90
        0
280
     0
281
     0
  0
CLASS
  1
CELLSTYLEMAP
  2
AcDbCellStyleMap
  3
ObjectDBX Classes
 90
     1152
280
     0
281
     0
  0
CLASS
  1
ACDBPLACEHOLDER
  2
AcDbPlaceHolder
  3
ObjectDBX Classes
 90
        0
280
     0
281
     0
  0
CLASS
  1
LAYOUT
  2
AcDbLayout
  3
ObjectDBX Classes
 90
        0
280
     0
281
     0
  0
ENDSEC
  0
SECTION
  2
TABLES
  0
TABLE
  2
VPORT
  5
8
330
0
100
AcDbSymbolTable
 70
     1
  0
VPORT
  5
81
330
8
100
AcDbSymbolTableRecord
100
AcDbViewportTableRecord
  2
*ACTIVE
 70
     0
 10
0.0
 20
0.0
 11
1.0
 21
1.0
 12
-310.5891018029249
 22
131.1555041801315
 13
0.0
 23
0.0
 14
50.0
 24
50.0
 15
100.0
 25
100.0
 16
0.0
 26
0.0
 36
1.0
 17
0.0
 27
0.0
 37
0.0
 40
1445.096972538694
 41
2.364406779661016
 42
50.0
 43
0.0
 44
0.0
 50
0.0
 51
0.0
 71
     0
 72
  1000
 73
     1
 74
     0
 75
     0
 76
     0
 77
     0
 78
     0
281
     0
 65
     1
110
0.0
120
0.0
130
0.0
111
1.0
121
0.0
131
0.0
112
0.0
122
1.0
132
0.0
 79
     0
146
0.0
1001
ACAD_NAV_VCDISPLAY
1070
     3
  0
ENDTAB
  0
TABLE
  2
LTYPE
  5
5
330
0
100
AcDbSymbolTable
 70
     3
  0
LTYPE
  5
5A
330
5
100
AcDbSymbolTableRecord
100
AcDbLinetypeTableRecord
  2
ByBlock
 70
     0
  3

 72
    65
 73
     0
 40
0.0
  0
LTYPE
  5
5B
330
5
100
AcDbSymbolTableRecord
100
AcDbLinetypeTableRecord
  2
ByLayer
 70
     0
  3

 72
    65
 73
     0
 40
0.0
  0
LTYPE
  5
5C
330
5
100
AcDbSymbolTableRecord
100
AcDbLinetypeTableRecord
  2
CONTINUOUS
 70
     0
  3
実線
 72
    65
 73
     0
 40
0.0
  0
LTYPE
  5
75
330
5
100
AcDbSymbolTableRecord
100
AcDbLinetypeTableRecord
  2
DASHDOT
 70
     0
  3
____ _ ____ _ ____ _ ____ _ ____ _ ____ _ ____
 72
    65
 73
     4
 40
5.5
 49
4.0
 74
     0
 49
-0.6
 74
     0
 49
0.3
 74
     0
 49
-0.6
 74
     0
  0
ENDTAB
  0
TABLE
  2
LAYER
  5
2
330
0
100
AcDbSymbolTable
 70
    12
  0
LAYER
  5
54
102
{ACAD_XDICTIONARY
360
3C3
102
}
330
2
100
AcDbSymbolTableRecord
100
AcDbLayerTableRecord
  2
0
 70
     0
 62
     7
  6
CONTINUOUS
370
    -3
390
F
  0
LAYER
  5
73
102
{ACAD_XDICTIONARY
360
3C5
102
}
330
2
100
AcDbSymbolTableRecord
100
AcDbLayerTableRecord
  2
NOTE
 70
     0
 62
     4
  6
CONTINUOUS
370
    -3
390
F
  0
LAYER
  5
76
102
{ACAD_XDICTIONARY
360
3C7
102
}
330
2
100
AcDbSymbolTableRecord
100
AcDbLayerTableRecord
  2
OUTLINE
 70
     0
 62
     3
  6
CONTINUOUS
370
    -3
390
F
  0
LAYER
  5
77
102
{ACAD_XDICTIONARY
360
3C9
102
}
330
2
100
AcDbSymbolTableRecord
100
AcDbLayerTableRecord
  2
DETAIL
 70
     0
 62
     5
  6
CONTINUOUS
370
    -3
390
F
  0
LAYER
  5
78
102
{ACAD_XDICTIONARY
360
3CB
102
}
330
2
100
AcDbSymbolTableRecord
100
AcDbLayerTableRecord
  2
BASIS
 70
     0
 62
     6
  6
DASHDOT
370
    -3
390
F
  0
LAYER
  5
79
102
{ACAD_XDICTIONARY
360
3CD
102
}
330
2
100
AcDbSymbolTableRecord
100
AcDbLayerTableRecord
  2
SIZE
 70
     0
 62
    30
  6
CONTINUOUS
370
    -3
390
F
  0
LAYER
  5
7A
102
{ACAD_XDICTIONARY
360
3CF
102
}
330
2
100
AcDbSymbolTableRecord
100
AcDbLayerTableRecord
  2
ARRANGE
 70
     0
 62
     1
  6
CONTINUOUS
370
    -3
390
F
  0
LAYER
  5
7B
102
{ACAD_XDICTIONARY
360
3D1
102
}
330
2
100
AcDbSymbolTableRecord
100
AcDbLayerTableRecord
  2
FIX
 70
     0
 62
    11
  6
CONTINUOUS
370
    -3
390
F
  0
LAYER
  5
7C
102
{ACAD_XDICTIONARY
360
3D3
102
}
330
2
100
AcDbSymbolTableRecord
100
AcDbLayerTableRecord
  2
SERVICESPACE
 70
     0
 62
     2
  6
DASHDOT
370
    -3
390
F
  0
LAYER
  5
7D
102
{ACAD_XDICTIONARY
360
3D5
102
}
330
2
100
AcDbSymbolTableRecord
100
AcDbLayerTableRecord
  2
ETC
 70
     0
 62
    61
  6
CONTINUOUS
370
    -3
390
F
  0
LAYER
  5
7E
102
{ACAD_XDICTIONARY
360
3D7
102
}
330
2
100
AcDbSymbolTableRecord
100
AcDbLayerTableRecord
  2
SYMBOLLINE
 70
     0
 62
    15
  6
CONTINUOUS
370
    -3
390
F
  0
LAYER
  5
7F
330
2
100
AcDbSymbolTableRecord
100
AcDbLayerTableRecord
  2
DEFPOINTS
 70
     0
 62
     7
  6
CONTINUOUS
290
     0
370
    -3
390
F
  0
ENDTAB
  0
TABLE
  2
STYLE
  5
3
330
0
100
AcDbSymbolTable
 70
     3
  0
STYLE
  5
55
330
3
100
AcDbSymbolTableRecord
100
AcDbTextStyleTableRecord
  2
STANDARD
 70
     0
 40
0.0
 41
0.9
 50
0.0
 71
     0
 42
64.0
  3
SIMPLEX
  4
BIGFONT
  0
STYLE
  5
59
330
3
100
AcDbSymbolTableRecord
100
AcDbTextStyleTableRecord
  2
Annotative
 70
     0
 40
0.0
 41
1.0
 50
0.0
 71
     0
 42
0.2
  3
txt
  4

1001
AcadAnnotative
1000
AnnotativeData
1002
{
1070
     1
1070
     1
1002
}
  0
STYLE
  5
74
330
3
100
AcDbSymbolTableRecord
100
AcDbTextStyleTableRecord
  2
KAIGAI_STANDARD_1
 70
     0
 40
53.0
 41
0.51
 50
0.0
 71
     0
 42
53.0
  3
MONOTXT.shx
  4
BIGFONT.shx
  0
ENDTAB
  0
TABLE
  2
VIEW
  5
6
330
0
100
AcDbSymbolTable
 70
     1
  0
VIEW
  5
80
330
6
100
AcDbSymbolTableRecord
100
AcDbViewTableRecord
  2
ALL
 70
     0
 40
9000.0
 10
241.506647
 20
0.0
 41
12483.01
 11
0.0
 21
0.0
 31
1.0
 12
0.0
 22
0.0
 32
0.0
 42
50.0
 43
0.0
 44
0.0
 50
0.0
 71
     0
281
     0
 72
     0
  0
ENDTAB
  0
TABLE
  2
UCS
  5
7
330
0
100
AcDbSymbolTable
 70
     0
  0
ENDTAB
  0
TABLE
  2
APPID
  5
9
330
0
100
AcDbSymbolTable
 70
     5
  0
APPID
  5
56
330
9
100
AcDbSymbolTableRecord
100
AcDbRegAppTableRecord
  2
ACAD
 70
     0
  0
APPID
  5
5D
330
9
100
AcDbSymbolTableRecord
100
AcDbRegAppTableRecord
  2
AcadAnnotative
 70
     0
  0
APPID
  5
3C1
330
9
100
AcDbSymbolTableRecord
100
AcDbRegAppTableRecord
  2
ACAD_EXEMPT_FROM_CAD_STANDARDS
 70
     0
  0
APPID
  5
3E3
330
9
100
AcDbSymbolTableRecord
100
AcDbRegAppTableRecord
  2
ACAD_NAV_VCDISPLAY
 70
     0
  0
APPID
  5
41C
330
9
100
AcDbSymbolTableRecord
100
AcDbRegAppTableRecord
  2
ACAD_MLEADERVER
 70
     0
  0
ENDTAB
  0
TABLE
  2
DIMSTYLE
  5
A
330
0
100
AcDbSymbolTable
 70
     2
100
AcDbDimStyleTable
 71
     0
  0
DIMSTYLE
105
57
330
A
100
AcDbSymbolTableRecord
100
AcDbDimStyleTableRecord
  2
Standard
 70
     0
340
55
  0
DIMSTYLE
105
58
330
A
100
AcDbSymbolTableRecord
100
AcDbDimStyleTableRecord
  2
Annotative
 70
     0
340
55
1001
AcadAnnotative
1000
AnnotativeData
1002
{
1070
     1
1070
     1
1002
}
  0
ENDTAB
  0
TABLE
  2
BLOCK_RECORD
  5
1
330
0
100
AcDbSymbolTable
 70
     0
  0
BLOCK_RECORD
  5
6F
330
1
100
AcDbSymbolTableRecord
100
AcDbBlockTableRecord
  2
*Model_Space
340
72
  0
BLOCK_RECORD
  5
6B
330
1
100
AcDbSymbolTableRecord
100
AcDbBlockTableRecord
  2
*Paper_Space
340
6E
  0
ENDTAB
  0
ENDSEC
  0
SECTION
  2
BLOCKS
  0
BLOCK
  5
70
330
6F
100
AcDbEntity
  8
0
100
AcDbBlockBegin
  2
*Model_Space
 70
     0
 10
0.0
 20
0.0
 30
0.0
  3
*Model_Space
  1

  0
ENDBLK
  5
71
330
6F
100
AcDbEntity
  8
0
100
AcDbBlockEnd
  0
BLOCK
  5
6C
330
6B
100
AcDbEntity
 67
     1
  8
0
100
AcDbBlockBegin
  2
*Paper_Space
 70
     0
 10
0.0
 20
0.0
 30
0.0
  3
*Paper_Space
  1

  0
ENDBLK
  5
6D
330
6B
100
AcDbEntity
 67
     1
  8
0
100
AcDbBlockEnd
  0
ENDSEC
  0
SECTION
  2
ENTITIES
  0
LINE
  5
86
330
6F
100
AcDbEntity
  8
DETAIL
  6
Continuous
 62
     5
100
AcDbLine
 10
-451.1720633844078
 20
-3.799999999988584
 30
0.0
 11
-451.1730383583078
 21
-3.772080402588698
 31
0.0
  0
LINE
  5
87
330
6F
100
AcDbEntity
  8
DETAIL
  6
Continuous
 62
     5
100
AcDbLine
 10
-472.2000000000071
 20
-16.9999999999884
 30
0.0
 11
-472.2000000000071
 21
-3.799999999988584
 31
0.0
  0
LINE
  5
88
330
6F
100
AcDbEntity
  8
DETAIL
  6
Continuous
 62
     5
100
AcDbLine
 10
-471.6000000000085
 20
-16.9999999999884
 30
0.0
 11
-471.6000000000085
 21
-3.799999999988584
 31
0.0
  0
LINE
  5
89
330
6F
100
AcDbEntity
  8
DETAIL
  6
Continuous
 62
     5
100
AcDbLine
 10
-471.5800000000081
 20
-16.9999999999884
 30
0.0
 11
-471.5800000000081
 21
-15.9999999999884
 31
0.0
  0
LINE
  5
8A
330
6F
100
AcDbEntity
  8
DETAIL
  6
Continuous
 62
     5
100
AcDbLine
 10
-471.4000000000076
 20
-11.9999999999884
 30
0.0
 11
-471.4000000000076
 21
-14.9999999999884
 31
0.0
  0
LINE
  5
8B
330
6F
100
AcDbEntity
  8
DETAIL
  6
Continuous
 62
     5
100
AcDbLine
 10
-471.4000000000076
 20
-235.4999999999884
 30
0.0
 11
-471.4000000000076
 21
-245.3999999999885
 31
0.0
  0
LINE
  5
8C
330
6F
100
AcDbEntity
  8
DETAIL
  6
Continuous
 62
     5
100
AcDbLine
 10
-471.4000000000076
 20
-11.9999999999884
 30
0.0
 11
-471.4000000000076
 21
-2.999999999988403
 31
0.0
  0
LINE
  5
8D
330
6F
100
AcDbEntity
  8
DETAIL
  6
Continuous
 62
     5
100
AcDbLine
 10
-471.3800000000071
 20
-235.4999999999884
 30
0.0
 11
-471.3800000000071
 21
-235.9999999999884
 31
0.0
  0
LINE
  5
8E
330
6F
100
AcDbEntity
  8
DETAIL
  6
Continuous
 62
     5
100
AcDbLine
 10
-471.2000000000069
 20
-13.06721998958824
 30
0.0
 11
-471.2000000000069
 21
-16.9999999999884
 31
0.0
  0
LINE
  5
8F
330
6F
100
AcDbEntity
  8
DETAIL
  6
Continuous
 62
     5
100
AcDbLine
 10
-471.2000000000069
 20
-235.4999999999884
 30
0.0
 11
-471.2000000000069
 21
-245.3999999999885
 31
0.0
  0
LINE
  5
90
330
6F
100
AcDbEntity
  8
DETAIL
  6
Continuous
 62
     5
100
AcDbLine
 10
-467.8000000000074
 20
-19.9999999999884
 30
0.0
 11
-467.8000000000074
 21
-232.4999999999884
 31
0.0
  0
LINE
  5
91
330
6F
100
AcDbEntity
  8
DETAIL
  6
Continuous
 62
     5
100
AcDbLine
 10
-465.2000000000071
 20
-74.9999999999884
 30
0.0
 11
-465.2000000000071
 21
-26.99999999998841
 31
0.0
  0
LINE
  5
92
330
6F
100
AcDbEntity
  8
DETAIL
  6
Continuous
 62
     5
100
AcDbLine
 10
-465.2000000000071
 20
-26.99999999998841
 30
0.0
 11
-465.2000000000071
 21
-17.9999999999884
 31
0.0
  0
LINE
  5
93
330
6F
100
AcDbEntity
  8
DETAIL
  6
Continuous
 62
     5
100
AcDbLine
 10
-456.2000000000071
 20
-67.99999999998838
 30
0.0
 11
-456.2000000000071
 21
-46.49999999998839
 31
0.0
  0
LINE
  5
94
330
6F
100
AcDbEntity
  8
DETAIL
  6
Continuous
 62
     5
100
AcDbLine
 10
-452.2000000000071
 20
-11.9999999999884
 30
0.0
 11
-452.2000000000071
 21
-2.999999999988403
 31
0.0
  0
LINE
  5
95
330
6F
100
AcDbEntity
  8
DETAIL
  6
Continuous
 62
     5
100
AcDbLine
 10
-451.2000000000068
 20
-62.99999999998839
 30
0.0
 11
-451.2000000000068
 21
-70.22493770578852
 31
0.0
  0
LINE
  5
96
330
6F
100
AcDbEntity
  8
DETAIL
  6
Continuous
 62
     5
100
AcDbLine
 10
-450.6786070119076
 20
-3.799999999988584
 30
0.0
 11
-450.6786070119076
 21
-2.399999999988494
 31
0.0
  0
LINE
  5
97
330
6F
100
AcDbEntity
  8
DETAIL
  6
Continuous
 62
     5
100
AcDbLine
 10
-450.2000000000069
 20
-67.99999999998838
 30
0.0
 11
-450.2000000000069
 21
-63.00745846458835
 31
0.0
  0
LINE
  5
98
330
6F
100
AcDbEntity
  8
DETAIL
  6
Continuous
 62
     5
100
AcDbLine
 10
-446.2000000000069
 20
-26.99999999998841
 30
0.0
 11
-446.2000000000069
 21
-17.9999999999884
 31
0.0
  0
LINE
  5
99
330
6F
100
AcDbEntity
  8
DETAIL
  6
Continuous
 62
     5
100
AcDbLine
 10
-443.7000000000071
 20
-32.4999999999884
 30
0.0
 11
-443.7000000000071
 21
-31.4999999999884
 31
0.0
  0
LINE
  5
9A
330
6F
100
AcDbEntity
  8
DETAIL
  6
Continuous
 62
     5
100
AcDbLine
 10
-436.7000000000071
 20
-31.4999999999884
 30
0.0
 11
-436.7000000000071
 21
-32.4999999999884
 31
0.0
  0
LINE
  5
9B
330
6F
100
AcDbEntity
  8
DETAIL
  6
Continuous
 62
     5
100
AcDbLine
 10
-434.2000000000068
 20
-26.99999999998841
 30
0.0
 11
-434.2000000000068
 21
-17.9999999999884
 31
0.0
  0
LINE
  5
9C
330
6F
100
AcDbEntity
  8
DETAIL
  6
Continuous
 62
     5
100
AcDbLine
 10
-430.2000000000068
 20
-67.99999999998838
 30
0.0
 11
-430.2000000000068
 21
-63.00745846458835
 31
0.0
  0
LINE
  5
9D
330
6F
100
AcDbEntity
  8
DETAIL
  6
Continuous
 62
     5
100
AcDbLine
 10
-429.2000000000069
 20
-70.22493770578852
 30
0.0
 11
-429.2000000000069
 21
-62.99999999998839
 31
0.0
  0
LINE
  5
9E
330
6F
100
AcDbEntity
  8
DETAIL
  6
Continuous
 62
     5
100
AcDbLine
 10
-424.2000000000071
 20
-46.49999999998839
 30
0.0
 11
-424.2000000000071
 21
-67.99999999998838
 31
0.0
  0
LINE
  5
9F
330
6F
100
AcDbEntity
  8
DETAIL
  6
Continuous
 62
     5
100
AcDbLine
 10
-439.4493966203071
 20
-60.11308749958812
 30
0.0
 11
-438.2175841638082
 21
-56.93732530188867
 31
0.0
  0
LINE
  5
A0
330
6F
100
AcDbEntity
  8
DETAIL
  6
Continuous
 62
     5
100
AcDbLine
 10
-415.2000000000071
 20
-74.9999999999884
 30
0.0
 11
-415.2000000000071
 21
-26.99999999998841
 31
0.0
  0
LINE
  5
A1
330
6F
100
AcDbEntity
  8
DETAIL
  6
Continuous
 62
     5
100
AcDbLine
 10
-415.2000000000071
 20
-26.99999999998841
 30
0.0
 11
-415.2000000000071
 21
-17.9999999999884
 31
0.0
  0
LINE
  5
A2
330
6F
100
AcDbEntity
  8
DETAIL
  6
Continuous
 62
     5
100
AcDbLine
 10
-410.6786070119076
 20
-3.799999999988584
 30
0.0
 11
-410.6786070119076
 21
-2.399999999988494
 31
0.0
  0
LINE
  5
A3
330
6F
100
AcDbEntity
  8
DETAIL
  6
Continuous
 62
     5
100
AcDbLine
 10
-400.2000000000069
 20
-11.9999999999884
 30
0.0
 11
-400.2000000000069
 21
-2.999999999988403
 31
0.0
  0
LINE
  5
A4
330
6F
100
AcDbEntity
  8
DETAIL
  6
Continuous
 62
     5
100
AcDbLine
 10
-401.434314575107
 20
-3.234314575088546
 30
0.0
 11
-402.0000000000082
 21
-3.799999999988584
 31
0.0
  0
LINE
  5
A5
330
6F
100
AcDbEntity
  8
DETAIL
  6
Continuous
 62
     5
100
AcDbLine
 10
-401.0100505064081
 20
-3.658578643788358
 30
0.0
 11
-401.1514718626083
 21
-3.799999999988584
 31
0.0
  0
LINE
  5
A6
330
6F
100
AcDbEntity
  8
DETAIL
  6
Continuous
 62
     5
100
AcDbLine
 10
-321.5000000000082
 20
-87.62250506478833
 30
0.0
 11
-321.5000000000082
 21
-90.59999999998877
 31
0.0
  0
LINE
  5
A7
330
6F
100
AcDbEntity
  8
DETAIL
  6
Continuous
 62
     5
100
AcDbLine
 10
-321.5000000000082
 20
-184.5999999999887
 30
0.0
 11
-321.5000000000082
 21
-187.5774949351882
 31
0.0
  0
LINE
  5
A8
330
6F
100
AcDbEntity
  8
DETAIL
  6
Continuous
 62
     5
100
AcDbLine
 10
-318.5000000000082
 20
-187.5774949351882
 30
0.0
 11
-318.5000000000082
 21
-184.5999999999887
 31
0.0
  0
LINE
  5
A9
330
6F
100
AcDbEntity
  8
DETAIL
  6
Continuous
 62
     5
100
AcDbLine
 10
-318.5000000000082
 20
-90.59999999998877
 30
0.0
 11
-318.5000000000082
 21
-87.62250506478833
 31
0.0
  0
LINE
  5
AA
330
6F
100
AcDbEntity
  8
DETAIL
  6
Continuous
 62
     5
100
AcDbLine
 10
-295.6485281375072
 20
-2.999999999988403
 30
0.0
 11
-295.6485281375072
 21
0.0000000000115961
 31
0.0
  0
LINE
  5
AB
330
6F
100
AcDbEntity
  8
DETAIL
  6
Continuous
 62
     5
100
AcDbLine
 10
-273.0225050648069
 20
-139.0999999999887
 30
0.0
 11
-273.0225050648069
 21
-136.0999999999887
 31
0.0
  0
LINE
  5
AC
330
6F
100
AcDbEntity
  8
DETAIL
  6
Continuous
 62
     5
100
AcDbLine
 10
-196.4000000000077
 20
0.0000000000115961
 30
0.0
 11
-196.4000000000077
 21
-2.999999999988403
 31
0.0
  0
LINE
  5
AD
330
6F
100
AcDbEntity
  8
DETAIL
  6
Continuous
 62
     5
100
AcDbLine
 10
-196.4000000000077
 20
-11.9999999999884
 30
0.0
 11
-196.4000000000077
 21
-2.999999999988403
 31
0.0
  0
LINE
  5
AE
330
6F
100
AcDbEntity
  8
DETAIL
  6
Continuous
 62
     5
100
AcDbLine
 10
-194.8686291501081
 20
-245.3999999999885
 30
0.0
 11
-194.8686291501081
 21
-242.9999999999884
 31
0.0
  0
LINE
  5
AF
330
6F
100
AcDbEntity
  8
DETAIL
  6
Continuous
 62
     5
100
AcDbLine
 10
-140.4426406872071
 20
-3.799999999988584
 30
0.0
 11
-137.7556349186079
 21
-1.112994231488527
 31
0.0
  0
LINE
  5
B0
330
6F
100
AcDbEntity
  8
DETAIL
  6
Continuous
 62
     5
100
AcDbLine
 10
-135.6343145751079
 20
-3.234314575088546
 30
0.0
 11
-136.200000000007
 21
-3.799999999988584
 31
0.0
  0
LINE
  5
B1
330
6F
100
AcDbEntity
  8
DETAIL
  6
Continuous
 62
     5
100
AcDbLine
 10
-135.2100505064072
 20
-3.658578643788358
 30
0.0
 11
-135.3514718626074
 21
-3.799999999988584
 31
0.0
  0
LINE
  5
B2
330
6F
100
AcDbEntity
  8
DETAIL
  6
Continuous
 62
     5
100
AcDbLine
 10
230.8499999999922
 20
-240.0285398162885
 30
0.0
 11
228.8499999999922
 21
-240.0285398163885
 31
0.0
  0
LINE
  5
B3
330
6F
100
AcDbEntity
  8
DETAIL
  6
Continuous
 62
     5
100
AcDbLine
 10
228.7999999999929
 20
-240.0285398162885
 30
0.0
 11
-40.20000000000709
 21
-240.0285398163885
 31
0.0
  0
LINE
  5
B4
330
6F
100
AcDbEntity
  8
DETAIL
  6
Continuous
 62
     5
100
AcDbLine
 10
-23.00000000000819
 20
-239.9999999999884
 30
0.0
 11
226.9999999999917
 21
-239.9999999999884
 31
0.0
  0
LINE
  5
B5
330
6F
100
AcDbEntity
  8
DETAIL
  6
Continuous
 62
     5
100
AcDbLine
 10
227.5999999999922
 20
-239.9999999999884
 30
0.0
 11
229.0999999999922
 21
-239.9999999999884
 31
0.0
  0
LINE
  5
B6
330
6F
100
AcDbEntity
  8
DETAIL
  6
Continuous
 62
     5
100
AcDbLine
 10
-23.00000000000819
 20
-239.9999999999884
 30
0.0
 11
-191.868629150108
 21
-239.9999999999884
 31
0.0
  0
LINE
  5
B7
330
6F
100
AcDbEntity
  8
DETAIL
  6
Continuous
 62
     5
100
AcDbLine
 10
-471.2000000000069
 20
-235.9999999999884
 30
0.0
 11
-471.3800000000071
 21
-235.9999999999884
 31
0.0
  0
LINE
  5
B8
330
6F
100
AcDbEntity
  8
DETAIL
  6
Continuous
 62
     5
100
AcDbLine
 10
-470.8000000000073
 20
-235.4999999999884
 30
0.0
 11
-475.0000000000079
 21
-235.4999999999884
 31
0.0
  0
LINE
  5
B9
330
6F
100
AcDbEntity
  8
DETAIL
  6
Continuous
 62
     5
100
AcDbLine
 10
-185.9171572876084
 20
-2.399999999988494
 30
0.0
 11
-185.9171572876084
 21
-3.799999999988584
 31
0.0
  0
LINE
  5
BA
330
6F
100
AcDbEntity
  8
DETAIL
  6
Continuous
 62
     5
100
AcDbLine
 10
-145.9171572876084
 20
-2.399999999988494
 30
0.0
 11
-145.9171572876084
 21
-3.799999999988584
 31
0.0
  0
LINE
  5
BB
330
6F
100
AcDbEntity
  8
DETAIL
  6
Continuous
 62
     5
100
AcDbLine
 10
-134.7372583002079
 20
-3.599999999988766
 30
0.0
 11
-134.7372583002079
 21
-3.799999999988584
 31
0.0
  0
LINE
  5
BC
330
6F
100
AcDbEntity
  8
DETAIL
  6
Continuous
 62
     5
100
AcDbLine
 10
-134.4000000000078
 20
0.0000000000115961
 30
0.0
 11
-134.4000000000078
 21
-2.999999999988403
 31
0.0
  0
LINE
  5
BD
330
6F
100
AcDbEntity
  8
DETAIL
  6
Continuous
 62
     5
100
AcDbLine
 10
-134.4000000000078
 20
-11.9999999999884
 30
0.0
 11
-134.4000000000078
 21
-2.999999999988403
 31
0.0
  0
LINE
  5
BE
330
6F
100
AcDbEntity
  8
DETAIL
  6
Continuous
 62
     5
100
AcDbLine
 10
227.5999999999922
 20
-204.9999999999884
 30
0.0
 11
229.0999999999922
 21
-204.9999999999884
 31
0.0
  0
LINE
  5
BF
330
6F
100
AcDbEntity
  8
DETAIL
  6
Continuous
 62
     5
100
AcDbLine
 10
227.5999999999922
 20
-204.7999999999885
 30
0.0
 11
226.9999999999917
 21
-204.7999999999885
 31
0.0
  0
LINE
  5
C0
330
6F
100
AcDbEntity
  8
DETAIL
  6
Continuous
 62
     5
100
AcDbLine
 10
226.9999999999917
 20
-203.9999999999884
 30
0.0
 11
229.9999999999918
 21
-203.9999999999884
 31
0.0
  0
LINE
  5
C1
330
6F
100
AcDbEntity
  8
DETAIL
  6
Continuous
 62
     5
100
AcDbLine
 10
-318.5000000000082
 20
-184.5999999999887
 30
0.0
 11
-321.5000000000082
 21
-184.5999999999887
 31
0.0
  0
LINE
  5
C2
330
6F
100
AcDbEntity
  8
DETAIL
  6
Continuous
 62
     5
100
AcDbLine
 10
-270.0225050648068
 20
-139.0999999999887
 30
0.0
 11
-273.0225050648069
 21
-139.0999999999887
 31
0.0
  0
LINE
  5
C3
330
6F
100
AcDbEntity
  8
DETAIL
  6
Continuous
 62
     5
100
AcDbLine
 10
-273.0225050648069
 20
-136.0999999999887
 30
0.0
 11
-270.0225050648068
 21
-136.0999999999887
 31
0.0
  0
LINE
  5
C4
330
6F
100
AcDbEntity
  8
DETAIL
  6
Continuous
 62
     5
100
AcDbLine
 10
-40.20000000000709
 20
-240.0285398163885
 30
0.0
 11
-40.20000000000709
 21
-249.1999999999891
 31
0.0
  0
LINE
  5
C5
330
6F
100
AcDbEntity
  8
DETAIL
  6
Continuous
 62
     5
100
AcDbLine
 10
66.05735931279287
 20
-3.799999999988584
 30
0.0
 11
68.74436508139206
 21
-1.112994231488527
 31
0.0
  0
LINE
  5
C6
330
6F
100
AcDbEntity
  8
DETAIL
  6
Continuous
 62
     5
100
AcDbLine
 10
70.29999999999289
 20
-3.799999999988584
 30
0.0
 11
70.86568542489205
 21
-3.234314575088546
 31
0.0
  0
LINE
  5
C7
330
6F
100
AcDbEntity
  8
DETAIL
  6
Continuous
 62
     5
100
AcDbLine
 10
70.86568542489205
 20
-3.234314575088546
 30
0.0
 11
70.29999999999289
 21
-3.799999999988584
 31
0.0
  0
LINE
  5
C8
330
6F
100
AcDbEntity
  8
DETAIL
  6
Continuous
 62
     5
100
AcDbLine
 10
71.28994949359277
 20
-3.658578643788358
 30
0.0
 11
71.14852813739253
 21
-3.799999999988584
 31
0.0
  0
LINE
  5
C9
330
6F
100
AcDbEntity
  8
DETAIL
  6
Continuous
 62
     5
100
AcDbLine
 10
176.9999999999918
 20
-92.9999999999884
 30
0.0
 11
226.9999999999917
 21
-92.9999999999884
 31
0.0
  0
LINE
  5
CA
330
6F
100
AcDbEntity
  8
DETAIL
  6
Continuous
 62
     5
100
AcDbLine
 10
-321.5000000000082
 20
-90.59999999998877
 30
0.0
 11
-318.5000000000082
 21
-90.59999999998877
 31
0.0
  0
LINE
  5
CB
330
6F
100
AcDbEntity
  8
DETAIL
  6
Continuous
 62
     5
100
AcDbLine
 10
-462.2000000000069
 20
-77.9999999999884
 30
0.0
 11
-418.2000000000071
 21
-77.9999999999884
 31
0.0
  0
LINE
  5
CC
330
6F
100
AcDbEntity
  8
DETAIL
  6
Continuous
 62
     5
100
AcDbLine
 10
180.7999999999928
 20
-77.9999999999884
 30
0.0
 11
224.7999999999929
 21
-77.9999999999884
 31
0.0
  0
LINE
  5
CD
330
6F
100
AcDbEntity
  8
DETAIL
  6
Continuous
 62
     5
100
AcDbLine
 10
213.7999999999929
 20
-62.99999999998839
 30
0.0
 11
191.7999999999929
 21
-62.99999999998839
 31
0.0
  0
LINE
  5
CE
330
6F
100
AcDbEntity
  8
DETAIL
  6
Continuous
 62
     5
100
AcDbLine
 10
-429.2000000000069
 20
-62.99999999998839
 30
0.0
 11
-451.2000000000068
 21
-62.99999999998839
 31
0.0
  0
LINE
  5
CF
330
6F
100
AcDbEntity
  8
DETAIL
  6
Continuous
 62
     5
100
AcDbLine
 10
-195.4485281375081
 20
-3.799999999988584
 30
0.0
 11
-195.5899494937084
 21
-3.658578643788358
 31
0.0
  0
LINE
  5
D0
330
6F
100
AcDbEntity
  8
DETAIL
  6
Continuous
 62
     5
100
AcDbLine
 10
-194.6000000000084
 20
-3.799999999988584
 30
0.0
 11
-195.1656854250077
 21
-3.234314575088546
 31
0.0
  0
LINE
  5
D1
330
6F
100
AcDbEntity
  8
DETAIL
  6
Continuous
 62
     5
100
AcDbLine
 10
-193.0443650814077
 20
-1.112994231488527
 30
0.0
 11
-190.3573593129085
 21
-3.799999999988584
 31
0.0
  0
LINE
  5
D2
330
6F
100
AcDbEntity
  8
DETAIL
  6
Continuous
 62
     5
100
AcDbLine
 10
-23.00000000000819
 20
-239.9999999999884
 30
0.0
 11
-23.00000000000819
 21
-14.9999999999884
 31
0.0
  0
LINE
  5
D3
330
6F
100
AcDbEntity
  8
DETAIL
  6
Continuous
 62
     5
100
AcDbLine
 10
10.09999999999218
 20
0.0000000000115961
 30
0.0
 11
10.09999999999218
 21
-2.999999999988403
 31
0.0
  0
LINE
  5
D4
330
6F
100
AcDbEntity
  8
DETAIL
  6
Continuous
 62
     5
100
AcDbLine
 10
10.09999999999218
 20
-11.9999999999884
 30
0.0
 11
10.09999999999218
 21
-2.999999999988403
 31
0.0
  0
LINE
  5
D5
330
6F
100
AcDbEntity
  8
DETAIL
  6
Continuous
 62
     5
100
AcDbLine
 10
20.44142135619313
 20
-2.399999999988494
 30
0.0
 11
20.44142135619313
 21
-3.799999999988584
 31
0.0
  0
LINE
  5
D6
330
6F
100
AcDbEntity
  8
DETAIL
  6
Continuous
 62
     5
100
AcDbLine
 10
-449.2000000000071
 20
-39.49999999998841
 30
0.0
 11
-431.2000000000071
 21
-39.49999999998841
 31
0.0
  0
LINE
  5
D7
330
6F
100
AcDbEntity
  8
DETAIL
  6
Continuous
 62
     5
100
AcDbLine
 10
193.7999999999929
 20
-39.49999999998841
 30
0.0
 11
211.7999999999929
 21
-39.49999999998841
 31
0.0
  0
LINE
  5
D8
330
6F
100
AcDbEntity
  8
DETAIL
  6
Continuous
 62
     5
100
AcDbLine
 10
-462.2000000000069
 20
-29.9999999999884
 30
0.0
 11
-449.2000000000071
 21
-29.9999999999884
 31
0.0
  0
LINE
  5
D9
330
6F
100
AcDbEntity
  8
DETAIL
  6
Continuous
 62
     5
100
AcDbLine
 10
-431.2000000000071
 20
-29.9999999999884
 30
0.0
 11
-418.2000000000071
 21
-29.9999999999884
 31
0.0
  0
LINE
  5
DA
330
6F
100
AcDbEntity
  8
DETAIL
  6
Continuous
 62
     5
100
AcDbLine
 10
180.7999999999928
 20
-29.9999999999884
 30
0.0
 11
193.7999999999929
 21
-29.9999999999884
 31
0.0
  0
LINE
  5
DB
330
6F
100
AcDbEntity
  8
DETAIL
  6
Continuous
 62
     5
100
AcDbLine
 10
211.7999999999929
 20
-29.9999999999884
 30
0.0
 11
224.7999999999929
 21
-29.9999999999884
 31
0.0
  0
LINE
  5
DC
330
6F
100
AcDbEntity
  8
DETAIL
  6
Continuous
 62
     5
100
AcDbLine
 10
230.7999999999929
 20
-26.39999999998849
 30
0.0
 11
227.7999999999929
 21
-26.39999999998849
 31
0.0
  0
LINE
  5
DD
330
6F
100
AcDbEntity
  8
DETAIL
  6
Continuous
 62
     5
100
AcDbLine
 10
227.7999999999929
 20
-23.9999999999884
 30
0.0
 11
229.9999999999918
 21
-23.9999999999884
 31
0.0
  0
LINE
  5
DE
330
6F
100
AcDbEntity
  8
DETAIL
  6
Continuous
 62
     5
100
AcDbLine
 10
208.7999999999929
 20
-20.4999999999884
 30
0.0
 11
196.7999999999929
 21
-20.4999999999884
 31
0.0
  0
LINE
  5
DF
330
6F
100
AcDbEntity
  8
DETAIL
  6
Continuous
 62
     5
100
AcDbLine
 10
-434.2000000000068
 20
-20.4999999999884
 30
0.0
 11
-446.2000000000069
 21
-20.4999999999884
 31
0.0
  0
LINE
  5
E0
330
6F
100
AcDbEntity
  8
DETAIL
  6
Continuous
 62
     5
100
AcDbLine
 10
227.7999999999929
 20
-17.9999999999884
 30
0.0
 11
177.7999999999929
 21
-17.9999999999884
 31
0.0
  0
LINE
  5
E1
330
6F
100
AcDbEntity
  8
DETAIL
  6
Continuous
 62
     5
100
AcDbLine
 10
-415.2000000000071
 20
-17.9999999999884
 30
0.0
 11
-465.2000000000071
 21
-17.9999999999884
 31
0.0
  0
LINE
  5
E2
330
6F
100
AcDbEntity
  8
DETAIL
  6
Continuous
 62
     5
100
AcDbLine
 10
-470.8000000000073
 20
-16.9999999999884
 30
0.0
 11
-475.0000000000079
 21
-16.9999999999884
 31
0.0
  0
LINE
  5
E3
330
6F
100
AcDbEntity
  8
DETAIL
  6
Continuous
 62
     5
100
AcDbLine
 10
-471.2000000000069
 20
-15.9999999999884
 30
0.0
 11
-471.5800000000081
 21
-15.9999999999884
 31
0.0
  0
LINE
  5
E4
330
6F
100
AcDbEntity
  8
DETAIL
  6
Continuous
 62
     5
100
AcDbLine
 10
-471.4000000000076
 20
-14.9999999999884
 30
0.0
 11
-471.2000000000069
 21
-14.9999999999884
 31
0.0
  0
LINE
  5
E5
330
6F
100
AcDbEntity
  8
DETAIL
  6
Continuous
 62
     5
100
AcDbLine
 10
-468.4000000000077
 20
-14.9999999999884
 30
0.0
 11
-455.2000000000068
 21
-14.9999999999884
 31
0.0
  0
LINE
  5
E6
330
6F
100
AcDbEntity
  8
DETAIL
  6
Continuous
 62
     5
100
AcDbLine
 10
-397.2000000000071
 20
-14.9999999999884
 30
0.0
 11
-199.4000000000077
 21
-14.9999999999884
 31
0.0
  0
LINE
  5
E7
330
6F
100
AcDbEntity
  8
DETAIL
  6
Continuous
 62
     5
100
AcDbLine
 10
-131.4000000000078
 20
-14.9999999999884
 30
0.0
 11
-23.00000000000819
 21
-14.9999999999884
 31
0.0
  0
LINE
  5
E8
330
6F
100
AcDbEntity
  8
DETAIL
  6
Continuous
 62
     5
100
AcDbLine
 10
-23.00000000000819
 20
-14.9999999999884
 30
0.0
 11
176.9999999999918
 21
-14.9999999999884
 31
0.0
  0
LINE
  5
E9
330
6F
100
AcDbEntity
  8
DETAIL
  6
Continuous
 62
     5
100
AcDbLine
 10
176.9999999999918
 20
-14.9999999999884
 30
0.0
 11
226.9999999999917
 21
-14.9999999999884
 31
0.0
  0
LINE
  5
EA
330
6F
100
AcDbEntity
  8
DETAIL
  6
Continuous
 62
     5
100
AcDbLine
 10
-471.6000000000085
 20
-14.9999999999884
 30
0.0
 11
-472.2000000000071
 21
-14.9999999999884
 31
0.0
  0
LINE
  5
EB
330
6F
100
AcDbEntity
  8
DETAIL
  6
Continuous
 62
     5
100
AcDbLine
 10
72.09999999999219
 20
-3.799999999988584
 30
0.0
 11
10.09999999999218
 21
-3.799999999988584
 31
0.0
  0
LINE
  5
EC
330
6F
100
AcDbEntity
  8
DETAIL
  6
Continuous
 62
     5
100
AcDbLine
 10
-134.4000000000078
 20
-3.799999999988584
 30
0.0
 11
-196.4000000000077
 21
-3.799999999988584
 31
0.0
  0
LINE
  5
ED
330
6F
100
AcDbEntity
  8
DETAIL
  6
Continuous
 62
     5
100
AcDbLine
 10
-400.2000000000069
 20
-3.799999999988584
 30
0.0
 11
-452.2000000000071
 21
-3.799999999988584
 31
0.0
  0
LINE
  5
EE
330
6F
100
AcDbEntity
  8
DETAIL
  6
Continuous
 62
     5
100
AcDbLine
 10
-400.868629150108
 20
-3.599999999988766
 30
0.0
 11
-400.2000000000069
 21
-3.599999999988766
 31
0.0
  0
LINE
  5
EF
330
6F
100
AcDbEntity
  8
DETAIL
  6
Continuous
 62
     5
100
AcDbLine
 10
-135.068629150107
 20
-3.599999999988766
 30
0.0
 11
-134.4000000000078
 21
-3.599999999988766
 31
0.0
  0
LINE
  5
F0
330
6F
100
AcDbEntity
  8
DETAIL
  6
Continuous
 62
     5
100
AcDbLine
 10
71.43137084989302
 20
-3.599999999988766
 30
0.0
 11
72.09999999999219
 21
-3.599999999988766
 31
0.0
  0
LINE
  5
F1
330
6F
100
AcDbEntity
  8
DETAIL
  6
Continuous
 62
     5
100
AcDbLine
 10
10.76862915009314
 20
-3.599999999988766
 30
0.0
 11
10.09999999999218
 21
-3.599999999988766
 31
0.0
  0
LINE
  5
F2
330
6F
100
AcDbEntity
  8
DETAIL
  6
Continuous
 62
     5
100
AcDbLine
 10
-195.7313708499068
 20
-3.599999999988766
 30
0.0
 11
-196.4000000000077
 21
-3.599999999988766
 31
0.0
  0
LINE
  5
F3
330
6F
100
AcDbEntity
  8
DETAIL
  6
Continuous
 62
     5
100
AcDbLine
 10
-451.9725510199068
 20
-3.599999999988766
 30
0.0
 11
-452.2000000000071
 21
-3.599999999988766
 31
0.0
  0
LINE
  5
F4
330
6F
100
AcDbEntity
  8
DETAIL
  6
Continuous
 62
     5
100
AcDbLine
 10
-135.068629150107
 20
-2.999999999988403
 30
0.0
 11
-134.4000000000078
 21
-2.999999999988403
 31
0.0
  0
LINE
  5
F5
330
6F
100
AcDbEntity
  8
DETAIL
  6
Continuous
 62
     5
100
AcDbLine
 10
71.43137084989302
 20
-2.999999999988403
 30
0.0
 11
72.09999999999219
 21
-2.999999999988403
 31
0.0
  0
LINE
  5
F6
330
6F
100
AcDbEntity
  8
DETAIL
  6
Continuous
 62
     5
100
AcDbLine
 10
71.43137084989302
 20
-2.999999999988403
 30
0.0
 11
226.9999999999917
 21
-2.999999999988403
 31
0.0
  0
LINE
  5
F7
330
6F
100
AcDbEntity
  8
DETAIL
  6
Continuous
 62
     5
100
AcDbLine
 10
10.76862915009314
 20
-2.999999999988403
 30
0.0
 11
10.09999999999218
 21
-2.999999999988403
 31
0.0
  0
LINE
  5
F8
330
6F
100
AcDbEntity
  8
DETAIL
  6
Continuous
 62
     5
100
AcDbLine
 10
10.09999999999218
 20
-2.999999999988403
 30
0.0
 11
-134.4000000000078
 21
-2.999999999988403
 31
0.0
  0
LINE
  5
F9
330
6F
100
AcDbEntity
  8
DETAIL
  6
Continuous
 62
     5
100
AcDbLine
 10
-195.7313708499068
 20
-2.999999999988403
 30
0.0
 11
-196.4000000000077
 21
-2.999999999988403
 31
0.0
  0
LINE
  5
FA
330
6F
100
AcDbEntity
  8
DETAIL
  6
Continuous
 62
     5
100
AcDbLine
 10
-196.4000000000077
 20
-2.999999999988403
 30
0.0
 11
-295.6485281375072
 21
-2.999999999988403
 31
0.0
  0
LINE
  5
FB
330
6F
100
AcDbEntity
  8
DETAIL
  6
Continuous
 62
     5
100
AcDbLine
 10
-295.6485281375072
 20
-2.999999999988403
 30
0.0
 11
-400.868629150108
 21
-2.999999999988403
 31
0.0
  0
LINE
  5
FC
330
6F
100
AcDbEntity
  8
DETAIL
  6
Continuous
 62
     5
100
AcDbLine
 10
-451.9725510199068
 20
-2.999999999988403
 30
0.0
 11
-471.4000000000076
 21
-2.999999999988403
 31
0.0
  0
LINE
  5
FD
330
6F
100
AcDbEntity
  8
DETAIL
  6
Continuous
 62
     5
100
AcDbLine
 10
-185.9171572876084
 20
-2.399999999988494
 30
0.0
 11
-145.9171572876084
 21
-2.399999999988494
 31
0.0
  0
LINE
  5
FE
330
6F
100
AcDbEntity
  8
DETAIL
  6
Continuous
 62
     5
100
AcDbLine
 10
20.44142135619313
 20
-2.399999999988494
 30
0.0
 11
60.44142135619313
 21
-2.399999999988494
 31
0.0
  0
LINE
  5
FF
330
6F
100
AcDbEntity
  8
DETAIL
  6
Continuous
 62
     5
100
AcDbLine
 10
-410.6786070119076
 20
-2.399999999988494
 30
0.0
 11
-450.6786070119076
 21
-2.399999999988494
 31
0.0
  0
LINE
  5
100
330
6F
100
AcDbEntity
  8
DETAIL
  6
Continuous
 62
     5
100
AcDbLine
 10
71.43137084989302
 20
0.0000000000115961
 30
0.0
 11
226.9999999999917
 21
0.0000000000115961
 31
0.0
  0
LINE
  5
101
330
6F
100
AcDbEntity
  8
DETAIL
  6
Continuous
 62
     5
100
AcDbLine
 10
10.76862915009314
 20
0.0000000000115961
 30
0.0
 11
-135.068629150107
 21
0.0000000000115961
 31
0.0
  0
LINE
  5
102
330
6F
100
AcDbEntity
  8
DETAIL
  6
Continuous
 62
     5
100
AcDbLine
 10
-195.7313708499068
 20
0.0000000000115961
 30
0.0
 11
-295.6485281375072
 21
0.0000000000115961
 31
0.0
  0
LINE
  5
103
330
6F
100
AcDbEntity
  8
DETAIL
  6
Continuous
 62
     5
100
AcDbLine
 10
-231.4755027098081
 20
-8.318050437688496
 30
0.0
 11
-228.7973522778075
 21
-8.64381418758853
 31
0.0
  0
LINE
  5
104
330
6F
100
AcDbEntity
  8
DETAIL
  6
Continuous
 62
     5
100
AcDbLine
 10
60.44142135619313
 20
-2.399999999988494
 30
0.0
 11
60.44142135619313
 21
-3.799999999988584
 31
0.0
  0
LINE
  5
105
330
6F
100
AcDbEntity
  8
DETAIL
  6
Continuous
 62
     5
100
AcDbLine
 10
72.09999999999219
 20
0.0000000000115961
 30
0.0
 11
72.09999999999219
 21
-2.999999999988403
 31
0.0
  0
LINE
  5
106
330
6F
100
AcDbEntity
  8
DETAIL
  6
Continuous
 62
     5
100
AcDbLine
 10
72.09999999999219
 20
-11.9999999999884
 30
0.0
 11
72.09999999999219
 21
-2.999999999988403
 31
0.0
  0
LINE
  5
107
330
6F
100
AcDbEntity
  8
DETAIL
  6
Continuous
 62
     5
100
AcDbLine
 10
11.05147186249178
 20
-3.799999999988584
 30
0.0
 11
10.91005050629155
 21
-3.658578643788358
 31
0.0
  0
LINE
  5
108
330
6F
100
AcDbEntity
  8
DETAIL
  6
Continuous
 62
     5
100
AcDbLine
 10
11.89999999999145
 20
-3.799999999988584
 30
0.0
 11
11.33431457499227
 21
-3.234314575088546
 31
0.0
  0
LINE
  5
109
330
6F
100
AcDbEntity
  8
DETAIL
  6
Continuous
 62
     5
100
AcDbLine
 10
13.45563491859229
 20
-1.112994231488527
 30
0.0
 11
16.14264068709144
 21
-3.799999999988584
 31
0.0
  0
LINE
  5
10A
330
6F
100
AcDbEntity
  8
DETAIL
  6
Continuous
 62
     5
100
AcDbLine
 10
176.9999999999918
 20
-14.9999999999884
 30
0.0
 11
176.9999999999918
 21
-92.9999999999884
 31
0.0
  0
LINE
  5
10B
330
6F
100
AcDbEntity
  8
DETAIL
  6
Continuous
 62
     5
100
AcDbLine
 10
177.7999999999929
 20
-74.9999999999884
 30
0.0
 11
177.7999999999929
 21
-26.99999999998841
 31
0.0
  0
LINE
  5
10C
330
6F
100
AcDbEntity
  8
DETAIL
  6
Continuous
 62
     5
100
AcDbLine
 10
177.7999999999929
 20
-26.99999999998841
 30
0.0
 11
177.7999999999929
 21
-17.9999999999884
 31
0.0
  0
LINE
  5
10D
330
6F
100
AcDbEntity
  8
DETAIL
  6
Continuous
 62
     5
100
AcDbLine
 10
186.7999999999929
 20
-67.99999999998838
 30
0.0
 11
186.7999999999929
 21
-46.49999999998839
 31
0.0
  0
LINE
  5
10E
330
6F
100
AcDbEntity
  8
DETAIL
  6
Continuous
 62
     5
100
AcDbLine
 10
191.7999999999929
 20
-62.99999999998839
 30
0.0
 11
191.7999999999929
 21
-70.22493770578852
 31
0.0
  0
LINE
  5
10F
330
6F
100
AcDbEntity
  8
DETAIL
  6
Continuous
 62
     5
100
AcDbLine
 10
192.7999999999929
 20
-67.99999999998838
 30
0.0
 11
192.7999999999929
 21
-63.00745846458835
 31
0.0
  0
LINE
  5
110
330
6F
100
AcDbEntity
  8
DETAIL
  6
Continuous
 62
     5
100
AcDbLine
 10
196.7999999999929
 20
-26.99999999998841
 30
0.0
 11
196.7999999999929
 21
-17.9999999999884
 31
0.0
  0
LINE
  5
111
330
6F
100
AcDbEntity
  8
DETAIL
  6
Continuous
 62
     5
100
AcDbLine
 10
199.2999999999929
 20
-32.4999999999884
 30
0.0
 11
199.2999999999929
 21
-31.4999999999884
 31
0.0
  0
LINE
  5
112
330
6F
100
AcDbEntity
  8
DETAIL
  6
Continuous
 62
     5
100
AcDbLine
 10
176.9999999999918
 20
-66.23592457138852
 30
0.0
 11
177.7999999999929
 21
-67.67912664238815
 31
0.0
  0
LINE
  5
113
330
6F
100
AcDbEntity
  8
DETAIL
  6
Continuous
 62
     5
100
AcDbLine
 10
183.5210967556913
 20
-77.9999999999884
 30
0.0
 11
190.5073707568926
 21
-90.60325638348855
 31
0.0
  0
LINE
  5
114
330
6F
100
AcDbEntity
  8
DETAIL
  6
Continuous
 62
     5
100
AcDbLine
 10
206.2999999999929
 20
-31.4999999999884
 30
0.0
 11
206.2999999999929
 21
-32.4999999999884
 31
0.0
  0
LINE
  5
115
330
6F
100
AcDbEntity
  8
DETAIL
  6
Continuous
 62
     5
100
AcDbLine
 10
208.7999999999929
 20
-26.99999999998841
 30
0.0
 11
208.7999999999929
 21
-17.9999999999884
 31
0.0
  0
LINE
  5
116
330
6F
100
AcDbEntity
  8
DETAIL
  6
Continuous
 62
     5
100
AcDbLine
 10
212.7999999999929
 20
-67.99999999998838
 30
0.0
 11
212.7999999999929
 21
-63.00745846458835
 31
0.0
  0
LINE
  5
117
330
6F
100
AcDbEntity
  8
DETAIL
  6
Continuous
 62
     5
100
AcDbLine
 10
213.7999999999929
 20
-70.22493770578852
 30
0.0
 11
213.7999999999929
 21
-62.99999999998839
 31
0.0
  0
LINE
  5
118
330
6F
100
AcDbEntity
  8
DETAIL
  6
Continuous
 62
     5
100
AcDbLine
 10
218.7999999999929
 20
-46.49999999998839
 30
0.0
 11
218.7999999999929
 21
-67.99999999998838
 31
0.0
  0
LINE
  5
119
330
6F
100
AcDbEntity
  8
DETAIL
  6
Continuous
 62
     5
100
AcDbLine
 10
226.9999999999917
 20
-77.0291983019881
 30
0.0
 11
226.9999999999917
 21
-92.9999999999884
 31
0.0
  0
LINE
  5
11A
330
6F
100
AcDbEntity
  8
DETAIL
  6
Continuous
 62
     5
100
AcDbLine
 10
226.9999999999917
 20
-92.9999999999884
 30
0.0
 11
226.9999999999917
 21
-239.9999999999884
 31
0.0
  0
LINE
  5
11B
330
6F
100
AcDbEntity
  8
DETAIL
  6
Continuous
 62
     5
100
AcDbLine
 10
226.9999999999917
 20
-17.9999999999884
 30
0.0
 11
226.9999999999917
 21
-2.999999999988403
 31
0.0
  0
LINE
  5
11C
330
6F
100
AcDbEntity
  8
DETAIL
  6
Continuous
 62
     5
100
AcDbLine
 10
227.1999999999926
 20
-17.9999999999884
 30
0.0
 11
227.1999999999926
 21
-3.799999999988584
 31
0.0
  0
LINE
  5
11D
330
6F
100
AcDbEntity
  8
DETAIL
  6
Continuous
 62
     5
100
AcDbLine
 10
227.5999999999922
 20
-204.7999999999885
 30
0.0
 11
227.5999999999922
 21
-205.0267656801881
 31
0.0
  0
LINE
  5
11E
330
6F
100
AcDbEntity
  8
DETAIL
  6
Continuous
 62
     5
100
AcDbLine
 10
227.5999999999922
 20
-204.9999999999884
 30
0.0
 11
227.5999999999922
 21
-239.9999999999884
 31
0.0
  0
LINE
  5
11F
330
6F
100
AcDbEntity
  8
DETAIL
  6
Continuous
 62
     5
100
AcDbLine
 10
227.5999999999922
 20
-206.6614194910883
 30
0.0
 11
227.5999999999922
 21
-239.9999999999884
 31
0.0
  0
LINE
  5
120
330
6F
100
AcDbEntity
  8
DETAIL
  6
Continuous
 62
     5
100
AcDbLine
 10
227.7999999999929
 20
-3.799999999988584
 30
0.0
 11
227.7999999999929
 21
-17.9999999999884
 31
0.0
  0
LINE
  5
121
330
6F
100
AcDbEntity
  8
DETAIL
  6
Continuous
 62
     5
100
AcDbLine
 10
227.7999999999929
 20
-74.9999999999884
 30
0.0
 11
227.7999999999929
 21
-26.99999999998841
 31
0.0
  0
LINE
  5
122
330
6F
100
AcDbEntity
  8
DETAIL
  6
Continuous
 62
     5
100
AcDbLine
 10
227.7999999999929
 20
-26.99999999998841
 30
0.0
 11
227.7999999999929
 21
-17.9999999999884
 31
0.0
  0
LINE
  5
123
330
6F
100
AcDbEntity
  8
DETAIL
  6
Continuous
 62
     5
100
AcDbLine
 10
228.1999999999925
 20
-240.0285398162885
 30
0.0
 11
228.1999999999925
 21
-239.9999999999884
 31
0.0
  0
LINE
  5
124
330
6F
100
AcDbEntity
  8
DETAIL
  6
Continuous
 62
     5
100
AcDbLine
 10
228.7999999999929
 20
-239.9999999999884
 30
0.0
 11
228.7999999999929
 21
-251.9999999999884
 31
0.0
  0
LINE
  5
125
330
6F
100
AcDbEntity
  8
DETAIL
  6
Continuous
 62
     5
100
AcDbLine
 10
228.8499999999922
 20
-240.0285398163885
 30
0.0
 11
228.8499999999922
 21
-247.9499999999882
 31
0.0
  0
LINE
  5
126
330
6F
100
AcDbEntity
  8
DETAIL
  6
Continuous
 62
     5
100
AcDbLine
 10
229.0999999999922
 20
-204.9999999999884
 30
0.0
 11
229.0999999999922
 21
-203.9999999999884
 31
0.0
  0
LINE
  5
127
330
6F
100
AcDbEntity
  8
DETAIL
  6
Continuous
 62
     5
100
AcDbLine
 10
229.9999999999918
 20
-23.9999999999884
 30
0.0
 11
229.9999999999918
 21
-203.9999999999884
 31
0.0
  0
LINE
  5
128
330
6F
100
AcDbEntity
  8
DETAIL
  6
Continuous
 62
     5
100
AcDbLine
 10
230.7999999999929
 20
-3.799999999988584
 30
0.0
 11
230.7999999999929
 21
-26.39999999998849
 31
0.0
  0
LINE
  5
129
330
6F
100
AcDbEntity
  8
DETAIL
  6
Continuous
 62
     5
100
AcDbLine
 10
230.8499999999922
 20
-240.0285398162885
 30
0.0
 11
230.8499999999922
 21
-249.9499999999882
 31
0.0
  0
ARC
  5
12A
330
6F
100
AcDbEntity
  8
DETAIL
  6
Continuous
 62
     5
100
AcDbCircle
 10
-470.8000000000073
 20
-232.4999999999884
 30
0.0
 40
3.0
100
AcDbArc
 50
270.0
 51
0.0
  0
CIRCLE
  5
12B
330
6F
100
AcDbEntity
  8
DETAIL
  6
Continuous
 62
     5
100
AcDbCircle
 10
-374.1265877366087
 20
-168.8499999999887
 30
0.0
 40
1.45
  0
ARC
  5
12C
330
6F
100
AcDbEntity
  8
DETAIL
  6
Continuous
 62
     5
100
AcDbCircle
 10
-449.2000000000071
 20
-46.49999999998839
 30
0.0
 40
7.0
100
AcDbArc
 50
90.0
 51
180.0
  0
CIRCLE
  5
12D
330
6F
100
AcDbEntity
  8
DETAIL
  6
Continuous
 62
     5
100
AcDbCircle
 10
-440.2000000000071
 20
-57.99999999998839
 30
0.0
 40
3.5
  0
ARC
  5
12E
330
6F
100
AcDbEntity
  8
DETAIL
  6
Continuous
 62
     5
100
AcDbCircle
 10
-462.2000000000069
 20
-74.9999999999884
 30
0.0
 40
3.0
100
AcDbArc
 50
180.0
 51
270.0
  0
ARC
  5
12F
330
6F
100
AcDbEntity
  8
DETAIL
  6
Continuous
 62
     5
100
AcDbCircle
 10
-453.2000000000071
 20
-67.99999999998838
 30
0.0
 40
3.0
100
AcDbArc
 50
180.0
 51
0.0
  0
CIRCLE
  5
130
330
6F
100
AcDbEntity
  8
DETAIL
  6
Continuous
 62
     5
100
AcDbCircle
 10
-440.2000000000071
 20
-57.99999999998839
 30
0.0
 40
2.25
  0
ARC
  5
131
330
6F
100
AcDbEntity
  8
DETAIL
  6
Continuous
 62
     5
100
AcDbCircle
 10
-440.2000000000071
 20
-32.4999999999884
 30
0.0
 40
3.5
100
AcDbArc
 50
180.0
 51
0.0
  0
ARC
  5
132
330
6F
100
AcDbEntity
  8
DETAIL
  6
Continuous
 62
     5
100
AcDbCircle
 10
-440.2000000000071
 20
-31.4999999999884
 30
0.0
 40
3.5
100
AcDbArc
 50
0.0
 51
180.0
  0
ARC
  5
133
330
6F
100
AcDbEntity
  8
DETAIL
  6
Continuous
 62
     5
100
AcDbCircle
 10
-470.8000000000073
 20
-19.9999999999884
 30
0.0
 40
3.0
100
AcDbArc
 50
0.0
 51
90.0
  0
ARC
  5
134
330
6F
100
AcDbEntity
  8
DETAIL
  6
Continuous
 62
     5
100
AcDbCircle
 10
-462.2000000000069
 20
-26.99999999998841
 30
0.0
 40
3.0
100
AcDbArc
 50
180.0
 51
270.0
  0
ARC
  5
135
330
6F
100
AcDbEntity
  8
DETAIL
  6
Continuous
 62
     5
100
AcDbCircle
 10
-449.2000000000071
 20
-26.99999999998841
 30
0.0
 40
3.0
100
AcDbArc
 50
270.0
 51
0.0
  0
ARC
  5
136
330
6F
100
AcDbEntity
  8
DETAIL
  6
Continuous
 62
     5
100
AcDbCircle
 10
-455.2000000000068
 20
-11.9999999999884
 30
0.0
 40
3.0
100
AcDbArc
 50
270.0
 51
0.0
  0
ARC
  5
137
330
6F
100
AcDbEntity
  8
DETAIL
  6
Continuous
 62
     5
100
AcDbCircle
 10
-468.4000000000077
 20
-11.9999999999884
 30
0.0
 40
3.0
100
AcDbArc
 50
180.0
 51
270.0
  0
CIRCLE
  5
138
330
6F
100
AcDbEntity
  8
DETAIL
  6
Continuous
 62
     5
100
AcDbCircle
 10
-460.2000000000071
 20
-8.999999999988402
 30
0.0
 40
2.5
  0
CIRCLE
  5
139
330
6F
100
AcDbEntity
  8
DETAIL
  6
Continuous
 62
     5
100
AcDbCircle
 10
-440.2000000000071
 20
-31.99999999998841
 30
0.0
 40
2.299999999999998
  0
CIRCLE
  5
13A
330
6F
100
AcDbEntity
  8
DETAIL
  6
Continuous
 62
     5
100
AcDbCircle
 10
-460.2000000000071
 20
-8.999999999988402
 30
0.0
 40
1.45
  0
ARC
  5
13B
330
6F
100
AcDbEntity
  8
DETAIL
  6
Continuous
 62
     5
100
AcDbCircle
 10
-451.9725510199068
 20
-3.799999999988584
 30
0.0
 40
0.8
100
AcDbArc
 50
2.000000000003498
 51
90.0
  0
ARC
  5
13C
330
6F
100
AcDbEntity
  8
DETAIL
  6
Continuous
 62
     5
100
AcDbCircle
 10
-471.4000000000076
 20
-3.799999999988584
 30
0.0
 40
0.8
100
AcDbArc
 50
90.0
 51
180.0
  0
ARC
  5
13D
330
6F
100
AcDbEntity
  8
DETAIL
  6
Continuous
 62
     5
100
AcDbCircle
 10
-451.9725510199068
 20
-3.799999999988584
 30
0.0
 40
0.2
100
AcDbArc
 50
2.000000000003498
 51
90.0
  0
ARC
  5
13E
330
6F
100
AcDbEntity
  8
DETAIL
  6
Continuous
 62
     5
100
AcDbCircle
 10
-471.4000000000076
 20
-3.799999999988584
 30
0.0
 40
0.2
100
AcDbArc
 50
89.99999999989578
 51
180.0
  0
ARC
  5
13F
330
6F
100
AcDbEntity
  8
DETAIL
  6
Continuous
 62
     5
100
AcDbCircle
 10
-431.2000000000071
 20
-46.49999999998839
 30
0.0
 40
7.0
100
AcDbArc
 50
0.0
 51
90.0
  0
ARC
  5
140
330
6F
100
AcDbEntity
  8
DETAIL
  6
Continuous
 62
     5
100
AcDbCircle
 10
-418.2000000000071
 20
-74.9999999999884
 30
0.0
 40
3.0
100
AcDbArc
 50
270.0
 51
0.0
  0
ARC
  5
141
330
6F
100
AcDbEntity
  8
DETAIL
  6
Continuous
 62
     5
100
AcDbCircle
 10
-427.2000000000071
 20
-67.99999999998838
 30
0.0
 40
3.0
100
AcDbArc
 50
180.0
 51
0.0
  0
ARC
  5
142
330
6F
100
AcDbEntity
  8
DETAIL
  6
Continuous
 62
     5
100
AcDbCircle
 10
-431.2000000000071
 20
-26.99999999998841
 30
0.0
 40
3.0
100
AcDbArc
 50
180.0
 51
270.0
  0
ARC
  5
143
330
6F
100
AcDbEntity
  8
DETAIL
  6
Continuous
 62
     5
100
AcDbCircle
 10
-418.2000000000071
 20
-26.99999999998841
 30
0.0
 40
3.0
100
AcDbArc
 50
270.0
 51
0.0
  0
ARC
  5
144
330
6F
100
AcDbEntity
  8
DETAIL
  6
Continuous
 62
     5
100
AcDbCircle
 10
-397.2000000000071
 20
-11.9999999999884
 30
0.0
 40
3.0
100
AcDbArc
 50
180.0
 51
270.0
  0
ARC
  5
145
330
6F
100
AcDbEntity
  8
DETAIL
  6
Continuous
 62
     5
100
AcDbCircle
 10
-400.868629150108
 20
-3.799999999988584
 30
0.0
 40
0.8
100
AcDbArc
 50
90.0
 51
135.0000000000092
  0
ARC
  5
146
330
6F
100
AcDbEntity
  8
DETAIL
  6
Continuous
 62
     5
100
AcDbCircle
 10
-400.868629150108
 20
-3.799999999988584
 30
0.0
 40
0.2
100
AcDbArc
 50
89.99999999989578
 51
134.9999999998987
  0
ARC
  5
147
330
6F
100
AcDbEntity
  8
DETAIL
  6
Continuous
 62
     5
100
AcDbCircle
 10
-320.0000000000082
 20
-137.5999999999887
 30
0.0
 40
50.0
100
AcDbArc
 50
271.7191313209154
 51
358.2808686790845
  0
ARC
  5
148
330
6F
100
AcDbEntity
  8
DETAIL
  6
Continuous
 62
     5
100
AcDbCircle
 10
-320.0000000000082
 20
-137.5999999999887
 30
0.0
 40
50.0
100
AcDbArc
 50
91.71913132091544
 51
268.2808686790846
  0
ARC
  5
149
330
6F
100
AcDbEntity
  8
DETAIL
  6
Continuous
 62
     5
100
AcDbCircle
 10
-320.0000000000082
 20
-137.5999999999887
 30
0.0
 40
50.0
100
AcDbArc
 50
1.719131320915429
 51
88.28086867908458
  0
ARC
  5
14A
330
6F
100
AcDbEntity
  8
DETAIL
  6
Continuous
 62
     5
100
AcDbCircle
 10
-191.868629150108
 20
-242.9999999999884
 30
0.0
 40
3.0
100
AcDbArc
 50
90.0
 51
180.0
  0
CIRCLE
  5
14B
330
6F
100
AcDbEntity
  8
DETAIL
  6
Continuous
 62
     5
100
AcDbCircle
 10
-206.5000000000082
 20
-217.7999999999886
 30
0.0
 40
2.5
  0
CIRCLE
  5
14C
330
6F
100
AcDbEntity
  8
DETAIL
  6
Continuous
 62
     5
100
AcDbCircle
 10
-206.5000000000082
 20
-217.7999999999886
 30
0.0
 40
1.45
  0
CIRCLE
  5
14D
330
6F
100
AcDbEntity
  8
DETAIL
  6
Continuous
 62
     5
100
AcDbCircle
 10
-265.8734122635078
 20
-168.8499999999887
 30
0.0
 40
1.45
  0
ARC
  5
14E
330
6F
100
AcDbEntity
  8
DETAIL
  6
Continuous
 62
     5
100
AcDbCircle
 10
-195.7313708499068
 20
-3.799999999988584
 30
0.0
 40
3.799999999999998
100
AcDbArc
 50
44.99999999999078
 51
90.0
  0
ARC
  5
14F
330
6F
100
AcDbEntity
  8
DETAIL
  6
Continuous
 62
     5
100
AcDbCircle
 10
-199.4000000000077
 20
-11.9999999999884
 30
0.0
 40
3.0
100
AcDbArc
 50
270.0
 51
0.0
  0
CIRCLE
  5
150
330
6F
100
AcDbEntity
  8
DETAIL
  6
Continuous
 62
     5
100
AcDbCircle
 10
-230.2000000000071
 20
-8.999999999988402
 30
0.0
 40
2.5
  0
CIRCLE
  5
151
330
6F
100
AcDbEntity
  8
DETAIL
  6
Continuous
 62
     5
100
AcDbCircle
 10
-320.0000000000082
 20
-75.09999999998877
 30
0.0
 40
1.45
  0
CIRCLE
  5
152
330
6F
100
AcDbEntity
  8
DETAIL
  6
Continuous
 62
     5
100
AcDbCircle
 10
-230.2000000000071
 20
-8.999999999988402
 30
0.0
 40
1.45
  0
ARC
  5
153
330
6F
100
AcDbEntity
  8
DETAIL
  6
Continuous
 62
     5
100
AcDbCircle
 10
-196.0000000000082
 20
-4.662741699788282
 30
0.0
 40
1.0
100
AcDbArc
 50
59.97390412091553
 51
113.6143251778879
  0
ARC
  5
154
330
6F
100
AcDbEntity
  8
DETAIL
  6
Continuous
 62
     5
100
AcDbCircle
 10
-195.7313708499068
 20
-3.799999999988584
 30
0.0
 40
0.8
100
AcDbArc
 50
44.99999999999078
 51
90.0
  0
ARC
  5
155
330
6F
100
AcDbEntity
  8
DETAIL
  6
Continuous
 62
     5
100
AcDbCircle
 10
-195.7313708499068
 20
-3.799999999988584
 30
0.0
 40
0.2
100
AcDbArc
 50
44.99999999980654
 51
90.0
  0
ARC
  5
156
330
6F
100
AcDbEntity
  8
DETAIL
  6
Continuous
 62
     5
100
AcDbCircle
 10
10.76862915009314
 20
-3.799999999988584
 30
0.0
 40
3.799999999999998
100
AcDbArc
 50
44.99999999999078
 51
90.0
  0
ARC
  5
157
330
6F
100
AcDbEntity
  8
DETAIL
  6
Continuous
 62
     5
100
AcDbCircle
 10
-135.068629150107
 20
-3.799999999988584
 30
0.0
 40
3.799999999999998
100
AcDbArc
 50
90.0
 51
135.0000000000092
  0
ARC
  5
158
330
6F
100
AcDbEntity
  8
DETAIL
  6
Continuous
 62
     5
100
AcDbCircle
 10
7.099999999992177
 20
-11.9999999999884
 30
0.0
 40
3.0
100
AcDbArc
 50
270.0
 51
0.0
  0
ARC
  5
159
330
6F
100
AcDbEntity
  8
DETAIL
  6
Continuous
 62
     5
100
AcDbCircle
 10
-131.4000000000078
 20
-11.9999999999884
 30
0.0
 40
3.0
100
AcDbArc
 50
180.0
 51
270.0
  0
CIRCLE
  5
15A
330
6F
100
AcDbEntity
  8
DETAIL
  6
Continuous
 62
     5
100
AcDbCircle
 10
-10.20000000000709
 20
-8.999999999988402
 30
0.0
 40
2.5
  0
CIRCLE
  5
15B
330
6F
100
AcDbEntity
  8
DETAIL
  6
Continuous
 62
     5
100
AcDbCircle
 10
-10.20000000000709
 20
-8.999999999988402
 30
0.0
 40
1.45
  0
ARC
  5
15C
330
6F
100
AcDbEntity
  8
DETAIL
  6
Continuous
 62
     5
100
AcDbCircle
 10
-135.068629150107
 20
-3.799999999988584
 30
0.0
 40
0.8
100
AcDbArc
 50
90.0
 51
135.0000000000092
  0
ARC
  5
15D
330
6F
100
AcDbEntity
  8
DETAIL
  6
Continuous
 62
     5
100
AcDbCircle
 10
10.76862915009314
 20
-3.799999999988584
 30
0.0
 40
0.8
100
AcDbArc
 50
44.99999999999078
 51
90.0
  0
ARC
  5
15E
330
6F
100
AcDbEntity
  8
DETAIL
  6
Continuous
 62
     5
100
AcDbCircle
 10
10.76862915009314
 20
-3.799999999988584
 30
0.0
 40
0.2
100
AcDbArc
 50
44.99999999980654
 51
90.0
  0
ARC
  5
15F
330
6F
100
AcDbEntity
  8
DETAIL
  6
Continuous
 62
     5
100
AcDbCircle
 10
-135.068629150107
 20
-3.799999999988584
 30
0.0
 40
0.2
100
AcDbArc
 50
89.99999999989578
 51
135.0000000001565
  0
ARC
  5
160
330
6F
100
AcDbEntity
  8
DETAIL
  6
Continuous
 62
     5
100
AcDbCircle
 10
226.9999999999917
 20
-240.9999999999884
 30
0.0
 40
1.0
100
AcDbArc
 50
77.01397992841329
 51
90.0
  0
ARC
  5
161
330
6F
100
AcDbEntity
  8
DETAIL
  6
Continuous
 62
     5
100
AcDbCircle
 10
228.7999999999929
 20
-247.9499999999882
 30
0.0
 40
0.05
100
AcDbArc
 50
270.0
 51
0.0
  0
ARC
  5
162
330
6F
100
AcDbEntity
  8
DETAIL
  6
Continuous
 62
     5
100
AcDbCircle
 10
227.7999999999929
 20
-204.7999999999885
 30
0.0
 40
0.8
100
AcDbArc
 50
90.0
 51
180.0
  0
ARC
  5
163
330
6F
100
AcDbEntity
  8
DETAIL
  6
Continuous
 62
     5
100
AcDbCircle
 10
71.43137084989302
 20
-3.799999999988584
 30
0.0
 40
3.799999999999998
100
AcDbArc
 50
90.0
 51
135.0000000000092
  0
ARC
  5
164
330
6F
100
AcDbEntity
  8
DETAIL
  6
Continuous
 62
     5
100
AcDbCircle
 10
75.09999999999219
 20
-11.9999999999884
 30
0.0
 40
3.0
100
AcDbArc
 50
180.0
 51
270.0
  0
ARC
  5
165
330
6F
100
AcDbEntity
  8
DETAIL
  6
Continuous
 62
     5
100
AcDbCircle
 10
71.43137084989302
 20
-3.799999999988584
 30
0.0
 40
0.8
100
AcDbArc
 50
90.0
 51
135.0000000000092
  0
ARC
  5
166
330
6F
100
AcDbEntity
  8
DETAIL
  6
Continuous
 62
     5
100
AcDbCircle
 10
71.43137084989302
 20
-3.799999999988584
 30
0.0
 40
0.8
100
AcDbArc
 50
90.0
 51
135.0000000000092
  0
ARC
  5
167
330
6F
100
AcDbEntity
  8
DETAIL
  6
Continuous
 62
     5
100
AcDbCircle
 10
71.43137084989302
 20
-3.799999999988584
 30
0.0
 40
0.2
100
AcDbArc
 50
90.00000000010418
 51
135.0000000000092
  0
ARC
  5
168
330
6F
100
AcDbEntity
  8
DETAIL
  6
Continuous
 62
     5
100
AcDbCircle
 10
185.259683395293
 20
-93.51216981548828
 30
0.0
 40
6.0
100
AcDbArc
 50
4.905779138907366
 51
29.00060826170377
  0
CIRCLE
  5
169
330
6F
100
AcDbEntity
  8
DETAIL
  6
Continuous
 62
     5
100
AcDbCircle
 10
202.7999999999929
 20
-57.99999999998839
 30
0.0
 40
3.5
  0
ARC
  5
16A
330
6F
100
AcDbEntity
  8
DETAIL
  6
Continuous
 62
     5
100
AcDbCircle
 10
180.7999999999928
 20
-74.9999999999884
 30
0.0
 40
3.0
100
AcDbArc
 50
180.0
 51
270.0
  0
ARC
  5
16B
330
6F
100
AcDbEntity
  8
DETAIL
  6
Continuous
 62
     5
100
AcDbCircle
 10
224.7999999999929
 20
-74.9999999999884
 30
0.0
 40
3.0
100
AcDbArc
 50
270.0
 51
0.0
  0
ARC
  5
16C
330
6F
100
AcDbEntity
  8
DETAIL
  6
Continuous
 62
     5
100
AcDbCircle
 10
189.7999999999928
 20
-67.99999999998838
 30
0.0
 40
3.0
100
AcDbArc
 50
180.0
 51
0.0
  0
ARC
  5
16D
330
6F
100
AcDbEntity
  8
DETAIL
  6
Continuous
 62
     5
100
AcDbCircle
 10
215.7999999999929
 20
-67.99999999998838
 30
0.0
 40
3.0
100
AcDbArc
 50
180.0
 51
0.0
  0
CIRCLE
  5
16E
330
6F
100
AcDbEntity
  8
DETAIL
  6
Continuous
 62
     5
100
AcDbCircle
 10
202.7999999999929
 20
-57.99999999998839
 30
0.0
 40
2.25
  0
ARC
  5
16F
330
6F
100
AcDbEntity
  8
DETAIL
  6
Continuous
 62
     5
100
AcDbCircle
 10
193.7999999999929
 20
-46.49999999998839
 30
0.0
 40
7.0
100
AcDbArc
 50
90.0
 51
180.0
  0
ARC
  5
170
330
6F
100
AcDbEntity
  8
DETAIL
  6
Continuous
 62
     5
100
AcDbCircle
 10
211.7999999999929
 20
-46.49999999998839
 30
0.0
 40
7.0
100
AcDbArc
 50
0.0
 51
90.0
  0
ARC
  5
171
330
6F
100
AcDbEntity
  8
DETAIL
  6
Continuous
 62
     5
100
AcDbCircle
 10
202.7999999999929
 20
-32.4999999999884
 30
0.0
 40
3.5
100
AcDbArc
 50
180.0
 51
0.0
  0
ARC
  5
172
330
6F
100
AcDbEntity
  8
DETAIL
  6
Continuous
 62
     5
100
AcDbCircle
 10
202.7999999999929
 20
-31.4999999999884
 30
0.0
 40
3.5
100
AcDbArc
 50
0.0
 51
180.0
  0
ARC
  5
173
330
6F
100
AcDbEntity
  8
DETAIL
  6
Continuous
 62
     5
100
AcDbCircle
 10
180.7999999999928
 20
-26.99999999998841
 30
0.0
 40
3.0
100
AcDbArc
 50
180.0
 51
270.0
  0
ARC
  5
174
330
6F
100
AcDbEntity
  8
DETAIL
  6
Continuous
 62
     5
100
AcDbCircle
 10
193.7999999999929
 20
-26.99999999998841
 30
0.0
 40
3.0
100
AcDbArc
 50
270.0
 51
0.0
  0
ARC
  5
175
330
6F
100
AcDbEntity
  8
DETAIL
  6
Continuous
 62
     5
100
AcDbCircle
 10
211.7999999999929
 20
-26.99999999998841
 30
0.0
 40
3.0
100
AcDbArc
 50
180.0
 51
270.0
  0
CIRCLE
  5
176
330
6F
100
AcDbEntity
  8
DETAIL
  6
Continuous
 62
     5
100
AcDbCircle
 10
202.7999999999929
 20
-31.99999999998841
 30
0.0
 40
2.299999999999998
  0
CIRCLE
  5
177
330
6F
100
AcDbEntity
  8
DETAIL
  6
Continuous
 62
     5
100
AcDbCircle
 10
169.7999999999929
 20
-8.999999999988402
 30
0.0
 40
2.5
  0
CIRCLE
  5
178
330
6F
100
AcDbEntity
  8
DETAIL
  6
Continuous
 62
     5
100
AcDbCircle
 10
169.7999999999929
 20
-8.999999999988402
 30
0.0
 40
1.45
  0
ARC
  5
179
330
6F
100
AcDbEntity
  8
DETAIL
  6
Continuous
 62
     5
100
AcDbCircle
 10
224.7999999999929
 20
-26.99999999998841
 30
0.0
 40
3.0
100
AcDbArc
 50
270.0
 51
0.0
  0
ARC
  5
17A
330
6F
100
AcDbEntity
  8
DETAIL
  6
Continuous
 62
     5
100
AcDbCircle
 10
226.9999999999917
 20
-3.799999999988584
 30
0.0
 40
3.799999999999998
100
AcDbArc
 50
0.0
 51
90.0
  0
ARC
  5
17B
330
6F
100
AcDbEntity
  8
DETAIL
  6
Continuous
 62
     5
100
AcDbCircle
 10
226.9999999999917
 20
-3.799999999988584
 30
0.0
 40
0.8
100
AcDbArc
 50
0.0
 51
90.0
  0
ARC
  5
17C
330
6F
100
AcDbEntity
  8
DETAIL
  6
Continuous
 62
     5
100
AcDbCircle
 10
226.9999999999917
 20
-12.84999999998877
 30
0.0
 40
0.2
100
AcDbArc
 50
0.0
 51
90.0
  0
ARC
  5
17D
330
6F
100
AcDbEntity
  8
DETAIL
  6
Continuous
 62
     5
100
AcDbCircle
 10
226.9999999999917
 20
-8.149999999988493
 30
0.0
 40
0.2
100
AcDbArc
 50
270.0
 51
0.0
  0
ARC
  5
17E
330
6F
100
AcDbEntity
  8
DETAIL
  6
Continuous
 62
     5
100
AcDbCircle
 10
226.9999999999917
 20
-3.799999999988584
 30
0.0
 40
0.2
100
AcDbArc
 50
0.0
 51
90.0
  0
ARC
  5
17F
330
6F
100
AcDbEntity
  8
DETAIL
  6
Continuous
 62
     5
100
AcDbCircle
 10
220.8664791690853
 20
-242.960395108443
 30
0.0
 40
9.999999999999447
100
AcDbArc
 50
244.6836403141326
 51
295.3163596858674
  0
LINE
  5
180
330
6F
100
AcDbEntity
  8
DETAIL
  6
Continuous
 62
     5
100
AcDbLine
 10
-471.4000000000076
 20
-235.4999999999884
 30
0.0
 11
-471.4000000000076
 21
-247.9999999999884
 31
0.0
  0
LINE
  5
181
330
6F
100
AcDbEntity
  8
DETAIL
  6
Continuous
 62
     5
100
AcDbLine
 10
-471.2000000000069
 20
-235.4999999999884
 30
0.0
 11
-471.2000000000069
 21
-247.9999999999884
 31
0.0
  0
LINE
  5
182
330
6F
100
AcDbEntity
  8
DETAIL
  6
Continuous
 62
     5
100
AcDbLine
 10
-471.2000000000069
 20
-249.5999999999888
 30
0.0
 11
-471.2000000000069
 21
-248.9999999999884
 31
0.0
  0
LINE
  5
183
330
6F
100
AcDbEntity
  8
DETAIL
  6
Continuous
 62
     5
100
AcDbLine
 10
-471.2000000000069
 20
-248.9999999999884
 30
0.0
 11
-471.2000000000069
 21
-248.1999999999891
 31
0.0
  0
LINE
  5
184
330
6F
100
AcDbEntity
  8
DETAIL
  6
Continuous
 62
     5
100
AcDbLine
 10
-470.2000000000071
 20
-235.4328769853885
 30
0.0
 11
-470.2000000000071
 21
-247.9999999999884
 31
0.0
  0
LINE
  5
185
330
6F
100
AcDbEntity
  8
DETAIL
  6
Continuous
 62
     5
100
AcDbLine
 10
-197.2000000000071
 20
-248.1999999999891
 30
0.0
 11
-197.2000000000071
 21
-248.3999999999899
 31
0.0
  0
LINE
  5
186
330
6F
100
AcDbEntity
  8
DETAIL
  6
Continuous
 62
     5
100
AcDbLine
 10
-196.0970562749071
 20
-248.5857864376896
 30
0.0
 11
-196.0970562749071
 21
-249.18578643769
 31
0.0
  0
LINE
  5
187
330
6F
100
AcDbEntity
  8
DETAIL
  6
Continuous
 62
     5
100
AcDbLine
 10
-195.2000000000071
 20
-247.9999999999884
 30
0.0
 11
-195.2000000000071
 21
-248.9999999999884
 31
0.0
  0
LINE
  5
188
330
6F
100
AcDbEntity
  8
DETAIL
  6
Continuous
 62
     5
100
AcDbLine
 10
-195.0000000000082
 20
-248.1999999999891
 30
0.0
 11
-195.0000000000082
 21
-247.9999999999884
 31
0.0
  0
LINE
  5
189
330
6F
100
AcDbEntity
  8
DETAIL
  6
Continuous
 62
     5
100
AcDbLine
 10
-194.8686291501081
 20
-249.9999999999884
 30
0.0
 11
-194.8686291501081
 21
-242.9999999999884
 31
0.0
  0
LINE
  5
18A
330
6F
100
AcDbEntity
  8
DETAIL
  6
Continuous
 62
     5
100
AcDbLine
 10
-194.8686291501081
 20
-249.9999999999884
 30
0.0
 11
-54.20000000000709
 21
-249.9999999999884
 31
0.0
  0
LINE
  5
18B
330
6F
100
AcDbEntity
  8
DETAIL
  6
Continuous
 62
     5
100
AcDbLine
 10
-194.8686291501081
 20
-248.9999999999884
 30
0.0
 11
-195.2000000000071
 21
-248.9999999999884
 31
0.0
  0
LINE
  5
18C
330
6F
100
AcDbEntity
  8
DETAIL
  6
Continuous
 62
     5
100
AcDbLine
 10
-472.2000000000071
 20
-247.9999999999884
 30
0.0
 11
-471.4000000000076
 21
-247.9999999999884
 31
0.0
  0
LINE
  5
18D
330
6F
100
AcDbEntity
  8
DETAIL
  6
Continuous
 62
     5
100
AcDbLine
 10
-23.00000000000819
 20
-239.9999999999884
 30
0.0
 11
-191.868629150108
 21
-239.9999999999884
 31
0.0
  0
LINE
  5
18E
330
6F
100
AcDbEntity
  8
DETAIL
  6
Continuous
 62
     5
100
AcDbLine
 10
-195.9556349186068
 20
-249.2443650813886
 30
0.0
 11
-195.4343145751072
 21
-249.7656854249901
 31
0.0
  0
LINE
  5
18F
330
6F
100
AcDbEntity
  8
DETAIL
  6
Continuous
 62
     5
100
AcDbLine
 10
-195.5313708499079
 20
-248.8201010126898
 30
0.0
 11
-195.0100505064083
 21
-249.3414213562894
 31
0.0
  0
LINE
  5
190
330
6F
100
AcDbEntity
  8
DETAIL
  6
Continuous
 62
     5
100
AcDbLine
 10
-195.4157644670076
 20
-249.7836462498883
 30
0.0
 11
-195.0054129794071
 21
-249.3459115624894
 31
0.0
  0
LINE
  5
191
330
6F
100
AcDbEntity
  8
DETAIL
  6
Continuous
 62
     5
100
AcDbLine
 10
-195.5313708499079
 20
-248.8201010126898
 30
0.0
 11
-195.9556349186068
 21
-249.2443650813886
 31
0.0
  0
LINE
  5
192
330
6F
100
AcDbEntity
  8
DETAIL
  6
Continuous
 62
     5
100
AcDbLine
 10
-195.4343145751072
 20
-249.7656854249901
 30
0.0
 11
-195.0077317429085
 21
-249.3436664593894
 31
0.0
  0
ARC
  5
193
330
6F
100
AcDbEntity
  8
DETAIL
  6
Continuous
 62
     5
100
AcDbCircle
 10
-471.2000000000069
 20
-247.9999999999884
 30
0.0
 40
1.0
100
AcDbArc
 50
180.0
 51
270.0
  0
ARC
  5
194
330
6F
100
AcDbEntity
  8
DETAIL
  6
Continuous
 62
     5
100
AcDbCircle
 10
-471.2000000000069
 20
-247.9999999999884
 30
0.0
 40
0.2
100
AcDbArc
 50
180.0
 51
270.0
  0
ARC
  5
195
330
6F
100
AcDbEntity
  8
DETAIL
  6
Continuous
 62
     5
100
AcDbCircle
 10
-191.868629150108
 20
-242.9999999999884
 30
0.0
 40
3.0
100
AcDbArc
 50
90.0
 51
180.0
  0
ARC
  5
196
330
6F
100
AcDbEntity
  8
DETAIL
  6
Continuous
 62
     5
100
AcDbCircle
 10
-197.2000000000071
 20
-247.3999999999898
 30
0.0
 40
1.0
100
AcDbArc
 50
270.0
 51
306.7874977430582
  0
ARC
  5
197
330
6F
100
AcDbEntity
  8
DETAIL
  6
Continuous
 62
     5
100
AcDbCircle
 10
-196.0970562749071
 20
-249.3857864376888
 30
0.0
 40
0.8
100
AcDbArc
 50
44.99999999999078
 51
90.0
  0
ARC
  5
198
330
6F
100
AcDbEntity
  8
DETAIL
  6
Continuous
 62
     5
100
AcDbCircle
 10
-194.8686291501081
 20
-249.1999999999891
 30
0.0
 40
0.8
100
AcDbArc
 50
224.9999999999908
 51
270.0
  0
ARC
  5
199
330
6F
100
AcDbEntity
  8
DETAIL
  6
Continuous
 62
     5
100
AcDbCircle
 10
-194.8686291501081
 20
-249.1999999999891
 30
0.0
 40
0.2
100
AcDbArc
 50
224.9999999995486
 51
269.9999999994789
  0
ARC
  5
19A
330
6F
100
AcDbEntity
  8
DETAIL
  6
Continuous
 62
     5
100
AcDbCircle
 10
-196.0970562749071
 20
-249.3857864376888
 30
0.0
 40
0.2
100
AcDbArc
 50
44.99999999999078
 51
90.0
  0
LINE
  5
19B
330
6F
100
AcDbEntity
  8
DETAIL
  6
Continuous
 62
     5
100
AcDbLine
 10
-54.20000000000709
 20
-249.9999999999884
 30
0.0
 11
-40.20000000000709
 21
-249.9999999999884
 31
0.0
  0
LINE
  5
19C
330
6F
100
AcDbEntity
  8
DETAIL
  6
Continuous
 62
     5
100
AcDbLine
 10
-54.20000000000709
 20
-251.9999999999884
 30
0.0
 11
-54.20000000000709
 21
-249.9999999999884
 31
0.0
  0
LINE
  5
19D
330
6F
100
AcDbEntity
  8
DETAIL
  6
Continuous
 62
     5
100
AcDbLine
 10
-40.20000000000709
 20
-240.0285398163898
 30
0.0
 11
-40.20000000000709
 21
-249.9999999999884
 31
0.0
  0
LINE
  5
19E
330
6F
100
AcDbEntity
  8
DETAIL
  6
Continuous
 62
     5
100
AcDbLine
 10
-470.7000000000069
 20
-248.1999999999882
 30
0.0
 11
-470.7000000000069
 21
-247.9999999999884
 31
0.0
  0
LINE
  5
19F
330
6F
100
AcDbEntity
  8
DETAIL
  6
Continuous
 62
     5
100
AcDbLine
 10
-468.2000000000071
 20
-249.5999999999883
 30
0.0
 11
-468.2000000000071
 21
-248.9999999999884
 31
0.0
  0
LINE
  5
1A0
330
6F
100
AcDbEntity
  8
DETAIL
  6
Continuous
 62
     5
100
AcDbLine
 10
-468.0000000000082
 20
-248.1999999999882
 30
0.0
 11
-468.0000000000082
 21
-247.9999999999884
 31
0.0
  0
LINE
  5
1A1
330
6F
100
AcDbEntity
  8
DETAIL
  6
Continuous
 62
     5
100
AcDbLine
 10
-457.2000000000071
 20
-248.1999999999882
 30
0.0
 11
-457.2000000000071
 21
-248.9999999999884
 31
0.0
  0
LINE
  5
1A2
330
6F
100
AcDbEntity
  8
DETAIL
  6
Continuous
 62
     5
100
AcDbLine
 10
-454.2000000000069
 20
-248.1999999999882
 30
0.0
 11
-454.2000000000069
 21
-248.9999999999884
 31
0.0
  0
LINE
  5
1A3
330
6F
100
AcDbEntity
  8
DETAIL
  6
Continuous
 62
     5
100
AcDbLine
 10
-453.2000000000071
 20
-247.9999999999884
 30
0.0
 11
-453.2000000000071
 21
-248.9999999999884
 31
0.0
  0
LINE
  5
1A4
330
6F
100
AcDbEntity
  8
DETAIL
  6
Continuous
 62
     5
100
AcDbLine
 10
-445.2000000000071
 20
-249.5999999999883
 30
0.0
 11
-445.2000000000071
 21
-250.1999999999882
 31
0.0
  0
LINE
  5
1A5
330
6F
100
AcDbEntity
  8
DETAIL
  6
Continuous
 62
     5
100
AcDbLine
 10
-445.2000000000071
 20
-250.8199999999881
 30
0.0
 11
-445.2000000000071
 21
-250.2199999999882
 31
0.0
  0
LINE
  5
1A6
330
6F
100
AcDbEntity
  8
DETAIL
  6
Continuous
 62
     5
100
AcDbLine
 10
-432.8000000000074
 20
-248.1999999999882
 30
0.0
 11
-432.8000000000074
 21
-250.1999999999882
 31
0.0
  0
LINE
  5
1A7
330
6F
100
AcDbEntity
  8
DETAIL
  6
Continuous
 62
     5
100
AcDbLine
 10
-432.3100000000076
 20
-250.2199999999882
 30
0.0
 11
-432.3100000000076
 21
-250.8199999999881
 31
0.0
  0
LINE
  5
1A8
330
6F
100
AcDbEntity
  8
DETAIL
  6
Continuous
 62
     5
100
AcDbLine
 10
-429.3100000000077
 20
-250.2199999999882
 30
0.0
 11
-429.3100000000077
 21
-250.8199999999881
 31
0.0
  0
LINE
  5
1A9
330
6F
100
AcDbEntity
  8
DETAIL
  6
Continuous
 62
     5
100
AcDbLine
 10
-217.7900000000072
 20
-250.2199999999882
 30
0.0
 11
-217.7900000000072
 21
-250.8199999999881
 31
0.0
  0
LINE
  5
1AA
330
6F
100
AcDbEntity
  8
DETAIL
  6
Continuous
 62
     5
100
AcDbLine
 10
-214.7900000000072
 20
-250.2199999999882
 30
0.0
 11
-214.7900000000072
 21
-250.8199999999881
 31
0.0
  0
LINE
  5
1AB
330
6F
100
AcDbEntity
  8
DETAIL
  6
Continuous
 62
     5
100
AcDbLine
 10
-214.3000000000075
 20
-248.1999999999882
 30
0.0
 11
-214.3000000000075
 21
-250.1999999999882
 31
0.0
  0
LINE
  5
1AC
330
6F
100
AcDbEntity
  8
DETAIL
  6
Continuous
 62
     5
100
AcDbLine
 10
-213.2000000000071
 20
-248.5857864376883
 30
0.0
 11
-213.2000000000071
 21
-249.1857864376882
 31
0.0
  0
LINE
  5
1AD
330
6F
100
AcDbEntity
  8
DETAIL
  6
Continuous
 62
     5
100
AcDbLine
 10
-207.2000000000071
 20
-248.1999999999882
 30
0.0
 11
-207.2000000000071
 21
-247.9999999999884
 31
0.0
  0
LINE
  5
1AE
330
6F
100
AcDbEntity
  8
DETAIL
  6
Continuous
 62
     5
100
AcDbLine
 10
-201.9000000000077
 20
-249.5999999999883
 30
0.0
 11
-201.9000000000077
 21
-250.1999999999882
 31
0.0
  0
LINE
  5
1AF
330
6F
100
AcDbEntity
  8
DETAIL
  6
Continuous
 62
     5
100
AcDbLine
 10
-201.9000000000077
 20
-250.8199999999881
 30
0.0
 11
-201.9000000000077
 21
-250.2199999999882
 31
0.0
  0
LINE
  5
1B0
330
6F
100
AcDbEntity
  8
DETAIL
  6
Continuous
 62
     5
100
AcDbLine
 10
-201.9000000000077
 20
-250.8199999999881
 30
0.0
 11
-217.7900000000072
 21
-250.8199999999881
 31
0.0
  0
LINE
  5
1B1
330
6F
100
AcDbEntity
  8
DETAIL
  6
Continuous
 62
     5
100
AcDbLine
 10
-429.3100000000077
 20
-250.8199999999881
 30
0.0
 11
-445.2000000000071
 21
-250.8199999999881
 31
0.0
  0
LINE
  5
1B2
330
6F
100
AcDbEntity
  8
DETAIL
  6
Continuous
 62
     5
100
AcDbLine
 10
-445.2000000000071
 20
-250.2199999999882
 30
0.0
 11
-429.3100000000077
 21
-250.2199999999882
 31
0.0
  0
LINE
  5
1B3
330
6F
100
AcDbEntity
  8
DETAIL
  6
Continuous
 62
     5
100
AcDbLine
 10
-201.9000000000077
 20
-250.2199999999882
 30
0.0
 11
-217.7900000000072
 21
-250.2199999999882
 31
0.0
  0
LINE
  5
1B4
330
6F
100
AcDbEntity
  8
DETAIL
  6
Continuous
 62
     5
100
AcDbLine
 10
-201.9000000000077
 20
-250.1999999999882
 30
0.0
 11
-445.2000000000071
 21
-250.1999999999882
 31
0.0
  0
LINE
  5
1B5
330
6F
100
AcDbEntity
  8
DETAIL
  6
Continuous
 62
     5
100
AcDbLine
 10
-201.9000000000077
 20
-249.5999999999883
 30
0.0
 11
-214.3000000000075
 21
-249.5999999999883
 31
0.0
  0
LINE
  5
1B6
330
6F
100
AcDbEntity
  8
DETAIL
  6
Continuous
 62
     5
100
AcDbLine
 10
-432.8000000000074
 20
-249.5999999999883
 30
0.0
 11
-471.2000000000069
 21
-249.5999999999883
 31
0.0
  0
LINE
  5
1B7
330
6F
100
AcDbEntity
  8
DETAIL
  6
Continuous
 62
     5
100
AcDbLine
 10
-432.8000000000074
 20
-249.3999999999885
 30
0.0
 11
-214.3000000000075
 21
-249.3999999999885
 31
0.0
  0
LINE
  5
1B8
330
6F
100
AcDbEntity
  8
DETAIL
  6
Continuous
 62
     5
100
AcDbLine
 10
-196.0970562749071
 20
-249.1857864376882
 30
0.0
 11
-214.3000000000075
 21
-249.1857864376882
 31
0.0
  0
LINE
  5
1B9
330
6F
100
AcDbEntity
  8
DETAIL
  6
Continuous
 62
     5
100
AcDbLine
 10
-471.2000000000069
 20
-248.9999999999884
 30
0.0
 11
-432.8000000000074
 21
-248.9999999999884
 31
0.0
  0
LINE
  5
1BA
330
6F
100
AcDbEntity
  8
DETAIL
  6
Continuous
 62
     5
100
AcDbLine
 10
-214.3000000000075
 20
-248.5857864376883
 30
0.0
 11
-196.0970562749071
 21
-248.5857864376883
 31
0.0
  0
LINE
  5
1BB
330
6F
100
AcDbEntity
  8
DETAIL
  6
Continuous
 62
     5
100
AcDbLine
 10
-214.3000000000075
 20
-248.3999999999884
 30
0.0
 11
-197.2000000000071
 21
-248.3999999999884
 31
0.0
  0
LINE
  5
1BC
330
6F
100
AcDbEntity
  8
DETAIL
  6
Continuous
 62
     5
100
AcDbLine
 10
-194.8686291501081
 20
-248.1999999999882
 30
0.0
 11
-207.2000000000071
 21
-248.1999999999882
 31
0.0
  0
LINE
  5
1BD
330
6F
100
AcDbEntity
  8
DETAIL
  6
Continuous
 62
     5
100
AcDbLine
 10
-453.2000000000071
 20
-248.1999999999882
 30
0.0
 11
-471.2000000000069
 21
-248.1999999999882
 31
0.0
  0
LINE
  5
1BE
330
6F
100
AcDbEntity
  8
DETAIL
  6
Continuous
 62
     5
100
AcDbLine
 10
-214.3131086926069
 20
-247.9999999999884
 30
0.0
 11
-194.8686291501081
 21
-247.9999999999884
 31
0.0
  0
LINE
  5
1BF
330
6F
100
AcDbEntity
  8
DETAIL
  6
Continuous
 62
     5
100
AcDbLine
 10
-432.786891307508
 20
-247.9999999999884
 30
0.0
 11
-471.2000000000069
 21
-247.9999999999884
 31
0.0
  0
LINE
  5
1C0
330
6F
100
AcDbEntity
  8
DETAIL
  6
Continuous
 62
     5
100
AcDbLine
 10
-217.3000000000075
 20
-245.1999999999882
 30
0.0
 11
-429.8000000000073
 21
-245.1999999999882
 31
0.0
  0
ARC
  5
1C1
330
6F
100
AcDbEntity
  8
DETAIL
  6
Continuous
 62
     5
100
AcDbCircle
 10
-429.8000000000073
 20
-248.1999999999882
 30
0.0
 40
3.0
100
AcDbArc
 50
90.0
 51
180.0
  0
ARC
  5
1C2
330
6F
100
AcDbEntity
  8
DETAIL
  6
Continuous
 62
     5
100
AcDbCircle
 10
-445.2000000000071
 20
-250.2099999999884
 30
0.0
 40
0.61
100
AcDbArc
 50
90.0
 51
270.0
  0
ARC
  5
1C3
330
6F
100
AcDbEntity
  8
DETAIL
  6
Continuous
 62
     5
100
AcDbCircle
 10
-445.2000000000071
 20
-250.2099999999884
 30
0.0
 40
0.01
100
AcDbArc
 50
90.0
 51
270.0
  0
ARC
  5
1C4
330
6F
100
AcDbEntity
  8
DETAIL
  6
Continuous
 62
     5
100
AcDbCircle
 10
-217.3000000000075
 20
-248.1999999999882
 30
0.0
 40
3.0
100
AcDbArc
 50
0.0
 51
90.0
  0
ARC
  5
1C5
330
6F
100
AcDbEntity
  8
DETAIL
  6
Continuous
 62
     5
100
AcDbCircle
 10
-201.9000000000077
 20
-250.2099999999884
 30
0.0
 40
0.61
100
AcDbArc
 50
270.0
 51
90.0
  0
ARC
  5
1C6
330
6F
100
AcDbEntity
  8
DETAIL
  6
Continuous
 62
     5
100
AcDbCircle
 10
-201.9000000000077
 20
-250.2099999999884
 30
0.0
 40
0.01
100
AcDbArc
 50
270.0
 51
90.0
  0
LINE
  5
1C7
330
6F
100
AcDbEntity
  8
DETAIL
  6
Continuous
 62
     5
100
AcDbLine
 10
-634.2000000000088
 20
-399.9603951084429
 30
0.0
 11
-8.200000000008911
 21
-399.9603951084429
 31
0.0
  0
LINE
  5
1C8
330
6F
100
AcDbEntity
  8
DETAIL
  6
Continuous
 62
     5
100
AcDbLine
 10
-646.2000000000088
 20
-404.9603951084425
 30
0.0
 11
3.799999999991086
 21
-404.960395108442
 31
0.0
  0
LINE
  5
1C9
330
6F
100
AcDbEntity
  8
DETAIL
  6
Continuous
 62
     5
100
AcDbLine
 10
-646.2000000000088
 20
-402.9603951084428
 30
0.0
 11
3.799999999991086
 21
-402.9603951084428
 31
0.0
  0
LINE
  5
1CA
330
6F
100
AcDbEntity
  8
DETAIL
  6
Continuous
 62
     5
100
AcDbLine
 10
-634.2000000000088
 20
-379.9603951084429
 30
0.0
 11
-8.200000000008911
 21
-379.9603951084429
 31
0.0
  0
LINE
  5
1CB
330
6F
100
AcDbEntity
  8
DETAIL
  6
Continuous
 62
     5
100
AcDbLine
 10
-634.2000000000088
 20
-369.4603951084166
 30
0.0
 11
-8.200000000008911
 21
-369.4603951084261
 31
0.0
  0
LINE
  5
1CC
330
6F
100
AcDbEntity
  8
DETAIL
  6
Continuous
 62
     5
100
AcDbLine
 10
-629.9000000000078
 20
-344.9603951084425
 30
0.0
 11
-12.50000000000818
 21
-344.9603951084429
 31
0.0
  0
LINE
  5
1CD
330
6F
100
AcDbEntity
  8
DETAIL
  6
Continuous
 62
     5
100
AcDbLine
 10
-646.2000000000088
 20
-402.9603951084428
 30
0.0
 11
-646.2000000000088
 21
-404.9603951084428
 31
0.0
  0
LINE
  5
1CE
330
6F
100
AcDbEntity
  8
DETAIL
  6
Continuous
 62
     5
100
AcDbLine
 10
-634.2000000000088
 20
-399.9603951084429
 30
0.0
 11
-634.2000000000088
 21
-402.9603951084428
 31
0.0
  0
LINE
  5
1CF
330
6F
100
AcDbEntity
  8
DETAIL
  6
Continuous
 62
     5
100
AcDbLine
 10
-629.9000000000078
 20
-344.9603951084429
 30
0.0
 11
-629.9000000000078
 21
-369.4603951084425
 31
0.0
  0
LINE
  5
1D0
330
6F
100
AcDbEntity
  8
DETAIL
  6
Continuous
 62
     5
100
AcDbLine
 10
-629.9000000000078
 20
-379.9603951084429
 30
0.0
 11
-629.9000000000078
 21
-399.9603951084429
 31
0.0
  0
LINE
  5
1D1
330
6F
100
AcDbEntity
  8
DETAIL
  6
Continuous
 62
     5
100
AcDbLine
 10
-634.2000000000088
 20
-379.9603951084429
 30
0.0
 11
-634.2000000000088
 21
-369.4603951084429
 31
0.0
  0
LINE
  5
1D2
330
6F
100
AcDbEntity
  8
DETAIL
  6
Continuous
 62
     5
100
AcDbLine
 10
3.799999999991086
 20
-402.9603951084425
 30
0.0
 11
3.799999999991086
 21
-404.9603951084425
 31
0.0
  0
LINE
  5
1D3
330
6F
100
AcDbEntity
  8
DETAIL
  6
Continuous
 62
     5
100
AcDbLine
 10
-8.200000000008911
 20
-399.9603951084425
 30
0.0
 11
-8.200000000008911
 21
-402.9603951084425
 31
0.0
  0
LINE
  5
1D4
330
6F
100
AcDbEntity
  8
DETAIL
  6
Continuous
 62
     5
100
AcDbLine
 10
-12.50000000000818
 20
-379.9603951084429
 30
0.0
 11
-12.50000000000818
 21
-399.9603951084425
 31
0.0
  0
LINE
  5
1D5
330
6F
100
AcDbEntity
  8
DETAIL
  6
Continuous
 62
     5
100
AcDbLine
 10
-12.50000000000818
 20
-344.9603951084425
 30
0.0
 11
-12.50000000000818
 21
-369.4603951084421
 31
0.0
  0
LINE
  5
1D6
330
6F
100
AcDbEntity
  8
DETAIL
  6
Continuous
 62
     5
100
AcDbLine
 10
-8.200000000008911
 20
-379.9603951084425
 30
0.0
 11
-8.200000000008911
 21
-369.4603951084425
 31
0.0
  0
LINE
  5
1D7
330
6F
100
AcDbEntity
  8
DETAIL
  6
Continuous
 62
     5
100
AcDbLine
 10
-494.7000000000071
 20
-5.999999999988402
 30
0.0
 11
-494.7000000000071
 21
-18.9999999999884
 31
0.0
  0
LINE
  5
1D8
330
6F
100
AcDbEntity
  8
DETAIL
  6
Continuous
 62
     5
100
AcDbLine
 10
-494.7000000000071
 20
-246.4999999999884
 30
0.0
 11
-494.7000000000071
 21
-233.4999999999884
 31
0.0
  0
LINE
  5
1D9
330
6F
100
AcDbEntity
  8
DETAIL
  6
Continuous
 62
     5
100
AcDbLine
 10
-493.9000000000077
 20
-5.999999999988402
 30
0.0
 11
-493.9000000000077
 21
-18.9999999999884
 31
0.0
  0
LINE
  5
1DA
330
6F
100
AcDbEntity
  8
DETAIL
  6
Continuous
 62
     5
100
AcDbLine
 10
-493.9000000000077
 20
-246.4999999999884
 30
0.0
 11
-493.9000000000077
 21
-233.4999999999884
 31
0.0
  0
LINE
  5
1DB
330
6F
100
AcDbEntity
  8
DETAIL
  6
Continuous
 62
     5
100
AcDbLine
 10
-493.7000000000071
 20
-3.999999999988403
 30
0.0
 11
-493.7000000000071
 21
-4.799999999988131
 31
0.0
  0
LINE
  5
1DC
330
6F
100
AcDbEntity
  8
DETAIL
  6
Continuous
 62
     5
100
AcDbLine
 10
-493.7000000000071
 20
-248.4999999999884
 30
0.0
 11
-493.7000000000071
 21
-247.6999999999882
 31
0.0
  0
LINE
  5
1DD
330
6F
100
AcDbEntity
  8
DETAIL
  6
Continuous
 62
     5
100
AcDbLine
 10
-493.7000000000071
 20
-247.4999999999884
 30
0.0
 11
-493.7000000000071
 21
-225.4999999999884
 31
0.0
  0
LINE
  5
1DE
330
6F
100
AcDbEntity
  8
DETAIL
  6
Continuous
 62
     5
100
AcDbLine
 10
-493.7000000000071
 20
-26.99999999998841
 30
0.0
 11
-493.7000000000071
 21
-4.999999999988403
 31
0.0
  0
LINE
  5
1DF
330
6F
100
AcDbEntity
  8
DETAIL
  6
Continuous
 62
     5
100
AcDbLine
 10
-475.8000000000073
 20
-223.7077955478883
 30
0.0
 11
-475.8000000000073
 21
-28.79220445208807
 31
0.0
  0
LINE
  5
1E0
330
6F
100
AcDbEntity
  8
DETAIL
  6
Continuous
 62
     5
100
AcDbLine
 10
-475.2000000000069
 20
-225.4999999999884
 30
0.0
 11
-475.2000000000069
 21
-247.4999999999884
 31
0.0
  0
LINE
  5
1E1
330
6F
100
AcDbEntity
  8
DETAIL
  6
Continuous
 62
     5
100
AcDbLine
 10
-475.2000000000069
 20
-26.99999999998841
 30
0.0
 11
-475.2000000000069
 21
-4.999999999988403
 31
0.0
  0
LINE
  5
1E2
330
6F
100
AcDbEntity
  8
DETAIL
  6
Continuous
 62
     5
100
AcDbLine
 10
-475.0000000000079
 20
-247.4999999999884
 30
0.0
 11
-475.0000000000079
 21
-4.999999999988403
 31
0.0
  0
LINE
  5
1E3
330
6F
100
AcDbEntity
  8
DETAIL
  6
Continuous
 62
     5
100
AcDbLine
 10
-474.2000000000071
 20
-3.999999999988403
 30
0.0
 11
-474.2000000000071
 21
-4.999999999988403
 31
0.0
  0
LINE
  5
1E4
330
6F
100
AcDbEntity
  8
DETAIL
  6
Continuous
 62
     5
100
AcDbLine
 10
-474.2000000000071
 20
-235.4999999999884
 30
0.0
 11
-474.2000000000071
 21
-248.4999999999884
 31
0.0
  0
LINE
  5
1E5
330
6F
100
AcDbEntity
  8
DETAIL
  6
Continuous
 62
     5
100
AcDbLine
 10
-474.2000000000071
 20
-16.9999999999884
 30
0.0
 11
-474.2000000000071
 21
-4.999999999988403
 31
0.0
  0
LINE
  5
1E6
330
6F
100
AcDbEntity
  8
DETAIL
  6
Continuous
 62
     5
100
AcDbLine
 10
-472.2000000000071
 20
-235.4999999999884
 30
0.0
 11
-472.2000000000071
 21
-248.4999999999884
 31
0.0
  0
LINE
  5
1E7
330
6F
100
AcDbEntity
  8
DETAIL
  6
Continuous
 62
     5
100
AcDbLine
 10
-474.2000000000071
 20
-248.4999999999884
 30
0.0
 11
-472.2000000000071
 21
-248.4999999999884
 31
0.0
  0
LINE
  5
1E8
330
6F
100
AcDbEntity
  8
DETAIL
  6
Continuous
 62
     5
100
AcDbLine
 10
-475.2000000000069
 20
-248.4999999999884
 30
0.0
 11
-493.7000000000071
 21
-248.4999999999884
 31
0.0
  0
LINE
  5
1E9
330
6F
100
AcDbEntity
  8
DETAIL
  6
Continuous
 62
     5
100
AcDbLine
 10
-475.2000000000069
 20
-247.6999999999882
 30
0.0
 11
-493.7000000000071
 21
-247.6999999999882
 31
0.0
  0
LINE
  5
1EA
330
6F
100
AcDbEntity
  8
DETAIL
  6
Continuous
 62
     5
100
AcDbLine
 10
-475.0000000000079
 20
-247.4999999999884
 30
0.0
 11
-493.7000000000071
 21
-247.4999999999884
 31
0.0
  0
LINE
  5
1EB
330
6F
100
AcDbEntity
  8
DETAIL
  6
Continuous
 62
     5
100
AcDbLine
 10
-475.0000000000079
 20
-246.6999999999881
 30
0.0
 11
-475.2000000000069
 21
-246.6999999999881
 31
0.0
  0
LINE
  5
1EC
330
6F
100
AcDbEntity
  8
DETAIL
  6
Continuous
 62
     5
100
AcDbLine
 10
-475.2000000000069
 20
-232.4999999999884
 30
0.0
 11
-475.0000000000079
 21
-232.4999999999884
 31
0.0
  0
LINE
  5
1ED
330
6F
100
AcDbEntity
  8
DETAIL
  6
Continuous
 62
     5
100
AcDbLine
 10
-490.7000000000071
 20
-222.4999999999884
 30
0.0
 11
-478.2000000000071
 21
-222.4999999999884
 31
0.0
  0
LINE
  5
1EE
330
6F
100
AcDbEntity
  8
DETAIL
  6
Continuous
 62
     5
100
AcDbLine
 10
-478.2000000000071
 20
-29.9999999999884
 30
0.0
 11
-490.7000000000071
 21
-29.9999999999884
 31
0.0
  0
LINE
  5
1EF
330
6F
100
AcDbEntity
  8
DETAIL
  6
Continuous
 62
     5
100
AcDbLine
 10
-475.2000000000069
 20
-19.9999999999884
 30
0.0
 11
-475.0000000000079
 21
-19.9999999999884
 31
0.0
  0
LINE
  5
1F0
330
6F
100
AcDbEntity
  8
DETAIL
  6
Continuous
 62
     5
100
AcDbLine
 10
-475.0000000000079
 20
-5.79999999998813
 30
0.0
 11
-475.2000000000069
 21
-5.79999999998813
 31
0.0
  0
LINE
  5
1F1
330
6F
100
AcDbEntity
  8
DETAIL
  6
Continuous
 62
     5
100
AcDbLine
 10
-475.0000000000079
 20
-4.999999999988403
 30
0.0
 11
-493.7000000000071
 21
-4.999999999988403
 31
0.0
  0
LINE
  5
1F2
330
6F
100
AcDbEntity
  8
DETAIL
  6
Continuous
 62
     5
100
AcDbLine
 10
-475.2000000000069
 20
-4.799999999988131
 30
0.0
 11
-493.7000000000071
 21
-4.799999999988131
 31
0.0
  0
LINE
  5
1F3
330
6F
100
AcDbEntity
  8
DETAIL
  6
Continuous
 62
     5
100
AcDbLine
 10
-474.2000000000071
 20
-3.999999999988403
 30
0.0
 11
-472.2000000000071
 21
-3.999999999988403
 31
0.0
  0
LINE
  5
1F4
330
6F
100
AcDbEntity
  8
DETAIL
  6
Continuous
 62
     5
100
AcDbLine
 10
-475.2000000000069
 20
-3.999999999988403
 30
0.0
 11
-493.7000000000071
 21
-3.999999999988403
 31
0.0
  0
ARC
  5
1F5
330
6F
100
AcDbEntity
  8
DETAIL
  6
Continuous
 62
     5
100
AcDbCircle
 10
-493.7000000000071
 20
-246.4999999999884
 30
0.0
 40
1.0
100
AcDbArc
 50
180.0
 51
270.0
  0
ARC
  5
1F6
330
6F
100
AcDbEntity
  8
DETAIL
  6
Continuous
 62
     5
100
AcDbCircle
 10
-475.2000000000069
 20
-247.4999999999884
 30
0.0
 40
1.0
100
AcDbArc
 50
270.0
 51
0.0
  0
ARC
  5
1F7
330
6F
100
AcDbEntity
  8
DETAIL
  6
Continuous
 62
     5
100
AcDbCircle
 10
-493.7000000000071
 20
-246.4999999999884
 30
0.0
 40
0.2
100
AcDbArc
 50
180.0
 51
265.4861634216015
  0
ARC
  5
1F8
330
6F
100
AcDbEntity
  8
DETAIL
  6
Continuous
 62
     5
100
AcDbCircle
 10
-475.2000000000069
 20
-247.4999999999884
 30
0.0
 40
0.2
100
AcDbArc
 50
270.0
 51
0.0
  0
ARC
  5
1F9
330
6F
100
AcDbEntity
  8
DETAIL
  6
Continuous
 62
     5
100
AcDbCircle
 10
-478.2000000000071
 20
-225.4999999999884
 30
0.0
 40
3.0
100
AcDbArc
 50
0.0
 51
90.0
  0
ARC
  5
1FA
330
6F
100
AcDbEntity
  8
DETAIL
  6
Continuous
 62
     5
100
AcDbCircle
 10
-490.7000000000071
 20
-225.4999999999884
 30
0.0
 40
3.0
100
AcDbArc
 50
90.0
 51
180.0
  0
ARC
  5
1FB
330
6F
100
AcDbEntity
  8
DETAIL
  6
Continuous
 62
     5
100
AcDbCircle
 10
-493.9000000000077
 20
-233.4999999999884
 30
0.0
 40
0.8
100
AcDbArc
 50
75.46646331846766
 51
180.0
  0
ARC
  5
1FC
330
6F
100
AcDbEntity
  8
DETAIL
  6
Continuous
 62
     5
100
AcDbCircle
 10
-490.7000000000071
 20
-26.99999999998841
 30
0.0
 40
3.0
100
AcDbArc
 50
180.0
 51
270.0
  0
ARC
  5
1FD
330
6F
100
AcDbEntity
  8
DETAIL
  6
Continuous
 62
     5
100
AcDbCircle
 10
-478.2000000000071
 20
-26.99999999998841
 30
0.0
 40
3.0
100
AcDbArc
 50
270.0
 51
0.0
  0
ARC
  5
1FE
330
6F
100
AcDbEntity
  8
DETAIL
  6
Continuous
 62
     5
100
AcDbCircle
 10
-493.9000000000077
 20
-18.9999999999884
 30
0.0
 40
0.8
100
AcDbArc
 50
180.0
 51
284.5335366815307
  0
ARC
  5
1FF
330
6F
100
AcDbEntity
  8
DETAIL
  6
Continuous
 62
     5
100
AcDbCircle
 10
-493.7000000000071
 20
-5.999999999988402
 30
0.0
 40
1.0
100
AcDbArc
 50
90.0
 51
180.0
  0
ARC
  5
200
330
6F
100
AcDbEntity
  8
DETAIL
  6
Continuous
 62
     5
100
AcDbCircle
 10
-475.2000000000069
 20
-4.999999999988403
 30
0.0
 40
1.0
100
AcDbArc
 50
0.0
 51
90.0
  0
ARC
  5
201
330
6F
100
AcDbEntity
  8
DETAIL
  6
Continuous
 62
     5
100
AcDbCircle
 10
-493.7000000000071
 20
-5.999999999988402
 30
0.0
 40
0.2
100
AcDbArc
 50
94.51383657839839
 51
180.0
  0
ARC
  5
202
330
6F
100
AcDbEntity
  8
DETAIL
  6
Continuous
 62
     5
100
AcDbCircle
 10
-475.2000000000069
 20
-4.999999999988403
 30
0.0
 40
0.2
100
AcDbArc
 50
0.0
 51
90.0
  0
LINE
  5
203
330
6F
100
AcDbEntity
  8
DETAIL
  6
Continuous
 62
     5
100
AcDbLine
 10
-498.8000000000075
 20
-221.2849101298882
 30
0.0
 11
-498.8000000000075
 21
-223.2150898701881
 31
0.0
  0
LINE
  5
204
330
6F
100
AcDbEntity
  8
DETAIL
  6
Continuous
 62
     5
100
AcDbLine
 10
-498.8000000000075
 20
-231.1313055584881
 30
0.0
 11
-498.8000000000075
 21
-229.7499999999884
 31
0.0
  0
LINE
  5
205
330
6F
100
AcDbEntity
  8
DETAIL
  6
Continuous
 62
     5
100
AcDbLine
 10
-498.8000000000075
 20
-31.21508987018819
 30
0.0
 11
-498.8000000000075
 21
-29.2849101298882
 31
0.0
  0
LINE
  5
206
330
6F
100
AcDbEntity
  8
DETAIL
  6
Continuous
 62
     5
100
AcDbLine
 10
-498.8000000000075
 20
-22.7499999999884
 30
0.0
 11
-498.8000000000075
 21
-21.36869444148829
 31
0.0
  0
LINE
  5
207
330
6F
100
AcDbEntity
  8
DETAIL
  6
Continuous
 62
     5
100
AcDbLine
 10
-496.8000000000073
 20
-241.7499999999884
 30
0.0
 11
-496.8000000000073
 21
-10.7499999999884
 31
0.0
  0
LINE
  5
208
330
6F
100
AcDbEntity
  8
DETAIL
  6
Continuous
 62
     5
100
AcDbLine
 10
-494.8000000000075
 20
-10.7849101298882
 30
0.0
 11
-494.8000000000075
 21
-21.2499999999884
 31
0.0
  0
LINE
  5
209
330
6F
100
AcDbEntity
  8
DETAIL
  6
Continuous
 62
     5
100
AcDbLine
 10
-494.8000000000075
 20
-231.2499999999884
 30
0.0
 11
-494.8000000000075
 21
-241.7150898701881
 31
0.0
  0
LINE
  5
20A
330
6F
100
AcDbEntity
  8
DETAIL
  6
Continuous
 62
     5
100
AcDbLine
 10
-476.8000000000074
 20
-29.65284342658811
 30
0.0
 11
-476.8000000000074
 21
-222.8471565733883
 31
0.0
  0
LINE
  5
20B
330
6F
100
AcDbEntity
  8
DETAIL
  6
Continuous
 62
     5
100
AcDbLine
 10
-496.8000000000073
 20
-241.7499999999884
 30
0.0
 11
-494.8000000000075
 21
-241.7150898701881
 31
0.0
  0
LINE
  5
20C
330
6F
100
AcDbEntity
  8
DETAIL
  6
Continuous
 62
     5
100
AcDbLine
 10
-493.7000000000071
 20
-231.2307994285882
 30
0.0
 11
-494.8000000000075
 21
-231.2499999999884
 31
0.0
  0
LINE
  5
20D
330
6F
100
AcDbEntity
  8
DETAIL
  6
Continuous
 62
     5
100
AcDbLine
 10
-498.8000000000075
 20
-229.7499999999884
 30
0.0
 11
-496.8000000000073
 21
-229.7150898701882
 31
0.0
  0
LINE
  5
20E
330
6F
100
AcDbEntity
  8
DETAIL
  6
Continuous
 62
     5
100
AcDbLine
 10
-496.8000000000073
 20
-221.2499999999884
 30
0.0
 11
-498.8000000000075
 21
-221.2849101298882
 31
0.0
  0
LINE
  5
20F
330
6F
100
AcDbEntity
  8
DETAIL
  6
Continuous
 62
     5
100
AcDbLine
 10
-496.8000000000073
 20
-231.1662156883883
 30
0.0
 11
-498.8000000000075
 21
-231.1313055584881
 31
0.0
  0
LINE
  5
210
330
6F
100
AcDbEntity
  8
DETAIL
  6
Continuous
 62
     5
100
AcDbLine
 10
-496.8000000000073
 20
-223.2499999999884
 30
0.0
 11
-498.8000000000075
 21
-223.2150898701881
 31
0.0
  0
LINE
  5
211
330
6F
100
AcDbEntity
  8
DETAIL
  6
Continuous
 62
     5
100
AcDbLine
 10
-496.8000000000073
 20
-29.24999999998841
 30
0.0
 11
-498.8000000000075
 21
-29.2849101298882
 31
0.0
  0
LINE
  5
212
330
6F
100
AcDbEntity
  8
DETAIL
  6
Continuous
 62
     5
100
AcDbLine
 10
-498.8000000000075
 20
-21.36869444148829
 30
0.0
 11
-496.8000000000073
 21
-21.33378431168808
 31
0.0
  0
LINE
  5
213
330
6F
100
AcDbEntity
  8
DETAIL
  6
Continuous
 62
     5
100
AcDbLine
 10
-496.8000000000073
 20
-31.2499999999884
 30
0.0
 11
-498.8000000000075
 21
-31.21508987018819
 31
0.0
  0
LINE
  5
214
330
6F
100
AcDbEntity
  8
DETAIL
  6
Continuous
 62
     5
100
AcDbLine
 10
-496.8000000000073
 20
-22.7849101298882
 30
0.0
 11
-498.8000000000075
 21
-22.7499999999884
 31
0.0
  0
LINE
  5
215
330
6F
100
AcDbEntity
  8
DETAIL
  6
Continuous
 62
     5
100
AcDbLine
 10
-493.7000000000071
 20
-21.26920057138818
 30
0.0
 11
-494.8000000000075
 21
-21.2499999999884
 31
0.0
  0
LINE
  5
216
330
6F
100
AcDbEntity
  8
DETAIL
  6
Continuous
 62
     5
100
AcDbLine
 10
-496.8000000000073
 20
-10.7499999999884
 30
0.0
 11
-494.8000000000075
 21
-10.7849101298882
 31
0.0
  0
LINE
  5
217
330
6F
100
AcDbEntity
  8
DETAIL
  6
Continuous
 62
     5
100
AcDbLine
 10
-75.00000000000818
 20
-259.9999999999884
 30
0.0
 11
-55.40000000000782
 21
-259.9999999999884
 31
0.0
  0
LINE
  5
218
330
6F
100
AcDbEntity
  8
DETAIL
  6
Continuous
 62
     5
100
AcDbLine
 10
-75.00000000000818
 20
-259.399999999988
 30
0.0
 11
-55.40000000000782
 21
-259.399999999988
 31
0.0
  0
LINE
  5
219
330
6F
100
AcDbEntity
  8
DETAIL
  6
Continuous
 62
     5
100
AcDbLine
 10
-58.85000000000673
 20
-254.3999999999881
 30
0.0
 11
-71.55000000000746
 21
-254.3999999999881
 31
0.0
  0
LINE
  5
21A
330
6F
100
AcDbEntity
  8
DETAIL
  6
Continuous
 62
     5
100
AcDbLine
 10
-54.40000000000782
 20
-250.5999999999883
 30
0.0
 11
-54.20000000000709
 21
-250.5999999999883
 31
0.0
  0
LINE
  5
21B
330
6F
100
AcDbEntity
  8
DETAIL
  6
Continuous
 62
     5
100
AcDbLine
 10
-76.00000000000818
 20
-250.5999999999883
 30
0.0
 11
-90.20000000000708
 21
-250.5999999999883
 31
0.0
  0
LINE
  5
21C
330
6F
100
AcDbEntity
  8
DETAIL
  6
Continuous
 62
     5
100
AcDbLine
 10
-90.20000000000708
 20
-250.5999999999883
 30
0.0
 11
-90.20000000000708
 21
-249.9999999999884
 31
0.0
  0
LINE
  5
21D
330
6F
100
AcDbEntity
  8
DETAIL
  6
Continuous
 62
     5
100
AcDbLine
 10
-75.80000000000746
 20
-250.7999999999881
 30
0.0
 11
-75.80000000000746
 21
-259.1999999999883
 31
0.0
  0
LINE
  5
21E
330
6F
100
AcDbEntity
  8
DETAIL
  6
Continuous
 62
     5
100
AcDbLine
 10
-75.2000000000071
 20
-250.7999999999881
 30
0.0
 11
-75.2000000000071
 21
-259.1999999999883
 31
0.0
  0
LINE
  5
21F
330
6F
100
AcDbEntity
  8
DETAIL
  6
Continuous
 62
     5
100
AcDbLine
 10
-71.55000000000746
 20
-254.3999999999881
 30
0.0
 11
-71.55000000000746
 21
-259.399999999988
 31
0.0
  0
LINE
  5
220
330
6F
100
AcDbEntity
  8
DETAIL
  6
Continuous
 62
     5
100
AcDbLine
 10
-68.37500000000819
 20
-254.3999999999881
 30
0.0
 11
-68.37500000000819
 21
-259.399999999988
 31
0.0
  0
LINE
  5
221
330
6F
100
AcDbEntity
  8
DETAIL
  6
Continuous
 62
     5
100
AcDbLine
 10
-62.02500000000782
 20
-254.3999999999881
 30
0.0
 11
-62.02500000000782
 21
-259.399999999988
 31
0.0
  0
LINE
  5
222
330
6F
100
AcDbEntity
  8
DETAIL
  6
Continuous
 62
     5
100
AcDbLine
 10
-58.85000000000673
 20
-254.3999999999881
 30
0.0
 11
-58.85000000000673
 21
-259.399999999988
 31
0.0
  0
LINE
  5
223
330
6F
100
AcDbEntity
  8
DETAIL
  6
Continuous
 62
     5
100
AcDbLine
 10
-55.20000000000711
 20
-259.1999999999883
 30
0.0
 11
-55.20000000000711
 21
-250.7999999999881
 31
0.0
  0
LINE
  5
224
330
6F
100
AcDbEntity
  8
DETAIL
  6
Continuous
 62
     5
100
AcDbLine
 10
-54.60000000000672
 20
-259.1999999999883
 30
0.0
 11
-54.60000000000672
 21
-250.7999999999881
 31
0.0
  0
ARC
  5
225
330
6F
100
AcDbEntity
  8
DETAIL
  6
Continuous
 62
     5
100
AcDbCircle
 10
-55.40000000000782
 20
-259.1999999999883
 30
0.0
 40
0.8
100
AcDbArc
 50
270.0
 51
0.0
  0
ARC
  5
226
330
6F
100
AcDbEntity
  8
DETAIL
  6
Continuous
 62
     5
100
AcDbCircle
 10
-75.00000000000818
 20
-259.1999999999883
 30
0.0
 40
0.8
100
AcDbArc
 50
180.0
 51
270.0
  0
ARC
  5
227
330
6F
100
AcDbEntity
  8
DETAIL
  6
Continuous
 62
     5
100
AcDbCircle
 10
-54.40000000000782
 20
-250.7999999999881
 30
0.0
 40
0.8
100
AcDbArc
 50
90.0
 51
180.0
  0
ARC
  5
228
330
6F
100
AcDbEntity
  8
DETAIL
  6
Continuous
 62
     5
100
AcDbCircle
 10
-76.00000000000818
 20
-250.7999999999881
 30
0.0
 40
0.8
100
AcDbArc
 50
0.0
 51
90.0
  0
ARC
  5
229
330
6F
100
AcDbEntity
  8
DETAIL
  6
Continuous
 62
     5
100
AcDbCircle
 10
-54.40000000000782
 20
-250.7999999999881
 30
0.0
 40
0.2
100
AcDbArc
 50
90.0
 51
180.0
  0
ARC
  5
22A
330
6F
100
AcDbEntity
  8
DETAIL
  6
Continuous
 62
     5
100
AcDbCircle
 10
-76.00000000000818
 20
-250.7999999999881
 30
0.0
 40
0.2
100
AcDbArc
 50
0.0
 51
90.0
  0
ARC
  5
22B
330
6F
100
AcDbEntity
  8
DETAIL
  6
Continuous
 62
     5
100
AcDbCircle
 10
-75.00000000000818
 20
-259.1999999999883
 30
0.0
 40
0.2
100
AcDbArc
 50
180.0
 51
270.0
  0
ARC
  5
22C
330
6F
100
AcDbEntity
  8
DETAIL
  6
Continuous
 62
     5
100
AcDbCircle
 10
-55.40000000000782
 20
-259.1999999999883
 30
0.0
 40
0.2
100
AcDbArc
 50
270.0
 51
0.0
  0
LINE
  5
22D
330
6F
100
AcDbEntity
  8
DETAIL
  6
Continuous
 62
     5
100
AcDbLine
 10
-54.20000000000709
 20
-251.9999999999884
 30
0.0
 11
228.7999999999929
 21
-251.9999999999884
 31
0.0
  0
ARC
  5
22E
330
6F
100
AcDbEntity
  8
DETAIL
  6
Continuous
 62
     5
100
AcDbCircle
 10
228.7999999999929
 20
-249.9499999999882
 30
0.0
 40
2.049999999999998
100
AcDbArc
 50
270.0
 51
0.0
  0
LINE
  5
22F
330
6F
100
AcDbEntity
  8
DETAIL
  6
Continuous
 62
     5
100
AcDbLine
 10
-477.2000000000071
 20
-3.999999999988403
 30
0.0
 11
-477.2000000000071
 21
-4.799999999988584
 31
0.0
  0
LINE
  5
230
330
6F
100
AcDbEntity
  8
DETAIL
  6
Continuous
 62
     5
100
AcDbLine
 10
-477.2000000000071
 20
-248.4999999999884
 30
0.0
 11
-477.2000000000071
 21
-247.6999999999882
 31
0.0
  0
LINE
  5
231
330
6F
100
AcDbEntity
  8
DETAIL
  6
Continuous
 62
     5
100
AcDbLine
 10
230.5999999999922
 20
-233.9999999999884
 30
0.0
 11
233.7999999999929
 21
-233.9999999999884
 31
0.0
  0
LINE
  5
232
330
6F
100
AcDbEntity
  8
DETAIL
  6
Continuous
 62
     5
100
AcDbLine
 10
233.7999999999929
 20
-222.4999999999884
 30
0.0
 11
486.7999999999929
 21
-222.4999999999884
 31
0.0
  0
LINE
  5
233
330
6F
100
AcDbEntity
  8
DETAIL
  6
Continuous
 62
     5
100
AcDbLine
 10
230.5999999999922
 20
-221.6999999999891
 30
0.0
 11
486.7999999999929
 21
-221.6999999999891
 31
0.0
  0
LINE
  5
234
330
6F
100
AcDbEntity
  8
DETAIL
  6
Continuous
 62
     5
100
AcDbLine
 10
486.7999999999929
 20
-14.49999999998886
 30
0.0
 11
230.7999999999929
 21
-14.49999999998886
 31
0.0
  0
LINE
  5
235
330
6F
100
AcDbEntity
  8
DETAIL
  6
Continuous
 62
     5
100
AcDbLine
 10
233.7999999999929
 20
-233.9999999999884
 30
0.0
 11
233.7999999999929
 21
-221.6999999999891
 31
0.0
  0
LINE
  5
236
330
6F
100
AcDbEntity
  8
DETAIL
  6
Continuous
 62
     5
100
AcDbLine
 10
227.5999999999922
 20
-204.9999999999884
 30
0.0
 11
230.5999999999922
 21
-204.9999999999884
 31
0.0
  0
LINE
  5
237
330
6F
100
AcDbEntity
  8
DETAIL
  6
Continuous
 62
     5
100
AcDbLine
 10
230.5999999999922
 20
-204.9999999999884
 30
0.0
 11
230.5999999999922
 21
-239.9999999999884
 31
0.0
  0
LINE
  5
238
330
6F
100
AcDbEntity
  8
DETAIL
  6
Continuous
 62
     5
100
AcDbLine
 10
496.7999999999928
 20
-234.4999999999884
 30
0.0
 11
486.7999999999929
 21
-234.4999999999884
 31
0.0
  0
LINE
  5
239
330
6F
100
AcDbEntity
  8
DETAIL
  6
Continuous
 62
     5
100
AcDbLine
 10
496.7999999999928
 20
-212.4999999999884
 30
0.0
 11
486.7999999999929
 21
-212.4999999999884
 31
0.0
  0
LINE
  5
23A
330
6F
100
AcDbEntity
  8
DETAIL
  6
Continuous
 62
     5
100
AcDbLine
 10
496.7999999999928
 20
-24.49999999998885
 30
0.0
 11
486.7999999999929
 21
-24.49999999998885
 31
0.0
  0
LINE
  5
23B
330
6F
100
AcDbEntity
  8
DETAIL
  6
Continuous
 62
     5
100
AcDbLine
 10
496.7999999999928
 20
-2.499999999988856
 30
0.0
 11
486.7999999999929
 21
-2.499999999988856
 31
0.0
  0
LINE
  5
23C
330
6F
100
AcDbEntity
  8
DETAIL
  6
Continuous
 62
     5
100
AcDbLine
 10
486.7999999999929
 20
-234.4999999999884
 30
0.0
 11
486.7999999999929
 21
-2.499999999988856
 31
0.0
  0
LINE
  5
23D
330
6F
100
AcDbEntity
  8
DETAIL
  6
Continuous
 62
     5
100
AcDbLine
 10
496.7999999999928
 20
-234.4999999999884
 30
0.0
 11
496.7999999999928
 21
-2.499999999988856
 31
0.0
  0
LINE
  5
23E
330
6F
100
AcDbEntity
  8
DETAIL
  6
Continuous
 62
     5
100
AcDbLine
 10
543.2999999999926
 20
-218.4999999999884
 30
0.0
 11
578.2999999999929
 21
-215.9911688046889
 31
0.0
  0
LINE
  5
23F
330
6F
100
AcDbEntity
  8
DETAIL
  6
Continuous
 62
     5
100
AcDbLine
 10
543.2999999999926
 20
-218.4999999999884
 30
0.0
 11
539.7778563976926
 21
-218.5614792452882
 31
0.0
  0
LINE
  5
240
330
6F
100
AcDbEntity
  8
DETAIL
  6
Continuous
 62
     5
100
AcDbLine
 10
528.474524064867
 20
-218.7587796450436
 30
0.0
 11
511.2650951870937
 21
-219.059171343489
 31
0.0
  0
LINE
  5
241
330
6F
100
AcDbEntity
  8
DETAIL
  6
Continuous
 62
     5
100
AcDbLine
 10
528.6320421319932
 20
-223.799015636889
 30
0.0
 11
508.7338108264928
 21
-224.1068676754887
 31
0.0
  0
LINE
  5
242
330
6F
100
AcDbEntity
  8
DETAIL
  6
Continuous
 62
     5
100
AcDbLine
 10
528.5546947546927
 20
-218.7996139342888
 30
0.0
 11
511.1446350854921
 21
-219.0689706564882
 31
0.0
  0
LINE
  5
243
330
6F
100
AcDbEntity
  8
DETAIL
  6
Continuous
 62
     5
100
AcDbLine
 10
505.2999999999928
 20
-233.9999999999884
 30
0.0
 11
500.7999999999928
 21
-233.9999999999884
 31
0.0
  0
LINE
  5
244
330
6F
100
AcDbEntity
  8
DETAIL
  6
Continuous
 62
     5
100
AcDbLine
 10
505.2999999999928
 20
-2.999999999988403
 30
0.0
 11
500.7999999999928
 21
-2.999999999988403
 31
0.0
  0
LINE
  5
245
330
6F
100
AcDbEntity
  8
DETAIL
  6
Continuous
 62
     5
100
AcDbLine
 10
543.2999999999926
 20
-18.49999999998839
 30
0.0
 11
540.0836996697933
 21
-18.44385926888867
 31
0.0
  0
LINE
  5
246
330
6F
100
AcDbEntity
  8
DETAIL
  6
Continuous
 62
     5
100
AcDbLine
 10
528.4745240645198
 20
-18.24122035492768
 30
0.0
 11
511.2650951870937
 21
-17.94082865648874
 31
0.0
  0
LINE
  5
247
330
6F
100
AcDbEntity
  8
DETAIL
  6
Continuous
 62
     5
100
AcDbLine
 10
528.5943526872934
 20
-17.84187167738878
 30
0.0
 11
510.0288433349931
 21
-17.48097784728838
 31
0.0
  0
LINE
  5
248
330
6F
100
AcDbEntity
  8
DETAIL
  6
Continuous
 62
     5
100
AcDbLine
 10
528.6915290309925
 20
-12.84281609078812
 30
0.0
 11
508.4274930878936
 21
-12.44890470348878
 31
0.0
  0
LINE
  5
249
330
6F
100
AcDbEntity
  8
DETAIL
  6
Continuous
 62
     5
100
AcDbLine
 10
543.2999999999926
 20
-18.49999999998839
 30
0.0
 11
578.2999999999929
 21
-21.00883119528885
 31
0.0
  0
LINE
  5
24A
330
6F
100
AcDbEntity
  8
DETAIL
  6
Continuous
 62
     5
100
AcDbLine
 10
502.7999999999929
 20
-233.9999999999884
 30
0.0
 11
502.7999999999929
 21
-2.999999999988403
 31
0.0
  0
LINE
  5
24B
330
6F
100
AcDbEntity
  8
DETAIL
  6
Continuous
 62
     5
100
AcDbLine
 10
502.7999999999929
 20
-233.9999999999884
 30
0.0
 11
502.7999999999929
 21
-2.999999999988403
 31
0.0
  0
LINE
  5
24C
330
6F
100
AcDbEntity
  8
DETAIL
  6
Continuous
 62
     5
100
AcDbLine
 10
505.2999999999928
 20
-233.9999999999884
 30
0.0
 11
505.2999999999928
 21
-2.999999999988403
 31
0.0
  0
LINE
  5
24D
330
6F
100
AcDbEntity
  8
DETAIL
  6
Continuous
 62
     5
100
AcDbLine
 10
509.2999999999928
 20
-14.93079568418875
 30
0.0
 11
509.2999999999928
 21
-23.06902555448892
 31
0.0
  0
LINE
  5
24E
330
6F
100
AcDbEntity
  8
DETAIL
  6
Continuous
 62
     5
100
AcDbLine
 10
509.2999999999928
 20
-213.9309781864888
 30
0.0
 11
509.2999999999928
 21
-222.069204098789
 31
0.0
  0
LINE
  5
24F
330
6F
100
AcDbEntity
  8
DETAIL
  6
Continuous
 62
     5
100
AcDbLine
 10
538.2999999999928
 20
-28.23969730648901
 30
0.0
 11
538.2999999999928
 21
-208.7603026934887
 31
0.0
  0
LINE
  5
250
330
6F
100
AcDbEntity
  8
DETAIL
  6
Continuous
 62
     5
100
AcDbLine
 10
538.3999999998932
 20
-208.8008105292886
 30
0.0
 11
538.3999999998932
 21
-27.83998285068833
 31
0.0
  0
LINE
  5
251
330
6F
100
AcDbEntity
  8
DETAIL
  6
Continuous
 62
     5
100
AcDbLine
 10
543.2999999999926
 20
-218.4999999999884
 30
0.0
 11
543.2999999999926
 21
-210.4329035188887
 31
0.0
  0
LINE
  5
252
330
6F
100
AcDbEntity
  8
DETAIL
  6
Continuous
 62
     5
100
AcDbLine
 10
543.2999999999926
 20
-26.20811588588845
 30
0.0
 11
543.2999999999926
 21
-18.49999999998839
 31
0.0
  0
LINE
  5
253
330
6F
100
AcDbEntity
  8
DETAIL
  6
Continuous
 62
     5
100
AcDbLine
 10
543.3999999998932
 20
-208.8008105292886
 30
0.0
 11
543.3999999998932
 21
-27.83998285068833
 31
0.0
  0
LWPOLYLINE
  5
254
330
6F
100
AcDbEntity
  8
DETAIL
  6
Continuous
 62
     5
100
AcDbPolyline
 90
        3
 70
     0
 43
0.0
 10
509.2999999999928
 20
-220.6411965730888
 10
509.3042650634933
 20
-220.6311354085885
 10
509.4629149076927
 20
-220.2682207437886
  0
LINE
  5
259
330
6F
100
AcDbEntity
  8
DETAIL
  6
Continuous
 62
     5
100
AcDbLine
 10
509.4629031843931
 20
-220.2682487373888
 30
0.0
 11
509.4629286637927
 21
-220.2681895508888
 31
0.0
  0
LWPOLYLINE
  5
25A
330
6F
100
AcDbEntity
  8
DETAIL
  6
Continuous
 62
     5
100
AcDbPolyline
 90
        3
 70
     0
 43
0.0
 10
509.3851655304924
 20
-16.55338540918842
 10
509.3057661548928
 20
-16.37232549058831
 10
509.2999999999928
 20
-16.35874048458868
  0
LINE
  5
25F
330
6F
100
AcDbEntity
  8
DETAIL
  6
Continuous
 62
     5
100
AcDbLine
 10
509.4629128500937
 20
-16.73177442308882
 30
0.0
 11
509.3851655304924
 21
-16.55338540918842
 31
0.0
  0
LINE
  5
260
330
6F
100
AcDbEntity
  8
DETAIL
  6
Continuous
 62
     5
100
AcDbLine
 10
509.4629286638928
 20
-16.73181044668876
 30
0.0
 11
509.4629015403925
 21
-16.73174744158882
 31
0.0
  0
LINE
  5
261
330
6F
100
AcDbEntity
  8
DETAIL
  6
Continuous
 62
     5
100
AcDbLine
 10
578.2999999999929
 20
-21.00883119528885
 30
0.0
 11
578.2999999999929
 21
-215.9911688046889
 31
0.0
  0
ARC
  5
262
330
6F
100
AcDbEntity
  8
DETAIL
  6
Continuous
 62
     5
100
AcDbCircle
 10
505.2999999999928
 20
-222.0692109474887
 30
0.0
 40
4.0
100
AcDbArc
 50
276.3793702185219
 51
0.0000056148749013
  0
ARC
  5
263
330
6F
100
AcDbEntity
  8
DETAIL
  6
Continuous
 62
     5
100
AcDbCircle
 10
511.2999999999929
 20
-221.0588667337881
 30
0.0
 40
2.0
100
AcDbArc
 50
90.99999999997569
 51
156.7129673741238
  0
ARC
  5
264
330
6F
100
AcDbEntity
  8
DETAIL
  6
Continuous
 62
     5
100
AcDbCircle
 10
505.7999999999928
 20
-226.5413469024882
 30
0.0
 40
0.5
100
AcDbArc
 50
96.37937012791477
 51
179.9999991726983
  0
ARC
  5
265
330
6F
100
AcDbEntity
  8
DETAIL
  6
Continuous
 62
     5
100
AcDbCircle
 10
528.3999999998932
 20
-208.8008105292886
 30
0.0
 40
15.0
100
AcDbArc
 50
270.8863710104977
 51
0.0
  0
ARC
  5
266
330
6F
100
AcDbEntity
  8
DETAIL
  6
Continuous
 62
     5
100
AcDbCircle
 10
528.2999999999929
 20
-208.7603026934887
 30
0.0
 40
10.0
100
AcDbArc
 50
270.9999999999757
 51
0.0
  0
ARC
  5
267
330
6F
100
AcDbEntity
  8
DETAIL
  6
Continuous
 62
     5
100
AcDbCircle
 10
528.3999999998932
 20
-208.8008105292886
 30
0.0
 40
10.0
100
AcDbArc
 50
270.8863710104977
 51
0.0
  0
ARC
  5
268
330
6F
100
AcDbEntity
  8
DETAIL
  6
Continuous
 62
     5
100
AcDbCircle
 10
528.3999999998932
 20
-27.83998285068833
 30
0.0
 40
15.0
100
AcDbArc
 50
0.0
 51
88.88637101167338
  0
ARC
  5
269
330
6F
100
AcDbEntity
  8
DETAIL
  6
Continuous
 62
     5
100
AcDbCircle
 10
528.2999999999929
 20
-28.23969730648901
 30
0.0
 40
10.0
100
AcDbArc
 50
0.0005867728221041
 51
89.0000000000243
  0
ARC
  5
26A
330
6F
100
AcDbEntity
  8
DETAIL
  6
Continuous
 62
     5
100
AcDbCircle
 10
528.3999999998932
 20
-27.83998285068833
 30
0.0
 40
10.0
100
AcDbArc
 50
0.0
 51
88.88637101167338
  0
ARC
  5
26B
330
6F
100
AcDbEntity
  8
DETAIL
  6
Continuous
 62
     5
100
AcDbCircle
 10
505.2999999999928
 20
-14.93078905248899
 30
0.0
 40
4.0
100
AcDbArc
 50
359.999997605067
 51
83.62062978420444
  0
ARC
  5
26C
330
6F
100
AcDbEntity
  8
DETAIL
  6
Continuous
 62
     5
100
AcDbCircle
 10
511.2999999999929
 20
-15.94113589728863
 30
0.0
 40
1.999999561499999
100
AcDbArc
 50
203.2869633851341
 51
268.9999986845622
  0
ARC
  5
26D
330
6F
100
AcDbEntity
  8
DETAIL
  6
Continuous
 62
     5
100
AcDbCircle
 10
505.7999999999928
 20
-10.45865309748865
 30
0.0
 40
0.5
100
AcDbArc
 50
180.0000006044784
 51
263.6206298502724
  0
LINE
  5
26E
330
6F
100
AcDbEntity
  8
DETAIL
  6
Continuous
 62
     5
100
AcDbLine
 10
500.7999999999928
 20
-201.4999999999884
 30
0.0
 11
497.7999999999929
 21
-201.4999999999884
 31
0.0
  0
LINE
  5
26F
330
6F
100
AcDbEntity
  8
DETAIL
  6
Continuous
 62
     5
100
AcDbLine
 10
500.7999999999928
 20
-35.49999999998885
 30
0.0
 11
497.7999999999929
 21
-35.49999999998885
 31
0.0
  0
LINE
  5
270
330
6F
100
AcDbEntity
  8
DETAIL
  6
Continuous
 62
     5
100
AcDbLine
 10
500.7999999999928
 20
-2.999999999988856
 30
0.0
 11
500.7999999999928
 21
-35.49999999998885
 31
0.0
  0
LINE
  5
271
330
6F
100
AcDbEntity
  8
DETAIL
  6
Continuous
 62
     5
100
AcDbLine
 10
500.7999999999928
 20
-201.4999999999884
 30
0.0
 11
500.7999999999928
 21
-233.9999999999884
 31
0.0
  0
LINE
  5
272
330
6F
100
AcDbEntity
  8
DETAIL
  6
Continuous
 62
     5
100
AcDbLine
 10
500.7999999999928
 20
-201.4999999999884
 30
0.0
 11
500.7999999999928
 21
-35.49999999998885
 31
0.0
  0
ARC
  5
273
330
6F
100
AcDbEntity
  8
DETAIL
  6
Continuous
 62
     5
100
AcDbCircle
 10
497.7499999999936
 20
-233.9999999999884
 30
0.0
 40
3.049999999999998
100
AcDbArc
 50
189.4510664057776
 51
0.0
  0
ARC
  5
274
330
6F
100
AcDbEntity
  8
DETAIL
  6
Continuous
 62
     5
100
AcDbCircle
 10
497.7499999999936
 20
-2.999999999988856
 30
0.0
 40
3.049999999999998
100
AcDbArc
 50
0.0
 51
170.5489335942736
  0
LINE
  5
275
330
6F
100
AcDbEntity
  8
DETAIL
  6
Continuous
 62
     5
100
AcDbLine
 10
497.7999999999929
 20
-230.9999999999884
 30
0.0
 11
496.9999999999934
 21
-230.9999999999884
 31
0.0
  0
LINE
  5
276
330
6F
100
AcDbEntity
  8
DETAIL
  6
Continuous
 62
     5
100
AcDbLine
 10
497.7999999999929
 20
-5.999999999988857
 30
0.0
 11
496.9999999999934
 21
-5.999999999988857
 31
0.0
  0
LINE
  5
277
330
6F
100
AcDbEntity
  8
DETAIL
  6
Continuous
 62
     5
100
AcDbLine
 10
496.9999999999934
 20
-5.999999999988857
 30
0.0
 11
496.9999999999934
 21
-230.9999999999884
 31
0.0
  0
LINE
  5
278
330
6F
100
AcDbEntity
  8
DETAIL
  6
Continuous
 62
     5
100
AcDbLine
 10
497.7999999999929
 20
-2.999999999988856
 30
0.0
 11
497.7999999999929
 21
-233.9999999999884
 31
0.0
  0
LINE
  5
279
330
6F
100
AcDbEntity
  8
DETAIL
  6
Continuous
 62
     5
100
AcDbLine
 10
227.7999999999929
 20
-203.9999999999884
 30
0.0
 11
227.7999999999929
 21
-204.9999999999884
 31
0.0
  0
CIRCLE
  5
27A
330
6F
100
AcDbEntity
  8
DETAIL
  6
Continuous
 62
     5
100
AcDbCircle
 10
-320.0000000000082
 20
-75.0999999999957
 30
0.0
 40
1.45
  0
LINE
  5
27B
330
6F
100
AcDbEntity
  8
OUTLINE
  6
Continuous
 62
     3
100
AcDbLine
 10
230.8499999999922
 20
-240.0285398162893
 30
0.0
 11
230.8499999999922
 21
-249.9499755412501
 31
0.0
  0
LINE
  5
27C
330
6F
100
AcDbEntity
  8
OUTLINE
  6
Continuous
 62
     3
100
AcDbLine
 10
60.44142135619131
 20
-2.399999999989403
 30
0.0
 11
60.44142135619131
 21
-3.799999999989495
 31
0.0
  0
LINE
  5
27D
330
6F
100
AcDbEntity
  8
OUTLINE
  6
Continuous
 62
     3
100
AcDbLine
 10
13.45563491859229
 20
-1.112994231489436
 30
0.0
 11
16.14264068708962
 21
-3.799999999989495
 31
0.0
  0
LINE
  5
27E
330
6F
100
AcDbEntity
  8
OUTLINE
  6
Continuous
 62
     3
100
AcDbLine
 10
20.44142135619131
 20
-2.399999999989403
 30
0.0
 11
20.44142135619131
 21
-3.799999999989495
 31
0.0
  0
LINE
  5
27F
330
6F
100
AcDbEntity
  8
OUTLINE
  6
Continuous
 62
     3
100
AcDbLine
 10
230.8499999999922
 20
-240.0285398162893
 30
0.0
 11
230.6000000002978
 21
-240.0285398163017
 31
0.0
  0
LINE
  5
280
330
6F
100
AcDbEntity
  8
OUTLINE
  6
Continuous
 62
     3
100
AcDbLine
 10
-193.0443650814077
 20
-1.112994231489436
 30
0.0
 11
-190.3573593129102
 21
-3.799999999989495
 31
0.0
  0
LINE
  5
281
330
6F
100
AcDbEntity
  8
OUTLINE
  6
Continuous
 62
     3
100
AcDbLine
 10
66.05735931279287
 20
-3.799999999989495
 30
0.0
 11
68.74436508129384
 21
-1.112994231489436
 31
0.0
  0
LINE
  5
282
330
6F
100
AcDbEntity
  8
OUTLINE
  6
Continuous
 62
     3
100
AcDbLine
 10
-145.9171572876066
 20
-2.399999999989403
 30
0.0
 11
-145.9171572876066
 21
-3.799999999989495
 31
0.0
  0
LINE
  5
283
330
6F
100
AcDbEntity
  8
OUTLINE
  6
Continuous
 62
     3
100
AcDbLine
 10
-185.9171572876066
 20
-2.399999999989403
 30
0.0
 11
-185.9171572876066
 21
-3.799999999989495
 31
0.0
  0
LINE
  5
284
330
6F
100
AcDbEntity
  8
OUTLINE
  6
Continuous
 62
     3
100
AcDbLine
 10
-451.1720633844078
 20
-3.799999999989495
 30
0.0
 11
-450.6786070119042
 21
-3.799999999989495
 31
0.0
  0
LINE
  5
285
330
6F
100
AcDbEntity
  8
OUTLINE
  6
Continuous
 62
     3
100
AcDbLine
 10
-410.6786070119076
 20
-3.799999999989495
 30
0.0
 11
-402.0000000000063
 21
-3.799999999989495
 31
0.0
  0
LINE
  5
286
330
6F
100
AcDbEntity
  8
OUTLINE
  6
Continuous
 62
     3
100
AcDbLine
 10
-190.3573593129067
 20
-3.799999999989495
 30
0.0
 11
-185.9171572876066
 21
-3.799999999989495
 31
0.0
  0
LINE
  5
287
330
6F
100
AcDbEntity
  8
OUTLINE
  6
Continuous
 62
     3
100
AcDbLine
 10
-145.9171572876066
 20
-3.799999999989495
 30
0.0
 11
-140.4426406872035
 21
-3.799999999989495
 31
0.0
  0
LINE
  5
288
330
6F
100
AcDbEntity
  8
OUTLINE
  6
Continuous
 62
     3
100
AcDbLine
 10
16.14264068709326
 20
-3.799999999989495
 30
0.0
 11
20.44142135619131
 21
-3.799999999989495
 31
0.0
  0
LINE
  5
289
330
6F
100
AcDbEntity
  8
OUTLINE
  6
Continuous
 62
     3
100
AcDbLine
 10
60.44142135619131
 20
-3.799999999989495
 30
0.0
 11
66.05735931279287
 21
-3.799999999989495
 31
0.0
  0
LINE
  5
28A
330
6F
100
AcDbEntity
  8
OUTLINE
  6
Continuous
 62
     3
100
AcDbLine
 10
-451.9725510199086
 20
-2.999999999989313
 30
0.0
 11
-471.4000000000076
 21
-2.999999999989313
 31
0.0
  0
LINE
  5
28B
330
6F
100
AcDbEntity
  8
OUTLINE
  6
Continuous
 62
     3
100
AcDbLine
 10
-400.8686291501062
 20
-2.999999999989313
 30
0.0
 11
-295.648528137509
 21
-2.999999999989313
 31
0.0
  0
LINE
  5
28C
330
6F
100
AcDbEntity
  8
OUTLINE
  6
Continuous
 62
     3
100
AcDbLine
 10
60.44142135619131
 20
-2.399999999989403
 30
0.0
 11
20.44142135619131
 21
-2.399999999989403
 31
0.0
  0
LINE
  5
28D
330
6F
100
AcDbEntity
  8
OUTLINE
  6
Continuous
 62
     3
100
AcDbLine
 10
-145.9171572876066
 20
-2.399999999989403
 30
0.0
 11
-185.9171572876066
 21
-2.399999999989403
 31
0.0
  0
LINE
  5
28E
330
6F
100
AcDbEntity
  8
OUTLINE
  6
Continuous
 62
     3
100
AcDbLine
 10
-450.6786070119076
 20
-2.399999999989403
 30
0.0
 11
-410.6786070119076
 21
-2.399999999989403
 31
0.0
  0
LINE
  5
28F
330
6F
100
AcDbEntity
  8
OUTLINE
  6
Continuous
 62
     3
100
AcDbLine
 10
-295.648528137509
 20
0.0000000000106866
 30
0.0
 11
-195.7313708499087
 21
0.0000000000106866
 31
0.0
  0
LINE
  5
290
330
6F
100
AcDbEntity
  8
OUTLINE
  6
Continuous
 62
     3
100
AcDbLine
 10
-135.068629150107
 20
0.0000000000106866
 30
0.0
 11
10.76862915009133
 21
0.0000000000106866
 31
0.0
  0
LINE
  5
291
330
6F
100
AcDbEntity
  8
OUTLINE
  6
Continuous
 62
     3
100
AcDbLine
 10
71.43137084989302
 20
0.0000000000106866
 30
0.0
 11
226.9999999999936
 21
0.0000000000106866
 31
0.0
  0
LINE
  5
292
330
6F
100
AcDbEntity
  8
OUTLINE
  6
Continuous
 62
     3
100
AcDbLine
 10
-140.4426406872071
 20
-3.799999999989495
 30
0.0
 11
-137.7556349187061
 21
-1.112994231489436
 31
0.0
  0
LINE
  5
293
330
6F
100
AcDbEntity
  8
OUTLINE
  6
Continuous
 62
     3
100
AcDbLine
 10
-295.648528137509
 20
-2.999999999989313
 30
0.0
 11
-295.648528137509
 21
0.0000000000106866
 31
0.0
  0
LINE
  5
294
330
6F
100
AcDbEntity
  8
OUTLINE
  6
Continuous
 62
     3
100
AcDbLine
 10
-410.6786070119076
 20
-3.799999999989495
 30
0.0
 11
-410.6786070119076
 21
-2.399999999989403
 31
0.0
  0
LINE
  5
295
330
6F
100
AcDbEntity
  8
OUTLINE
  6
Continuous
 62
     3
100
AcDbLine
 10
-401.434314575107
 20
-3.234314575089455
 30
0.0
 11
-402.0000000000063
 21
-3.799999999989495
 31
0.0
  0
LINE
  5
296
330
6F
100
AcDbEntity
  8
OUTLINE
  6
Continuous
 62
     3
100
AcDbLine
 10
-450.6786070119076
 20
-3.799999999989495
 30
0.0
 11
-450.6786070119076
 21
-2.399999999989403
 31
0.0
  0
LINE
  5
297
330
6F
100
AcDbEntity
  8
OUTLINE
  6
Continuous
 62
     3
100
AcDbLine
 10
-451.1720633844078
 20
-3.799999999989495
 30
0.0
 11
-451.1730383583078
 21
-3.772080402589607
 31
0.0
  0
ARC
  5
298
330
6F
100
AcDbEntity
  8
OUTLINE
  6
Continuous
 62
     3
100
AcDbCircle
 10
226.9999999999936
 20
-3.799999999989495
 30
0.0
 40
3.799999999999998
100
AcDbArc
 50
12.15319746898846
 51
90.0
  0
ARC
  5
299
330
6F
100
AcDbEntity
  8
OUTLINE
  6
Continuous
 62
     3
100
AcDbCircle
 10
71.43137084989302
 20
-3.799999999989495
 30
0.0
 40
3.799999999999998
100
AcDbArc
 50
90.0
 51
134.9999999998987
  0
ARC
  5
29A
330
6F
100
AcDbEntity
  8
OUTLINE
  6
Continuous
 62
     3
100
AcDbCircle
 10
10.76862915009133
 20
-3.799999999989495
 30
0.0
 40
3.799999999999998
100
AcDbArc
 50
45.00000000010131
 51
90.0
  0
ARC
  5
29B
330
6F
100
AcDbEntity
  8
OUTLINE
  6
Continuous
 62
     3
100
AcDbCircle
 10
-135.068629150107
 20
-3.799999999989495
 30
0.0
 40
3.799999999999998
100
AcDbArc
 50
90.0
 51
134.9999999998987
  0
ARC
  5
29C
330
6F
100
AcDbEntity
  8
OUTLINE
  6
Continuous
 62
     3
100
AcDbCircle
 10
-195.7313708499087
 20
-3.799999999989495
 30
0.0
 40
3.799999999999998
100
AcDbArc
 50
45.00000000010131
 51
90.0
  0
ARC
  5
29D
330
6F
100
AcDbEntity
  8
OUTLINE
  6
Continuous
 62
     3
100
AcDbCircle
 10
-400.8686291501062
 20
-3.799999999989495
 30
0.0
 40
0.8
100
AcDbArc
 50
90.0
 51
134.9999999998987
  0
ARC
  5
29E
330
6F
100
AcDbEntity
  8
OUTLINE
  6
Continuous
 62
     3
100
AcDbCircle
 10
-451.9725510199086
 20
-3.799999999989495
 30
0.0
 40
0.8
100
AcDbArc
 50
2.000000000003498
 51
90.0
  0
ARC
  5
29F
330
6F
100
AcDbEntity
  8
OUTLINE
  6
Continuous
 62
     3
100
AcDbCircle
 10
-471.4000000000076
 20
-3.799999999989495
 30
0.0
 40
0.8
100
AcDbArc
 50
90.0
 51
180.0017481015409
  0
ARC
  5
2A0
330
6F
100
AcDbEntity
  8
OUTLINE
  6
Continuous
 62
     3
100
AcDbCircle
 10
220.8664791690835
 20
-242.9603951084438
 30
0.0
 40
9.999999999999447
100
AcDbArc
 50
244.6836403141326
 51
295.3163596858674
  0
LINE
  5
2A1
330
6F
100
AcDbEntity
  8
OUTLINE
  6
Continuous
 62
     3
100
AcDbLine
 10
-194.868629150106
 20
-249.9999999999875
 30
0.0
 11
-90.20000000001074
 21
-249.9999999999875
 31
0.0
  0
LINE
  5
2A2
330
6F
100
AcDbEntity
  8
OUTLINE
  6
Continuous
 62
     3
100
AcDbLine
 10
-195.4343145751072
 20
-249.7656854249892
 30
0.0
 11
-195.9556349187069
 21
-249.2443650813878
 31
0.0
  0
LINE
  5
2A3
330
6F
100
AcDbEntity
  8
OUTLINE
  6
Continuous
 62
     3
100
AcDbLine
 10
-471.2000000000069
 20
-249.5999999999879
 30
0.0
 11
-471.2000000000069
 21
-248.9999999999875
 31
0.0
  0
ARC
  5
2A4
330
6F
100
AcDbEntity
  8
OUTLINE
  6
Continuous
 62
     3
100
AcDbCircle
 10
-194.868629150106
 20
-249.1999999999882
 30
0.0
 40
0.8
100
AcDbArc
 50
225.0000000001012
 51
270.0000000062532
  0
ARC
  5
2A5
330
6F
100
AcDbEntity
  8
OUTLINE
  6
Continuous
 62
     3
100
AcDbCircle
 10
-196.0970562749088
 20
-249.385786437688
 30
0.0
 40
0.2
100
AcDbArc
 50
45.00000000010131
 51
90.0
  0
ARC
  5
2A6
330
6F
100
AcDbEntity
  8
OUTLINE
  6
Continuous
 62
     3
100
AcDbCircle
 10
-471.2000000000069
 20
-247.9999999999875
 30
0.0
 40
1.0
100
AcDbArc
 50
180.0
 51
270.0
  0
LINE
  5
2A7
330
6F
100
AcDbEntity
  8
OUTLINE
  6
Continuous
 62
     3
100
AcDbLine
 10
-445.2000000000071
 20
-250.8199999999895
 30
0.0
 11
-429.3100000000077
 21
-250.8199999999895
 31
0.0
  0
LINE
  5
2A8
330
6F
100
AcDbEntity
  8
OUTLINE
  6
Continuous
 62
     3
100
AcDbLine
 10
-217.7900000000072
 20
-250.8199999999895
 30
0.0
 11
-201.9000000000077
 21
-250.8199999999895
 31
0.0
  0
LINE
  5
2A9
330
6F
100
AcDbEntity
  8
OUTLINE
  6
Continuous
 62
     3
100
AcDbLine
 10
-201.9000000000077
 20
-250.2199999999896
 30
0.0
 11
-217.7900000000072
 21
-250.2199999999896
 31
0.0
  0
LINE
  5
2AA
330
6F
100
AcDbEntity
  8
OUTLINE
  6
Continuous
 62
     3
100
AcDbLine
 10
-445.2000000000071
 20
-250.2199999999896
 30
0.0
 11
-429.3100000000077
 21
-250.2199999999896
 31
0.0
  0
LINE
  5
2AB
330
6F
100
AcDbEntity
  8
OUTLINE
  6
Continuous
 62
     3
100
AcDbLine
 10
-445.2000000000071
 20
-250.1999999999891
 30
0.0
 11
-201.9000000000077
 21
-250.1999999999891
 31
0.0
  0
LINE
  5
2AC
330
6F
100
AcDbEntity
  8
OUTLINE
  6
Continuous
 62
     3
100
AcDbLine
 10
-201.9000000000077
 20
-249.5999999999897
 30
0.0
 11
-214.3000000000093
 21
-249.5999999999897
 31
0.0
  0
LINE
  5
2AD
330
6F
100
AcDbEntity
  8
OUTLINE
  6
Continuous
 62
     3
100
AcDbLine
 10
-214.3000000000093
 20
-249.1857864376891
 30
0.0
 11
-196.0970562749088
 21
-249.1857864376891
 31
0.0
  0
LINE
  5
2AE
330
6F
100
AcDbEntity
  8
OUTLINE
  6
Continuous
 62
     3
100
AcDbLine
 10
-214.3000000000093
 20
-249.1857864376891
 30
0.0
 11
-214.3000000000093
 21
-249.5999999999892
 31
0.0
  0
LINE
  5
2AF
330
6F
100
AcDbEntity
  8
OUTLINE
  6
Continuous
 62
     3
100
AcDbLine
 10
-217.7900000000072
 20
-250.2199999999896
 30
0.0
 11
-217.7900000000072
 21
-250.8199999999895
 31
0.0
  0
LINE
  5
2B0
330
6F
100
AcDbEntity
  8
OUTLINE
  6
Continuous
 62
     3
100
AcDbLine
 10
-429.3100000000077
 20
-250.2199999999896
 30
0.0
 11
-429.3100000000077
 21
-250.8199999999895
 31
0.0
  0
ARC
  5
2B1
330
6F
100
AcDbEntity
  8
OUTLINE
  6
Continuous
 62
     3
100
AcDbCircle
 10
-201.9000000000077
 20
-250.2099999999893
 30
0.0
 40
0.61
100
AcDbArc
 50
270.0
 51
90.0
  0
ARC
  5
2B2
330
6F
100
AcDbEntity
  8
OUTLINE
  6
Continuous
 62
     3
100
AcDbCircle
 10
-201.9000000000077
 20
-250.2099999999893
 30
0.0
 40
0.01
100
AcDbArc
 50
270.0
 51
90.0
  0
ARC
  5
2B3
330
6F
100
AcDbEntity
  8
OUTLINE
  6
Continuous
 62
     3
100
AcDbCircle
 10
-445.2000000000071
 20
-250.2099999999893
 30
0.0
 40
0.61
100
AcDbArc
 50
90.0
 51
270.0
  0
ARC
  5
2B4
330
6F
100
AcDbEntity
  8
OUTLINE
  6
Continuous
 62
     3
100
AcDbCircle
 10
-445.2000000000071
 20
-250.2099999999893
 30
0.0
 40
0.01
100
AcDbArc
 50
90.0
 51
270.0
  0
LINE
  5
2B5
330
6F
100
AcDbEntity
  8
OUTLINE
  6
Continuous
 62
     3
100
AcDbLine
 10
-471.2000000000069
 20
-249.5999999999897
 30
0.0
 11
-445.2000000000032
 21
-249.5999999999897
 31
0.0
  0
LINE
  5
2B6
330
6F
100
AcDbEntity
  8
OUTLINE
  6
Continuous
 62
     3
100
AcDbLine
 10
-475.2000000000069
 20
-248.4999999999893
 30
0.0
 11
-493.7000000000071
 21
-248.4999999999893
 31
0.0
  0
LINE
  5
2B7
330
6F
100
AcDbEntity
  8
OUTLINE
  6
Continuous
 62
     3
100
AcDbLine
 10
-474.2000000000071
 20
-248.4999999999893
 30
0.0
 11
-472.2000000000071
 21
-248.4999999999893
 31
0.0
  0
LINE
  5
2B8
330
6F
100
AcDbEntity
  8
OUTLINE
  6
Continuous
 62
     3
100
AcDbLine
 10
-475.2000000000069
 20
-247.6999999999891
 30
0.0
 11
-493.7000000000071
 21
-247.6999999999891
 31
0.0
  0
LINE
  5
2B9
330
6F
100
AcDbEntity
  8
OUTLINE
  6
Continuous
 62
     3
100
AcDbLine
 10
-493.7000000000071
 20
-247.4999999999893
 30
0.0
 11
-475.0000000000063
 21
-247.4999999999893
 31
0.0
  0
LINE
  5
2BA
330
6F
100
AcDbEntity
  8
OUTLINE
  6
Continuous
 62
     3
100
AcDbLine
 10
-475.0000000000063
 20
-4.999999999989313
 30
0.0
 11
-493.7000000000071
 21
-4.999999999989313
 31
0.0
  0
LINE
  5
2BB
330
6F
100
AcDbEntity
  8
OUTLINE
  6
Continuous
 62
     3
100
AcDbLine
 10
-493.7000000000071
 20
-4.799999999989039
 30
0.0
 11
-475.2000000000069
 21
-4.799999999989039
 31
0.0
  0
LINE
  5
2BC
330
6F
100
AcDbEntity
  8
OUTLINE
  6
Continuous
 62
     3
100
AcDbLine
 10
-493.7000000000071
 20
-3.999999999989313
 30
0.0
 11
-475.2000000000069
 21
-3.999999999989313
 31
0.0
  0
LINE
  5
2BD
330
6F
100
AcDbEntity
  8
OUTLINE
  6
Continuous
 62
     3
100
AcDbLine
 10
-474.2000000000071
 20
-3.999999999989313
 30
0.0
 11
-472.2000000000071
 21
-3.999999999989313
 31
0.0
  0
LINE
  5
2BE
330
6F
100
AcDbEntity
  8
OUTLINE
  6
Continuous
 62
     3
100
AcDbLine
 10
-472.2000000000071
 20
-248.4999999999893
 30
0.0
 11
-472.2000000000071
 21
-247.9999999999875
 31
0.0
  0
LINE
  5
2BF
330
6F
100
AcDbEntity
  8
OUTLINE
  6
Continuous
 62
     3
100
AcDbLine
 10
-474.2000000000071
 20
-248.4999999999893
 30
0.0
 11
-474.2000000000071
 21
-247.4999999999893
 31
0.0
  0
LINE
  5
2C0
330
6F
100
AcDbEntity
  8
OUTLINE
  6
Continuous
 62
     3
100
AcDbLine
 10
-474.2000000000071
 20
-4.999999999989313
 30
0.0
 11
-474.2000000000071
 21
-3.999999999989313
 31
0.0
  0
LINE
  5
2C1
330
6F
100
AcDbEntity
  8
OUTLINE
  6
Continuous
 62
     3
100
AcDbLine
 10
-493.7000000000071
 20
-3.999999999989313
 30
0.0
 11
-493.7000000000071
 21
-4.799999999989039
 31
0.0
  0
LINE
  5
2C2
330
6F
100
AcDbEntity
  8
OUTLINE
  6
Continuous
 62
     3
100
AcDbLine
 10
-493.7000000000105
 20
-231.2307994285886
 30
0.0
 11
-493.7000000000105
 21
-232.7254033307474
 31
0.0
  0
LINE
  5
2C3
330
6F
100
AcDbEntity
  8
OUTLINE
  6
Continuous
 62
     3
100
AcDbLine
 10
-493.7000000000071
 20
-248.4999999999893
 30
0.0
 11
-493.7000000000071
 21
-247.6999999999891
 31
0.0
  0
LINE
  5
2C4
330
6F
100
AcDbEntity
  8
OUTLINE
  6
Continuous
 62
     3
100
AcDbLine
 10
-493.7000000000033
 20
-21.26920057138908
 30
0.0
 11
-493.7000000000033
 21
-19.77459666923028
 31
0.0
  0
LINE
  5
2C5
330
6F
100
AcDbEntity
  8
OUTLINE
  6
Continuous
 62
     3
100
AcDbLine
 10
-494.7000000000071
 20
-5.999999999989312
 30
0.0
 11
-494.7000000000071
 21
-18.99999999998931
 31
0.0
  0
LINE
  5
2C6
330
6F
100
AcDbEntity
  8
OUTLINE
  6
Continuous
 62
     3
100
AcDbLine
 10
-494.7000000000071
 20
-246.4999999999893
 30
0.0
 11
-494.7000000000071
 21
-233.4999999999893
 31
0.0
  0
ARC
  5
2C7
330
6F
100
AcDbEntity
  8
OUTLINE
  6
Continuous
 62
     3
100
AcDbCircle
 10
-493.7000000000071
 20
-246.4999999999893
 30
0.0
 40
1.0
100
AcDbArc
 50
180.0
 51
270.0
  0
ARC
  5
2C8
330
6F
100
AcDbEntity
  8
OUTLINE
  6
Continuous
 62
     3
100
AcDbCircle
 10
-475.2000000000069
 20
-247.4999999999893
 30
0.0
 40
1.0
100
AcDbArc
 50
270.0
 51
0.0
  0
ARC
  5
2C9
330
6F
100
AcDbEntity
  8
OUTLINE
  6
Continuous
 62
     3
100
AcDbCircle
 10
-475.2000000000069
 20
-247.4999999999893
 30
0.0
 40
0.2
100
AcDbArc
 50
270.0
 51
0.0
  0
ARC
  5
2CA
330
6F
100
AcDbEntity
  8
OUTLINE
  6
Continuous
 62
     3
100
AcDbCircle
 10
-493.9000000000077
 20
-233.4999999999893
 30
0.0
 40
0.8
100
AcDbArc
 50
75.46646331846766
 51
180.0
  0
ARC
  5
2CB
330
6F
100
AcDbEntity
  8
OUTLINE
  6
Continuous
 62
     3
100
AcDbCircle
 10
-493.9000000000077
 20
-18.99999999998931
 30
0.0
 40
0.8
100
AcDbArc
 50
180.0
 51
284.5335366815307
  0
ARC
  5
2CC
330
6F
100
AcDbEntity
  8
OUTLINE
  6
Continuous
 62
     3
100
AcDbCircle
 10
-493.7000000000071
 20
-5.999999999989312
 30
0.0
 40
1.0
100
AcDbArc
 50
90.0
 51
180.0
  0
ARC
  5
2CD
330
6F
100
AcDbEntity
  8
OUTLINE
  6
Continuous
 62
     3
100
AcDbCircle
 10
-475.2000000000069
 20
-4.999999999989313
 30
0.0
 40
1.0
100
AcDbArc
 50
0.0
 51
90.0
  0
ARC
  5
2CE
330
6F
100
AcDbEntity
  8
OUTLINE
  6
Continuous
 62
     3
100
AcDbCircle
 10
-475.2000000000069
 20
-4.999999999989313
 30
0.0
 40
0.2
100
AcDbArc
 50
0.0
 51
90.0
  0
LINE
  5
2CF
330
6F
100
AcDbEntity
  8
OUTLINE
  6
Continuous
 62
     3
100
AcDbLine
 10
-472.2000000000071
 20
-3.999999999989313
 30
0.0
 11
-472.2000000000071
 21
-3.800024408091529
 31
0.0
  0
LINE
  5
2D0
330
6F
100
AcDbEntity
  8
OUTLINE
  6
Continuous
 62
     3
100
AcDbLine
 10
-498.8000000000091
 20
-231.131305558489
 30
0.0
 11
-496.8000000000091
 21
-231.1662156883892
 31
0.0
  0
LINE
  5
2D1
330
6F
100
AcDbEntity
  8
OUTLINE
  6
Continuous
 62
     3
100
AcDbLine
 10
-498.8000000000091
 20
-223.2150898701891
 30
0.0
 11
-496.8000000000091
 21
-223.2499999999893
 31
0.0
  0
LINE
  5
2D2
330
6F
100
AcDbEntity
  8
OUTLINE
  6
Continuous
 62
     3
100
AcDbLine
 10
-496.8000000000091
 20
-241.7499999999893
 30
0.0
 11
-494.8000000000091
 21
-241.7150898701891
 31
0.0
  0
LINE
  5
2D3
330
6F
100
AcDbEntity
  8
OUTLINE
  6
Continuous
 62
     3
100
AcDbLine
 10
-493.7000000000071
 20
-231.2307994285891
 30
0.0
 11
-494.8000000000091
 21
-231.2499999999893
 31
0.0
  0
LINE
  5
2D4
330
6F
100
AcDbEntity
  8
OUTLINE
  6
Continuous
 62
     3
100
AcDbLine
 10
-496.8000000000091
 20
-229.7150898701891
 30
0.0
 11
-498.8000000000091
 21
-229.7499999999893
 31
0.0
  0
LINE
  5
2D5
330
6F
100
AcDbEntity
  8
OUTLINE
  6
Continuous
 62
     3
100
AcDbLine
 10
-496.8000000000091
 20
-221.2499999999893
 30
0.0
 11
-498.8000000000091
 21
-221.2849101298891
 31
0.0
  0
LINE
  5
2D6
330
6F
100
AcDbEntity
  8
OUTLINE
  6
Continuous
 62
     3
100
AcDbLine
 10
-498.8000000000091
 20
-31.2150898701891
 30
0.0
 11
-496.8000000000091
 21
-31.24999999998931
 31
0.0
  0
LINE
  5
2D7
330
6F
100
AcDbEntity
  8
OUTLINE
  6
Continuous
 62
     3
100
AcDbLine
 10
-498.8000000000091
 20
-22.74999999998931
 30
0.0
 11
-496.8000000000091
 21
-22.78491012988911
 31
0.0
  0
LINE
  5
2D8
330
6F
100
AcDbEntity
  8
OUTLINE
  6
Continuous
 62
     3
100
AcDbLine
 10
-493.7000000000071
 20
-21.26920057138908
 30
0.0
 11
-494.8000000000091
 21
-21.24999999998931
 31
0.0
  0
LINE
  5
2D9
330
6F
100
AcDbEntity
  8
OUTLINE
  6
Continuous
 62
     3
100
AcDbLine
 10
-496.8000000000091
 20
-10.74999999998931
 30
0.0
 11
-494.8000000000091
 21
-10.7849101298891
 31
0.0
  0
LINE
  5
2DA
330
6F
100
AcDbEntity
  8
OUTLINE
  6
Continuous
 62
     3
100
AcDbLine
 10
-498.8000000000091
 20
-29.28491012988911
 30
0.0
 11
-496.8000000000091
 21
-29.24999999998931
 31
0.0
  0
LINE
  5
2DB
330
6F
100
AcDbEntity
  8
OUTLINE
  6
Continuous
 62
     3
100
AcDbLine
 10
-496.8000000000091
 20
-21.333784311689
 30
0.0
 11
-498.8000000000091
 21
-21.3686944414892
 31
0.0
  0
LINE
  5
2DC
330
6F
100
AcDbEntity
  8
OUTLINE
  6
Continuous
 62
     3
100
AcDbLine
 10
-494.8000000000091
 20
-241.7150898701891
 30
0.0
 11
-494.8000000000091
 21
-231.2499999999893
 31
0.0
  0
LINE
  5
2DD
330
6F
100
AcDbEntity
  8
OUTLINE
  6
Continuous
 62
     3
100
AcDbLine
 10
-494.8000000000091
 20
-21.24999999998931
 30
0.0
 11
-494.8000000000091
 21
-10.7849101298891
 31
0.0
  0
LINE
  5
2DE
330
6F
100
AcDbEntity
  8
OUTLINE
  6
Continuous
 62
     3
100
AcDbLine
 10
-496.8000000000091
 20
-10.74999999998931
 30
0.0
 11
-496.8000000000091
 21
-21.333784311689
 31
0.0
  0
LINE
  5
2DF
330
6F
100
AcDbEntity
  8
OUTLINE
  6
Continuous
 62
     3
100
AcDbLine
 10
-496.8000000000091
 20
-22.78491012988911
 30
0.0
 11
-496.8000000000091
 21
-29.24999999998931
 31
0.0
  0
LINE
  5
2E0
330
6F
100
AcDbEntity
  8
OUTLINE
  6
Continuous
 62
     3
100
AcDbLine
 10
-496.8000000000091
 20
-31.24999999998931
 30
0.0
 11
-496.8000000000091
 21
-221.2499999999893
 31
0.0
  0
LINE
  5
2E1
330
6F
100
AcDbEntity
  8
OUTLINE
  6
Continuous
 62
     3
100
AcDbLine
 10
-496.8000000000091
 20
-223.2499999999893
 30
0.0
 11
-496.8000000000091
 21
-229.7150898701891
 31
0.0
  0
LINE
  5
2E2
330
6F
100
AcDbEntity
  8
OUTLINE
  6
Continuous
 62
     3
100
AcDbLine
 10
-496.8000000000091
 20
-231.1662156883892
 30
0.0
 11
-496.8000000000091
 21
-241.7499999999893
 31
0.0
  0
LINE
  5
2E3
330
6F
100
AcDbEntity
  8
OUTLINE
  6
Continuous
 62
     3
100
AcDbLine
 10
-498.8000000000091
 20
-21.3686944414892
 30
0.0
 11
-498.8000000000091
 21
-22.74999999998931
 31
0.0
  0
LINE
  5
2E4
330
6F
100
AcDbEntity
  8
OUTLINE
  6
Continuous
 62
     3
100
AcDbLine
 10
-498.8000000000091
 20
-29.28491012988911
 30
0.0
 11
-498.8000000000091
 21
-31.2150898701891
 31
0.0
  0
LINE
  5
2E5
330
6F
100
AcDbEntity
  8
OUTLINE
  6
Continuous
 62
     3
100
AcDbLine
 10
-498.8000000000091
 20
-221.2849101298891
 30
0.0
 11
-498.8000000000091
 21
-223.2150898701891
 31
0.0
  0
LINE
  5
2E6
330
6F
100
AcDbEntity
  8
OUTLINE
  6
Continuous
 62
     3
100
AcDbLine
 10
-498.8000000000091
 20
-229.7499999999893
 30
0.0
 11
-498.8000000000091
 21
-231.131305558489
 31
0.0
  0
LINE
  5
2E7
330
6F
100
AcDbEntity
  8
OUTLINE
  6
Continuous
 62
     3
100
AcDbLine
 10
-75.00000000000636
 20
-259.9999999999893
 30
0.0
 11
-55.40000000000782
 21
-259.9999999999893
 31
0.0
  0
LINE
  5
2E8
330
6F
100
AcDbEntity
  8
OUTLINE
  6
Continuous
 62
     3
100
AcDbLine
 10
-54.60000000000853
 20
-259.1999999999891
 30
0.0
 11
-54.60000000000853
 21
-250.799999999989
 31
0.0
  0
LINE
  5
2E9
330
6F
100
AcDbEntity
  8
OUTLINE
  6
Continuous
 62
     3
100
AcDbLine
 10
-75.80000000000926
 20
-250.799999999989
 30
0.0
 11
-75.80000000000926
 21
-259.1999999999891
 31
0.0
  0
LINE
  5
2EA
330
6F
100
AcDbEntity
  8
OUTLINE
  6
Continuous
 62
     3
100
AcDbLine
 10
-90.20000000000708
 20
-250.5999999999892
 30
0.0
 11
-90.20000000000708
 21
-249.9999999999893
 31
0.0
  0
LINE
  5
2EB
330
6F
100
AcDbEntity
  8
OUTLINE
  6
Continuous
 62
     3
100
AcDbLine
 10
-90.20000000000708
 20
-250.5999999999892
 30
0.0
 11
-76.00000000000637
 21
-250.5999999999892
 31
0.0
  0
LINE
  5
2EC
330
6F
100
AcDbEntity
  8
OUTLINE
  6
Continuous
 62
     3
100
AcDbLine
 10
-54.40000000000782
 20
-250.5999999999892
 30
0.0
 11
-54.20000000000709
 21
-250.5999999999892
 31
0.0
  0
ARC
  5
2ED
330
6F
100
AcDbEntity
  8
OUTLINE
  6
Continuous
 62
     3
100
AcDbCircle
 10
-55.40000000000782
 20
-259.1999999999891
 30
0.0
 40
0.8
100
AcDbArc
 50
270.0
 51
0.0
  0
ARC
  5
2EE
330
6F
100
AcDbEntity
  8
OUTLINE
  6
Continuous
 62
     3
100
AcDbCircle
 10
-75.00000000000636
 20
-259.1999999999891
 30
0.0
 40
0.8
100
AcDbArc
 50
180.0
 51
270.0
  0
ARC
  5
2EF
330
6F
100
AcDbEntity
  8
OUTLINE
  6
Continuous
 62
     3
100
AcDbCircle
 10
-54.40000000000782
 20
-250.799999999989
 30
0.0
 40
0.2
100
AcDbArc
 50
90.0
 51
180.0
  0
ARC
  5
2F0
330
6F
100
AcDbEntity
  8
OUTLINE
  6
Continuous
 62
     3
100
AcDbCircle
 10
-76.00000000000637
 20
-250.799999999989
 30
0.0
 40
0.2
100
AcDbArc
 50
0.0
 51
90.0
  0
LINE
  5
2F1
330
6F
100
AcDbEntity
  8
OUTLINE
  6
Continuous
 62
     3
100
AcDbLine
 10
-54.20000000000709
 20
-251.9999999999893
 30
0.0
 11
216.5903192790947
 21
-251.9999999999893
 31
0.0
  0
LINE
  5
2F2
330
6F
100
AcDbEntity
  8
OUTLINE
  6
Continuous
 62
     3
100
AcDbLine
 10
225.1426390590723
 20
-251.9999999999893
 30
0.0
 11
228.7999999999929
 21
-251.9999999999893
 31
0.0
  0
ARC
  5
2F3
330
6F
100
AcDbEntity
  8
OUTLINE
  6
Continuous
 62
     3
100
AcDbCircle
 10
228.7999999999929
 20
-249.9499999999891
 30
0.0
 40
2.049999999999998
100
AcDbArc
 50
270.0
 51
0.0006836011964806
  0
LINE
  5
2F4
330
6F
100
AcDbEntity
  8
OUTLINE
  6
Continuous
 62
     3
100
AcDbLine
 10
-54.20000000000709
 20
-251.9999999999911
 30
0.0
 11
-54.20000000000709
 21
-250.5999999999892
 31
0.0
  0
LINE
  5
2F5
330
6F
100
AcDbEntity
  8
OUTLINE
  6
Continuous
 62
     3
100
AcDbLine
 10
233.7999999999929
 20
-233.9999999999893
 30
0.0
 11
233.7999999999929
 21
-222.4999999999893
 31
0.0
  0
LINE
  5
2F6
330
6F
100
AcDbEntity
  8
OUTLINE
  6
Continuous
 62
     3
100
AcDbLine
 10
233.7999999999929
 20
-14.49999999998931
 30
0.0
 11
233.7999999999929
 21
-2.999999999989313
 31
0.0
  0
LINE
  5
2F7
330
6F
100
AcDbEntity
  8
OUTLINE
  6
Continuous
 62
     3
100
AcDbLine
 10
230.5999999999922
 20
-233.9999999999893
 30
0.0
 11
233.7999999999929
 21
-233.9999999999893
 31
0.0
  0
LINE
  5
2F8
330
6F
100
AcDbEntity
  8
OUTLINE
  6
Continuous
 62
     3
100
AcDbLine
 10
486.7999999999929
 20
-222.4999999999893
 30
0.0
 11
233.7999999999893
 21
-222.4999999999893
 31
0.0
  0
LINE
  5
2F9
330
6F
100
AcDbEntity
  8
OUTLINE
  6
Continuous
 62
     3
100
AcDbLine
 10
233.7999999999893
 20
-14.49999999998931
 30
0.0
 11
486.7999999999929
 21
-14.49999999998931
 31
0.0
  0
LINE
  5
2FA
330
6F
100
AcDbEntity
  8
OUTLINE
  6
Continuous
 62
     3
100
AcDbLine
 10
230.7070210200917
 20
-2.999999999989313
 30
0.0
 11
233.7999999999929
 21
-2.999999999989313
 31
0.0
  0
LINE
  5
2FB
330
6F
100
AcDbEntity
  8
OUTLINE
  6
Continuous
 62
     3
100
AcDbLine
 10
230.6000000002978
 20
-240.0285398163017
 30
0.0
 11
230.5999999999922
 21
-233.9999999999893
 31
0.0
  0
LINE
  5
2FC
330
6F
100
AcDbEntity
  8
OUTLINE
  6
Continuous
 62
     3
100
AcDbLine
 10
486.7999999999929
 20
-2.499999999989312
 30
0.0
 11
486.7999999999929
 21
-14.49999999998931
 31
0.0
  0
LINE
  5
2FD
330
6F
100
AcDbEntity
  8
OUTLINE
  6
Continuous
 62
     3
100
AcDbLine
 10
486.7999999999929
 20
-222.4999999999893
 30
0.0
 11
486.7999999999929
 21
-234.4999999999893
 31
0.0
  0
LINE
  5
2FE
330
6F
100
AcDbEntity
  8
OUTLINE
  6
Continuous
 62
     3
100
AcDbLine
 10
494.7412627233251
 20
-234.4999999999893
 30
0.0
 11
486.7999999999929
 21
-234.4999999999893
 31
0.0
  0
LINE
  5
2FF
330
6F
100
AcDbEntity
  8
OUTLINE
  6
Continuous
 62
     3
100
AcDbLine
 10
494.7412627233251
 20
-2.499999999989312
 30
0.0
 11
486.7999999999929
 21
-2.499999999989312
 31
0.0
  0
LINE
  5
300
330
6F
100
AcDbEntity
  8
OUTLINE
  6
Continuous
 62
     3
100
AcDbLine
 10
578.2999999999929
 20
-215.9911688046889
 30
0.0
 11
578.2999999999929
 21
-21.00883119528885
 31
0.0
  0
LINE
  5
301
330
6F
100
AcDbEntity
  8
OUTLINE
  6
Continuous
 62
     3
100
AcDbLine
 10
505.2999999999928
 20
-233.9999999999893
 30
0.0
 11
505.2999999999928
 21
-226.5413469024891
 31
0.0
  0
LINE
  5
302
330
6F
100
AcDbEntity
  8
OUTLINE
  6
Continuous
 62
     3
100
AcDbLine
 10
500.7999999999928
 20
-233.9999999999757
 30
0.0
 11
505.2999999999928
 21
-233.9999999999893
 31
0.0
  0
LINE
  5
303
330
6F
100
AcDbEntity
  8
OUTLINE
  6
Continuous
 62
     3
100
AcDbLine
 10
528.6320421319913
 20
-223.799015636889
 30
0.0
 11
508.7421623450326
 21
-224.1067384664177
 31
0.0
  0
LINE
  5
304
330
6F
100
AcDbEntity
  8
OUTLINE
  6
Continuous
 62
     3
100
AcDbLine
 10
543.2999999999926
 20
-218.4999999999893
 30
0.0
 11
539.7900616799168
 21
-218.5612662012957
 31
0.0
  0
LINE
  5
305
330
6F
100
AcDbEntity
  8
OUTLINE
  6
Continuous
 62
     3
100
AcDbLine
 10
543.2999999999926
 20
-218.4999999999893
 30
0.0
 11
578.2999999999929
 21
-215.9911688046889
 31
0.0
  0
LINE
  5
306
330
6F
100
AcDbEntity
  8
OUTLINE
  6
Continuous
 62
     3
100
AcDbLine
 10
543.2999999999926
 20
-18.49999999998931
 30
0.0
 11
578.2999999999929
 21
-21.00883119528885
 31
0.0
  0
LINE
  5
307
330
6F
100
AcDbEntity
  8
OUTLINE
  6
Continuous
 62
     3
100
AcDbLine
 10
528.6915290309925
 20
-12.84281609078903
 30
0.0
 11
508.4274930878898
 21
-12.44890470348969
 31
0.0
  0
LINE
  5
308
330
6F
100
AcDbEntity
  8
OUTLINE
  6
Continuous
 62
     3
100
AcDbLine
 10
543.2999999999926
 20
-18.49999999998931
 30
0.0
 11
540.0836996697917
 21
-18.44385926888957
 31
0.0
  0
LINE
  5
309
330
6F
100
AcDbEntity
  8
OUTLINE
  6
Continuous
 62
     3
100
AcDbLine
 10
500.7999999999928
 20
-2.999999999988856
 30
0.0
 11
505.2999999999928
 21
-2.999999999989313
 31
0.0
  0
ARC
  5
30A
330
6F
100
AcDbEntity
  8
OUTLINE
  6
Continuous
 62
     3
100
AcDbCircle
 10
528.3999999998932
 20
-208.8008105292895
 30
0.0
 40
15.0
100
AcDbArc
 50
270.8863710104977
 51
319.4058232992242
  0
ARC
  5
30B
330
6F
100
AcDbEntity
  8
OUTLINE
  6
Continuous
 62
     3
100
AcDbCircle
 10
505.2999999999928
 20
-222.0692109474896
 30
0.0
 40
4.0
100
AcDbArc
 50
276.3793702156906
 51
329.3773341707042
  0
ARC
  5
30C
330
6F
100
AcDbEntity
  8
OUTLINE
  6
Continuous
 62
     3
100
AcDbCircle
 10
505.7999999999928
 20
-226.5413469024891
 30
0.0
 40
0.5
100
AcDbArc
 50
96.37937014962256
 51
179.9999993952089
  0
ARC
  5
30D
330
6F
100
AcDbEntity
  8
OUTLINE
  6
Continuous
 62
     3
100
AcDbCircle
 10
528.3999999998932
 20
-27.83998285068924
 30
0.0
 40
15.0
100
AcDbArc
 50
38.78486609557132
 51
88.8863710115692
  0
ARC
  5
30E
330
6F
100
AcDbEntity
  8
OUTLINE
  6
Continuous
 62
     3
100
AcDbCircle
 10
505.2999999999928
 20
-14.93078905248899
 30
0.0
 40
4.0
100
AcDbArc
 50
38.34714566046761
 51
90.0
  0
ARC
  5
30F
330
6F
100
AcDbEntity
  8
OUTLINE
  6
Continuous
 62
     3
100
AcDbCircle
 10
497.7499999999936
 20
-233.9999999999893
 30
0.0
 40
3.049999999999998
100
AcDbArc
 50
189.4353387232964
 51
0.0
  0
ARC
  5
310
330
6F
100
AcDbEntity
  8
OUTLINE
  6
Continuous
 62
     3
100
AcDbCircle
 10
497.7499999999936
 20
-2.999999999989313
 30
0.0
 40
3.049999999999998
100
AcDbArc
 50
0.0
 51
170.5489335942736
  0
LINE
  5
311
330
6F
100
AcDbEntity
  8
OUTLINE
  6
Continuous
 62
     3
100
AcDbLine
 10
-634.2000000000088
 20
-399.9603951084429
 30
0.0
 11
-629.9000000000096
 21
-399.9603951084434
 31
0.0
  0
LINE
  5
312
330
6F
100
AcDbEntity
  8
OUTLINE
  6
Continuous
 62
     3
100
AcDbLine
 10
-12.50000000001
 20
-399.9603951084434
 30
0.0
 11
-8.200000000008911
 21
-399.9603951084429
 31
0.0
  0
LINE
  5
313
330
6F
100
AcDbEntity
  8
OUTLINE
  6
Continuous
 62
     3
100
AcDbLine
 10
-646.2000000000088
 20
-404.9603951084428
 30
0.0
 11
3.799999999991086
 21
-404.9603951084425
 31
0.0
  0
LINE
  5
314
330
6F
100
AcDbEntity
  8
OUTLINE
  6
Continuous
 62
     3
100
AcDbLine
 10
-646.2000000000088
 20
-402.9603951084428
 30
0.0
 11
-634.2000000000088
 21
-402.9603951084428
 31
0.0
  0
LINE
  5
315
330
6F
100
AcDbEntity
  8
OUTLINE
  6
Continuous
 62
     3
100
AcDbLine
 10
-8.200000000008911
 20
-402.9603951084428
 30
0.0
 11
3.799999999991086
 21
-402.9603951084428
 31
0.0
  0
LINE
  5
316
330
6F
100
AcDbEntity
  8
OUTLINE
  6
Continuous
 62
     3
100
AcDbLine
 10
-634.2000000000088
 20
-379.9603951084429
 30
0.0
 11
-629.9000000000096
 21
-379.9603951084429
 31
0.0
  0
LINE
  5
317
330
6F
100
AcDbEntity
  8
OUTLINE
  6
Continuous
 62
     3
100
AcDbLine
 10
-12.50000000001
 20
-379.9603951084429
 30
0.0
 11
-8.200000000008911
 21
-379.9603951084429
 31
0.0
  0
LINE
  5
318
330
6F
100
AcDbEntity
  8
OUTLINE
  6
Continuous
 62
     3
100
AcDbLine
 10
-634.2000000000088
 20
-369.4603951084166
 30
0.0
 11
-629.9000000000096
 21
-369.4603951084166
 31
0.0
  0
LINE
  5
319
330
6F
100
AcDbEntity
  8
OUTLINE
  6
Continuous
 62
     3
100
AcDbLine
 10
-12.50000000000818
 20
-369.4603951084261
 30
0.0
 11
-8.200000000008911
 21
-369.4603951084266
 31
0.0
  0
LINE
  5
31A
330
6F
100
AcDbEntity
  8
OUTLINE
  6
Continuous
 62
     3
100
AcDbLine
 10
-629.9000000000078
 20
-344.9603951084429
 30
0.0
 11
-12.50000000000818
 21
-344.9603951084429
 31
0.0
  0
LINE
  5
31B
330
6F
100
AcDbEntity
  8
OUTLINE
  6
Continuous
 62
     3
100
AcDbLine
 10
-646.2000000000088
 20
-402.9603951084428
 30
0.0
 11
-646.2000000000088
 21
-404.9603951084428
 31
0.0
  0
LINE
  5
31C
330
6F
100
AcDbEntity
  8
OUTLINE
  6
Continuous
 62
     3
100
AcDbLine
 10
-634.2000000000088
 20
-399.9603951084429
 30
0.0
 11
-634.2000000000088
 21
-402.9603951084428
 31
0.0
  0
LINE
  5
31D
330
6F
100
AcDbEntity
  8
OUTLINE
  6
Continuous
 62
     3
100
AcDbLine
 10
-629.9000000000078
 20
-344.9603951084429
 30
0.0
 11
-629.9000000000078
 21
-369.4603951084429
 31
0.0
  0
LINE
  5
31E
330
6F
100
AcDbEntity
  8
OUTLINE
  6
Continuous
 62
     3
100
AcDbLine
 10
-629.9000000000078
 20
-379.9603951084429
 30
0.0
 11
-629.9000000000078
 21
-399.9603951084429
 31
0.0
  0
LINE
  5
31F
330
6F
100
AcDbEntity
  8
OUTLINE
  6
Continuous
 62
     3
100
AcDbLine
 10
-634.2000000000088
 20
-379.9603951084429
 30
0.0
 11
-634.2000000000088
 21
-369.4603951084429
 31
0.0
  0
LINE
  5
320
330
6F
100
AcDbEntity
  8
OUTLINE
  6
Continuous
 62
     3
100
AcDbLine
 10
3.799999999991086
 20
-402.9603951084428
 30
0.0
 11
3.799999999991086
 21
-404.9603951084428
 31
0.0
  0
LINE
  5
321
330
6F
100
AcDbEntity
  8
OUTLINE
  6
Continuous
 62
     3
100
AcDbLine
 10
-8.200000000008911
 20
-399.9603951084429
 30
0.0
 11
-8.200000000008911
 21
-402.9603951084428
 31
0.0
  0
LINE
  5
322
330
6F
100
AcDbEntity
  8
OUTLINE
  6
Continuous
 62
     3
100
AcDbLine
 10
-12.50000000000818
 20
-379.9603951084429
 30
0.0
 11
-12.50000000000818
 21
-399.9603951084429
 31
0.0
  0
LINE
  5
323
330
6F
100
AcDbEntity
  8
OUTLINE
  6
Continuous
 62
     3
100
AcDbLine
 10
-12.50000000000818
 20
-344.9603951084429
 30
0.0
 11
-12.50000000000818
 21
-369.4603951084425
 31
0.0
  0
LINE
  5
324
330
6F
100
AcDbEntity
  8
OUTLINE
  6
Continuous
 62
     3
100
AcDbLine
 10
-8.200000000008911
 20
-379.9603951084429
 30
0.0
 11
-8.200000000008911
 21
-369.4603951084429
 31
0.0
  0
LINE
  5
325
330
6F
100
AcDbEntity
  8
NOTE
  6
Continuous
 62
     4
100
AcDbLine
 10
-440.2000000000043
 20
-58.49999999998839
 30
0.0
 11
-440.2000000000043
 21
17.50000000001158
 31
0.0
  0
LINE
  5
326
330
6F
100
AcDbEntity
  8
NOTE
  6
Continuous
 62
     4
100
AcDbLine
 10
-409.2876330378267
 20
-20.4999999999884
 30
0.0
 11
-471.1123669621874
 21
-20.4999999999884
 31
0.0
  0
CIRCLE
  5
327
330
6F
100
AcDbEntity
  8
FIX
  6
Continuous
 62
    11
100
AcDbCircle
 10
-440.2000000000071
 20
-20.4999999999884
 30
0.0
 40
12.0
  0
LINE
  5
328
330
6F
100
AcDbEntity
  8
NOTE
  6
Continuous
 62
     4
100
AcDbLine
 10
202.7999999999929
 20
-58.49999999998839
 30
0.0
 11
202.7999999999929
 21
17.50000000001158
 31
0.0
  0
LINE
  5
329
330
6F
100
AcDbEntity
  8
NOTE
  6
Continuous
 62
     4
100
AcDbLine
 10
233.7123669621733
 20
-20.4999999999884
 30
0.0
 11
171.8876330378124
 21
-20.4999999999884
 31
0.0
  0
CIRCLE
  5
32A
330
6F
100
AcDbEntity
  8
FIX
  6
Continuous
 62
    11
100
AcDbCircle
 10
202.7999999999929
 20
-20.4999999999884
 30
0.0
 40
12.0
  0
CIRCLE
  5
32B
330
6F
100
AcDbEntity
  8
ARRANGE
  6
Continuous
 62
     1
100
AcDbCircle
 10
0.0
 20
0.0
 30
0.0
 40
40.0
  0
LINE
  5
32C
330
6F
100
AcDbEntity
  8
ARRANGE
  6
Continuous
 62
     1
100
AcDbLine
 10
36.84543740734307
 20
36.84543740735478
 30
0.0
 11
-36.84543740735489
 21
-36.845437407345
 31
0.0
  0
LINE
  5
32D
330
6F
100
AcDbEntity
  8
ARRANGE
  6
Continuous
 62
     1
100
AcDbLine
 10
-36.84543740735489
 20
36.84543740735478
 30
0.0
 11
36.84543740734489
 21
-36.845437407345
 31
0.0
  0
LINE
  5
32E
330
6F
100
AcDbEntity
  8
NOTE
  6
Continuous
 62
     4
100
AcDbLine
 10
-320.0000000000082
 20
-206.4746998607045
 30
0.0
 11
-320.0000000000082
 21
-68.72530013927303
 31
0.0
  0
LINE
  5
32F
330
6F
100
AcDbEntity
  8
NOTE
  6
Continuous
 62
     4
100
AcDbLine
 10
-388.8746998607248
 20
-137.5999999999887
 30
0.0
 11
-251.1253001392915
 21
-137.5999999999887
 31
0.0
  0
LINE
  5
330
330
6F
100
AcDbEntity
  8
NOTE
  6
Continuous
 62
     4
100
AcDbLine
 10
-578.6096686913944
 20
-199.2736229480517
 30
0.0
 11
-578.6096686913944
 21
-219.5168295828687
 31
0.0
  0
LINE
  5
331
330
6F
100
AcDbEntity
  8
NOTE
  6
Continuous
 62
     4
100
AcDbLine
 10
-578.6096686913944
 20
-145.4289393066394
 30
0.0
 11
-578.6096686913944
 21
-165.6721459414559
 31
0.0
  0
LINE
  5
332
330
6F
100
AcDbEntity
  8
NOTE
  6
Continuous
 62
     4
100
AcDbLine
 10
-578.6096686913944
 20
-219.5168295828687
 30
0.0
 11
-542.7530294871639
 21
-182.4728844447543
 31
0.0
  0
LINE
  5
333
330
6F
100
AcDbEntity
  8
NOTE
  6
Continuous
 62
     4
100
AcDbLine
 10
-578.6096686913944
 20
-145.4289393066394
 30
0.0
 11
-542.7530294871639
 21
-182.4728844447543
 31
0.0
  0
LINE
  5
334
330
6F
100
AcDbEntity
  8
NOTE
  6
Continuous
 62
     4
100
AcDbLine
 10
-578.6096686913944
 20
-199.2736229480517
 30
0.0
 11
-614.3276034620312
 21
-199.2736229480517
 31
0.0
  0
LINE
  5
335
330
6F
100
AcDbEntity
  8
NOTE
  6
Continuous
 62
     4
100
AcDbLine
 10
-578.6096686913944
 20
-165.6721459414559
 30
0.0
 11
-614.3276034620312
 21
-165.6721459414559
 31
0.0
  0
LINE
  5
336
330
6F
100
AcDbEntity
  8
NOTE
  6
Continuous
 62
     4
100
AcDbLine
 10
-614.3276034620312
 20
-165.6721459414559
 30
0.0
 11
-614.3276034620312
 21
-199.2736229480517
 31
0.0
  0
LINE
  5
337
330
6F
100
AcDbEntity
  8
NOTE
  6
Continuous
 62
     4
100
AcDbLine
 10
865.2734755377688
 20
-150.2431772182764
 30
0.0
 11
865.2734755377688
 21
-170.4863838530934
 31
0.0
  0
LINE
  5
338
330
6F
100
AcDbEntity
  8
NOTE
  6
Continuous
 62
     4
100
AcDbLine
 10
865.2734755377688
 20
-96.39849357686422
 30
0.0
 11
865.2734755377688
 21
-116.6417002116807
 31
0.0
  0
LINE
  5
339
330
6F
100
AcDbEntity
  8
NOTE
  6
Continuous
 62
     4
100
AcDbLine
 10
865.2734755377688
 20
-170.4863838530934
 30
0.0
 11
901.130114741999
 21
-133.442438714979
 31
0.0
  0
LINE
  5
33A
330
6F
100
AcDbEntity
  8
NOTE
  6
Continuous
 62
     4
100
AcDbLine
 10
865.2734755377688
 20
-96.39849357686422
 30
0.0
 11
901.130114741999
 21
-133.442438714979
 31
0.0
  0
LINE
  5
33B
330
6F
100
AcDbEntity
  8
NOTE
  6
Continuous
 62
     4
100
AcDbLine
 10
865.2734755377688
 20
-150.2431772182764
 30
0.0
 11
829.5555407671312
 21
-150.2431772182764
 31
0.0
  0
LINE
  5
33C
330
6F
100
AcDbEntity
  8
NOTE
  6
Continuous
 62
     4
100
AcDbLine
 10
865.2734755377688
 20
-116.6417002116807
 30
0.0
 11
829.5555407671312
 21
-116.6417002116807
 31
0.0
  0
LINE
  5
33D
330
6F
100
AcDbEntity
  8
NOTE
  6
Continuous
 62
     4
100
AcDbLine
 10
829.5555407671312
 20
-116.6417002116807
 30
0.0
 11
829.5555407671312
 21
-150.2431772182764
 31
0.0
  0
LINE
  5
33E
330
6F
100
AcDbEntity
  8
SIZE
  6
Continuous
 62
    30
100
AcDbLine
 10
578.2999999999908
 20
-1.008831195287939
 30
0.0
 11
578.2999999999908
 21
371.6944986437886
 31
0.0
  0
LINE
  5
33F
330
6F
100
AcDbEntity
  8
SIZE
  6
Continuous
 62
    30
100
AcDbLine
 10
-496.8000000000109
 20
9.250000000012503
 30
0.0
 11
-496.8000000000109
 21
371.6944986437886
 31
0.0
  0
LINE
  5
340
330
6F
100
AcDbEntity
  8
SIZE
  6
Continuous
 62
    30
100
AcDbLine
 10
578.2999999999908
 20
351.6944986437886
 30
0.0
 11
-496.8000000000109
 21
351.6944986437886
 31
0.0
  0
CIRCLE
  5
341
330
6F
100
AcDbEntity
  8
SIZE
  6
Continuous
 62
    30
100
AcDbCircle
 10
578.2999999999908
 20
351.6944986437886
 30
0.0
 40
7.5
  0
CIRCLE
  5
342
330
6F
100
AcDbEntity
  8
SIZE
  6
Continuous
 62
    30
100
AcDbCircle
 10
-496.8000000000109
 20
351.6944986437886
 30
0.0
 40
7.5
  0
TEXT
  5
343
330
6F
100
AcDbEntity
  8
SIZE
  6
Continuous
 62
    30
100
AcDbText
 10
-18.39285714286713
 20
371.6944986437886
 30
0.0
 40
40.0
  1
1076
 41
0.9
 72
     1
 11
40.74999999999
 21
371.6944986437886
 31
0.0
100
AcDbText
  0
POINT
  5
344
330
6F
100
AcDbEntity
  8
DEFPOINTS
  6
Continuous
 62
    30
100
AcDbPoint
 10
578.2999999999908
 20
-21.00883119528793
 30
0.0
  0
POINT
  5
345
330
6F
100
AcDbEntity
  8
DEFPOINTS
  6
Continuous
 62
    30
100
AcDbPoint
 10
-496.8000000000109
 20
-10.74999999998748
 30
0.0
  0
POINT
  5
346
330
6F
100
AcDbEntity
  8
DEFPOINTS
  6
Continuous
 62
    30
100
AcDbPoint
 10
-496.8000000000109
 20
351.6944986437886
 30
0.0
  0
TEXT
  5
347
330
6F
100
AcDbEntity
  8
NOTE
  6
Continuous
 62
     4
100
AcDbText
 10
-1611.183079870277
 20
357.1287184112059
 30
0.0
 40
64.0
  1
AH 2×2 M10ボルト用
100
AcDbText
  0
LINE
  5
348
330
6F
100
AcDbEntity
  8
NOTE
  6
Continuous
 62
     4
100
AcDbLine
 10
-452.3475862598484
 20
8.084143150353041
 30
0.0
 11
-440.200000000005
 21
-20.49999999998751
 31
0.0
  0
LINE
  5
349
330
6F
100
AcDbEntity
  8
NOTE
  6
Continuous
 62
     4
100
AcDbLine
 10
-440.200000000005
 20
-20.49999999998751
 30
0.0
 11
-465.0121897861163
 21
-1.819198903741719
 31
0.0
  0
LINE
  5
34A
330
6F
100
AcDbEntity
  8
NOTE
  6
Continuous
 62
     4
100
AcDbLine
 10
-440.200000000005
 20
-20.49999999998751
 30
0.0
 11
-458.679888022982
 21
3.132472123305658
 31
0.0
  0
LINE
  5
34B
330
6F
100
AcDbEntity
  8
NOTE
  6
Continuous
 62
     4
100
AcDbLine
 10
-458.6798880229824
 20
3.132472123305658
 30
0.0
 11
-719.7337618850951
 21
336.9736939452867
 31
0.0
  0
LINE
  5
34C
330
6F
100
AcDbEntity
  8
NOTE
  6
Continuous
 62
     4
100
AcDbLine
 10
-719.7337618850951
 20
336.9736939452867
 30
0.0
 11
-1631.460010995194
 21
336.9736939452867
 31
0.0
  0
LINE
  5
34D
330
6F
100
AcDbEntity
  8
SIZE
  6
Continuous
 62
    30
100
AcDbLine
 10
23.79999999999109
 20
-402.9603951084428
 30
0.0
 11
1010.102430045565
 21
-402.9603951084432
 31
0.0
  0
LINE
  5
34E
330
6F
100
AcDbEntity
  8
SIZE
  6
Continuous
 62
    30
100
AcDbLine
 10
240.8664791690853
 20
-252.9603951084411
 30
0.0
 11
1010.102430045565
 21
-252.9603951084414
 31
0.0
  0
LINE
  5
34F
330
6F
100
AcDbEntity
  8
SIZE
  6
Continuous
 62
    30
100
AcDbLine
 10
990.1024300455656
 20
-252.9603951084414
 30
0.0
 11
990.1024300455651
 21
-402.9603951084432
 31
0.0
  0
LINE
  5
350
330
6F
100
AcDbEntity
  8
SIZE
  6
Continuous
 62
    30
100
AcDbLine
 10
990.1024300455651
 20
-402.9603951084432
 30
0.0
 11
990.1024300455651
 21
-704.7318236798779
 31
0.0
  0
CIRCLE
  5
351
330
6F
100
AcDbEntity
  8
SIZE
  6
Continuous
 62
    30
100
AcDbCircle
 10
990.1024300455656
 20
-252.9603951084414
 30
0.0
 40
7.5
  0
CIRCLE
  5
352
330
6F
100
AcDbEntity
  8
SIZE
  6
Continuous
 62
    30
100
AcDbCircle
 10
990.1024300455651
 20
-402.9603951084432
 30
0.0
 40
7.5
  0
TEXT
  5
353
330
6F
100
AcDbEntity
  8
SIZE
  6
Continuous
 62
    30
100
AcDbText
 10
970.1024300455655
 20
-684.7318236798781
 30
0.0
 40
40.0
  1
150～300
 50
90.0
 41
0.9
 72
     1
 11
970.1024300455655
 21
-568.8461093941639
 31
0.0
100
AcDbText
  0
POINT
  5
354
330
6F
100
AcDbEntity
  8
DEFPOINTS
  6
Continuous
 62
    30
100
AcDbPoint
 10
3.799999999991086
 20
-402.9603951084428
 30
0.0
  0
POINT
  5
355
330
6F
100
AcDbEntity
  8
DEFPOINTS
  6
Continuous
 62
    30
100
AcDbPoint
 10
220.8664791690853
 20
-252.9603951084411
 30
0.0
  0
POINT
  5
356
330
6F
100
AcDbEntity
  8
DEFPOINTS
  6
Continuous
 62
    30
100
AcDbPoint
 10
990.1024300455656
 20
-252.9603951084414
 30
0.0
  0
LINE
  5
357
330
6F
100
AcDbEntity
  8
SIZE
  6
Continuous
 62
    30
100
AcDbLine
 10
24.45099999999275
 20
-97.83961692150684
 30
0.0
 11
24.45099999999277
 21
169.1290256143941
 31
0.0
  0
LINE
  5
358
330
6F
100
AcDbEntity
  8
SIZE
  6
Continuous
 62
    30
100
AcDbLine
 10
91.45099999999272
 20
-64.83961692150683
 30
0.0
 11
91.45099999999279
 21
169.1290256143941
 31
0.0
  0
LINE
  5
359
330
6F
100
AcDbEntity
  8
SIZE
  6
Continuous
 62
    30
100
AcDbLine
 10
24.45099999999277
 20
149.1290256143941
 30
0.0
 11
91.45099999999279
 21
149.1290256143941
 31
0.0
  0
CIRCLE
  5
35A
330
6F
100
AcDbEntity
  8
SIZE
  6
Continuous
 62
    30
100
AcDbCircle
 10
24.45099999999277
 20
149.1290256143941
 30
0.0
 40
7.5
  0
CIRCLE
  5
35B
330
6F
100
AcDbEntity
  8
SIZE
  6
Continuous
 62
    30
100
AcDbCircle
 10
91.45099999999279
 20
149.1290256143941
 30
0.0
 40
7.5
  0
TEXT
  5
35C
330
6F
100
AcDbEntity
  8
SIZE
  6
Continuous
 62
    30
100
AcDbText
 10
28.80814285713562
 20
169.1290256143941
 30
0.0
 40
40.0
  1
67
 41
0.9
 72
     1
 11
57.95099999999276
 21
169.1290256143941
 31
0.0
100
AcDbText
  0
POINT
  5
35D
330
6F
100
AcDbEntity
  8
DEFPOINTS
  6
Continuous
 62
    30
100
AcDbPoint
 10
24.45099999999275
 20
-117.8396169215068
 30
0.0
  0
POINT
  5
35E
330
6F
100
AcDbEntity
  8
DEFPOINTS
  6
Continuous
 62
    30
100
AcDbPoint
 10
91.45099999999272
 20
-84.83961692150684
 30
0.0
  0
POINT
  5
35F
330
6F
100
AcDbEntity
  8
DEFPOINTS
  6
Continuous
 62
    30
100
AcDbPoint
 10
91.45099999999279
 20
149.1290256143941
 30
0.0
  0
LINE
  5
360
330
6F
100
AcDbEntity
  8
SIZE
  6
Continuous
 62
    30
100
AcDbLine
 10
91.45099999999272
 20
-64.83961692150683
 30
0.0
 11
91.45099999999279
 21
169.1290256143941
 31
0.0
  0
LINE
  5
361
330
6F
100
AcDbEntity
  8
SIZE
  6
Continuous
 62
    30
100
AcDbLine
 10
227.7999999999911
 20
16.20000000001323
 30
0.0
 11
227.7999999999911
 21
169.1290256143941
 31
0.0
  0
LINE
  5
362
330
6F
100
AcDbEntity
  8
SIZE
  6
Continuous
 62
    30
100
AcDbLine
 10
91.45099999999279
 20
149.1290256143941
 30
0.0
 11
227.7999999999911
 21
149.1290256143941
 31
0.0
  0
CIRCLE
  5
363
330
6F
100
AcDbEntity
  8
SIZE
  6
Continuous
 62
    30
100
AcDbCircle
 10
91.45099999999279
 20
149.1290256143941
 30
0.0
 40
7.5
  0
CIRCLE
  5
364
330
6F
100
AcDbEntity
  8
SIZE
  6
Continuous
 62
    30
100
AcDbCircle
 10
227.7999999999911
 20
149.1290256143941
 30
0.0
 40
7.5
  0
TEXT
  5
365
330
6F
100
AcDbEntity
  8
SIZE
  6
Continuous
 62
    30
100
AcDbText
 10
117.6254999999919
 20
169.1290256143941
 30
0.0
 40
40.0
  1
136
 41
0.9
 72
     1
 11
159.6254999999919
 21
169.1290256143941
 31
0.0
100
AcDbText
  0
POINT
  5
366
330
6F
100
AcDbEntity
  8
DEFPOINTS
  6
Continuous
 62
    30
100
AcDbPoint
 10
91.45099999999272
 20
-84.83961692150684
 30
0.0
  0
POINT
  5
367
330
6F
100
AcDbEntity
  8
DEFPOINTS
  6
Continuous
 62
    30
100
AcDbPoint
 10
227.7999999999911
 20
-3.799999999986765
 30
0.0
  0
POINT
  5
368
330
6F
100
AcDbEntity
  8
DEFPOINTS
  6
Continuous
 62
    30
100
AcDbPoint
 10
227.7999999999911
 20
149.1290256143941
 30
0.0
  0
LINE
  5
369
330
6F
100
AcDbEntity
  8
SIZE
  6
Continuous
 62
    30
100
AcDbLine
 10
150.4750903966478
 20
-125.1999999999882
 30
0.0
 11
787.5720881711465
 21
-125.1999999999884
 31
0.0
  0
LINE
  5
36A
330
6F
100
AcDbEntity
  8
SIZE
  6
Continuous
 62
    30
100
AcDbLine
 10
83.47509039664783
 20
-158.1999999999882
 30
0.0
 11
787.5720881711465
 21
-158.1999999999884
 31
0.0
  0
LINE
  5
36B
330
6F
100
AcDbEntity
  8
SIZE
  6
Continuous
 62
    30
100
AcDbLine
 10
767.5720881711469
 20
-125.1999999999884
 30
0.0
 11
767.5720881711469
 21
-95.19999999998841
 31
0.0
  0
LINE
  5
36C
330
6F
100
AcDbEntity
  8
SIZE
  6
Continuous
 62
    30
100
AcDbLine
 10
767.5720881711469
 20
-158.1999999999884
 30
0.0
 11
767.5720881711465
 21
-340.3472338224057
 31
0.0
  0
LINE
  5
36D
330
6F
100
AcDbEntity
  8
SIZE
  6
Continuous
 62
    30
100
AcDbLine
 10
767.5720881711469
 20
-125.1999999999884
 30
0.0
 11
767.5720881711469
 21
-158.1999999999884
 31
0.0
  0
CIRCLE
  5
36E
330
6F
100
AcDbEntity
  8
SIZE
  6
Continuous
 62
    30
100
AcDbCircle
 10
767.5720881711469
 20
-125.1999999999884
 30
0.0
 40
7.5
  0
CIRCLE
  5
36F
330
6F
100
AcDbEntity
  8
SIZE
  6
Continuous
 62
    30
100
AcDbCircle
 10
767.5720881711469
 20
-158.1999999999884
 30
0.0
 40
7.5
  0
TEXT
  5
370
330
6F
100
AcDbEntity
  8
SIZE
  6
Continuous
 62
    30
100
AcDbText
 10
747.5720881711469
 20
-320.3472338224055
 30
0.0
 40
40.0
  1
33
 50
90.0
 41
0.9
 72
     1
 11
747.5720881711469
 21
-291.2043766795484
 31
0.0
100
AcDbText
  0
POINT
  5
371
330
6F
100
AcDbEntity
  8
DEFPOINTS
  6
Continuous
 62
    30
100
AcDbPoint
 10
130.4750903966478
 20
-125.1999999999882
 30
0.0
  0
POINT
  5
372
330
6F
100
AcDbEntity
  8
DEFPOINTS
  6
Continuous
 62
    30
100
AcDbPoint
 10
63.47509039664782
 20
-158.1999999999882
 30
0.0
  0
POINT
  5
373
330
6F
100
AcDbEntity
  8
DEFPOINTS
  6
Continuous
 62
    30
100
AcDbPoint
 10
767.5720881711469
 20
-158.1999999999884
 30
0.0
  0
LINE
  5
374
330
6F
100
AcDbEntity
  8
SIZE
  6
Continuous
 62
    30
100
AcDbLine
 10
253.7999999999947
 20
-2.999999999987499
 30
0.0
 11
1010.102430045563
 21
-2.999999999987712
 31
0.0
  0
LINE
  5
375
330
6F
100
AcDbEntity
  8
SIZE
  6
Continuous
 62
    30
100
AcDbLine
 10
240.8664791690817
 20
-252.9603951084411
 30
0.0
 11
1010.102430045563
 21
-252.9603951084414
 31
0.0
  0
LINE
  5
376
330
6F
100
AcDbEntity
  8
SIZE
  6
Continuous
 62
    30
100
AcDbLine
 10
990.1024300455627
 20
-2.999999999987707
 30
0.0
 11
990.1024300455627
 21
-252.9603951084414
 31
0.0
  0
CIRCLE
  5
377
330
6F
100
AcDbEntity
  8
SIZE
  6
Continuous
 62
    30
100
AcDbCircle
 10
990.1024300455627
 20
-2.999999999987707
 30
0.0
 40
7.5
  0
CIRCLE
  5
378
330
6F
100
AcDbEntity
  8
SIZE
  6
Continuous
 62
    30
100
AcDbCircle
 10
990.1024300455627
 20
-252.9603951084414
 30
0.0
 40
7.5
  0
TEXT
  5
379
330
6F
100
AcDbEntity
  8
SIZE
  6
Continuous
 62
    30
100
AcDbText
 10
970.1024300455626
 20
-174.2659118399286
 30
0.0
 40
40.0
  1
250
 50
90.0
 41
0.9
 72
     1
 11
970.1024300455626
 21
-127.9801975542144
 31
0.0
100
AcDbText
  0
POINT
  5
37A
330
6F
100
AcDbEntity
  8
DEFPOINTS
  6
Continuous
 62
    30
100
AcDbPoint
 10
233.7999999999947
 20
-2.999999999987493
 30
0.0
  0
POINT
  5
37B
330
6F
100
AcDbEntity
  8
DEFPOINTS
  6
Continuous
 62
    30
100
AcDbPoint
 10
220.8664791690817
 20
-252.9603951084411
 30
0.0
  0
POINT
  5
37C
330
6F
100
AcDbEntity
  8
DEFPOINTS
  6
Continuous
 62
    30
100
AcDbPoint
 10
990.1024300455627
 20
-252.9603951084414
 30
0.0
  0
LINE
  5
37D
330
6F
100
AcDbEntity
  8
SIZE
  6
Continuous
 62
    30
100
AcDbLine
 10
150.4750903966478
 20
-125.1999999999882
 30
0.0
 11
787.572088171073
 21
-125.1999999999884
 31
0.0
  0
LINE
  5
37E
330
6F
100
AcDbEntity
  8
SIZE
  6
Continuous
 62
    30
100
AcDbLine
 10
253.7999999999947
 20
-2.999999999987499
 30
0.0
 11
787.572088171073
 21
-2.999999999987651
 31
0.0
  0
LINE
  5
37F
330
6F
100
AcDbEntity
  8
SIZE
  6
Continuous
 62
    30
100
AcDbLine
 10
767.572088171073
 20
-125.1999999999884
 30
0.0
 11
767.572088171073
 21
-2.999999999987645
 31
0.0
  0
LINE
  5
380
330
6F
100
AcDbEntity
  8
SIZE
  6
Continuous
 62
    30
100
AcDbLine
 10
767.572088171073
 20
-2.999999999987645
 30
0.0
 11
767.572088171073
 21
152.714285714298
 31
0.0
  0
CIRCLE
  5
381
330
6F
100
AcDbEntity
  8
SIZE
  6
Continuous
 62
    30
100
AcDbCircle
 10
767.572088171073
 20
-125.1999999999884
 30
0.0
 40
7.5
  0
CIRCLE
  5
382
330
6F
100
AcDbEntity
  8
SIZE
  6
Continuous
 62
    30
100
AcDbCircle
 10
767.572088171073
 20
-2.999999999987645
 30
0.0
 40
7.5
  0
TEXT
  5
383
330
6F
100
AcDbEntity
  8
SIZE
  6
Continuous
 62
    30
100
AcDbText
 10
747.572088171073
 20
47.00000000001245
 30
0.0
 40
40.0
  1
122
 50
90.0
 41
0.9
 72
     1
 11
747.572088171073
 21
89.8571428571553
 31
0.0
100
AcDbText
  0
POINT
  5
384
330
6F
100
AcDbEntity
  8
DEFPOINTS
  6
Continuous
 62
    30
100
AcDbPoint
 10
130.4750903966478
 20
-125.1999999999882
 30
0.0
  0
POINT
  5
385
330
6F
100
AcDbEntity
  8
DEFPOINTS
  6
Continuous
 62
    30
100
AcDbPoint
 10
233.7999999999947
 20
-2.999999999987493
 30
0.0
  0
POINT
  5
386
330
6F
100
AcDbEntity
  8
DEFPOINTS
  6
Continuous
 62
    30
100
AcDbPoint
 10
767.572088171073
 20
-2.999999999987645
 30
0.0
  0
LINE
  5
387
330
6F
100
AcDbEntity
  8
NOTE
  6
Continuous
 62
     4
100
AcDbLine
 10
31.08484255562394
 20
-188.6023344066073
 30
0.0
 11
24.32153952472527
 21
-158.2893862871694
 31
0.0
  0
LINE
  5
388
330
6F
100
AcDbEntity
  8
NOTE
  6
Continuous
 62
     4
100
AcDbLine
 10
24.32153952472527
 20
-158.2893862871694
 30
0.0
 11
45.33520571894359
 21
-181.1595180020821
 31
0.0
  0
LINE
  5
389
330
6F
100
AcDbEntity
  8
NOTE
  6
Continuous
 62
     4
100
AcDbLine
 10
24.32153952472527
 20
-158.2893862871694
 30
0.0
 11
38.21002413728365
 21
-184.8809262043446
 31
0.0
  0
LINE
  5
38A
330
6F
100
AcDbEntity
  8
NOTE
  6
Continuous
 62
     4
100
AcDbLine
 10
38.21002413728365
 20
-184.8809262043446
 30
0.0
 11
356.0734353023428
 21
-793.4770273630072
 31
0.0
  0
LINE
  5
38B
330
6F
100
AcDbEntity
  8
NOTE
  6
Continuous
 62
     4
100
AcDbLine
 10
356.0734353023428
 20
-793.4770273630072
 30
0.0
 11
846.476432916911
 21
-793.4770273630072
 31
0.0
  0
TEXT
  5
38C
330
6F
100
AcDbEntity
  8
NOTE
  6
Continuous
 62
     4
100
AcDbText
 10
365.3013544162668
 20
-763.5027170446318
 30
0.0
 40
64.0
  1
RG %%c15.88
100
AcDbText
  0
TEXT
  5
38D
330
6F
100
AcDbEntity
  8
NOTE
  6
Continuous
 62
     4
100
AcDbText
 10
357.6556127643589
 20
-630.6983121336577
 30
0.0
 40
64.0
  1
RL %%c9.52
100
AcDbText
  0
LINE
  5
38E
330
6F
100
AcDbEntity
  8
NOTE
  6
Continuous
 62
     4
100
AcDbLine
 10
97.83002786667292
 20
-155.6402155645002
 30
0.0
 11
91.42355468423104
 21
-125.2498520763458
 31
0.0
  0
LINE
  5
38F
330
6F
100
AcDbEntity
  8
NOTE
  6
Continuous
 62
     4
100
AcDbLine
 10
91.42355468423104
 20
-125.2498520763458
 30
0.0
 11
112.1669048481019
 21
-148.3654423902124
 31
0.0
  0
LINE
  5
390
330
6F
100
AcDbEntity
  8
NOTE
  6
Continuous
 62
     4
100
AcDbLine
 10
91.42355468423104
 20
-125.2498520763458
 30
0.0
 11
104.9984663573875
 21
-152.0028289773563
 31
0.0
  0
LINE
  5
391
330
6F
100
AcDbEntity
  8
NOTE
  6
Continuous
 62
     4
100
AcDbLine
 10
104.9984663573875
 20
-152.0028289773563
 30
0.0
 11
356.3684698562129
 21
-647.3943320034175
 31
0.0
  0
LINE
  5
392
330
6F
100
AcDbEntity
  8
NOTE
  6
Continuous
 62
     4
100
AcDbLine
 10
356.3684698562129
 20
-647.3943320034175
 30
0.0
 11
796.7714674707812
 21
-647.3943320034175
 31
0.0
  0
LINE
  5
393
330
6F
100
AcDbEntity
  8
NOTE
  6
Continuous
 62
     4
100
AcDbLine
 10
24.32153952472527
 20
-198.649769365649
 30
0.0
 11
24.32153952472527
 21
-117.9290032086899
 31
0.0
  0
LINE
  5
394
330
6F
100
AcDbEntity
  8
NOTE
  6
Continuous
 62
     4
100
AcDbLine
 10
63.34562992138764
 20
-158.2893862871694
 30
0.0
 11
-14.70255087192981
 21
-158.2893862871694
 31
0.0
  0
LINE
  5
395
330
6F
100
AcDbEntity
  8
NOTE
  6
Continuous
 62
     4
100
AcDbLine
 10
91.42355468423104
 20
-165.6102351548254
 30
0.0
 11
91.42355468423104
 21
-84.88946899786627
 31
0.0
  0
LINE
  5
396
330
6F
100
AcDbEntity
  8
NOTE
  6
Continuous
 62
     4
100
AcDbLine
 10
130.4476450808934
 20
-125.2498520763458
 30
0.0
 11
52.39946428757594
 21
-125.2498520763458
 31
0.0
  0
TEXT
  5
397
330
6F
100
AcDbEntity
  8
ETC
  6
Continuous
 62
    61
100
AcDbText
 10
-955.8451893473399
 20
601.3948642558305
 30
0.0
 40
64.0
  1
加湿器組込（後吸込）
 41
0.9
100
AcDbText
  0
LINE
  5
398
330
6F
100
AcDbEntity
  8
BASIS
  6
DASHDOT
 62
     6
100
AcDbLine
 10
-0.0000000000122782
 20
-432.9860258596577
 30
0.0
 11
-0.0000000000104592
 21
105.3994831261559
 31
0.0
  0
LINE
  5
399
330
6F
100
AcDbEntity
  8
SIZE
  6
Continuous
 62
    30
100
AcDbLine
 10
-472.2000000000071
 20
16.00000000001114
 30
0.0
 11
-472.2000000000071
 21
169.1290256143941
 31
0.0
  0
LINE
  5
39A
330
6F
100
AcDbEntity
  8
SIZE
  6
Continuous
 62
    30
100
AcDbLine
 10
-320.0000000000082
 20
-48.72530013927303
 30
0.0
 11
-320.0000000000082
 21
169.1290256143941
 31
0.0
  0
LINE
  5
39B
330
6F
100
AcDbEntity
  8
SIZE
  6
Continuous
 62
    30
100
AcDbLine
 10
-472.2000000000071
 20
149.1290256143941
 30
0.0
 11
-320.0000000000082
 21
149.1290256143941
 31
0.0
  0
CIRCLE
  5
39C
330
6F
100
AcDbEntity
  8
SIZE
  6
Continuous
 62
    30
100
AcDbCircle
 10
-472.2000000000071
 20
149.1290256143941
 30
0.0
 40
7.5
  0
CIRCLE
  5
39D
330
6F
100
AcDbEntity
  8
SIZE
  6
Continuous
 62
    30
100
AcDbCircle
 10
-320.0000000000082
 20
149.1290256143941
 30
0.0
 40
7.5
  0
TEXT
  5
39E
330
6F
100
AcDbEntity
  8
SIZE
  6
Continuous
 62
    30
100
AcDbText
 10
-438.9571428571505
 20
169.1290256143941
 30
0.0
 40
40.0
  1
152
 41
0.9
 72
     1
 11
-396.1000000000077
 21
169.1290256143941
 31
0.0
100
AcDbText
  0
POINT
  5
39F
330
6F
100
AcDbEntity
  8
DEFPOINTS
  6
Continuous
 62
    30
100
AcDbPoint
 10
-472.2000000000071
 20
-3.999999999988856
 30
0.0
  0
POINT
  5
3A0
330
6F
100
AcDbEntity
  8
DEFPOINTS
  6
Continuous
 62
    30
100
AcDbPoint
 10
-320.0000000000082
 20
-68.72530013927303
 30
0.0
  0
POINT
  5
3A1
330
6F
100
AcDbEntity
  8
DEFPOINTS
  6
Continuous
 62
    30
100
AcDbPoint
 10
-320.0000000000082
 20
149.1290256143941
 30
0.0
  0
LINE
  5
3A2
330
6F
100
AcDbEntity
  8
SIZE
  6
Continuous
 62
    30
100
AcDbLine
 10
-440.2000000000071
 20
37.5000000000116
 30
0.0
 11
-440.2000000000071
 21
283.9091963570916
 31
0.0
  0
LINE
  5
3A3
330
6F
100
AcDbEntity
  8
SIZE
  6
Continuous
 62
    30
100
AcDbLine
 10
202.7999999999929
 20
37.5000000000116
 30
0.0
 11
202.7999999999929
 21
283.9091963570916
 31
0.0
  0
LINE
  5
3A4
330
6F
100
AcDbEntity
  8
SIZE
  6
Continuous
 62
    30
100
AcDbLine
 10
-440.2000000000071
 20
263.9091963570916
 30
0.0
 11
202.7999999999929
 21
263.9091963570916
 31
0.0
  0
CIRCLE
  5
3A5
330
6F
100
AcDbEntity
  8
SIZE
  6
Continuous
 62
    30
100
AcDbCircle
 10
-440.2000000000071
 20
263.9091963570916
 30
0.0
 40
7.5
  0
CIRCLE
  5
3A6
330
6F
100
AcDbEntity
  8
SIZE
  6
Continuous
 62
    30
100
AcDbCircle
 10
202.7999999999929
 20
263.9091963570916
 30
0.0
 40
7.5
  0
TEXT
  5
3A7
330
6F
100
AcDbEntity
  8
SIZE
  6
Continuous
 62
    30
100
AcDbText
 10
-164.9857142857213
 20
283.9091963570915
 30
0.0
 40
40.0
  1
643
 41
0.9
 72
     1
 11
-118.7000000000071
 21
283.9091963570915
 31
0.0
100
AcDbText
  0
POINT
  5
3A8
330
6F
100
AcDbEntity
  8
DEFPOINTS
  6
Continuous
 62
    30
100
AcDbPoint
 10
-440.2000000000071
 20
17.50000000001158
 30
0.0
  0
POINT
  5
3A9
330
6F
100
AcDbEntity
  8
DEFPOINTS
  6
Continuous
 62
    30
100
AcDbPoint
 10
202.7999999999929
 20
17.50000000001158
 30
0.0
  0
POINT
  5
3AA
330
6F
100
AcDbEntity
  8
DEFPOINTS
  6
Continuous
 62
    30
100
AcDbPoint
 10
202.7999999999929
 20
263.9091963570916
 30
0.0
  0
LINE
  5
3AB
330
6F
100
AcDbEntity
  8
SIZE
  6
Continuous
 62
    30
100
AcDbLine
 10
-440.2000000000071
 20
37.5000000000116
 30
0.0
 11
-440.2000000000071
 21
283.9091963570916
 31
0.0
  0
LINE
  5
3AC
330
6F
100
AcDbEntity
  8
SIZE
  6
Continuous
 62
    30
100
AcDbLine
 10
-472.2000000000071
 20
16.00000000001158
 30
0.0
 11
-472.2000000000071
 21
283.9091963570916
 31
0.0
  0
LINE
  5
3AD
330
6F
100
AcDbEntity
  8
SIZE
  6
Continuous
 62
    30
100
AcDbLine
 10
-440.2000000000071
 20
263.9091963570916
 30
0.0
 11
-410.2000000000071
 21
263.9091963570916
 31
0.0
  0
LINE
  5
3AE
330
6F
100
AcDbEntity
  8
SIZE
  6
Continuous
 62
    30
100
AcDbLine
 10
-472.2000000000071
 20
263.9091963570916
 30
0.0
 11
-502.2000000000071
 21
263.9091963570916
 31
0.0
  0
LINE
  5
3AF
330
6F
100
AcDbEntity
  8
SIZE
  6
Continuous
 62
    30
100
AcDbLine
 10
-440.2000000000071
 20
263.9091963570916
 30
0.0
 11
-472.2000000000071
 21
263.9091963570916
 31
0.0
  0
CIRCLE
  5
3B0
330
6F
100
AcDbEntity
  8
SIZE
  6
Continuous
 62
    30
100
AcDbCircle
 10
-440.2000000000071
 20
263.9091963570916
 30
0.0
 40
7.5
  0
CIRCLE
  5
3B1
330
6F
100
AcDbEntity
  8
SIZE
  6
Continuous
 62
    30
100
AcDbCircle
 10
-472.2000000000071
 20
263.9091963570916
 30
0.0
 40
7.5
  0
TEXT
  5
3B2
330
6F
100
AcDbEntity
  8
SIZE
  6
Continuous
 62
    30
100
AcDbText
 10
-485.3428571428643
 20
283.9091963570915
 30
0.0
 40
40.0
  1
33
 41
0.9
 72
     1
 11
-456.2000000000071
 21
283.9091963570915
 31
0.0
100
AcDbText
  0
POINT
  5
3B3
330
6F
100
AcDbEntity
  8
DEFPOINTS
  6
Continuous
 62
    30
100
AcDbPoint
 10
-440.2000000000071
 20
17.50000000001158
 30
0.0
  0
POINT
  5
3B4
330
6F
100
AcDbEntity
  8
DEFPOINTS
  6
Continuous
 62
    30
100
AcDbPoint
 10
-472.2000000000071
 20
-3.999999999988403
 30
0.0
  0
POINT
  5
3B5
330
6F
100
AcDbEntity
  8
DEFPOINTS
  6
Continuous
 62
    30
100
AcDbPoint
 10
-472.2000000000071
 20
263.9091963570916
 30
0.0
  0
LINE
  5
3B6
330
6F
100
AcDbEntity
  8
SIZE
  6
Continuous
 62
    30
100
AcDbLine
 10
-408.8746998607247
 20
-137.5999999999887
 30
0.0
 11
-646.0251808655075
 21
-137.5999999999887
 31
0.0
  0
LINE
  5
3B7
330
6F
100
AcDbEntity
  8
SIZE
  6
Continuous
 62
    30
100
AcDbLine
 10
-470.6786070119076
 20
-2.399999999988033
 30
0.0
 11
-646.0251808655075
 21
-2.399999999987984
 31
0.0
  0
LINE
  5
3B8
330
6F
100
AcDbEntity
  8
SIZE
  6
Continuous
 62
    30
100
AcDbLine
 10
-626.0251808655075
 20
-137.5999999999887
 30
0.0
 11
-626.0251808655075
 21
-2.39999999998799
 31
0.0
  0
CIRCLE
  5
3B9
330
6F
100
AcDbEntity
  8
SIZE
  6
Continuous
 62
    30
100
AcDbCircle
 10
-626.0251808655075
 20
-137.5999999999887
 30
0.0
 40
7.5
  0
CIRCLE
  5
3BA
330
6F
100
AcDbEntity
  8
SIZE
  6
Continuous
 62
    30
100
AcDbCircle
 10
-626.0251808655075
 20
-2.39999999998799
 30
0.0
 40
7.5
  0
TEXT
  5
3BB
330
6F
100
AcDbEntity
  8
SIZE
  6
Continuous
 62
    30
100
AcDbText
 10
-646.0251808655075
 20
-112.8571428571313
 30
0.0
 40
40.0
  1
135
 50
90.0
 41
0.9
 72
     1
 11
-646.0251808655075
 21
-69.99999999998843
 31
0.0
100
AcDbText
  0
POINT
  5
3BC
330
6F
100
AcDbEntity
  8
DEFPOINTS
  6
Continuous
 62
    30
100
AcDbPoint
 10
-388.8746998607248
 20
-137.5999999999887
 30
0.0
  0
POINT
  5
3BD
330
6F
100
AcDbEntity
  8
DEFPOINTS
  6
Continuous
 62
    30
100
AcDbPoint
 10
-450.6786070119076
 20
-2.39999999998804
 30
0.0
  0
POINT
  5
3BE
330
6F
100
AcDbEntity
  8
DEFPOINTS
  6
Continuous
 62
    30
100
AcDbPoint
 10
-626.0251808655075
 20
-2.39999999998799
 30
0.0
  0
TEXT
  5
3BF
330
6F
100
AcDbEntity
  8
ETC
  6
Continuous
 62
    61
100
AcDbText
 10
-955.8451893473399
 20
728.5161523693556
 30
0.0
 40
64.0
  1
PDFY-P112_140GMG7_5
 41
0.9
100
AcDbText
  0
ENDSEC
  0
SECTION
  2
OBJECTS
  0
DICTIONARY
  5
C
330
0
100
AcDbDictionary
281
     1
  3
ACAD_CIP_PREVIOUS_PRODUCT_INFO
350
3C0
  3
ACAD_COLOR
350
62
  3
ACAD_DETAILVIEWSTYLE
350
69
  3
ACAD_GROUP
350
D
  3
ACAD_LAYOUT
350
61
  3
ACAD_MATERIAL
350
10
  3
ACAD_MLEADERSTYLE
350
65
  3
ACAD_MLINESTYLE
350
5E
  3
ACAD_PLOTSETTINGS
350
60
  3
ACAD_PLOTSTYLENAME
350
E
  3
ACAD_SCALELIST
350
42
  3
ACAD_SECTIONVIEWSTYLE
350
67
  3
ACAD_TABLESTYLE
350
63
  3
ACAD_VISUALSTYLE
350
29
  3
ACDB_RECOMPOSE_DATA
350
42E
  3
AcDbVariableDictionary
350
3D9
  3
DWGPROPS
350
42F
  0
DICTIONARY
  5
3C3
330
54
100
AcDbDictionary
280
     1
281
     1
  3
ADSK_XREC_LAYER_RECONCILED
360
3C4
  0
DICTIONARY
  5
3C5
330
73
100
AcDbDictionary
280
     1
281
     1
  3
ADSK_XREC_LAYER_RECONCILED
360
3C6
  0
DICTIONARY
  5
3C7
330
76
100
AcDbDictionary
280
     1
281
     1
  3
ADSK_XREC_LAYER_RECONCILED
360
3C8
  0
DICTIONARY
  5
3C9
330
77
100
AcDbDictionary
280
     1
281
     1
  3
ADSK_XREC_LAYER_RECONCILED
360
3CA
  0
DICTIONARY
  5
3CB
330
78
100
AcDbDictionary
280
     1
281
     1
  3
ADSK_XREC_LAYER_RECONCILED
360
3CC
  0
DICTIONARY
  5
3CD
330
79
100
AcDbDictionary
280
     1
281
     1
  3
ADSK_XREC_LAYER_RECONCILED
360
3CE
  0
DICTIONARY
  5
3CF
330
7A
100
AcDbDictionary
280
     1
281
     1
  3
ADSK_XREC_LAYER_RECONCILED
360
3D0
  0
DICTIONARY
  5
3D1
330
7B
100
AcDbDictionary
280
     1
281
     1
  3
ADSK_XREC_LAYER_RECONCILED
360
3D2
  0
DICTIONARY
  5
3D3
330
7C
100
AcDbDictionary
280
     1
281
     1
  3
ADSK_XREC_LAYER_RECONCILED
360
3D4
  0
DICTIONARY
  5
3D5
330
7D
100
AcDbDictionary
280
     1
281
     1
  3
ADSK_XREC_LAYER_RECONCILED
360
3D6
  0
DICTIONARY
  5
3D7
330
7E
100
AcDbDictionary
280
     1
281
     1
  3
ADSK_XREC_LAYER_RECONCILED
360
3D8
  0
XRECORD
  5
3C0
102
{ACAD_REACTORS
330
C
102
}
330
C
100
AcDbXrecord
280
     1
300
ACD
300
2018
300
86830ACD_2018_0F
  0
DICTIONARY
  5
62
102
{ACAD_REACTORS
330
C
102
}
330
C
100
AcDbDictionary
281
     1
  0
DICTIONARY
  5
69
102
{ACAD_REACTORS
330
C
102
}
330
C
100
AcDbDictionary
281
     1
  3
Imperial24
350
6A
  0
DICTIONARY
  5
D
102
{ACAD_REACTORS
330
C
102
}
330
C
100
AcDbDictionary
281
     1
  0
DICTIONARY
  5
61
102
{ACAD_REACTORS
330
C
102
}
330
C
100
AcDbDictionary
281
     1
  3
Model
350
72
  3
レイアウト1
350
6E
  0
DICTIONARY
  5
10
102
{ACAD_REACTORS
330
C
102
}
330
C
100
AcDbDictionary
281
     1
  3
ByBlock
350
19
  3
ByLayer
350
11
  3
Global
350
21
  0
DICTIONARY
  5
65
102
{ACAD_REACTORS
330
C
102
}
330
C
100
AcDbDictionary
281
     1
  3
Standard
350
66
  0
DICTIONARY
  5
5E
102
{ACAD_REACTORS
330
C
102
}
330
C
100
AcDbDictionary
281
     1
  3
Standard
350
5F
  0
DICTIONARY
  5
60
102
{ACAD_REACTORS
330
C
102
}
330
C
100
AcDbDictionary
281
     1
  0
ACDBDICTIONARYWDFLT
  5
E
102
{ACAD_REACTORS
330
C
102
}
330
C
100
AcDbDictionary
281
     1
  3
Normal
350
F
100
AcDbDictionaryWithDefault
340
F
  0
DICTIONARY
  5
42
102
{ACAD_REACTORS
330
C
102
}
330
C
100
AcDbDictionary
281
     1
  3
A0
350
43
  3
A1
350
44
  3
A2
350
45
  3
A3
350
46
  3
A4
350
47
  3
A5
350
48
  3
A6
350
49
  3
A7
350
4A
  3
A8
350
4B
  3
A9
350
4C
  3
B0
350
4D
  3
B1
350
4E
  3
B2
350
4F
  3
B3
350
50
  3
B4
350
51
  3
B5
350
52
  3
B6
350
53
  0
DICTIONARY
  5
67
102
{ACAD_REACTORS
330
C
102
}
330
C
100
AcDbDictionary
281
     1
  3
Imperial24
350
68
  0
DICTIONARY
  5
63
102
{ACAD_REACTORS
330
C
102
}
330
C
100
AcDbDictionary
281
     1
  3
Standard
350
64
  0
DICTIONARY
  5
29
102
{ACAD_REACTORS
330
C
102
}
330
C
100
AcDbDictionary
281
     1
  3
2dWireframe
350
2F
  3
Basic
350
2E
  3
Brighten
350
35
  3
ColorChange
350
39
  3
Conceptual
350
32
  3
Dim
350
34
  3
EdgeColorOff
350
41
  3
Facepattern
350
38
  3
Flat
350
2A
  3
FlatWithEdges
350
2B
  3
Gouraud
350
2C
  3
GouraudWithEdges
350
2D
  3
Hidden
350
31
  3
JitterOff
350
3F
  3
Linepattern
350
37
  3
OverhangOff
350
40
  3
Realistic
350
33
  3
Shaded
350
3E
  3
Shaded with edges
350
3D
  3
Shades of Gray
350
3A
  3
Sketchy
350
3B
  3
Thicken
350
36
  3
Wireframe
350
30
  3
X-Ray
350
3C
  0
XRECORD
  5
42E
102
{ACAD_REACTORS
330
C
102
}
330
C
100
AcDbXrecord
280
     1
 90
        1
330
64
  0
DICTIONARY
  5
3D9
102
{ACAD_REACTORS
330
C
102
}
330
C
100
AcDbDictionary
281
     1
  3
CANNOSCALE
350
3DE
  3
CMLEADERSTYLE
350
3DB
  3
CTABLESTYLE
350
3DA
  3
CVIEWDETAILSTYLE
350
3DC
  3
CVIEWSECTIONSTYLE
350
3DD
  3
DIMASSOC
350
3E1
  3
INDEXCTL
350
3E0
  3
SORTENTS
350
3DF
  3
XCLIPFRAME
350
42C
  0
XRECORD
  5
42F
102
{ACAD_REACTORS
330
C
102
}
330
C
100
AcDbXrecord
280
     1
  1
DWGPROPS COOKIE
  2

  3

  4

  6

  7

  8
y_uebo
  9

300
=
301
=
302
=
303
=
304
=
305
=
306
=
307
=
308
=
309
=
 40
1.64082199074074
 41
2455902.607164352
 42
2459096.669386574
  1

 90
        0
  0
XRECORD
  5
3C4
102
{ACAD_REACTORS
330
3C3
102
}
330
3C3
100
AcDbXrecord
280
     1
290
     1
  0
XRECORD
  5
3C6
102
{ACAD_REACTORS
330
3C5
102
}
330
3C5
100
AcDbXrecord
280
     1
290
     1
  0
XRECORD
  5
3C8
102
{ACAD_REACTORS
330
3C7
102
}
330
3C7
100
AcDbXrecord
280
     1
290
     1
  0
XRECORD
  5
3CA
102
{ACAD_REACTORS
330
3C9
102
}
330
3C9
100
AcDbXrecord
280
     1
290
     1
  0
XRECORD
  5
3CC
102
{ACAD_REACTORS
330
3CB
102
}
330
3CB
100
AcDbXrecord
280
     1
290
     1
  0
XRECORD
  5
3CE
102
{ACAD_REACTORS
330
3CD
102
}
330
3CD
100
AcDbXrecord
280
     1
290
     1
  0
XRECORD
  5
3D0
102
{ACAD_REACTORS
330
3CF
102
}
330
3CF
100
AcDbXrecord
280
     1
290
     1
  0
XRECORD
  5
3D2
102
{ACAD_REACTORS
330
3D1
102
}
330
3D1
100
AcDbXrecord
280
     1
290
     1
  0
XRECORD
  5
3D4
102
{ACAD_REACTORS
330
3D3
102
}
330
3D3
100
AcDbXrecord
280
     1
290
     1
  0
XRECORD
  5
3D6
102
{ACAD_REACTORS
330
3D5
102
}
330
3D5
100
AcDbXrecord
280
     1
290
     1
  0
XRECORD
  5
3D8
102
{ACAD_REACTORS
330
3D7
102
}
330
3D7
100
AcDbXrecord
280
     1
290
     1
  0
ACDBDETAILVIEWSTYLE
  5
6A
102
{ACAD_XDICTIONARY
360
463
102
}
102
{ACAD_REACTORS
330
69
102
}
330
69
100
AcDbModelDocViewStyle
 70
     0
  3
Imperial24
290
     0
100
AcDbDetailViewStyle
 70
     0
 71
     0
 90
        3
 71
     1
340
55
 40
0.24
340
0
 40
0.24
300

 40
0.36
280
     3
 71
     2
340
5C
 90
       25
 71
     3
340
55
 40
0.24
 90
        1
 40
0.75
 90
        1
300
%<\AcVar ViewType \f "%tc1">% %<\AcVar ViewDetailId>%\PSCALE %<\AcVar ViewScale \f "%sn">%
 71
     4
340
5C
 90
       25
340
5C
 90
       25
280
     0
  0
LAYOUT
  5
72
102
{ACAD_XDICTIONARY
360
467
102
}
102
{ACAD_REACTORS
330
61
102
}
330
61
100
AcDbPlotSettings
  1

  2
OKI C931(PS)
  4

  6

 40
0.0
 41
0.0
 42
0.0
 43
0.0
 44
0.0
 45
0.0
 46
0.0
 47
0.0
 48
0.0
 49
0.0
140
0.0
141
0.0
142
1.0
143
1.0
 70
  1712
 72
     0
 73
     0
 74
     0
  7

 75
     0
147
1.0
148
0.0
149
0.0
100
AcDbLayout
  1
Model
 70
     1
 71
     0
 10
0.0
 20
0.0
 11
12.0
 21
9.0
 12
0.0
 22
0.0
 32
0.0
 14
0.0
 24
0.0
 34
0.0
 15
0.0
 25
0.0
 35
0.0
146
0.0
 13
0.0
 23
0.0
 33
0.0
 16
1.0
 26
0.0
 36
0.0
 17
0.0
 27
1.0
 37
0.0
 76
     0
330
6F
331
81
  0
LAYOUT
  5
6E
102
{ACAD_XDICTIONARY
360
465
102
}
102
{ACAD_REACTORS
330
61
102
}
330
61
100
AcDbPlotSettings
  1

  2
OKI C931(PS)
  4

  6

 40
0.0
 41
0.0
 42
0.0
 43
0.0
 44
0.0
 45
0.0
 46
0.0
 47
0.0
 48
0.0
 49
0.0
140
0.0
141
0.0
142
1.0
143
1.0
 70
   688
 72
     0
 73
     0
 74
     5
  7

 75
    16
147
1.0
148
0.0
149
0.0
100
AcDbLayout
  1
レイアウト1
 70
     1
 71
     1
 10
0.0
 20
0.0
 11
12.0
 21
9.0
 12
0.0
 22
0.0
 32
0.0
 14
1.000000000000000E+20
 24
1.000000000000000E+20
 34
1.000000000000000E+20
 15
-1.000000000000000E+20
 25
-1.000000000000000E+20
 35
-1.000000000000000E+20
146
0.0
 13
0.0
 23
0.0
 33
0.0
 16
1.0
 26
0.0
 36
0.0
 17
0.0
 27
1.0
 37
0.0
 76
     0
330
6B
  0
MATERIAL
  5
19
102
{ACAD_XDICTIONARY
360
1A
102
}
102
{ACAD_REACTORS
330
10
102
}
330
10
100
AcDbMaterial
  1
ByBlock
 72
     0
 43
0.0208333333333333
 43
0.0
 43
0.0
 43
0.0
 43
0.0
 43
0.0208333333333333
 43
0.0
 43
0.0
 43
0.0
 43
0.0
 43
1.0
 43
0.0
 43
0.0
 43
0.0
 43
0.0
 43
1.0
 77
     0
 47
0.0208333333333333
 47
0.0
 47
0.0
 47
0.0
 47
0.0
 47
0.0208333333333333
 47
0.0
 47
0.0
 47
0.0
 47
0.0
 47
1.0
 47
0.0
 47
0.0
 47
0.0
 47
0.0
 47
1.0
171
     0
 49
0.0208333333333333
 49
0.0
 49
0.0
 49
0.0
 49
0.0
 49
0.0208333333333333
 49
0.0
 49
0.0
 49
0.0
 49
0.0
 49
1.0
 49
0.0
 49
0.0
 49
0.0
 49
0.0
 49
1.0
175
     0
142
0.0208333333333333
142
0.0
142
0.0
142
0.0
142
0.0
142
0.0208333333333333
142
0.0
142
0.0
142
0.0
142
0.0
142
1.0
142
0.0
142
0.0
142
0.0
142
0.0
142
1.0
179
     0
144
0.0208333333333333
144
0.0
144
0.0
144
0.0
144
0.0
144
0.0208333333333333
144
0.0
144
0.0
144
0.0
144
0.0
144
1.0
144
0.0
144
0.0
144
0.0
144
0.0
144
1.0
147
0.0208333333333333
147
0.0
147
0.0
147
0.0
147
0.0
147
0.0208333333333333
147
0.0
147
0.0
147
0.0
147
0.0
147
1.0
147
0.0
147
0.0
147
0.0
147
0.0
147
1.0
  0
MATERIAL
  5
11
102
{ACAD_XDICTIONARY
360
12
102
}
102
{ACAD_REACTORS
330
10
102
}
330
10
100
AcDbMaterial
  1
ByLayer
 72
     0
 43
0.0208333333333333
 43
0.0
 43
0.0
 43
0.0
 43
0.0
 43
0.0208333333333333
 43
0.0
 43
0.0
 43
0.0
 43
0.0
 43
1.0
 43
0.0
 43
0.0
 43
0.0
 43
0.0
 43
1.0
 77
     0
 47
0.0208333333333333
 47
0.0
 47
0.0
 47
0.0
 47
0.0
 47
0.0208333333333333
 47
0.0
 47
0.0
 47
0.0
 47
0.0
 47
1.0
 47
0.0
 47
0.0
 47
0.0
 47
0.0
 47
1.0
171
     0
 49
0.0208333333333333
 49
0.0
 49
0.0
 49
0.0
 49
0.0
 49
0.0208333333333333
 49
0.0
 49
0.0
 49
0.0
 49
0.0
 49
1.0
 49
0.0
 49
0.0
 49
0.0
 49
0.0
 49
1.0
175
     0
142
0.0208333333333333
142
0.0
142
0.0
142
0.0
142
0.0
142
0.0208333333333333
142
0.0
142
0.0
142
0.0
142
0.0
142
1.0
142
0.0
142
0.0
142
0.0
142
0.0
142
1.0
179
     0
144
0.0208333333333333
144
0.0
144
0.0
144
0.0
144
0.0
144
0.0208333333333333
144
0.0
144
0.0
144
0.0
144
0.0
144
1.0
144
0.0
144
0.0
144
0.0
144
0.0
144
1.0
147
0.0208333333333333
147
0.0
147
0.0
147
0.0
147
0.0
147
0.0208333333333333
147
0.0
147
0.0
147
0.0
147
0.0
147
1.0
147
0.0
147
0.0
147
0.0
147
0.0
147
1.0
  0
MATERIAL
  5
21
102
{ACAD_XDICTIONARY
360
22
102
}
102
{ACAD_REACTORS
330
10
102
}
330
10
100
AcDbMaterial
  1
Global
 72
     0
 43
0.0208333333333333
 43
0.0
 43
0.0
 43
0.0
 43
0.0
 43
0.0208333333333333
 43
0.0
 43
0.0
 43
0.0
 43
0.0
 43
1.0
 43
0.0
 43
0.0
 43
0.0
 43
0.0
 43
1.0
 77
     0
 47
0.0208333333333333
 47
0.0
 47
0.0
 47
0.0
 47
0.0
 47
0.0208333333333333
 47
0.0
 47
0.0
 47
0.0
 47
0.0
 47
1.0
 47
0.0
 47
0.0
 47
0.0
 47
0.0
 47
1.0
171
     0
 49
0.0208333333333333
 49
0.0
 49
0.0
 49
0.0
 49
0.0
 49
0.0208333333333333
 49
0.0
 49
0.0
 49
0.0
 49
0.0
 49
1.0
 49
0.0
 49
0.0
 49
0.0
 49
0.0
 49
1.0
175
     0
142
0.0208333333333333
142
0.0
142
0.0
142
0.0
142
0.0
142
0.0208333333333333
142
0.0
142
0.0
142
0.0
142
0.0
142
1.0
142
0.0
142
0.0
142
0.0
142
0.0
142
1.0
179
     0
144
0.0208333333333333
144
0.0
144
0.0
144
0.0
144
0.0
144
0.0208333333333333
144
0.0
144
0.0
144
0.0
144
0.0
144
1.0
144
0.0
144
0.0
144
0.0
144
0.0
144
1.0
147
0.0208333333333333
147
0.0
147
0.0
147
0.0
147
0.0
147
0.0208333333333333
147
0.0
147
0.0
147
0.0
147
0.0
147
1.0
147
0.0
147
0.0
147
0.0
147
0.0
147
1.0
  0
MLEADERSTYLE
  5
66
102
{ACAD_REACTORS
330
65
102
}
330
65
100
AcDbMLeaderStyle
170
     2
171
     1
172
     0
 90
        2
 40
0.0
 41
0.0
173
     1
 91
-1056964608
340
5A
 92
       -2
290
     1
 42
0.09
291
     1
 43
0.36
  3
Standard
 44
0.18
300

342
55
174
     1
178
     6
175
     1
176
     0
 93
-1056964608
 45
0.18
292
     0
297
     0
 46
0.18
 94
-1056964608
 47
1.0
 49
1.0
140
1.0
293
     1
141
0.0
294
     1
177
     0
142
1.0
295
     0
296
     0
143
0.125
1001
ACAD_MLEADERVER
1070
     2
  0
MLINESTYLE
  5
5F
102
{ACAD_REACTORS
330
5E
102
}
330
5E
100
AcDbMlineStyle
  2
STANDARD
 70
     0
  3

 62
   256
 51
90.0
 52
90.0
 71
     2
 49
0.5
 62
   256
  6
BYLAYER
 49
-0.5
 62
   256
  6
BYLAYER
  0
ACDBPLACEHOLDER
  5
F
102
{ACAD_REACTORS
330
E
102
}
330
E
  0
SCALE
  5
43
102
{ACAD_REACTORS
330
42
102
}
330
42
100
AcDbScale
 70
     0
300
1:1
140
1.0
141
1.0
290
     1
  0
SCALE
  5
44
102
{ACAD_REACTORS
330
42
102
}
330
42
100
AcDbScale
 70
     0
300
1/128" = 1'-0"
140
0.0078125
141
12.0
290
     0
  0
SCALE
  5
45
102
{ACAD_REACTORS
330
42
102
}
330
42
100
AcDbScale
 70
     0
300
1/64" = 1'-0"
140
0.015625
141
12.0
290
     0
  0
SCALE
  5
46
102
{ACAD_REACTORS
330
42
102
}
330
42
100
AcDbScale
 70
     0
300
1/32" = 1'-0"
140
0.03125
141
12.0
290
     0
  0
SCALE
  5
47
102
{ACAD_REACTORS
330
42
102
}
330
42
100
AcDbScale
 70
     0
300
1/16" = 1'-0"
140
0.0625
141
12.0
290
     0
  0
SCALE
  5
48
102
{ACAD_REACTORS
330
42
102
}
330
42
100
AcDbScale
 70
     0
300
3/32" = 1'-0"
140
0.09375
141
12.0
290
     0
  0
SCALE
  5
49
102
{ACAD_REACTORS
330
42
102
}
330
42
100
AcDbScale
 70
     0
300
1/8" = 1'-0"
140
0.125
141
12.0
290
     0
  0
SCALE
  5
4A
102
{ACAD_REACTORS
330
42
102
}
330
42
100
AcDbScale
 70
     0
300
3/16" = 1'-0"
140
0.1875
141
12.0
290
     0
  0
SCALE
  5
4B
102
{ACAD_REACTORS
330
42
102
}
330
42
100
AcDbScale
 70
     0
300
1/4" = 1'-0"
140
0.25
141
12.0
290
     0
  0
SCALE
  5
4C
102
{ACAD_REACTORS
330
42
102
}
330
42
100
AcDbScale
 70
     0
300
3/8" = 1'-0"
140
0.375
141
12.0
290
     0
  0
SCALE
  5
4D
102
{ACAD_REACTORS
330
42
102
}
330
42
100
AcDbScale
 70
     0
300
1/2" = 1'-0"
140
0.5
141
12.0
290
     0
  0
SCALE
  5
4E
102
{ACAD_REACTORS
330
42
102
}
330
42
100
AcDbScale
 70
     0
300
3/4" = 1'-0"
140
0.75
141
12.0
290
     0
  0
SCALE
  5
4F
102
{ACAD_REACTORS
330
42
102
}
330
42
100
AcDbScale
 70
     0
300
1" = 1'-0"
140
1.0
141
12.0
290
     0
  0
SCALE
  5
50
102
{ACAD_REACTORS
330
42
102
}
330
42
100
AcDbScale
 70
     0
300
1-1/2" = 1'-0"
140
1.5
141
12.0
290
     0
  0
SCALE
  5
51
102
{ACAD_REACTORS
330
42
102
}
330
42
100
AcDbScale
 70
     0
300
3" = 1'-0"
140
3.0
141
12.0
290
     0
  0
SCALE
  5
52
102
{ACAD_REACTORS
330
42
102
}
330
42
100
AcDbScale
 70
     0
300
6" = 1'-0"
140
6.0
141
12.0
290
     0
  0
SCALE
  5
53
102
{ACAD_REACTORS
330
42
102
}
330
42
100
AcDbScale
 70
     0
300
1'-0" = 1'-0"
140
12.0
141
12.0
290
     0
  0
ACDBSECTIONVIEWSTYLE
  5
68
102
{ACAD_XDICTIONARY
360
461
102
}
102
{ACAD_REACTORS
330
67
102
}
330
67
100
AcDbModelDocViewStyle
 70
     0
  3
Imperial24
290
     0
100
AcDbSectionViewStyle
 70
     0
 71
     0
 90
       78
 71
     1
340
55
 40
0.24
340
0
340
0
 40
0.24
300
I, O, Q, S, X, Z
 40
0.48
 90
        3
 40
0.18
 90
        1
 71
     2
340
5C
 90
       25
340
5C
 90
       50
 40
0.24
 40
0.0
 40
0.24
 71
     3
340
55
 40
0.24
 90
        1
 40
0.75
 90
        1
300
%<\AcVar ViewType \f "%tc1">% %<\AcVar ViewSectionStartId>%-%<\AcVar ViewSectionEndId>%\PSCALE %<\AcVar ViewScale \f "%sn">%
 71
     4
300
ANSI31
 40
1.0
 90
        0
290
     0
290
     0
 90
        6
 40
0.0
 40
1.570796326794896
 40
0.2617993877991494
 40
1.308996938995747
 40
-0.2617993877991494
 40
1.832595714594045
  0
TABLESTYLE
  5
64
102
{ACAD_XDICTIONARY
360
3E4
102
}
102
{ACAD_REACTORS
330
63
102
}
330
63
100
AcDbTableStyle
  3
Standard
 70
     0
 71
     0
 40
0.06
 41
0.06
280
     0
281
     0
  7
STANDARD
140
0.18
170
     2
 62
     0
 63
     7
283
     0
274
    -2
284
     1
 64
     0
275
    -2
285
     1
 65
     0
276
    -2
286
     1
 66
     0
277
    -2
287
     1
 67
     0
278
    -2
288
     1
 68
     0
279
    -2
289
     1
 69
     0
  7
STANDARD
140
0.25
170
     5
 62
     0
 63
     7
283
     0
274
    -2
284
     1
 64
     0
275
    -2
285
     1
 65
     0
276
    -2
286
     1
 66
     0
277
    -2
287
     1
 67
     0
278
    -2
288
     1
 68
     0
279
    -2
289
     1
 69
     0
  7
STANDARD
140
0.18
170
     5
 62
     0
 63
     7
283
     0
274
    -2
284
     1
 64
     0
275
    -2
285
     1
 65
     0
276
    -2
286
     1
 66
     0
277
    -2
287
     1
 67
     0
278
    -2
288
     1
 68
     0
279
    -2
289
     1
 69
     0
  0
VISUALSTYLE
  5
2F
102
{ACAD_XDICTIONARY
360
43A
102
}
102
{ACAD_REACTORS
330
29
102
}
330
29
100
AcDbVisualStyle
  2

 70
     4
 71
     0
 72
     2
 73
     0
 90
        0
 40
-0.6
 41
-30.0
 62
     5
 63
     7
 74
     1
 91
        4
 64
     7
 65
   257
 75
     1
175
     1
 42
1.0
 92
        0
 66
   257
 43
1.0
 76
     1
 77
     6
 78
     2
 67
     7
 79
     5
170
     0
171
     0
290
     0
174
     0
 93
        1
 44
0.0
173
     0
291
     0
 45
0.0
1001
ACAD
1000
AcDbSavedByObjectVersion
1070
     0
  0
VISUALSTYLE
  5
2E
102
{ACAD_XDICTIONARY
360
438
102
}
102
{ACAD_REACTORS
330
29
102
}
330
29
100
AcDbVisualStyle
  2

 70
     7
 71
     1
 72
     0
 73
     1
 90
        0
 40
-0.6
 41
-30.0
 62
     5
 63
     7
 74
     0
 91
        4
 64
     7
 65
   257
 75
     1
175
     1
 42
1.0
 92
        8
 66
     7
 43
1.0
 76
     1
 77
     6
 78
     2
 67
     7
 79
     5
170
     0
171
     0
290
     0
174
     0
 93
        1
 44
0.0
173
     0
291
     1
 45
0.0
1001
ACAD
1000
AcDbSavedByObjectVersion
1070
     0
  0
VISUALSTYLE
  5
35
102
{ACAD_XDICTIONARY
360
446
102
}
102
{ACAD_REACTORS
330
29
102
}
330
29
100
AcDbVisualStyle
  2

 70
    12
 71
     2
 72
     2
 73
     0
 90
        0
 40
-0.6
 41
-30.0
 62
     5
 63
     7
 74
     1
 91
        4
 64
     7
 65
   257
 75
     1
175
     1
 42
1.0
 92
        8
 66
     7
 43
1.0
 76
     1
 77
     6
 78
     2
 67
     7
 79
     5
170
     0
171
     0
290
     0
174
     0
 93
        1
 44
50.0
173
     0
291
     1
 45
0.0
1001
ACAD
1000
AcDbSavedByObjectVersion
1070
     0
  0
VISUALSTYLE
  5
39
102
{ACAD_XDICTIONARY
360
44E
102
}
102
{ACAD_REACTORS
330
29
102
}
330
29
100
AcDbVisualStyle
  2

 70
    16
 71
     2
 72
     2
 73
     3
 90
        0
 40
-0.6
 41
-30.0
 62
     5
 63
     8
 74
     1
 91
        4
 64
     7
 65
   257
 75
     1
175
     1
 42
1.0
 92
        8
 66
     8
 43
1.0
 76
     1
 77
     6
 78
     2
 67
     7
 79
     5
170
     0
171
     0
290
     0
174
     0
 93
        1
 44
0.0
173
     0
291
     1
 45
0.0
1001
ACAD
1000
AcDbSavedByObjectVersion
1070
     0
  0
VISUALSTYLE
  5
32
102
{ACAD_XDICTIONARY
360
440
102
}
102
{ACAD_REACTORS
330
29
102
}
330
29
100
AcDbVisualStyle
  2

 70
     9
 71
     3
 72
     2
 73
     0
 90
        0
 40
-0.6
 41
-30.0
 62
     5
 63
     7
 74
     2
 91
        2
 64
     7
 65
   257
 75
     1
175
     1
 42
179.0
 92
        8
 66
     7
 43
1.0
 76
     1
 77
     6
 78
     2
 67
     7
 79
     3
170
     0
171
     0
290
     0
174
     0
 93
        1
 44
0.0
173
     0
291
     0
 45
0.0
1001
ACAD
1000
AcDbSavedByObjectVersion
1070
     0
  0
VISUALSTYLE
  5
34
102
{ACAD_XDICTIONARY
360
444
102
}
102
{ACAD_REACTORS
330
29
102
}
330
29
100
AcDbVisualStyle
  2

 70
    11
 71
     2
 72
     2
 73
     0
 90
        0
 40
-0.6
 41
-30.0
 62
     5
 63
     7
 74
     1
 91
        4
 64
     7
 65
   257
 75
     1
175
     1
 42
1.0
 92
        8
 66
     7
 43
1.0
 76
     1
 77
     6
 78
     2
 67
     7
 79
     5
170
     0
171
     0
290
     0
174
     0
 93
        1
 44
-50.0
173
     0
291
     1
 45
0.0
1001
ACAD
1000
AcDbSavedByObjectVersion
1070
     0
  0
VISUALSTYLE
  5
41
102
{ACAD_XDICTIONARY
360
45E
102
}
102
{ACAD_REACTORS
330
29
102
}
330
29
100
AcDbVisualStyle
  2

 70
    22
 71
     2
 72
     2
 73
     0
 90
        0
 40
-0.6
 41
-30.0
 62
     5
 63
     7
 74
     1
 91
        4
 64
     7
 65
   257
 75
     1
175
     1
 42
1.0
 92
        8
 66
     7
 43
1.0
 76
     1
 77
     6
 78
     2
 67
     7
 79
     5
170
     0
171
     0
290
     0
174
     0
 93
        1
 44
0.0
173
     0
291
     1
 45
0.0
1001
ACAD
1000
AcDbSavedByObjectVersion
1070
     0
  0
VISUALSTYLE
  5
38
102
{ACAD_XDICTIONARY
360
44C
102
}
102
{ACAD_REACTORS
330
29
102
}
330
29
100
AcDbVisualStyle
  2

 70
    15
 71
     2
 72
     2
 73
     0
 90
        0
 40
-0.6
 41
-30.0
 62
     5
 63
     7
 74
     1
 91
        4
 64
     7
 65
   257
 75
     1
175
     1
 42
1.0
 92
        8
 66
     7
 43
1.0
 76
     1
 77
     6
 78
     2
 67
     7
 79
     5
170
     0
171
     0
290
     0
174
     0
 93
        1
 44
0.0
173
     0
291
     1
 45
0.0
1001
ACAD
1000
AcDbSavedByObjectVersion
1070
     0
  0
VISUALSTYLE
  5
2A
102
{ACAD_XDICTIONARY
360
430
102
}
102
{ACAD_REACTORS
330
29
102
}
330
29
100
AcDbVisualStyle
  2

 70
     0
 71
     2
 72
     1
 73
     1
 90
        2
 40
-0.6
 41
30.0
 62
     5
 63
     7
 74
     0
 91
        0
 64
     7
 65
   257
 75
     1
175
     1
 42
1.0
 92
        8
 66
     7
 43
1.0
 76
     1
 77
     6
 78
     2
 67
     7
 79
     5
170
     0
171
     0
290
     0
174
     0
 93
       13
 44
0.0
173
     0
291
     1
 45
0.0
1001
ACAD
1000
AcDbSavedByObjectVersion
1070
     0
  0
VISUALSTYLE
  5
2B
102
{ACAD_XDICTIONARY
360
432
102
}
102
{ACAD_REACTORS
330
29
102
}
330
29
100
AcDbVisualStyle
  2

 70
     1
 71
     2
 72
     1
 73
     1
 90
        2
 40
-0.6
 41
30.0
 62
     5
 63
     7
 74
     1
 91
        0
 64
     7
 65
   257
 75
     1
175
     1
 42
1.0
 92
        0
 66
   257
 43
1.0
 76
     1
 77
     6
 78
     2
 67
     7
 79
     5
170
     0
171
     0
290
     0
174
     0
 93
       13
 44
0.0
173
     0
291
     1
 45
0.0
1001
ACAD
1000
AcDbSavedByObjectVersion
1070
     0
  0
VISUALSTYLE
  5
2C
102
{ACAD_XDICTIONARY
360
434
102
}
102
{ACAD_REACTORS
330
29
102
}
330
29
100
AcDbVisualStyle
  2

 70
     2
 71
     2
 72
     2
 73
     1
 90
        2
 40
-0.6
 41
30.0
 62
     5
 63
     7
 74
     0
 91
        0
 64
     7
 65
   257
 75
     1
175
     1
 42
1.0
 92
        0
 66
     7
 43
1.0
 76
     1
 77
     6
 78
     2
 67
     7
 79
     5
170
     0
171
     0
290
     0
174
     0
 93
       13
 44
0.0
173
     0
291
     1
 45
0.0
1001
ACAD
1000
AcDbSavedByObjectVersion
1070
     0
  0
VISUALSTYLE
  5
2D
102
{ACAD_XDICTIONARY
360
436
102
}
102
{ACAD_REACTORS
330
29
102
}
330
29
100
AcDbVisualStyle
  2

 70
     3
 71
     2
 72
     2
 73
     1
 90
        2
 40
-0.6
 41
30.0
 62
     5
 63
     7
 74
     1
 91
        0
 64
     7
 65
   257
 75
     1
175
     1
 42
1.0
 92
        0
 66
   257
 43
1.0
 76
     1
 77
     6
 78
     2
 67
     7
 79
     5
170
     0
171
     0
290
     0
174
     0
 93
       13
 44
0.0
173
     0
291
     1
 45
0.0
1001
ACAD
1000
AcDbSavedByObjectVersion
1070
     0
  0
VISUALSTYLE
  5
31
102
{ACAD_XDICTIONARY
360
43E
102
}
102
{ACAD_REACTORS
330
29
102
}
330
29
100
AcDbVisualStyle
  2

 70
     6
 71
     1
 72
     2
 73
     2
 90
        0
 40
-0.6
 41
-30.0
 62
     5
 63
     7
 74
     2
 91
        2
 64
     7
 65
   257
 75
     2
175
     1
 42
40.0
 92
        0
 66
   257
 43
1.0
 76
     1
 77
     6
 78
     2
 67
     7
 79
     3
170
     0
171
     0
290
     0
174
     0
 93
        1
 44
0.0
173
     0
291
     0
 45
0.0
1001
ACAD
1000
AcDbSavedByObjectVersion
1070
     0
  0
VISUALSTYLE
  5
3F
102
{ACAD_XDICTIONARY
360
45A
102
}
102
{ACAD_REACTORS
330
29
102
}
330
29
100
AcDbVisualStyle
  2

 70
    20
 71
     2
 72
     2
 73
     0
 90
        0
 40
-0.6
 41
-30.0
 62
     5
 63
     7
 74
     1
 91
        4
 64
     7
 65
   257
 75
     1
175
     1
 42
1.0
 92
       10
 66
     7
 43
1.0
 76
     1
 77
     6
 78
     2
 67
     7
 79
     5
170
     0
171
     0
290
     0
174
     0
 93
        1
 44
0.0
173
     0
291
     1
 45
0.0
1001
ACAD
1000
AcDbSavedByObjectVersion
1070
     0
  0
VISUALSTYLE
  5
37
102
{ACAD_XDICTIONARY
360
44A
102
}
102
{ACAD_REACTORS
330
29
102
}
330
29
100
AcDbVisualStyle
  2

 70
    14
 71
     2
 72
     2
 73
     0
 90
        0
 40
-0.6
 41
-30.0
 62
     5
 63
     7
 74
     1
 91
        4
 64
     7
 65
   257
 75
     7
175
     7
 42
1.0
 92
        8
 66
     7
 43
1.0
 76
     1
 77
     6
 78
     2
 67
     7
 79
     5
170
     0
171
     0
290
     0
174
     0
 93
        1
 44
0.0
173
     0
291
     1
 45
0.0
1001
ACAD
1000
AcDbSavedByObjectVersion
1070
     0
  0
VISUALSTYLE
  5
40
102
{ACAD_XDICTIONARY
360
45C
102
}
102
{ACAD_REACTORS
330
29
102
}
330
29
100
AcDbVisualStyle
  2

 70
    21
 71
     2
 72
     2
 73
     0
 90
        0
 40
-0.6
 41
-30.0
 62
     5
 63
     7
 74
     1
 91
        4
 64
     7
 65
   257
 75
     1
175
     1
 42
1.0
 92
        9
 66
     7
 43
1.0
 76
     1
 77
     6
 78
     2
 67
     7
 79
     5
170
     0
171
     0
290
     0
174
     0
 93
        1
 44
0.0
173
     0
291
     1
 45
0.0
1001
ACAD
1000
AcDbSavedByObjectVersion
1070
     0
  0
VISUALSTYLE
  5
33
102
{ACAD_XDICTIONARY
360
442
102
}
102
{ACAD_REACTORS
330
29
102
}
330
29
100
AcDbVisualStyle
  2

 70
     8
 71
     2
 72
     3
 73
     0
 90
        2
 40
-0.6
 41
30.0
 62
     5
 63
     7
 74
     0
 91
        0
 64
     7
 65
   257
 75
     1
175
     1
 42
1.0
 92
        8
 66
   257
 43
1.0
 76
     1
 77
     6
 78
     2
 67
     7
 79
     3
170
     0
171
     0
290
     0
174
     0
 93
       13
 44
0.0
173
     0
291
     0
 45
0.0
1001
ACAD
1000
AcDbSavedByObjectVersion
1070
     0
  0
VISUALSTYLE
  5
3E
102
{ACAD_XDICTIONARY
360
458
102
}
102
{ACAD_REACTORS
330
29
102
}
330
29
100
AcDbVisualStyle
  2

 70
    27
 71
     2
 72
     2
 73
     1
 90
        2
 40
-0.6
 41
30.0
 62
     5
 63
     7
 74
     0
 91
        4
 64
     7
 65
   257
 75
     1
175
     1
 42
1.0
 92
        8
 66
   257
 43
1.0
 76
     1
 77
     6
 78
     2
 67
     8
 79
     3
170
     0
171
     0
290
     0
174
     0
 93
        5
 44
0.0
173
     0
291
     0
 45
0.0
1001
ACAD
1000
AcDbSavedByObjectVersion
1070
     0
  0
VISUALSTYLE
  5
3D
102
{ACAD_XDICTIONARY
360
456
102
}
102
{ACAD_REACTORS
330
29
102
}
330
29
100
AcDbVisualStyle
  2

 70
    26
 71
     2
 72
     2
 73
     1
 90
        2
 40
-0.6
 41
30.0
 62
     5
 63
     7
 74
     1
 91
        2
 64
     7
 65
   257
 75
     2
175
     1
 42
1.0
 92
        8
 66
   257
 43
1.0
 76
     1
 77
     6
 78
     2
 67
     7
 79
     3
170
     0
171
     0
290
     0
174
     0
 93
        5
 44
0.0
173
     0
291
     0
 45
0.0
1001
ACAD
1000
AcDbSavedByObjectVersion
1070
     0
  0
VISUALSTYLE
  5
3A
102
{ACAD_XDICTIONARY
360
450
102
}
102
{ACAD_REACTORS
330
29
102
}
330
29
100
AcDbVisualStyle
  2

 70
    23
 71
     2
 72
     2
 73
     3
 90
        0
 40
-0.6
 41
-30.0
 62
     5
 63
     7
 74
     2
 91
        2
 64
     7
 65
     7
 75
     1
175
     1
 42
40.0
 92
        8
 66
     7
 43
1.0
 76
     1
 77
     6
 78
     2
 67
     7
 79
     3
170
     0
171
     0
290
     0
174
     0
 93
        1
 44
0.0
173
     0
291
     0
 45
0.0
1001
ACAD
1000
AcDbSavedByObjectVersion
1070
     0
  0
VISUALSTYLE
  5
3B
102
{ACAD_XDICTIONARY
360
452
102
}
102
{ACAD_REACTORS
330
29
102
}
330
29
100
AcDbVisualStyle
  2

 70
    24
 71
     1
 72
     2
 73
     2
 90
        0
 40
-0.6
 41
-30.0
 62
     5
 63
     7
 74
     2
 91
        2
 64
     7
 65
     7
 75
     1
175
     1
 42
40.0
 92
       11
 66
     7
 43
1.0
 76
     1
 77
     6
 78
     2
 67
     7
 79
     6
170
     0
171
     0
290
     0
174
     0
 93
        1
 44
0.0
173
     0
291
     0
 45
0.0
1001
ACAD
1000
AcDbSavedByObjectVersion
1070
     0
  0
VISUALSTYLE
  5
36
102
{ACAD_XDICTIONARY
360
448
102
}
102
{ACAD_REACTORS
330
29
102
}
330
29
100
AcDbVisualStyle
  2

 70
    13
 71
     2
 72
     2
 73
     0
 90
        0
 40
-0.6
 41
-30.0
 62
     5
 63
     7
 74
     1
 91
        4
 64
     7
 65
   257
 75
     1
175
     1
 42
1.0
 92
       12
 66
     7
 43
1.0
 76
     1
 77
     6
 78
     2
 67
     7
 79
     5
170
     0
171
     0
290
     0
174
     0
 93
        1
 44
0.0
173
     0
291
     1
 45
0.0
1001
ACAD
1000
AcDbSavedByObjectVersion
1070
     0
  0
VISUALSTYLE
  5
30
102
{ACAD_XDICTIONARY
360
43C
102
}
102
{ACAD_REACTORS
330
29
102
}
330
29
100
AcDbVisualStyle
  2

 70
     5
 71
     0
 72
     2
 73
     0
 90
        0
 40
-0.6
 41
-30.0
 62
     5
 63
     7
 74
     1
 91
        4
 64
     7
 65
   257
 75
     1
175
     1
 42
1.0
 92
        0
 66
   257
 43
1.0
 76
     1
 77
     6
 78
     2
 67
     7
 79
     3
170
     0
171
     0
290
     0
174
     0
 93
        1
 44
0.0
173
     0
291
     0
 45
0.0
1001
ACAD
1000
AcDbSavedByObjectVersion
1070
     0
  0
VISUALSTYLE
  5
3C
102
{ACAD_XDICTIONARY
360
454
102
}
102
{ACAD_REACTORS
330
29
102
}
330
29
100
AcDbVisualStyle
  2

 70
    25
 71
     2
 72
     2
 73
     1
 90
        1
 40
0.5
 41
-30.0
 62
     5
 63
     7
 74
     1
 91
        0
 64
     7
 65
   257
 75
     1
175
     1
 42
1.0
 92
        8
 66
     7
 43
1.0
 76
     1
 77
     6
 78
     2
 67
     7
 79
     3
170
     0
171
     0
290
     0
174
     0
 93
       13
 44
0.0
173
     0
291
     0
 45
0.0
1001
ACAD
1000
AcDbSavedByObjectVersion
1070
     0
  0
DICTIONARYVAR
  5
3DE
102
{ACAD_REACTORS
330
3D9
102
}
330
3D9
100
DictionaryVariables
280
     0
  1
1:1
  0
DICTIONARYVAR
  5
3DB
102
{ACAD_REACTORS
330
3D9
102
}
330
3D9
100
DictionaryVariables
280
     0
  1
STANDARD
  0
DICTIONARYVAR
  5
3DA
102
{ACAD_REACTORS
330
3D9
102
}
330
3D9
100
DictionaryVariables
280
     0
  1
STANDARD
  0
DICTIONARYVAR
  5
3DC
102
{ACAD_REACTORS
330
3D9
102
}
330
3D9
100
DictionaryVariables
280
     0
  1
Imperial24
  0
DICTIONARYVAR
  5
3DD
102
{ACAD_REACTORS
330
3D9
102
}
330
3D9
100
DictionaryVariables
280
     0
  1
Imperial24
  0
DICTIONARYVAR
  5
3E1
102
{ACAD_REACTORS
330
3D9
102
}
330
3D9
100
DictionaryVariables
280
     0
  1
1
  0
DICTIONARYVAR
  5
3E0
102
{ACAD_REACTORS
330
3D9
102
}
330
3D9
100
DictionaryVariables
280
     0
  1
0
  0
DICTIONARYVAR
  5
3DF
102
{ACAD_REACTORS
330
3D9
102
}
330
3D9
100
DictionaryVariables
280
     0
  1
127
  0
DICTIONARYVAR
  5
42C
102
{ACAD_REACTORS
330
3D9
102
}
330
3D9
100
DictionaryVariables
280
     0
  1
2
  0
DICTIONARY
  5
463
330
6A
100
AcDbDictionary
280
     1
281
     1
  3
ACAD_XREC_ROUNDTRIP
360
464
  0
DICTIONARY
  5
467
330
72
100
AcDbDictionary
280
     1
281
     1
  3
ACAD_XREC_ROUNDTRIP
360
468
  0
DICTIONARY
  5
465
330
6E
100
AcDbDictionary
280
     1
281
     1
  3
ACAD_XREC_ROUNDTRIP
360
466
  0
DICTIONARY
  5
1A
330
19
100
AcDbDictionary
280
     1
281
     1
  3
ACAD_XREC_ROUNDTRIP
360
3E9
  3
BUMPTILE
360
1C
  3
DIFFUSETILE
360
1B
  3
OPACITYTILE
360
1F
  3
REFLECTIONTILE
360
1E
  3
REFRACTIONTILE
360
20
  3
SPECULARTILE
360
1D
  0
DICTIONARY
  5
12
330
11
100
AcDbDictionary
280
     1
281
     1
  3
ACAD_XREC_ROUNDTRIP
360
3E8
  3
BUMPTILE
360
14
  3
DIFFUSETILE
360
13
  3
OPACITYTILE
360
17
  3
REFLECTIONTILE
360
16
  3
REFRACTIONTILE
360
18
  3
SPECULARTILE
360
15
  0
DICTIONARY
  5
22
330
21
100
AcDbDictionary
280
     1
281
     1
  3
ACAD_XREC_ROUNDTRIP
360
3EA
  3
BUMPTILE
360
24
  3
DIFFUSETILE
360
23
  3
OPACITYTILE
360
27
  3
REFLECTIONTILE
360
26
  3
REFRACTIONTILE
360
28
  3
SPECULARTILE
360
25
  0
DICTIONARY
  5
461
330
68
100
AcDbDictionary
280
     1
281
     1
  3
ACAD_XREC_ROUNDTRIP
360
462
  0
DICTIONARY
  5
3E4
330
64
100
AcDbDictionary
280
     1
281
     1
  3
ACAD_ROUNDTRIP_2008_TABLESTYLE_CELLSTYLEMAP
360
42D
  3
ACAD_XREC_ROUNDTRIP
360
460
  0
DICTIONARY
  5
43A
330
2F
100
AcDbDictionary
280
     1
281
     1
  3
ACAD_XREC_ROUNDTRIP
360
43B
  0
DICTIONARY
  5
438
330
2E
100
AcDbDictionary
280
     1
281
     1
  3
ACAD_XREC_ROUNDTRIP
360
439
  0
DICTIONARY
  5
446
330
35
100
AcDbDictionary
280
     1
281
     1
  3
ACAD_XREC_ROUNDTRIP
360
447
  0
DICTIONARY
  5
44E
330
39
100
AcDbDictionary
280
     1
281
     1
  3
ACAD_XREC_ROUNDTRIP
360
44F
  0
DICTIONARY
  5
440
330
32
100
AcDbDictionary
280
     1
281
     1
  3
ACAD_XREC_ROUNDTRIP
360
441
  0
DICTIONARY
  5
444
330
34
100
AcDbDictionary
280
     1
281
     1
  3
ACAD_XREC_ROUNDTRIP
360
445
  0
DICTIONARY
  5
45E
330
41
100
AcDbDictionary
280
     1
281
     1
  3
ACAD_XREC_ROUNDTRIP
360
45F
  0
DICTIONARY
  5
44C
330
38
100
AcDbDictionary
280
     1
281
     1
  3
ACAD_XREC_ROUNDTRIP
360
44D
  0
DICTIONARY
  5
430
330
2A
100
AcDbDictionary
280
     1
281
     1
  3
ACAD_XREC_ROUNDTRIP
360
431
  0
DICTIONARY
  5
432
330
2B
100
AcDbDictionary
280
     1
281
     1
  3
ACAD_XREC_ROUNDTRIP
360
433
  0
DICTIONARY
  5
434
330
2C
100
AcDbDictionary
280
     1
281
     1
  3
ACAD_XREC_ROUNDTRIP
360
435
  0
DICTIONARY
  5
436
330
2D
100
AcDbDictionary
280
     1
281
     1
  3
ACAD_XREC_ROUNDTRIP
360
437
  0
DICTIONARY
  5
43E
330
31
100
AcDbDictionary
280
     1
281
     1
  3
ACAD_XREC_ROUNDTRIP
360
43F
  0
DICTIONARY
  5
45A
330
3F
100
AcDbDictionary
280
     1
281
     1
  3
ACAD_XREC_ROUNDTRIP
360
45B
  0
DICTIONARY
  5
44A
330
37
100
AcDbDictionary
280
     1
281
     1
  3
ACAD_XREC_ROUNDTRIP
360
44B
  0
DICTIONARY
  5
45C
330
40
100
AcDbDictionary
280
     1
281
     1
  3
ACAD_XREC_ROUNDTRIP
360
45D
  0
DICTIONARY
  5
442
330
33
100
AcDbDictionary
280
     1
281
     1
  3
ACAD_XREC_ROUNDTRIP
360
443
  0
DICTIONARY
  5
458
330
3E
100
AcDbDictionary
280
     1
281
     1
  3
ACAD_XREC_ROUNDTRIP
360
459
  0
DICTIONARY
  5
456
330
3D
100
AcDbDictionary
280
     1
281
     1
  3
ACAD_XREC_ROUNDTRIP
360
457
  0
DICTIONARY
  5
450
330
3A
100
AcDbDictionary
280
     1
281
     1
  3
ACAD_XREC_ROUNDTRIP
360
451
  0
DICTIONARY
  5
452
330
3B
100
AcDbDictionary
280
     1
281
     1
  3
ACAD_XREC_ROUNDTRIP
360
453
  0
DICTIONARY
  5
448
330
36
100
AcDbDictionary
280
     1
281
     1
  3
ACAD_XREC_ROUNDTRIP
360
449
  0
DICTIONARY
  5
43C
330
30
100
AcDbDictionary
280
     1
281
     1
  3
ACAD_XREC_ROUNDTRIP
360
43D
  0
DICTIONARY
  5
454
330
3C
100
AcDbDictionary
280
     1
281
     1
  3
ACAD_XREC_ROUNDTRIP
360
455
  0
XRECORD
  5
464
102
{ACAD_REACTORS
330
463
102
}
330
463
100
AcDbXrecord
280
     1
102
DISPLAYNAME
  1
Imperial24
102
FLAGS
 90
        0
  0
XRECORD
  5
468
102
{ACAD_REACTORS
330
467
102
}
330
467
100
AcDbXrecord
280
     1
102
SHADEPLOT
 70
     0
102
SHADEPLOTRESLEVEL
 70
     2
102
SHADEPLOTCUSTOMDPI
 70
   300
  0
XRECORD
  5
466
102
{ACAD_REACTORS
330
465
102
}
330
465
100
AcDbXrecord
280
     1
102
SHADEPLOT
 70
     0
102
SHADEPLOTRESLEVEL
 70
     2
102
SHADEPLOTCUSTOMDPI
 70
   300
  0
XRECORD
  5
3E9
102
{ACAD_REACTORS
330
1A
102
}
330
1A
100
AcDbXrecord
280
     1
102
MATERIAL
148
0.0
149
0.0
149
0.0
 93
        0
 94
      127
282
     0
 72
     0
 77
     0
171
     0
175
     0
179
     0
273
     0
  0
XRECORD
  5
1C
102
{ACAD_REACTORS
330
1A
102
}
330
1A
100
AcDbXrecord
280
     1
270
     1
271
     1
  0
XRECORD
  5
1B
102
{ACAD_REACTORS
330
1A
102
}
330
1A
100
AcDbXrecord
280
     1
270
     1
271
     1
  0
XRECORD
  5
1F
102
{ACAD_REACTORS
330
1A
102
}
330
1A
100
AcDbXrecord
280
     1
270
     1
271
     1
  0
XRECORD
  5
1E
102
{ACAD_REACTORS
330
1A
102
}
330
1A
100
AcDbXrecord
280
     1
270
     1
271
     1
  0
XRECORD
  5
20
102
{ACAD_REACTORS
330
1A
102
}
330
1A
100
AcDbXrecord
280
     1
270
     1
271
     1
  0
XRECORD
  5
1D
102
{ACAD_REACTORS
330
1A
102
}
330
1A
100
AcDbXrecord
280
     1
270
     1
271
     1
  0
XRECORD
  5
3E8
102
{ACAD_REACTORS
330
12
102
}
330
12
100
AcDbXrecord
280
     1
102
MATERIAL
148
0.0
149
0.0
149
0.0
 93
        0
 94
      127
282
     0
 72
     0
 77
     0
171
     0
175
     0
179
     0
273
     0
  0
XRECORD
  5
14
102
{ACAD_REACTORS
330
12
102
}
330
12
100
AcDbXrecord
280
     1
270
     1
271
     1
  0
XRECORD
  5
13
102
{ACAD_REACTORS
330
12
102
}
330
12
100
AcDbXrecord
280
     1
270
     1
271
     1
  0
XRECORD
  5
17
102
{ACAD_REACTORS
330
12
102
}
330
12
100
AcDbXrecord
280
     1
270
     1
271
     1
  0
XRECORD
  5
16
102
{ACAD_REACTORS
330
12
102
}
330
12
100
AcDbXrecord
280
     1
270
     1
271
     1
  0
XRECORD
  5
18
102
{ACAD_REACTORS
330
12
102
}
330
12
100
AcDbXrecord
280
     1
270
     1
271
     1
  0
XRECORD
  5
15
102
{ACAD_REACTORS
330
12
102
}
330
12
100
AcDbXrecord
280
     1
270
     1
271
     1
  0
XRECORD
  5
3EA
102
{ACAD_REACTORS
330
22
102
}
330
22
100
AcDbXrecord
280
     1
102
MATERIAL
148
0.0
149
0.0
149
0.0
 93
        0
 94
      127
282
     0
 72
     0
 77
     0
171
     0
175
     0
179
     0
273
     0
  0
XRECORD
  5
24
102
{ACAD_REACTORS
330
22
102
}
330
22
100
AcDbXrecord
280
     1
270
     1
271
     1
  0
XRECORD
  5
23
102
{ACAD_REACTORS
330
22
102
}
330
22
100
AcDbXrecord
280
     1
270
     1
271
     1
  0
XRECORD
  5
27
102
{ACAD_REACTORS
330
22
102
}
330
22
100
AcDbXrecord
280
     1
270
     1
271
     1
  0
XRECORD
  5
26
102
{ACAD_REACTORS
330
22
102
}
330
22
100
AcDbXrecord
280
     1
270
     1
271
     1
  0
XRECORD
  5
28
102
{ACAD_REACTORS
330
22
102
}
330
22
100
AcDbXrecord
280
     1
270
     1
271
     1
  0
XRECORD
  5
25
102
{ACAD_REACTORS
330
22
102
}
330
22
100
AcDbXrecord
280
     1
270
     1
271
     1
  0
XRECORD
  5
462
102
{ACAD_REACTORS
330
461
102
}
330
461
100
AcDbXrecord
280
     1
102
DISPLAYNAME
  1
Imperial24
102
FLAGS
 90
        0
  0
CELLSTYLEMAP
  5
42D
102
{ACAD_REACTORS
330
3E4
102
}
330
3E4
100
AcDbCellStyleMap
 90
        3
300
CELLSTYLE
  1
TABLEFORMAT_BEGIN
 90
        5
170
     1
 91
        0
 92
    32768
 62
   257
 93
        1
300
CONTENTFORMAT
  1
CONTENTFORMAT_BEGIN
 90
        0
 91
        0
 92
      512
 93
        0
300

 40
0.0
140
1.0
 94
        5
 62
     0
340
55
144
0.25
309
CONTENTFORMAT_END
171
     1
301
MARGIN
  1
CELLMARGIN_BEGIN
 40
0.06
 40
0.06
 40
0.06
 40
0.06
 40
0.18
 40
0.18
309
CELLMARGIN_END
 94
        6
 95
        1
302
GRIDFORMAT
  1
GRIDFORMAT_BEGIN
 90
        0
 91
        1
 62
     0
 92
       -2
340
0
 93
        0
 40
0.045
309
GRIDFORMAT_END
 95
        2
302
GRIDFORMAT
  1
GRIDFORMAT_BEGIN
 90
        0
 91
        1
 62
     0
 92
       -2
340
0
 93
        0
 40
0.045
309
GRIDFORMAT_END
 95
        4
302
GRIDFORMAT
  1
GRIDFORMAT_BEGIN
 90
        0
 91
        1
 62
     0
 92
       -2
340
0
 93
        0
 40
0.045
309
GRIDFORMAT_END
 95
        8
302
GRIDFORMAT
  1
GRIDFORMAT_BEGIN
 90
        0
 91
        1
 62
     0
 92
       -2
340
0
 93
        0
 40
0.045
309
GRIDFORMAT_END
 95
       16
302
GRIDFORMAT
  1
GRIDFORMAT_BEGIN
 90
        0
 91
        1
 62
     0
 92
       -2
340
0
 93
        0
 40
0.045
309
GRIDFORMAT_END
 95
       32
302
GRIDFORMAT
  1
GRIDFORMAT_BEGIN
 90
        0
 91
        1
 62
     0
 92
       -2
340
0
 93
        0
 40
0.045
309
GRIDFORMAT_END
309
TABLEFORMAT_END
  1
CELLSTYLE_BEGIN
 90
        1
 91
        1
300
_TITLE
309
CELLSTYLE_END
300
CELLSTYLE
  1
TABLEFORMAT_BEGIN
 90
        5
170
     1
 91
        0
 92
        0
 62
   257
 93
        1
300
CONTENTFORMAT
  1
CONTENTFORMAT_BEGIN
 90
        0
 91
        0
 92
      512
 93
        0
300

 40
0.0
140
1.0
 94
        5
 62
     0
340
55
144
0.18
309
CONTENTFORMAT_END
171
     1
301
MARGIN
  1
CELLMARGIN_BEGIN
 40
0.06
 40
0.06
 40
0.06
 40
0.06
 40
0.18
 40
0.18
309
CELLMARGIN_END
 94
        6
 95
        1
302
GRIDFORMAT
  1
GRIDFORMAT_BEGIN
 90
        0
 91
        1
 62
     0
 92
       -2
340
0
 93
        0
 40
0.045
309
GRIDFORMAT_END
 95
        2
302
GRIDFORMAT
  1
GRIDFORMAT_BEGIN
 90
        0
 91
        1
 62
     0
 92
       -2
340
0
 93
        0
 40
0.045
309
GRIDFORMAT_END
 95
        4
302
GRIDFORMAT
  1
GRIDFORMAT_BEGIN
 90
        0
 91
        1
 62
     0
 92
       -2
340
0
 93
        0
 40
0.045
309
GRIDFORMAT_END
 95
        8
302
GRIDFORMAT
  1
GRIDFORMAT_BEGIN
 90
        0
 91
        1
 62
     0
 92
       -2
340
0
 93
        0
 40
0.045
309
GRIDFORMAT_END
 95
       16
302
GRIDFORMAT
  1
GRIDFORMAT_BEGIN
 90
        0
 91
        1
 62
     0
 92
       -2
340
0
 93
        0
 40
0.045
309
GRIDFORMAT_END
 95
       32
302
GRIDFORMAT
  1
GRIDFORMAT_BEGIN
 90
        0
 91
        1
 62
     0
 92
       -2
340
0
 93
        0
 40
0.045
309
GRIDFORMAT_END
309
TABLEFORMAT_END
  1
CELLSTYLE_BEGIN
 90
        2
 91
        1
300
_HEADER
309
CELLSTYLE_END
300
CELLSTYLE
  1
TABLEFORMAT_BEGIN
 90
        5
170
     1
 91
        0
 92
        0
 62
   257
 93
        1
300
CONTENTFORMAT
  1
CONTENTFORMAT_BEGIN
 90
        0
 91
        0
 92
      512
 93
        0
300

 40
0.0
140
1.0
 94
        2
 62
     0
340
55
144
0.18
309
CONTENTFORMAT_END
171
     1
301
MARGIN
  1
CELLMARGIN_BEGIN
 40
0.06
 40
0.06
 40
0.06
 40
0.06
 40
0.18
 40
0.18
309
CELLMARGIN_END
 94
        6
 95
        1
302
GRIDFORMAT
  1
GRIDFORMAT_BEGIN
 90
        0
 91
        1
 62
     0
 92
       -2
340
0
 93
        0
 40
0.045
309
GRIDFORMAT_END
 95
        2
302
GRIDFORMAT
  1
GRIDFORMAT_BEGIN
 90
        0
 91
        1
 62
     0
 92
       -2
340
0
 93
        0
 40
0.045
309
GRIDFORMAT_END
 95
        4
302
GRIDFORMAT
  1
GRIDFORMAT_BEGIN
 90
        0
 91
        1
 62
     0
 92
       -2
340
0
 93
        0
 40
0.045
309
GRIDFORMAT_END
 95
        8
302
GRIDFORMAT
  1
GRIDFORMAT_BEGIN
 90
        0
 91
        1
 62
     0
 92
       -2
340
0
 93
        0
 40
0.045
309
GRIDFORMAT_END
 95
       16
302
GRIDFORMAT
  1
GRIDFORMAT_BEGIN
 90
        0
 91
        1
 62
     0
 92
       -2
340
0
 93
        0
 40
0.045
309
GRIDFORMAT_END
 95
       32
302
GRIDFORMAT
  1
GRIDFORMAT_BEGIN
 90
        0
 91
        1
 62
     0
 92
       -2
340
0
 93
        0
 40
0.045
309
GRIDFORMAT_END
309
TABLEFORMAT_END
  1
CELLSTYLE_BEGIN
 90
        3
 91
        2
300
_DATA
309
CELLSTYLE_END
  0
XRECORD
  5
460
102
{ACAD_REACTORS
330
3E4
102
}
330
3E4
100
AcDbXrecord
280
     1
102
ACAD_ROUNDTRIP_PRE2007_TABLESTYLE
 90
      512
 91
        0
  1

 92
      512
 93
        0
  2

 94
      512
 95
        0
  3

  0
XRECORD
  5
43B
102
{ACAD_REACTORS
330
43A
102
}
330
43A
100
AcDbXrecord
280
     1
102
RTVSPost2010Prop28
280
     1
102
RTVSPost2010PropOp28
 70
     1
102
RTVSPost2010Prop29
280
     1
102
RTVSPost2010PropOp29
 70
     1
102
RTVSPost2010Prop30
280
     0
102
RTVSPost2010PropOp30
 70
     1
102
RTVSPost2010Prop31
280
     0
102
RTVSPost2010PropOp31
 70
     1
102
RTVSPost2010Prop32
280
     0
102
RTVSPost2010PropOp32
 70
     1
102
RTVSPost2010Prop33
280
     0
102
RTVSPost2010PropOp33
 70
     1
102
RTVSPost2010Prop34
280
     0
102
RTVSPost2010PropOp34
 70
     1
102
RTVSPost2010Prop35
280
     0
102
RTVSPost2010PropOp35
 70
     1
102
RTVSPost2010Prop36
280
     0
102
RTVSPost2010PropOp36
 70
     1
102
RTVSPost2010Prop37
 90
       50
102
RTVSPost2010PropOp37
 70
     1
102
RTVSPost2010Prop38
140
0.0
102
RTVSPost2010PropOp38
 70
     1
102
RTVSPost2010Prop39
140
1.0
102
RTVSPost2010PropOp39
 70
     1
102
RTVSPost2010Prop40
 90
        0
102
RTVSPost2010PropOp40
 70
     1
102
RTVSPost2010Prop41ColorIndex
 90
       18
102
RTVSPost2010Prop41ColorRGB
 90
        0
102
RTVSPost2010PropOp41
 70
     1
102
RTVSPost2010Prop42
 90
       50
102
RTVSPost2010PropOp42
 70
     1
102
RTVSPost2010Prop43
 90
        3
102
RTVSPost2010PropOp43
 70
     1
102
RTVSPost2010Prop44ColorIndex
 90
        5
102
RTVSPost2010Prop44ColorRGB
 90
      255
102
RTVSPost2010PropOp44
 70
     1
102
RTVSPost2010Prop45
280
     0
102
RTVSPost2010PropOp45
 70
     1
102
RTVSPost2010Prop46
 90
       50
102
RTVSPost2010PropOp46
 70
     1
102
RTVSPost2010Prop47
 90
       50
102
RTVSPost2010PropOp47
 70
     1
102
RTVSPost2010Prop48
 90
       50
102
RTVSPost2010PropOp48
 70
     1
102
RTVSPost2010Prop49
280
     0
102
RTVSPost2010PropOp49
 70
     1
102
RTVSPost2010Prop50
 90
       50
102
RTVSPost2010PropOp50
 70
     1
102
RTVSPost2010Prop51ColorIndex
 90
      256
102
RTVSPost2010Prop51ColorRGB
 90
-16777216
102
RTVSPost2010PropOp51
 70
     0
102
RTVSPost2010Prop52
140
1.0
102
RTVSPost2010PropOp52
 70
     0
102
RTVSPost2010Prop53
 90
        2
102
RTVSPost2010PropOp53
 70
     1
102
RTVSPost2010Prop54
  1
strokes_ogs.tif
102
RTVSPost2010PropOp54
 70
     1
102
RTVSPost2010Prop55
280
     0
102
RTVSPost2010PropOp55
 70
     1
102
RTVSPost2010Prop56
140
1.0
102
RTVSPost2010PropOp56
 70
     1
102
RTVSPost2010Prop57
140
1.0
102
RTVSPost2010PropOp57
 70
     1
102
RTVSPropertyOp0
 70
     1
102
RTVSPropertyOp1
 70
     1
102
RTVSPropertyOp2
 70
     1
102
RTVSPropertyOp3
 70
     1
102
RTVSPropertyOp4
 70
     1
102
RTVSPropertyOp5
 70
     1
102
RTVSPropertyOp6
 70
     1
102
RTVSPropertyOp7
 70
     1
102
RTVSPropertyOp8
 70
     1
102
RTVSPropertyOp9
 70
     1
102
RTVSPropertyOp10
 70
     1
102
RTVSPropertyOp11
 70
     1
102
RTVSPropertyOp12
 70
     1
102
RTVSPropertyOp13
 70
     1
102
RTVSPropertyOp14
 70
     1
102
RTVSPropertyOp15
 70
     1
102
RTVSPropertyOp16
 70
     1
102
RTVSPropertyOp17
 70
     1
102
RTVSPropertyOp18
 70
     1
102
RTVSPropertyOp19
 70
     1
102
RTVSPropertyOp20
 70
     1
102
RTVSPropertyOp21
 70
     1
102
RTVSPropertyOp22
 70
     1
102
RTVSPropertyOp23
 70
     1
102
RTVSPropertyOp24
 70
     1
102
RTVSPropertyOp25
 70
     1
102
RTVSPropertyOp26
 70
     1
102
RTVSPropertyOp27
 70
     1
102
RTVSPropertyOp28
 70
     1
102
RTVSPropertyOp29
 70
     1
102
RTVSPropertyOp30
 70
     1
102
RTVSPropertyOp31
 70
     1
102
RTVSPropertyOp32
 70
     1
102
RTVSPropertyOp33
 70
     1
102
RTVSPropertyOp34
 70
     1
102
RTVSPropertyOp35
 70
     1
102
RTVSPropertyOp36
 70
     1
102
RTVSPropertyOp37
 70
     1
102
RTVSPropertyOp38
 70
     1
102
RTVSPropertyOp39
 70
     1
102
RTVSPropertyOp40
 70
     1
102
RTVSPropertyOp41
 70
     1
102
RTVSPropertyOp42
 70
     1
102
RTVSPropertyOp43
 70
     1
102
RTVSPropertyOp44
 70
     1
102
RTVSPropertyOp45
 70
     1
102
RTVSPropertyOp46
 70
     1
102
RTVSPropertyOp47
 70
     1
102
RTVSPropertyOp48
 70
     1
102
RTVSPropertyOp49
 70
     1
102
RTVSPropertyOp50
 70
     1
102
RTVSPropertyOp51
 70
     0
102
RTVSPropertyOp52
 70
     0
102
RTVSPropertyOp53
 70
     1
102
RTVSPropertyOp54
 70
     1
102
RTVSPropertyOp55
 70
     1
102
RTVSPropertyOp56
 70
     1
102
RTVSPropertyOp57
 70
     1
102
RTVSPropertyOp58
 70
     1
102
RTVSPropertyOp59
 70
     1
102
RTVSPropertyOp60
 70
     1
102
RTVSPropertyOp61
 70
     1
102
RTVSPropertyOp62
 70
     1
  0
XRECORD
  5
439
102
{ACAD_REACTORS
330
438
102
}
330
438
100
AcDbXrecord
280
     1
102
RTVSPost2010Prop28
280
     0
102
RTVSPost2010PropOp28
 70
     1
102
RTVSPost2010Prop29
280
     1
102
RTVSPost2010PropOp29
 70
     1
102
RTVSPost2010Prop30
280
     1
102
RTVSPost2010PropOp30
 70
     1
102
RTVSPost2010Prop31
280
     0
102
RTVSPost2010PropOp31
 70
     1
102
RTVSPost2010Prop32
280
     0
102
RTVSPost2010PropOp32
 70
     1
102
RTVSPost2010Prop33
280
     0
102
RTVSPost2010PropOp33
 70
     1
102
RTVSPost2010Prop34
280
     0
102
RTVSPost2010PropOp34
 70
     1
102
RTVSPost2010Prop35
280
     0
102
RTVSPost2010PropOp35
 70
     1
102
RTVSPost2010Prop36
280
     0
102
RTVSPost2010PropOp36
 70
     1
102
RTVSPost2010Prop37
 90
       50
102
RTVSPost2010PropOp37
 70
     1
102
RTVSPost2010Prop38
140
0.0
102
RTVSPost2010PropOp38
 70
     1
102
RTVSPost2010Prop39
140
1.0
102
RTVSPost2010PropOp39
 70
     1
102
RTVSPost2010Prop40
 90
        0
102
RTVSPost2010PropOp40
 70
     1
102
RTVSPost2010Prop41ColorIndex
 90
       18
102
RTVSPost2010Prop41ColorRGB
 90
        0
102
RTVSPost2010PropOp41
 70
     1
102
RTVSPost2010Prop42
 90
       50
102
RTVSPost2010PropOp42
 70
     1
102
RTVSPost2010Prop43
 90
        3
102
RTVSPost2010PropOp43
 70
     1
102
RTVSPost2010Prop44ColorIndex
 90
        5
102
RTVSPost2010Prop44ColorRGB
 90
      255
102
RTVSPost2010PropOp44
 70
     1
102
RTVSPost2010Prop45
280
     0
102
RTVSPost2010PropOp45
 70
     1
102
RTVSPost2010Prop46
 90
       50
102
RTVSPost2010PropOp46
 70
     1
102
RTVSPost2010Prop47
 90
       50
102
RTVSPost2010PropOp47
 70
     1
102
RTVSPost2010Prop48
 90
       50
102
RTVSPost2010PropOp48
 70
     1
102
RTVSPost2010Prop49
280
     0
102
RTVSPost2010PropOp49
 70
     1
102
RTVSPost2010Prop50
 90
       50
102
RTVSPost2010PropOp50
 70
     1
102
RTVSPost2010Prop51ColorIndex
 90
      256
102
RTVSPost2010Prop51ColorRGB
 90
-16777216
102
RTVSPost2010PropOp51
 70
     0
102
RTVSPost2010Prop52
140
1.0
102
RTVSPost2010PropOp52
 70
     0
102
RTVSPost2010Prop53
 90
        2
102
RTVSPost2010PropOp53
 70
     1
102
RTVSPost2010Prop54
  1
strokes_ogs.tif
102
RTVSPost2010PropOp54
 70
     1
102
RTVSPost2010Prop55
280
     0
102
RTVSPost2010PropOp55
 70
     1
102
RTVSPost2010Prop56
140
1.0
102
RTVSPost2010PropOp56
 70
     1
102
RTVSPost2010Prop57
140
1.0
102
RTVSPost2010PropOp57
 70
     1
102
RTVSPropertyOp0
 70
     1
102
RTVSPropertyOp1
 70
     1
102
RTVSPropertyOp2
 70
     1
102
RTVSPropertyOp3
 70
     1
102
RTVSPropertyOp4
 70
     1
102
RTVSPropertyOp5
 70
     1
102
RTVSPropertyOp6
 70
     1
102
RTVSPropertyOp7
 70
     1
102
RTVSPropertyOp8
 70
     1
102
RTVSPropertyOp9
 70
     1
102
RTVSPropertyOp10
 70
     1
102
RTVSPropertyOp11
 70
     1
102
RTVSPropertyOp12
 70
     1
102
RTVSPropertyOp13
 70
     1
102
RTVSPropertyOp14
 70
     1
102
RTVSPropertyOp15
 70
     1
102
RTVSPropertyOp16
 70
     1
102
RTVSPropertyOp17
 70
     1
102
RTVSPropertyOp18
 70
     1
102
RTVSPropertyOp19
 70
     1
102
RTVSPropertyOp20
 70
     1
102
RTVSPropertyOp21
 70
     1
102
RTVSPropertyOp22
 70
     1
102
RTVSPropertyOp23
 70
     1
102
RTVSPropertyOp24
 70
     1
102
RTVSPropertyOp25
 70
     1
102
RTVSPropertyOp26
 70
     1
102
RTVSPropertyOp27
 70
     1
102
RTVSPropertyOp28
 70
     1
102
RTVSPropertyOp29
 70
     1
102
RTVSPropertyOp30
 70
     1
102
RTVSPropertyOp31
 70
     1
102
RTVSPropertyOp32
 70
     1
102
RTVSPropertyOp33
 70
     1
102
RTVSPropertyOp34
 70
     1
102
RTVSPropertyOp35
 70
     1
102
RTVSPropertyOp36
 70
     1
102
RTVSPropertyOp37
 70
     1
102
RTVSPropertyOp38
 70
     1
102
RTVSPropertyOp39
 70
     1
102
RTVSPropertyOp40
 70
     1
102
RTVSPropertyOp41
 70
     1
102
RTVSPropertyOp42
 70
     1
102
RTVSPropertyOp43
 70
     1
102
RTVSPropertyOp44
 70
     1
102
RTVSPropertyOp45
 70
     1
102
RTVSPropertyOp46
 70
     1
102
RTVSPropertyOp47
 70
     1
102
RTVSPropertyOp48
 70
     1
102
RTVSPropertyOp49
 70
     1
102
RTVSPropertyOp50
 70
     1
102
RTVSPropertyOp51
 70
     0
102
RTVSPropertyOp52
 70
     0
102
RTVSPropertyOp53
 70
     1
102
RTVSPropertyOp54
 70
     1
102
RTVSPropertyOp55
 70
     1
102
RTVSPropertyOp56
 70
     1
102
RTVSPropertyOp57
 70
     1
102
RTVSPropertyOp58
 70
     1
102
RTVSPropertyOp59
 70
     1
102
RTVSPropertyOp60
 70
     1
102
RTVSPropertyOp61
 70
     1
102
RTVSPropertyOp62
 70
     1
  0
XRECORD
  5
447
102
{ACAD_REACTORS
330
446
102
}
330
446
100
AcDbXrecord
280
     1
102
RTVSPost2010Prop28
280
     0
102
RTVSPost2010PropOp28
 70
     1
102
RTVSPost2010Prop29
280
     1
102
RTVSPost2010PropOp29
 70
     1
102
RTVSPost2010Prop30
280
     1
102
RTVSPost2010PropOp30
 70
     1
102
RTVSPost2010Prop31
280
     0
102
RTVSPost2010PropOp31
 70
     1
102
RTVSPost2010Prop32
280
     0
102
RTVSPost2010PropOp32
 70
     1
102
RTVSPost2010Prop33
280
     0
102
RTVSPost2010PropOp33
 70
     1
102
RTVSPost2010Prop34
280
     0
102
RTVSPost2010PropOp34
 70
     1
102
RTVSPost2010Prop35
280
     0
102
RTVSPost2010PropOp35
 70
     1
102
RTVSPost2010Prop36
280
     0
102
RTVSPost2010PropOp36
 70
     1
102
RTVSPost2010Prop37
 90
       50
102
RTVSPost2010PropOp37
 70
     1
102
RTVSPost2010Prop38
140
0.0
102
RTVSPost2010PropOp38
 70
     1
102
RTVSPost2010Prop39
140
1.0
102
RTVSPost2010PropOp39
 70
     1
102
RTVSPost2010Prop40
 90
        0
102
RTVSPost2010PropOp40
 70
     1
102
RTVSPost2010Prop41ColorIndex
 90
       18
102
RTVSPost2010Prop41ColorRGB
 90
        0
102
RTVSPost2010PropOp41
 70
     1
102
RTVSPost2010Prop42
 90
       50
102
RTVSPost2010PropOp42
 70
     1
102
RTVSPost2010Prop43
 90
        3
102
RTVSPost2010PropOp43
 70
     1
102
RTVSPost2010Prop44ColorIndex
 90
        5
102
RTVSPost2010Prop44ColorRGB
 90
      255
102
RTVSPost2010PropOp44
 70
     1
102
RTVSPost2010Prop45
280
     0
102
RTVSPost2010PropOp45
 70
     1
102
RTVSPost2010Prop46
 90
       50
102
RTVSPost2010PropOp46
 70
     1
102
RTVSPost2010Prop47
 90
       50
102
RTVSPost2010PropOp47
 70
     1
102
RTVSPost2010Prop48
 90
       50
102
RTVSPost2010PropOp48
 70
     1
102
RTVSPost2010Prop49
280
     0
102
RTVSPost2010PropOp49
 70
     1
102
RTVSPost2010Prop50
 90
       50
102
RTVSPost2010PropOp50
 70
     1
102
RTVSPost2010Prop51ColorIndex
 90
      256
102
RTVSPost2010Prop51ColorRGB
 90
-16777216
102
RTVSPost2010PropOp51
 70
     0
102
RTVSPost2010Prop52
140
1.0
102
RTVSPost2010PropOp52
 70
     0
102
RTVSPost2010Prop53
 90
        2
102
RTVSPost2010PropOp53
 70
     1
102
RTVSPost2010Prop54
  1
strokes_ogs.tif
102
RTVSPost2010PropOp54
 70
     1
102
RTVSPost2010Prop55
280
     0
102
RTVSPost2010PropOp55
 70
     1
102
RTVSPost2010Prop56
140
1.0
102
RTVSPost2010PropOp56
 70
     1
102
RTVSPost2010Prop57
140
1.0
102
RTVSPost2010PropOp57
 70
     1
102
RTVSPropertyOp0
 70
     1
102
RTVSPropertyOp1
 70
     1
102
RTVSPropertyOp2
 70
     1
102
RTVSPropertyOp3
 70
     1
102
RTVSPropertyOp4
 70
     1
102
RTVSPropertyOp5
 70
     1
102
RTVSPropertyOp6
 70
     1
102
RTVSPropertyOp7
 70
     1
102
RTVSPropertyOp8
 70
     1
102
RTVSPropertyOp9
 70
     1
102
RTVSPropertyOp10
 70
     1
102
RTVSPropertyOp11
 70
     1
102
RTVSPropertyOp12
 70
     1
102
RTVSPropertyOp13
 70
     1
102
RTVSPropertyOp14
 70
     1
102
RTVSPropertyOp15
 70
     1
102
RTVSPropertyOp16
 70
     1
102
RTVSPropertyOp17
 70
     1
102
RTVSPropertyOp18
 70
     1
102
RTVSPropertyOp19
 70
     1
102
RTVSPropertyOp20
 70
     1
102
RTVSPropertyOp21
 70
     1
102
RTVSPropertyOp22
 70
     1
102
RTVSPropertyOp23
 70
     1
102
RTVSPropertyOp24
 70
     1
102
RTVSPropertyOp25
 70
     1
102
RTVSPropertyOp26
 70
     1
102
RTVSPropertyOp27
 70
     1
102
RTVSPropertyOp28
 70
     1
102
RTVSPropertyOp29
 70
     1
102
RTVSPropertyOp30
 70
     1
102
RTVSPropertyOp31
 70
     1
102
RTVSPropertyOp32
 70
     1
102
RTVSPropertyOp33
 70
     1
102
RTVSPropertyOp34
 70
     1
102
RTVSPropertyOp35
 70
     1
102
RTVSPropertyOp36
 70
     1
102
RTVSPropertyOp37
 70
     1
102
RTVSPropertyOp38
 70
     1
102
RTVSPropertyOp39
 70
     1
102
RTVSPropertyOp40
 70
     1
102
RTVSPropertyOp41
 70
     1
102
RTVSPropertyOp42
 70
     1
102
RTVSPropertyOp43
 70
     1
102
RTVSPropertyOp44
 70
     1
102
RTVSPropertyOp45
 70
     1
102
RTVSPropertyOp46
 70
     1
102
RTVSPropertyOp47
 70
     1
102
RTVSPropertyOp48
 70
     1
102
RTVSPropertyOp49
 70
     1
102
RTVSPropertyOp50
 70
     1
102
RTVSPropertyOp51
 70
     0
102
RTVSPropertyOp52
 70
     0
102
RTVSPropertyOp53
 70
     1
102
RTVSPropertyOp54
 70
     1
102
RTVSPropertyOp55
 70
     1
102
RTVSPropertyOp56
 70
     1
102
RTVSPropertyOp57
 70
     1
102
RTVSPropertyOp58
 70
     1
102
RTVSPropertyOp59
 70
     1
102
RTVSPropertyOp60
 70
     1
102
RTVSPropertyOp61
 70
     1
102
RTVSPropertyOp62
 70
     1
  0
XRECORD
  5
44F
102
{ACAD_REACTORS
330
44E
102
}
330
44E
100
AcDbXrecord
280
     1
102
RTVSPost2010Prop28
280
     0
102
RTVSPost2010PropOp28
 70
     1
102
RTVSPost2010Prop29
280
     1
102
RTVSPost2010PropOp29
 70
     1
102
RTVSPost2010Prop30
280
     1
102
RTVSPost2010PropOp30
 70
     1
102
RTVSPost2010Prop31
280
     0
102
RTVSPost2010PropOp31
 70
     1
102
RTVSPost2010Prop32
280
     0
102
RTVSPost2010PropOp32
 70
     1
102
RTVSPost2010Prop33
280
     0
102
RTVSPost2010PropOp33
 70
     1
102
RTVSPost2010Prop34
280
     0
102
RTVSPost2010PropOp34
 70
     1
102
RTVSPost2010Prop35
280
     0
102
RTVSPost2010PropOp35
 70
     1
102
RTVSPost2010Prop36
280
     0
102
RTVSPost2010PropOp36
 70
     1
102
RTVSPost2010Prop37
 90
       50
102
RTVSPost2010PropOp37
 70
     1
102
RTVSPost2010Prop38
140
0.0
102
RTVSPost2010PropOp38
 70
     1
102
RTVSPost2010Prop39
140
1.0
102
RTVSPost2010PropOp39
 70
     1
102
RTVSPost2010Prop40
 90
        0
102
RTVSPost2010PropOp40
 70
     1
102
RTVSPost2010Prop41ColorIndex
 90
       18
102
RTVSPost2010Prop41ColorRGB
 90
        0
102
RTVSPost2010PropOp41
 70
     1
102
RTVSPost2010Prop42
 90
       50
102
RTVSPost2010PropOp42
 70
     1
102
RTVSPost2010Prop43
 90
        3
102
RTVSPost2010PropOp43
 70
     1
102
RTVSPost2010Prop44ColorIndex
 90
        5
102
RTVSPost2010Prop44ColorRGB
 90
      255
102
RTVSPost2010PropOp44
 70
     1
102
RTVSPost2010Prop45
280
     0
102
RTVSPost2010PropOp45
 70
     1
102
RTVSPost2010Prop46
 90
       50
102
RTVSPost2010PropOp46
 70
     1
102
RTVSPost2010Prop47
 90
       50
102
RTVSPost2010PropOp47
 70
     1
102
RTVSPost2010Prop48
 90
       50
102
RTVSPost2010PropOp48
 70
     1
102
RTVSPost2010Prop49
280
     0
102
RTVSPost2010PropOp49
 70
     1
102
RTVSPost2010Prop50
 90
       50
102
RTVSPost2010PropOp50
 70
     1
102
RTVSPost2010Prop51ColorIndex
 90
      256
102
RTVSPost2010Prop51ColorRGB
 90
-16777216
102
RTVSPost2010PropOp51
 70
     0
102
RTVSPost2010Prop52
140
1.0
102
RTVSPost2010PropOp52
 70
     0
102
RTVSPost2010Prop53
 90
        2
102
RTVSPost2010PropOp53
 70
     1
102
RTVSPost2010Prop54
  1
strokes_ogs.tif
102
RTVSPost2010PropOp54
 70
     1
102
RTVSPost2010Prop55
280
     0
102
RTVSPost2010PropOp55
 70
     1
102
RTVSPost2010Prop56
140
1.0
102
RTVSPost2010PropOp56
 70
     1
102
RTVSPost2010Prop57
140
1.0
102
RTVSPost2010PropOp57
 70
     1
102
RTVSPropertyOp0
 70
     1
102
RTVSPropertyOp1
 70
     1
102
RTVSPropertyOp2
 70
     1
102
RTVSPropertyOp3
 70
     1
102
RTVSPropertyOp4
 70
     1
102
RTVSPropertyOp5
 70
     1
102
RTVSPropertyOp6
 70
     1
102
RTVSPropertyOp7
 70
     1
102
RTVSPropertyOp8
 70
     1
102
RTVSPropertyOp9
 70
     1
102
RTVSPropertyOp10
 70
     1
102
RTVSPropertyOp11
 70
     1
102
RTVSPropertyOp12
 70
     1
102
RTVSPropertyOp13
 70
     1
102
RTVSPropertyOp14
 70
     1
102
RTVSPropertyOp15
 70
     1
102
RTVSPropertyOp16
 70
     1
102
RTVSPropertyOp17
 70
     1
102
RTVSPropertyOp18
 70
     1
102
RTVSPropertyOp19
 70
     1
102
RTVSPropertyOp20
 70
     1
102
RTVSPropertyOp21
 70
     1
102
RTVSPropertyOp22
 70
     1
102
RTVSPropertyOp23
 70
     1
102
RTVSPropertyOp24
 70
     1
102
RTVSPropertyOp25
 70
     1
102
RTVSPropertyOp26
 70
     1
102
RTVSPropertyOp27
 70
     1
102
RTVSPropertyOp28
 70
     1
102
RTVSPropertyOp29
 70
     1
102
RTVSPropertyOp30
 70
     1
102
RTVSPropertyOp31
 70
     1
102
RTVSPropertyOp32
 70
     1
102
RTVSPropertyOp33
 70
     1
102
RTVSPropertyOp34
 70
     1
102
RTVSPropertyOp35
 70
     1
102
RTVSPropertyOp36
 70
     1
102
RTVSPropertyOp37
 70
     1
102
RTVSPropertyOp38
 70
     1
102
RTVSPropertyOp39
 70
     1
102
RTVSPropertyOp40
 70
     1
102
RTVSPropertyOp41
 70
     1
102
RTVSPropertyOp42
 70
     1
102
RTVSPropertyOp43
 70
     1
102
RTVSPropertyOp44
 70
     1
102
RTVSPropertyOp45
 70
     1
102
RTVSPropertyOp46
 70
     1
102
RTVSPropertyOp47
 70
     1
102
RTVSPropertyOp48
 70
     1
102
RTVSPropertyOp49
 70
     1
102
RTVSPropertyOp50
 70
     1
102
RTVSPropertyOp51
 70
     0
102
RTVSPropertyOp52
 70
     0
102
RTVSPropertyOp53
 70
     1
102
RTVSPropertyOp54
 70
     1
102
RTVSPropertyOp55
 70
     1
102
RTVSPropertyOp56
 70
     1
102
RTVSPropertyOp57
 70
     1
102
RTVSPropertyOp58
 70
     1
102
RTVSPropertyOp59
 70
     1
102
RTVSPropertyOp60
 70
     1
102
RTVSPropertyOp61
 70
     1
102
RTVSPropertyOp62
 70
     1
  0
XRECORD
  5
441
102
{ACAD_REACTORS
330
440
102
}
330
440
100
AcDbXrecord
280
     1
102
RTVSPost2010Prop28
280
     0
102
RTVSPost2010PropOp28
 70
     1
102
RTVSPost2010Prop29
280
     1
102
RTVSPost2010PropOp29
 70
     1
102
RTVSPost2010Prop30
280
     1
102
RTVSPost2010PropOp30
 70
     1
102
RTVSPost2010Prop31
280
     0
102
RTVSPost2010PropOp31
 70
     1
102
RTVSPost2010Prop32
280
     0
102
RTVSPost2010PropOp32
 70
     1
102
RTVSPost2010Prop33
280
     0
102
RTVSPost2010PropOp33
 70
     1
102
RTVSPost2010Prop34
280
     0
102
RTVSPost2010PropOp34
 70
     1
102
RTVSPost2010Prop35
280
     0
102
RTVSPost2010PropOp35
 70
     1
102
RTVSPost2010Prop36
280
     0
102
RTVSPost2010PropOp36
 70
     1
102
RTVSPost2010Prop37
 90
       50
102
RTVSPost2010PropOp37
 70
     1
102
RTVSPost2010Prop38
140
0.0
102
RTVSPost2010PropOp38
 70
     1
102
RTVSPost2010Prop39
140
1.0
102
RTVSPost2010PropOp39
 70
     1
102
RTVSPost2010Prop40
 90
        0
102
RTVSPost2010PropOp40
 70
     1
102
RTVSPost2010Prop41ColorIndex
 90
       18
102
RTVSPost2010Prop41ColorRGB
 90
        0
102
RTVSPost2010PropOp41
 70
     1
102
RTVSPost2010Prop42
 90
       50
102
RTVSPost2010PropOp42
 70
     1
102
RTVSPost2010Prop43
 90
        3
102
RTVSPost2010PropOp43
 70
     1
102
RTVSPost2010Prop44ColorIndex
 90
        5
102
RTVSPost2010Prop44ColorRGB
 90
      255
102
RTVSPost2010PropOp44
 70
     1
102
RTVSPost2010Prop45
280
     0
102
RTVSPost2010PropOp45
 70
     1
102
RTVSPost2010Prop46
 90
       50
102
RTVSPost2010PropOp46
 70
     1
102
RTVSPost2010Prop47
 90
       50
102
RTVSPost2010PropOp47
 70
     1
102
RTVSPost2010Prop48
 90
       50
102
RTVSPost2010PropOp48
 70
     1
102
RTVSPost2010Prop49
280
     0
102
RTVSPost2010PropOp49
 70
     1
102
RTVSPost2010Prop50
 90
       50
102
RTVSPost2010PropOp50
 70
     1
102
RTVSPost2010Prop51ColorIndex
 90
      256
102
RTVSPost2010Prop51ColorRGB
 90
-16777216
102
RTVSPost2010PropOp51
 70
     0
102
RTVSPost2010Prop52
140
1.0
102
RTVSPost2010PropOp52
 70
     0
102
RTVSPost2010Prop53
 90
        2
102
RTVSPost2010PropOp53
 70
     1
102
RTVSPost2010Prop54
  1
strokes_ogs.tif
102
RTVSPost2010PropOp54
 70
     1
102
RTVSPost2010Prop55
280
     0
102
RTVSPost2010PropOp55
 70
     1
102
RTVSPost2010Prop56
140
1.0
102
RTVSPost2010PropOp56
 70
     1
102
RTVSPost2010Prop57
140
1.0
102
RTVSPost2010PropOp57
 70
     1
102
RTVSPropertyOp0
 70
     1
102
RTVSPropertyOp1
 70
     1
102
RTVSPropertyOp2
 70
     1
102
RTVSPropertyOp3
 70
     1
102
RTVSPropertyOp4
 70
     1
102
RTVSPropertyOp5
 70
     1
102
RTVSPropertyOp6
 70
     1
102
RTVSPropertyOp7
 70
     1
102
RTVSPropertyOp8
 70
     1
102
RTVSPropertyOp9
 70
     1
102
RTVSPropertyOp10
 70
     1
102
RTVSPropertyOp11
 70
     1
102
RTVSPropertyOp12
 70
     1
102
RTVSPropertyOp13
 70
     1
102
RTVSPropertyOp14
 70
     1
102
RTVSPropertyOp15
 70
     1
102
RTVSPropertyOp16
 70
     1
102
RTVSPropertyOp17
 70
     1
102
RTVSPropertyOp18
 70
     1
102
RTVSPropertyOp19
 70
     1
102
RTVSPropertyOp20
 70
     1
102
RTVSPropertyOp21
 70
     1
102
RTVSPropertyOp22
 70
     1
102
RTVSPropertyOp23
 70
     1
102
RTVSPropertyOp24
 70
     1
102
RTVSPropertyOp25
 70
     1
102
RTVSPropertyOp26
 70
     1
102
RTVSPropertyOp27
 70
     1
102
RTVSPropertyOp28
 70
     1
102
RTVSPropertyOp29
 70
     1
102
RTVSPropertyOp30
 70
     1
102
RTVSPropertyOp31
 70
     1
102
RTVSPropertyOp32
 70
     1
102
RTVSPropertyOp33
 70
     1
102
RTVSPropertyOp34
 70
     1
102
RTVSPropertyOp35
 70
     1
102
RTVSPropertyOp36
 70
     1
102
RTVSPropertyOp37
 70
     1
102
RTVSPropertyOp38
 70
     1
102
RTVSPropertyOp39
 70
     1
102
RTVSPropertyOp40
 70
     1
102
RTVSPropertyOp41
 70
     1
102
RTVSPropertyOp42
 70
     1
102
RTVSPropertyOp43
 70
     1
102
RTVSPropertyOp44
 70
     1
102
RTVSPropertyOp45
 70
     1
102
RTVSPropertyOp46
 70
     1
102
RTVSPropertyOp47
 70
     1
102
RTVSPropertyOp48
 70
     1
102
RTVSPropertyOp49
 70
     1
102
RTVSPropertyOp50
 70
     1
102
RTVSPropertyOp51
 70
     0
102
RTVSPropertyOp52
 70
     0
102
RTVSPropertyOp53
 70
     1
102
RTVSPropertyOp54
 70
     1
102
RTVSPropertyOp55
 70
     1
102
RTVSPropertyOp56
 70
     1
102
RTVSPropertyOp57
 70
     1
102
RTVSPropertyOp58
 70
     1
102
RTVSPropertyOp59
 70
     1
102
RTVSPropertyOp60
 70
     1
102
RTVSPropertyOp61
 70
     1
102
RTVSPropertyOp62
 70
     1
  0
XRECORD
  5
445
102
{ACAD_REACTORS
330
444
102
}
330
444
100
AcDbXrecord
280
     1
102
RTVSPost2010Prop28
280
     0
102
RTVSPost2010PropOp28
 70
     1
102
RTVSPost2010Prop29
280
     1
102
RTVSPost2010PropOp29
 70
     1
102
RTVSPost2010Prop30
280
     1
102
RTVSPost2010PropOp30
 70
     1
102
RTVSPost2010Prop31
280
     0
102
RTVSPost2010PropOp31
 70
     1
102
RTVSPost2010Prop32
280
     0
102
RTVSPost2010PropOp32
 70
     1
102
RTVSPost2010Prop33
280
     0
102
RTVSPost2010PropOp33
 70
     1
102
RTVSPost2010Prop34
280
     0
102
RTVSPost2010PropOp34
 70
     1
102
RTVSPost2010Prop35
280
     0
102
RTVSPost2010PropOp35
 70
     1
102
RTVSPost2010Prop36
280
     0
102
RTVSPost2010PropOp36
 70
     1
102
RTVSPost2010Prop37
 90
       50
102
RTVSPost2010PropOp37
 70
     1
102
RTVSPost2010Prop38
140
0.0
102
RTVSPost2010PropOp38
 70
     1
102
RTVSPost2010Prop39
140
1.0
102
RTVSPost2010PropOp39
 70
     1
102
RTVSPost2010Prop40
 90
        0
102
RTVSPost2010PropOp40
 70
     1
102
RTVSPost2010Prop41ColorIndex
 90
       18
102
RTVSPost2010Prop41ColorRGB
 90
        0
102
RTVSPost2010PropOp41
 70
     1
102
RTVSPost2010Prop42
 90
       50
102
RTVSPost2010PropOp42
 70
     1
102
RTVSPost2010Prop43
 90
        3
102
RTVSPost2010PropOp43
 70
     1
102
RTVSPost2010Prop44ColorIndex
 90
        5
102
RTVSPost2010Prop44ColorRGB
 90
      255
102
RTVSPost2010PropOp44
 70
     1
102
RTVSPost2010Prop45
280
     0
102
RTVSPost2010PropOp45
 70
     1
102
RTVSPost2010Prop46
 90
       50
102
RTVSPost2010PropOp46
 70
     1
102
RTVSPost2010Prop47
 90
       50
102
RTVSPost2010PropOp47
 70
     1
102
RTVSPost2010Prop48
 90
       50
102
RTVSPost2010PropOp48
 70
     1
102
RTVSPost2010Prop49
280
     0
102
RTVSPost2010PropOp49
 70
     1
102
RTVSPost2010Prop50
 90
       50
102
RTVSPost2010PropOp50
 70
     1
102
RTVSPost2010Prop51ColorIndex
 90
      256
102
RTVSPost2010Prop51ColorRGB
 90
-16777216
102
RTVSPost2010PropOp51
 70
     0
102
RTVSPost2010Prop52
140
1.0
102
RTVSPost2010PropOp52
 70
     0
102
RTVSPost2010Prop53
 90
        2
102
RTVSPost2010PropOp53
 70
     1
102
RTVSPost2010Prop54
  1
strokes_ogs.tif
102
RTVSPost2010PropOp54
 70
     1
102
RTVSPost2010Prop55
280
     0
102
RTVSPost2010PropOp55
 70
     1
102
RTVSPost2010Prop56
140
1.0
102
RTVSPost2010PropOp56
 70
     1
102
RTVSPost2010Prop57
140
1.0
102
RTVSPost2010PropOp57
 70
     1
102
RTVSPropertyOp0
 70
     1
102
RTVSPropertyOp1
 70
     1
102
RTVSPropertyOp2
 70
     1
102
RTVSPropertyOp3
 70
     1
102
RTVSPropertyOp4
 70
     1
102
RTVSPropertyOp5
 70
     1
102
RTVSPropertyOp6
 70
     1
102
RTVSPropertyOp7
 70
     1
102
RTVSPropertyOp8
 70
     1
102
RTVSPropertyOp9
 70
     1
102
RTVSPropertyOp10
 70
     1
102
RTVSPropertyOp11
 70
     1
102
RTVSPropertyOp12
 70
     1
102
RTVSPropertyOp13
 70
     1
102
RTVSPropertyOp14
 70
     1
102
RTVSPropertyOp15
 70
     1
102
RTVSPropertyOp16
 70
     1
102
RTVSPropertyOp17
 70
     1
102
RTVSPropertyOp18
 70
     1
102
RTVSPropertyOp19
 70
     1
102
RTVSPropertyOp20
 70
     1
102
RTVSPropertyOp21
 70
     1
102
RTVSPropertyOp22
 70
     1
102
RTVSPropertyOp23
 70
     1
102
RTVSPropertyOp24
 70
     1
102
RTVSPropertyOp25
 70
     1
102
RTVSPropertyOp26
 70
     1
102
RTVSPropertyOp27
 70
     1
102
RTVSPropertyOp28
 70
     1
102
RTVSPropertyOp29
 70
     1
102
RTVSPropertyOp30
 70
     1
102
RTVSPropertyOp31
 70
     1
102
RTVSPropertyOp32
 70
     1
102
RTVSPropertyOp33
 70
     1
102
RTVSPropertyOp34
 70
     1
102
RTVSPropertyOp35
 70
     1
102
RTVSPropertyOp36
 70
     1
102
RTVSPropertyOp37
 70
     1
102
RTVSPropertyOp38
 70
     1
102
RTVSPropertyOp39
 70
     1
102
RTVSPropertyOp40
 70
     1
102
RTVSPropertyOp41
 70
     1
102
RTVSPropertyOp42
 70
     1
102
RTVSPropertyOp43
 70
     1
102
RTVSPropertyOp44
 70
     1
102
RTVSPropertyOp45
 70
     1
102
RTVSPropertyOp46
 70
     1
102
RTVSPropertyOp47
 70
     1
102
RTVSPropertyOp48
 70
     1
102
RTVSPropertyOp49
 70
     1
102
RTVSPropertyOp50
 70
     1
102
RTVSPropertyOp51
 70
     0
102
RTVSPropertyOp52
 70
     0
102
RTVSPropertyOp53
 70
     1
102
RTVSPropertyOp54
 70
     1
102
RTVSPropertyOp55
 70
     1
102
RTVSPropertyOp56
 70
     1
102
RTVSPropertyOp57
 70
     1
102
RTVSPropertyOp58
 70
     1
102
RTVSPropertyOp59
 70
     1
102
RTVSPropertyOp60
 70
     1
102
RTVSPropertyOp61
 70
     1
102
RTVSPropertyOp62
 70
     1
  0
XRECORD
  5
45F
102
{ACAD_REACTORS
330
45E
102
}
330
45E
100
AcDbXrecord
280
     1
102
RTVSPost2010Prop28
280
     0
102
RTVSPost2010PropOp28
 70
     1
102
RTVSPost2010Prop29
280
     1
102
RTVSPost2010PropOp29
 70
     1
102
RTVSPost2010Prop30
280
     1
102
RTVSPost2010PropOp30
 70
     1
102
RTVSPost2010Prop31
280
     0
102
RTVSPost2010PropOp31
 70
     1
102
RTVSPost2010Prop32
280
     0
102
RTVSPost2010PropOp32
 70
     1
102
RTVSPost2010Prop33
280
     0
102
RTVSPost2010PropOp33
 70
     1
102
RTVSPost2010Prop34
280
     0
102
RTVSPost2010PropOp34
 70
     1
102
RTVSPost2010Prop35
280
     0
102
RTVSPost2010PropOp35
 70
     1
102
RTVSPost2010Prop36
280
     0
102
RTVSPost2010PropOp36
 70
     1
102
RTVSPost2010Prop37
 90
       50
102
RTVSPost2010PropOp37
 70
     0
102
RTVSPost2010Prop38
140
0.0
102
RTVSPost2010PropOp38
 70
     0
102
RTVSPost2010Prop39
140
1.0
102
RTVSPost2010PropOp39
 70
     0
102
RTVSPost2010Prop40
 90
        0
102
RTVSPost2010PropOp40
 70
     0
102
RTVSPost2010Prop41ColorIndex
 90
       18
102
RTVSPost2010Prop41ColorRGB
 90
        0
102
RTVSPost2010PropOp41
 70
     0
102
RTVSPost2010Prop42
 90
       50
102
RTVSPost2010PropOp42
 70
     0
102
RTVSPost2010Prop43
 90
        3
102
RTVSPost2010PropOp43
 70
     0
102
RTVSPost2010Prop44ColorIndex
 90
        5
102
RTVSPost2010Prop44ColorRGB
 90
      255
102
RTVSPost2010PropOp44
 70
     0
102
RTVSPost2010Prop45
280
     0
102
RTVSPost2010PropOp45
 70
     1
102
RTVSPost2010Prop46
 90
       50
102
RTVSPost2010PropOp46
 70
     0
102
RTVSPost2010Prop47
 90
       50
102
RTVSPost2010PropOp47
 70
     0
102
RTVSPost2010Prop48
 90
       50
102
RTVSPost2010PropOp48
 70
     0
102
RTVSPost2010Prop49
280
     0
102
RTVSPost2010PropOp49
 70
     1
102
RTVSPost2010Prop50
 90
       50
102
RTVSPost2010PropOp50
 70
     0
102
RTVSPost2010Prop51ColorIndex
 90
      256
102
RTVSPost2010Prop51ColorRGB
 90
-16777216
102
RTVSPost2010PropOp51
 70
     0
102
RTVSPost2010Prop52
140
1.0
102
RTVSPost2010PropOp52
 70
     0
102
RTVSPost2010Prop53
 90
        2
102
RTVSPost2010PropOp53
 70
     0
102
RTVSPost2010Prop54
  1
strokes_ogs.tif
102
RTVSPost2010PropOp54
 70
     0
102
RTVSPost2010Prop55
280
     0
102
RTVSPost2010PropOp55
 70
     1
102
RTVSPost2010Prop56
140
1.0
102
RTVSPost2010PropOp56
 70
     0
102
RTVSPost2010Prop57
140
1.0
102
RTVSPost2010PropOp57
 70
     0
102
RTVSPropertyOp0
 70
     0
102
RTVSPropertyOp1
 70
     0
102
RTVSPropertyOp2
 70
     0
102
RTVSPropertyOp3
 70
     0
102
RTVSPropertyOp4
 70
     0
102
RTVSPropertyOp5
 70
     0
102
RTVSPropertyOp6
 70
     0
102
RTVSPropertyOp7
 70
     0
102
RTVSPropertyOp8
 70
     0
102
RTVSPropertyOp9
 70
     0
102
RTVSPropertyOp10
 70
     0
102
RTVSPropertyOp11
 70
     0
102
RTVSPropertyOp12
 70
     0
102
RTVSPropertyOp13
 70
     0
102
RTVSPropertyOp14
 70
     2
102
RTVSPropertyOp15
 70
     0
102
RTVSPropertyOp16
 70
     0
102
RTVSPropertyOp17
 70
     0
102
RTVSPropertyOp18
 70
     0
102
RTVSPropertyOp19
 70
     0
102
RTVSPropertyOp20
 70
     0
102
RTVSPropertyOp21
 70
     0
102
RTVSPropertyOp22
 70
     0
102
RTVSPropertyOp23
 70
     0
102
RTVSPropertyOp24
 70
     0
102
RTVSPropertyOp25
 70
     0
102
RTVSPropertyOp26
 70
     0
102
RTVSPropertyOp27
 70
     0
102
RTVSPropertyOp28
 70
     1
102
RTVSPropertyOp29
 70
     1
102
RTVSPropertyOp30
 70
     1
102
RTVSPropertyOp31
 70
     1
102
RTVSPropertyOp32
 70
     1
102
RTVSPropertyOp33
 70
     1
102
RTVSPropertyOp34
 70
     1
102
RTVSPropertyOp35
 70
     1
102
RTVSPropertyOp36
 70
     1
102
RTVSPropertyOp37
 70
     0
102
RTVSPropertyOp38
 70
     0
102
RTVSPropertyOp39
 70
     0
102
RTVSPropertyOp40
 70
     0
102
RTVSPropertyOp41
 70
     0
102
RTVSPropertyOp42
 70
     0
102
RTVSPropertyOp43
 70
     0
102
RTVSPropertyOp44
 70
     0
102
RTVSPropertyOp45
 70
     1
102
RTVSPropertyOp46
 70
     0
102
RTVSPropertyOp47
 70
     0
102
RTVSPropertyOp48
 70
     0
102
RTVSPropertyOp49
 70
     1
102
RTVSPropertyOp50
 70
     0
102
RTVSPropertyOp51
 70
     0
102
RTVSPropertyOp52
 70
     0
102
RTVSPropertyOp53
 70
     0
102
RTVSPropertyOp54
 70
     0
102
RTVSPropertyOp55
 70
     1
102
RTVSPropertyOp56
 70
     0
102
RTVSPropertyOp57
 70
     0
102
RTVSPropertyOp58
 70
     0
102
RTVSPropertyOp59
 70
     0
102
RTVSPropertyOp60
 70
     0
102
RTVSPropertyOp61
 70
     0
102
RTVSPropertyOp62
 70
     0
  0
XRECORD
  5
44D
102
{ACAD_REACTORS
330
44C
102
}
330
44C
100
AcDbXrecord
280
     1
102
RTVSPost2010Prop28
280
     0
102
RTVSPost2010PropOp28
 70
     1
102
RTVSPost2010Prop29
280
     1
102
RTVSPost2010PropOp29
 70
     1
102
RTVSPost2010Prop30
280
     1
102
RTVSPost2010PropOp30
 70
     1
102
RTVSPost2010Prop31
280
     0
102
RTVSPost2010PropOp31
 70
     1
102
RTVSPost2010Prop32
280
     0
102
RTVSPost2010PropOp32
 70
     1
102
RTVSPost2010Prop33
280
     0
102
RTVSPost2010PropOp33
 70
     1
102
RTVSPost2010Prop34
280
     0
102
RTVSPost2010PropOp34
 70
     1
102
RTVSPost2010Prop35
280
     0
102
RTVSPost2010PropOp35
 70
     1
102
RTVSPost2010Prop36
280
     0
102
RTVSPost2010PropOp36
 70
     1
102
RTVSPost2010Prop37
 90
       50
102
RTVSPost2010PropOp37
 70
     1
102
RTVSPost2010Prop38
140
0.0
102
RTVSPost2010PropOp38
 70
     1
102
RTVSPost2010Prop39
140
1.0
102
RTVSPost2010PropOp39
 70
     1
102
RTVSPost2010Prop40
 90
        0
102
RTVSPost2010PropOp40
 70
     1
102
RTVSPost2010Prop41ColorIndex
 90
       18
102
RTVSPost2010Prop41ColorRGB
 90
        0
102
RTVSPost2010PropOp41
 70
     1
102
RTVSPost2010Prop42
 90
       50
102
RTVSPost2010PropOp42
 70
     1
102
RTVSPost2010Prop43
 90
        3
102
RTVSPost2010PropOp43
 70
     1
102
RTVSPost2010Prop44ColorIndex
 90
        5
102
RTVSPost2010Prop44ColorRGB
 90
      255
102
RTVSPost2010PropOp44
 70
     1
102
RTVSPost2010Prop45
280
     0
102
RTVSPost2010PropOp45
 70
     1
102
RTVSPost2010Prop46
 90
       50
102
RTVSPost2010PropOp46
 70
     1
102
RTVSPost2010Prop47
 90
       50
102
RTVSPost2010PropOp47
 70
     1
102
RTVSPost2010Prop48
 90
       50
102
RTVSPost2010PropOp48
 70
     1
102
RTVSPost2010Prop49
280
     0
102
RTVSPost2010PropOp49
 70
     1
102
RTVSPost2010Prop50
 90
       50
102
RTVSPost2010PropOp50
 70
     1
102
RTVSPost2010Prop51ColorIndex
 90
      256
102
RTVSPost2010Prop51ColorRGB
 90
-16777216
102
RTVSPost2010PropOp51
 70
     0
102
RTVSPost2010Prop52
140
1.0
102
RTVSPost2010PropOp52
 70
     0
102
RTVSPost2010Prop53
 90
        2
102
RTVSPost2010PropOp53
 70
     1
102
RTVSPost2010Prop54
  1
strokes_ogs.tif
102
RTVSPost2010PropOp54
 70
     1
102
RTVSPost2010Prop55
280
     0
102
RTVSPost2010PropOp55
 70
     1
102
RTVSPost2010Prop56
140
1.0
102
RTVSPost2010PropOp56
 70
     1
102
RTVSPost2010Prop57
140
1.0
102
RTVSPost2010PropOp57
 70
     1
102
RTVSPropertyOp0
 70
     1
102
RTVSPropertyOp1
 70
     1
102
RTVSPropertyOp2
 70
     1
102
RTVSPropertyOp3
 70
     1
102
RTVSPropertyOp4
 70
     1
102
RTVSPropertyOp5
 70
     1
102
RTVSPropertyOp6
 70
     1
102
RTVSPropertyOp7
 70
     1
102
RTVSPropertyOp8
 70
     1
102
RTVSPropertyOp9
 70
     1
102
RTVSPropertyOp10
 70
     1
102
RTVSPropertyOp11
 70
     1
102
RTVSPropertyOp12
 70
     1
102
RTVSPropertyOp13
 70
     1
102
RTVSPropertyOp14
 70
     1
102
RTVSPropertyOp15
 70
     1
102
RTVSPropertyOp16
 70
     1
102
RTVSPropertyOp17
 70
     1
102
RTVSPropertyOp18
 70
     1
102
RTVSPropertyOp19
 70
     1
102
RTVSPropertyOp20
 70
     1
102
RTVSPropertyOp21
 70
     1
102
RTVSPropertyOp22
 70
     1
102
RTVSPropertyOp23
 70
     1
102
RTVSPropertyOp24
 70
     1
102
RTVSPropertyOp25
 70
     1
102
RTVSPropertyOp26
 70
     1
102
RTVSPropertyOp27
 70
     1
102
RTVSPropertyOp28
 70
     1
102
RTVSPropertyOp29
 70
     1
102
RTVSPropertyOp30
 70
     1
102
RTVSPropertyOp31
 70
     1
102
RTVSPropertyOp32
 70
     1
102
RTVSPropertyOp33
 70
     1
102
RTVSPropertyOp34
 70
     1
102
RTVSPropertyOp35
 70
     1
102
RTVSPropertyOp36
 70
     1
102
RTVSPropertyOp37
 70
     1
102
RTVSPropertyOp38
 70
     1
102
RTVSPropertyOp39
 70
     1
102
RTVSPropertyOp40
 70
     1
102
RTVSPropertyOp41
 70
     1
102
RTVSPropertyOp42
 70
     1
102
RTVSPropertyOp43
 70
     1
102
RTVSPropertyOp44
 70
     1
102
RTVSPropertyOp45
 70
     1
102
RTVSPropertyOp46
 70
     1
102
RTVSPropertyOp47
 70
     1
102
RTVSPropertyOp48
 70
     1
102
RTVSPropertyOp49
 70
     1
102
RTVSPropertyOp50
 70
     1
102
RTVSPropertyOp51
 70
     0
102
RTVSPropertyOp52
 70
     0
102
RTVSPropertyOp53
 70
     1
102
RTVSPropertyOp54
 70
     1
102
RTVSPropertyOp55
 70
     1
102
RTVSPropertyOp56
 70
     1
102
RTVSPropertyOp57
 70
     1
102
RTVSPropertyOp58
 70
     1
102
RTVSPropertyOp59
 70
     1
102
RTVSPropertyOp60
 70
     1
102
RTVSPropertyOp61
 70
     1
102
RTVSPropertyOp62
 70
     1
  0
XRECORD
  5
431
102
{ACAD_REACTORS
330
430
102
}
330
430
100
AcDbXrecord
280
     1
102
RTVSPost2010Prop28
280
     0
102
RTVSPost2010PropOp28
 70
     1
102
RTVSPost2010Prop29
280
     1
102
RTVSPost2010PropOp29
 70
     1
102
RTVSPost2010Prop30
280
     1
102
RTVSPost2010PropOp30
 70
     1
102
RTVSPost2010Prop31
280
     0
102
RTVSPost2010PropOp31
 70
     1
102
RTVSPost2010Prop32
280
     0
102
RTVSPost2010PropOp32
 70
     1
102
RTVSPost2010Prop33
280
     0
102
RTVSPost2010PropOp33
 70
     1
102
RTVSPost2010Prop34
280
     0
102
RTVSPost2010PropOp34
 70
     1
102
RTVSPost2010Prop35
280
     0
102
RTVSPost2010PropOp35
 70
     1
102
RTVSPost2010Prop36
280
     0
102
RTVSPost2010PropOp36
 70
     1
102
RTVSPost2010Prop37
 90
       50
102
RTVSPost2010PropOp37
 70
     1
102
RTVSPost2010Prop38
140
0.0
102
RTVSPost2010PropOp38
 70
     1
102
RTVSPost2010Prop39
140
1.0
102
RTVSPost2010PropOp39
 70
     1
102
RTVSPost2010Prop40
 90
        0
102
RTVSPost2010PropOp40
 70
     1
102
RTVSPost2010Prop41ColorIndex
 90
       18
102
RTVSPost2010Prop41ColorRGB
 90
        0
102
RTVSPost2010PropOp41
 70
     1
102
RTVSPost2010Prop42
 90
       50
102
RTVSPost2010PropOp42
 70
     1
102
RTVSPost2010Prop43
 90
        3
102
RTVSPost2010PropOp43
 70
     1
102
RTVSPost2010Prop44ColorIndex
 90
        5
102
RTVSPost2010Prop44ColorRGB
 90
      255
102
RTVSPost2010PropOp44
 70
     1
102
RTVSPost2010Prop45
280
     0
102
RTVSPost2010PropOp45
 70
     1
102
RTVSPost2010Prop46
 90
       50
102
RTVSPost2010PropOp46
 70
     1
102
RTVSPost2010Prop47
 90
       50
102
RTVSPost2010PropOp47
 70
     1
102
RTVSPost2010Prop48
 90
       50
102
RTVSPost2010PropOp48
 70
     1
102
RTVSPost2010Prop49
280
     0
102
RTVSPost2010PropOp49
 70
     1
102
RTVSPost2010Prop50
 90
       50
102
RTVSPost2010PropOp50
 70
     1
102
RTVSPost2010Prop51ColorIndex
 90
      256
102
RTVSPost2010Prop51ColorRGB
 90
-16777216
102
RTVSPost2010PropOp51
 70
     0
102
RTVSPost2010Prop52
140
1.0
102
RTVSPost2010PropOp52
 70
     0
102
RTVSPost2010Prop53
 90
        2
102
RTVSPost2010PropOp53
 70
     1
102
RTVSPost2010Prop54
  1
strokes_ogs.tif
102
RTVSPost2010PropOp54
 70
     1
102
RTVSPost2010Prop55
280
     0
102
RTVSPost2010PropOp55
 70
     1
102
RTVSPost2010Prop56
140
1.0
102
RTVSPost2010PropOp56
 70
     1
102
RTVSPost2010Prop57
140
1.0
102
RTVSPost2010PropOp57
 70
     1
102
RTVSPropertyOp0
 70
     1
102
RTVSPropertyOp1
 70
     1
102
RTVSPropertyOp2
 70
     1
102
RTVSPropertyOp3
 70
     1
102
RTVSPropertyOp4
 70
     1
102
RTVSPropertyOp5
 70
     1
102
RTVSPropertyOp6
 70
     1
102
RTVSPropertyOp7
 70
     1
102
RTVSPropertyOp8
 70
     1
102
RTVSPropertyOp9
 70
     1
102
RTVSPropertyOp10
 70
     1
102
RTVSPropertyOp11
 70
     1
102
RTVSPropertyOp12
 70
     1
102
RTVSPropertyOp13
 70
     1
102
RTVSPropertyOp14
 70
     1
102
RTVSPropertyOp15
 70
     1
102
RTVSPropertyOp16
 70
     1
102
RTVSPropertyOp17
 70
     1
102
RTVSPropertyOp18
 70
     1
102
RTVSPropertyOp19
 70
     1
102
RTVSPropertyOp20
 70
     1
102
RTVSPropertyOp21
 70
     1
102
RTVSPropertyOp22
 70
     1
102
RTVSPropertyOp23
 70
     1
102
RTVSPropertyOp24
 70
     1
102
RTVSPropertyOp25
 70
     1
102
RTVSPropertyOp26
 70
     1
102
RTVSPropertyOp27
 70
     1
102
RTVSPropertyOp28
 70
     1
102
RTVSPropertyOp29
 70
     1
102
RTVSPropertyOp30
 70
     1
102
RTVSPropertyOp31
 70
     1
102
RTVSPropertyOp32
 70
     1
102
RTVSPropertyOp33
 70
     1
102
RTVSPropertyOp34
 70
     1
102
RTVSPropertyOp35
 70
     1
102
RTVSPropertyOp36
 70
     1
102
RTVSPropertyOp37
 70
     1
102
RTVSPropertyOp38
 70
     1
102
RTVSPropertyOp39
 70
     1
102
RTVSPropertyOp40
 70
     1
102
RTVSPropertyOp41
 70
     1
102
RTVSPropertyOp42
 70
     1
102
RTVSPropertyOp43
 70
     1
102
RTVSPropertyOp44
 70
     1
102
RTVSPropertyOp45
 70
     1
102
RTVSPropertyOp46
 70
     1
102
RTVSPropertyOp47
 70
     1
102
RTVSPropertyOp48
 70
     1
102
RTVSPropertyOp49
 70
     1
102
RTVSPropertyOp50
 70
     1
102
RTVSPropertyOp51
 70
     0
102
RTVSPropertyOp52
 70
     0
102
RTVSPropertyOp53
 70
     1
102
RTVSPropertyOp54
 70
     1
102
RTVSPropertyOp55
 70
     1
102
RTVSPropertyOp56
 70
     1
102
RTVSPropertyOp57
 70
     1
102
RTVSPropertyOp58
 70
     1
102
RTVSPropertyOp59
 70
     1
102
RTVSPropertyOp60
 70
     1
102
RTVSPropertyOp61
 70
     1
102
RTVSPropertyOp62
 70
     1
  0
XRECORD
  5
433
102
{ACAD_REACTORS
330
432
102
}
330
432
100
AcDbXrecord
280
     1
102
RTVSPost2010Prop28
280
     0
102
RTVSPost2010PropOp28
 70
     1
102
RTVSPost2010Prop29
280
     1
102
RTVSPost2010PropOp29
 70
     1
102
RTVSPost2010Prop30
280
     1
102
RTVSPost2010PropOp30
 70
     1
102
RTVSPost2010Prop31
280
     0
102
RTVSPost2010PropOp31
 70
     1
102
RTVSPost2010Prop32
280
     0
102
RTVSPost2010PropOp32
 70
     1
102
RTVSPost2010Prop33
280
     0
102
RTVSPost2010PropOp33
 70
     1
102
RTVSPost2010Prop34
280
     0
102
RTVSPost2010PropOp34
 70
     1
102
RTVSPost2010Prop35
280
     0
102
RTVSPost2010PropOp35
 70
     1
102
RTVSPost2010Prop36
280
     0
102
RTVSPost2010PropOp36
 70
     1
102
RTVSPost2010Prop37
 90
       50
102
RTVSPost2010PropOp37
 70
     1
102
RTVSPost2010Prop38
140
0.0
102
RTVSPost2010PropOp38
 70
     1
102
RTVSPost2010Prop39
140
1.0
102
RTVSPost2010PropOp39
 70
     1
102
RTVSPost2010Prop40
 90
        0
102
RTVSPost2010PropOp40
 70
     1
102
RTVSPost2010Prop41ColorIndex
 90
       18
102
RTVSPost2010Prop41ColorRGB
 90
        0
102
RTVSPost2010PropOp41
 70
     1
102
RTVSPost2010Prop42
 90
       50
102
RTVSPost2010PropOp42
 70
     1
102
RTVSPost2010Prop43
 90
        3
102
RTVSPost2010PropOp43
 70
     1
102
RTVSPost2010Prop44ColorIndex
 90
        5
102
RTVSPost2010Prop44ColorRGB
 90
      255
102
RTVSPost2010PropOp44
 70
     1
102
RTVSPost2010Prop45
280
     0
102
RTVSPost2010PropOp45
 70
     1
102
RTVSPost2010Prop46
 90
       50
102
RTVSPost2010PropOp46
 70
     1
102
RTVSPost2010Prop47
 90
       50
102
RTVSPost2010PropOp47
 70
     1
102
RTVSPost2010Prop48
 90
       50
102
RTVSPost2010PropOp48
 70
     1
102
RTVSPost2010Prop49
280
     0
102
RTVSPost2010PropOp49
 70
     1
102
RTVSPost2010Prop50
 90
       50
102
RTVSPost2010PropOp50
 70
     1
102
RTVSPost2010Prop51ColorIndex
 90
      256
102
RTVSPost2010Prop51ColorRGB
 90
-16777216
102
RTVSPost2010PropOp51
 70
     0
102
RTVSPost2010Prop52
140
1.0
102
RTVSPost2010PropOp52
 70
     0
102
RTVSPost2010Prop53
 90
        2
102
RTVSPost2010PropOp53
 70
     1
102
RTVSPost2010Prop54
  1
strokes_ogs.tif
102
RTVSPost2010PropOp54
 70
     1
102
RTVSPost2010Prop55
280
     0
102
RTVSPost2010PropOp55
 70
     1
102
RTVSPost2010Prop56
140
1.0
102
RTVSPost2010PropOp56
 70
     1
102
RTVSPost2010Prop57
140
1.0
102
RTVSPost2010PropOp57
 70
     1
102
RTVSPropertyOp0
 70
     1
102
RTVSPropertyOp1
 70
     1
102
RTVSPropertyOp2
 70
     1
102
RTVSPropertyOp3
 70
     1
102
RTVSPropertyOp4
 70
     1
102
RTVSPropertyOp5
 70
     1
102
RTVSPropertyOp6
 70
     1
102
RTVSPropertyOp7
 70
     1
102
RTVSPropertyOp8
 70
     1
102
RTVSPropertyOp9
 70
     1
102
RTVSPropertyOp10
 70
     1
102
RTVSPropertyOp11
 70
     1
102
RTVSPropertyOp12
 70
     1
102
RTVSPropertyOp13
 70
     1
102
RTVSPropertyOp14
 70
     1
102
RTVSPropertyOp15
 70
     1
102
RTVSPropertyOp16
 70
     1
102
RTVSPropertyOp17
 70
     1
102
RTVSPropertyOp18
 70
     1
102
RTVSPropertyOp19
 70
     1
102
RTVSPropertyOp20
 70
     1
102
RTVSPropertyOp21
 70
     1
102
RTVSPropertyOp22
 70
     1
102
RTVSPropertyOp23
 70
     1
102
RTVSPropertyOp24
 70
     1
102
RTVSPropertyOp25
 70
     1
102
RTVSPropertyOp26
 70
     1
102
RTVSPropertyOp27
 70
     1
102
RTVSPropertyOp28
 70
     1
102
RTVSPropertyOp29
 70
     1
102
RTVSPropertyOp30
 70
     1
102
RTVSPropertyOp31
 70
     1
102
RTVSPropertyOp32
 70
     1
102
RTVSPropertyOp33
 70
     1
102
RTVSPropertyOp34
 70
     1
102
RTVSPropertyOp35
 70
     1
102
RTVSPropertyOp36
 70
     1
102
RTVSPropertyOp37
 70
     1
102
RTVSPropertyOp38
 70
     1
102
RTVSPropertyOp39
 70
     1
102
RTVSPropertyOp40
 70
     1
102
RTVSPropertyOp41
 70
     1
102
RTVSPropertyOp42
 70
     1
102
RTVSPropertyOp43
 70
     1
102
RTVSPropertyOp44
 70
     1
102
RTVSPropertyOp45
 70
     1
102
RTVSPropertyOp46
 70
     1
102
RTVSPropertyOp47
 70
     1
102
RTVSPropertyOp48
 70
     1
102
RTVSPropertyOp49
 70
     1
102
RTVSPropertyOp50
 70
     1
102
RTVSPropertyOp51
 70
     0
102
RTVSPropertyOp52
 70
     0
102
RTVSPropertyOp53
 70
     1
102
RTVSPropertyOp54
 70
     1
102
RTVSPropertyOp55
 70
     1
102
RTVSPropertyOp56
 70
     1
102
RTVSPropertyOp57
 70
     1
102
RTVSPropertyOp58
 70
     1
102
RTVSPropertyOp59
 70
     1
102
RTVSPropertyOp60
 70
     1
102
RTVSPropertyOp61
 70
     1
102
RTVSPropertyOp62
 70
     1
  0
XRECORD
  5
435
102
{ACAD_REACTORS
330
434
102
}
330
434
100
AcDbXrecord
280
     1
102
RTVSPost2010Prop28
280
     0
102
RTVSPost2010PropOp28
 70
     1
102
RTVSPost2010Prop29
280
     1
102
RTVSPost2010PropOp29
 70
     1
102
RTVSPost2010Prop30
280
     1
102
RTVSPost2010PropOp30
 70
     1
102
RTVSPost2010Prop31
280
     0
102
RTVSPost2010PropOp31
 70
     1
102
RTVSPost2010Prop32
280
     0
102
RTVSPost2010PropOp32
 70
     1
102
RTVSPost2010Prop33
280
     0
102
RTVSPost2010PropOp33
 70
     1
102
RTVSPost2010Prop34
280
     0
102
RTVSPost2010PropOp34
 70
     1
102
RTVSPost2010Prop35
280
     0
102
RTVSPost2010PropOp35
 70
     1
102
RTVSPost2010Prop36
280
     0
102
RTVSPost2010PropOp36
 70
     1
102
RTVSPost2010Prop37
 90
       50
102
RTVSPost2010PropOp37
 70
     1
102
RTVSPost2010Prop38
140
0.0
102
RTVSPost2010PropOp38
 70
     1
102
RTVSPost2010Prop39
140
1.0
102
RTVSPost2010PropOp39
 70
     1
102
RTVSPost2010Prop40
 90
        0
102
RTVSPost2010PropOp40
 70
     1
102
RTVSPost2010Prop41ColorIndex
 90
       18
102
RTVSPost2010Prop41ColorRGB
 90
        0
102
RTVSPost2010PropOp41
 70
     1
102
RTVSPost2010Prop42
 90
       50
102
RTVSPost2010PropOp42
 70
     1
102
RTVSPost2010Prop43
 90
        3
102
RTVSPost2010PropOp43
 70
     1
102
RTVSPost2010Prop44ColorIndex
 90
        5
102
RTVSPost2010Prop44ColorRGB
 90
      255
102
RTVSPost2010PropOp44
 70
     1
102
RTVSPost2010Prop45
280
     0
102
RTVSPost2010PropOp45
 70
     1
102
RTVSPost2010Prop46
 90
       50
102
RTVSPost2010PropOp46
 70
     1
102
RTVSPost2010Prop47
 90
       50
102
RTVSPost2010PropOp47
 70
     1
102
RTVSPost2010Prop48
 90
       50
102
RTVSPost2010PropOp48
 70
     1
102
RTVSPost2010Prop49
280
     0
102
RTVSPost2010PropOp49
 70
     1
102
RTVSPost2010Prop50
 90
       50
102
RTVSPost2010PropOp50
 70
     1
102
RTVSPost2010Prop51ColorIndex
 90
      256
102
RTVSPost2010Prop51ColorRGB
 90
-16777216
102
RTVSPost2010PropOp51
 70
     0
102
RTVSPost2010Prop52
140
1.0
102
RTVSPost2010PropOp52
 70
     0
102
RTVSPost2010Prop53
 90
        2
102
RTVSPost2010PropOp53
 70
     1
102
RTVSPost2010Prop54
  1
strokes_ogs.tif
102
RTVSPost2010PropOp54
 70
     1
102
RTVSPost2010Prop55
280
     0
102
RTVSPost2010PropOp55
 70
     1
102
RTVSPost2010Prop56
140
1.0
102
RTVSPost2010PropOp56
 70
     1
102
RTVSPost2010Prop57
140
1.0
102
RTVSPost2010PropOp57
 70
     1
102
RTVSPropertyOp0
 70
     1
102
RTVSPropertyOp1
 70
     1
102
RTVSPropertyOp2
 70
     1
102
RTVSPropertyOp3
 70
     1
102
RTVSPropertyOp4
 70
     1
102
RTVSPropertyOp5
 70
     1
102
RTVSPropertyOp6
 70
     1
102
RTVSPropertyOp7
 70
     1
102
RTVSPropertyOp8
 70
     1
102
RTVSPropertyOp9
 70
     1
102
RTVSPropertyOp10
 70
     1
102
RTVSPropertyOp11
 70
     1
102
RTVSPropertyOp12
 70
     1
102
RTVSPropertyOp13
 70
     1
102
RTVSPropertyOp14
 70
     1
102
RTVSPropertyOp15
 70
     1
102
RTVSPropertyOp16
 70
     1
102
RTVSPropertyOp17
 70
     1
102
RTVSPropertyOp18
 70
     1
102
RTVSPropertyOp19
 70
     1
102
RTVSPropertyOp20
 70
     1
102
RTVSPropertyOp21
 70
     1
102
RTVSPropertyOp22
 70
     1
102
RTVSPropertyOp23
 70
     1
102
RTVSPropertyOp24
 70
     1
102
RTVSPropertyOp25
 70
     1
102
RTVSPropertyOp26
 70
     1
102
RTVSPropertyOp27
 70
     1
102
RTVSPropertyOp28
 70
     1
102
RTVSPropertyOp29
 70
     1
102
RTVSPropertyOp30
 70
     1
102
RTVSPropertyOp31
 70
     1
102
RTVSPropertyOp32
 70
     1
102
RTVSPropertyOp33
 70
     1
102
RTVSPropertyOp34
 70
     1
102
RTVSPropertyOp35
 70
     1
102
RTVSPropertyOp36
 70
     1
102
RTVSPropertyOp37
 70
     1
102
RTVSPropertyOp38
 70
     1
102
RTVSPropertyOp39
 70
     1
102
RTVSPropertyOp40
 70
     1
102
RTVSPropertyOp41
 70
     1
102
RTVSPropertyOp42
 70
     1
102
RTVSPropertyOp43
 70
     1
102
RTVSPropertyOp44
 70
     1
102
RTVSPropertyOp45
 70
     1
102
RTVSPropertyOp46
 70
     1
102
RTVSPropertyOp47
 70
     1
102
RTVSPropertyOp48
 70
     1
102
RTVSPropertyOp49
 70
     1
102
RTVSPropertyOp50
 70
     1
102
RTVSPropertyOp51
 70
     0
102
RTVSPropertyOp52
 70
     0
102
RTVSPropertyOp53
 70
     1
102
RTVSPropertyOp54
 70
     1
102
RTVSPropertyOp55
 70
     1
102
RTVSPropertyOp56
 70
     1
102
RTVSPropertyOp57
 70
     1
102
RTVSPropertyOp58
 70
     1
102
RTVSPropertyOp59
 70
     1
102
RTVSPropertyOp60
 70
     1
102
RTVSPropertyOp61
 70
     1
102
RTVSPropertyOp62
 70
     1
  0
XRECORD
  5
437
102
{ACAD_REACTORS
330
436
102
}
330
436
100
AcDbXrecord
280
     1
102
RTVSPost2010Prop28
280
     0
102
RTVSPost2010PropOp28
 70
     1
102
RTVSPost2010Prop29
280
     1
102
RTVSPost2010PropOp29
 70
     1
102
RTVSPost2010Prop30
280
     1
102
RTVSPost2010PropOp30
 70
     1
102
RTVSPost2010Prop31
280
     0
102
RTVSPost2010PropOp31
 70
     1
102
RTVSPost2010Prop32
280
     0
102
RTVSPost2010PropOp32
 70
     1
102
RTVSPost2010Prop33
280
     0
102
RTVSPost2010PropOp33
 70
     1
102
RTVSPost2010Prop34
280
     0
102
RTVSPost2010PropOp34
 70
     1
102
RTVSPost2010Prop35
280
     0
102
RTVSPost2010PropOp35
 70
     1
102
RTVSPost2010Prop36
280
     0
102
RTVSPost2010PropOp36
 70
     1
102
RTVSPost2010Prop37
 90
       50
102
RTVSPost2010PropOp37
 70
     1
102
RTVSPost2010Prop38
140
0.0
102
RTVSPost2010PropOp38
 70
     1
102
RTVSPost2010Prop39
140
1.0
102
RTVSPost2010PropOp39
 70
     1
102
RTVSPost2010Prop40
 90
        0
102
RTVSPost2010PropOp40
 70
     1
102
RTVSPost2010Prop41ColorIndex
 90
       18
102
RTVSPost2010Prop41ColorRGB
 90
        0
102
RTVSPost2010PropOp41
 70
     1
102
RTVSPost2010Prop42
 90
       50
102
RTVSPost2010PropOp42
 70
     1
102
RTVSPost2010Prop43
 90
        3
102
RTVSPost2010PropOp43
 70
     1
102
RTVSPost2010Prop44ColorIndex
 90
        5
102
RTVSPost2010Prop44ColorRGB
 90
      255
102
RTVSPost2010PropOp44
 70
     1
102
RTVSPost2010Prop45
280
     0
102
RTVSPost2010PropOp45
 70
     1
102
RTVSPost2010Prop46
 90
       50
102
RTVSPost2010PropOp46
 70
     1
102
RTVSPost2010Prop47
 90
       50
102
RTVSPost2010PropOp47
 70
     1
102
RTVSPost2010Prop48
 90
       50
102
RTVSPost2010PropOp48
 70
     1
102
RTVSPost2010Prop49
280
     0
102
RTVSPost2010PropOp49
 70
     1
102
RTVSPost2010Prop50
 90
       50
102
RTVSPost2010PropOp50
 70
     1
102
RTVSPost2010Prop51ColorIndex
 90
      256
102
RTVSPost2010Prop51ColorRGB
 90
-16777216
102
RTVSPost2010PropOp51
 70
     0
102
RTVSPost2010Prop52
140
1.0
102
RTVSPost2010PropOp52
 70
     0
102
RTVSPost2010Prop53
 90
        2
102
RTVSPost2010PropOp53
 70
     1
102
RTVSPost2010Prop54
  1
strokes_ogs.tif
102
RTVSPost2010PropOp54
 70
     1
102
RTVSPost2010Prop55
280
     0
102
RTVSPost2010PropOp55
 70
     1
102
RTVSPost2010Prop56
140
1.0
102
RTVSPost2010PropOp56
 70
     1
102
RTVSPost2010Prop57
140
1.0
102
RTVSPost2010PropOp57
 70
     1
102
RTVSPropertyOp0
 70
     1
102
RTVSPropertyOp1
 70
     1
102
RTVSPropertyOp2
 70
     1
102
RTVSPropertyOp3
 70
     1
102
RTVSPropertyOp4
 70
     1
102
RTVSPropertyOp5
 70
     1
102
RTVSPropertyOp6
 70
     1
102
RTVSPropertyOp7
 70
     1
102
RTVSPropertyOp8
 70
     1
102
RTVSPropertyOp9
 70
     1
102
RTVSPropertyOp10
 70
     1
102
RTVSPropertyOp11
 70
     1
102
RTVSPropertyOp12
 70
     1
102
RTVSPropertyOp13
 70
     1
102
RTVSPropertyOp14
 70
     1
102
RTVSPropertyOp15
 70
     1
102
RTVSPropertyOp16
 70
     1
102
RTVSPropertyOp17
 70
     1
102
RTVSPropertyOp18
 70
     1
102
RTVSPropertyOp19
 70
     1
102
RTVSPropertyOp20
 70
     1
102
RTVSPropertyOp21
 70
     1
102
RTVSPropertyOp22
 70
     1
102
RTVSPropertyOp23
 70
     1
102
RTVSPropertyOp24
 70
     1
102
RTVSPropertyOp25
 70
     1
102
RTVSPropertyOp26
 70
     1
102
RTVSPropertyOp27
 70
     1
102
RTVSPropertyOp28
 70
     1
102
RTVSPropertyOp29
 70
     1
102
RTVSPropertyOp30
 70
     1
102
RTVSPropertyOp31
 70
     1
102
RTVSPropertyOp32
 70
     1
102
RTVSPropertyOp33
 70
     1
102
RTVSPropertyOp34
 70
     1
102
RTVSPropertyOp35
 70
     1
102
RTVSPropertyOp36
 70
     1
102
RTVSPropertyOp37
 70
     1
102
RTVSPropertyOp38
 70
     1
102
RTVSPropertyOp39
 70
     1
102
RTVSPropertyOp40
 70
     1
102
RTVSPropertyOp41
 70
     1
102
RTVSPropertyOp42
 70
     1
102
RTVSPropertyOp43
 70
     1
102
RTVSPropertyOp44
 70
     1
102
RTVSPropertyOp45
 70
     1
102
RTVSPropertyOp46
 70
     1
102
RTVSPropertyOp47
 70
     1
102
RTVSPropertyOp48
 70
     1
102
RTVSPropertyOp49
 70
     1
102
RTVSPropertyOp50
 70
     1
102
RTVSPropertyOp51
 70
     0
102
RTVSPropertyOp52
 70
     0
102
RTVSPropertyOp53
 70
     1
102
RTVSPropertyOp54
 70
     1
102
RTVSPropertyOp55
 70
     1
102
RTVSPropertyOp56
 70
     1
102
RTVSPropertyOp57
 70
     1
102
RTVSPropertyOp58
 70
     1
102
RTVSPropertyOp59
 70
     1
102
RTVSPropertyOp60
 70
     1
102
RTVSPropertyOp61
 70
     1
102
RTVSPropertyOp62
 70
     1
  0
XRECORD
  5
43F
102
{ACAD_REACTORS
330
43E
102
}
330
43E
100
AcDbXrecord
280
     1
102
RTVSPost2010Prop28
280
     0
102
RTVSPost2010PropOp28
 70
     1
102
RTVSPost2010Prop29
280
     1
102
RTVSPost2010PropOp29
 70
     1
102
RTVSPost2010Prop30
280
     1
102
RTVSPost2010PropOp30
 70
     1
102
RTVSPost2010Prop31
280
     0
102
RTVSPost2010PropOp31
 70
     1
102
RTVSPost2010Prop32
280
     0
102
RTVSPost2010PropOp32
 70
     1
102
RTVSPost2010Prop33
280
     0
102
RTVSPost2010PropOp33
 70
     1
102
RTVSPost2010Prop34
280
     0
102
RTVSPost2010PropOp34
 70
     1
102
RTVSPost2010Prop35
280
     0
102
RTVSPost2010PropOp35
 70
     1
102
RTVSPost2010Prop36
280
     0
102
RTVSPost2010PropOp36
 70
     1
102
RTVSPost2010Prop37
 90
       50
102
RTVSPost2010PropOp37
 70
     1
102
RTVSPost2010Prop38
140
0.0
102
RTVSPost2010PropOp38
 70
     1
102
RTVSPost2010Prop39
140
1.0
102
RTVSPost2010PropOp39
 70
     1
102
RTVSPost2010Prop40
 90
        0
102
RTVSPost2010PropOp40
 70
     1
102
RTVSPost2010Prop41ColorIndex
 90
       18
102
RTVSPost2010Prop41ColorRGB
 90
        0
102
RTVSPost2010PropOp41
 70
     1
102
RTVSPost2010Prop42
 90
       50
102
RTVSPost2010PropOp42
 70
     1
102
RTVSPost2010Prop43
 90
        3
102
RTVSPost2010PropOp43
 70
     1
102
RTVSPost2010Prop44ColorIndex
 90
        5
102
RTVSPost2010Prop44ColorRGB
 90
      255
102
RTVSPost2010PropOp44
 70
     1
102
RTVSPost2010Prop45
280
     0
102
RTVSPost2010PropOp45
 70
     1
102
RTVSPost2010Prop46
 90
       50
102
RTVSPost2010PropOp46
 70
     1
102
RTVSPost2010Prop47
 90
       50
102
RTVSPost2010PropOp47
 70
     1
102
RTVSPost2010Prop48
 90
       50
102
RTVSPost2010PropOp48
 70
     1
102
RTVSPost2010Prop49
280
     0
102
RTVSPost2010PropOp49
 70
     1
102
RTVSPost2010Prop50
 90
       50
102
RTVSPost2010PropOp50
 70
     1
102
RTVSPost2010Prop51ColorIndex
 90
      256
102
RTVSPost2010Prop51ColorRGB
 90
-16777216
102
RTVSPost2010PropOp51
 70
     0
102
RTVSPost2010Prop52
140
1.0
102
RTVSPost2010PropOp52
 70
     0
102
RTVSPost2010Prop53
 90
        2
102
RTVSPost2010PropOp53
 70
     1
102
RTVSPost2010Prop54
  1
strokes_ogs.tif
102
RTVSPost2010PropOp54
 70
     1
102
RTVSPost2010Prop55
280
     0
102
RTVSPost2010PropOp55
 70
     1
102
RTVSPost2010Prop56
140
1.0
102
RTVSPost2010PropOp56
 70
     1
102
RTVSPost2010Prop57
140
1.0
102
RTVSPost2010PropOp57
 70
     1
102
RTVSPropertyOp0
 70
     1
102
RTVSPropertyOp1
 70
     1
102
RTVSPropertyOp2
 70
     1
102
RTVSPropertyOp3
 70
     1
102
RTVSPropertyOp4
 70
     1
102
RTVSPropertyOp5
 70
     1
102
RTVSPropertyOp6
 70
     1
102
RTVSPropertyOp7
 70
     1
102
RTVSPropertyOp8
 70
     1
102
RTVSPropertyOp9
 70
     1
102
RTVSPropertyOp10
 70
     1
102
RTVSPropertyOp11
 70
     1
102
RTVSPropertyOp12
 70
     1
102
RTVSPropertyOp13
 70
     1
102
RTVSPropertyOp14
 70
     1
102
RTVSPropertyOp15
 70
     1
102
RTVSPropertyOp16
 70
     1
102
RTVSPropertyOp17
 70
     1
102
RTVSPropertyOp18
 70
     1
102
RTVSPropertyOp19
 70
     1
102
RTVSPropertyOp20
 70
     1
102
RTVSPropertyOp21
 70
     1
102
RTVSPropertyOp22
 70
     1
102
RTVSPropertyOp23
 70
     1
102
RTVSPropertyOp24
 70
     1
102
RTVSPropertyOp25
 70
     1
102
RTVSPropertyOp26
 70
     1
102
RTVSPropertyOp27
 70
     1
102
RTVSPropertyOp28
 70
     1
102
RTVSPropertyOp29
 70
     1
102
RTVSPropertyOp30
 70
     1
102
RTVSPropertyOp31
 70
     1
102
RTVSPropertyOp32
 70
     1
102
RTVSPropertyOp33
 70
     1
102
RTVSPropertyOp34
 70
     1
102
RTVSPropertyOp35
 70
     1
102
RTVSPropertyOp36
 70
     1
102
RTVSPropertyOp37
 70
     1
102
RTVSPropertyOp38
 70
     1
102
RTVSPropertyOp39
 70
     1
102
RTVSPropertyOp40
 70
     1
102
RTVSPropertyOp41
 70
     1
102
RTVSPropertyOp42
 70
     1
102
RTVSPropertyOp43
 70
     1
102
RTVSPropertyOp44
 70
     1
102
RTVSPropertyOp45
 70
     1
102
RTVSPropertyOp46
 70
     1
102
RTVSPropertyOp47
 70
     1
102
RTVSPropertyOp48
 70
     1
102
RTVSPropertyOp49
 70
     1
102
RTVSPropertyOp50
 70
     1
102
RTVSPropertyOp51
 70
     0
102
RTVSPropertyOp52
 70
     0
102
RTVSPropertyOp53
 70
     1
102
RTVSPropertyOp54
 70
     1
102
RTVSPropertyOp55
 70
     1
102
RTVSPropertyOp56
 70
     1
102
RTVSPropertyOp57
 70
     1
102
RTVSPropertyOp58
 70
     1
102
RTVSPropertyOp59
 70
     1
102
RTVSPropertyOp60
 70
     1
102
RTVSPropertyOp61
 70
     1
102
RTVSPropertyOp62
 70
     1
  0
XRECORD
  5
45B
102
{ACAD_REACTORS
330
45A
102
}
330
45A
100
AcDbXrecord
280
     1
102
RTVSPost2010Prop28
280
     0
102
RTVSPost2010PropOp28
 70
     1
102
RTVSPost2010Prop29
280
     1
102
RTVSPost2010PropOp29
 70
     1
102
RTVSPost2010Prop30
280
     1
102
RTVSPost2010PropOp30
 70
     1
102
RTVSPost2010Prop31
280
     0
102
RTVSPost2010PropOp31
 70
     1
102
RTVSPost2010Prop32
280
     0
102
RTVSPost2010PropOp32
 70
     1
102
RTVSPost2010Prop33
280
     0
102
RTVSPost2010PropOp33
 70
     1
102
RTVSPost2010Prop34
280
     0
102
RTVSPost2010PropOp34
 70
     1
102
RTVSPost2010Prop35
280
     0
102
RTVSPost2010PropOp35
 70
     1
102
RTVSPost2010Prop36
280
     0
102
RTVSPost2010PropOp36
 70
     1
102
RTVSPost2010Prop37
 90
       50
102
RTVSPost2010PropOp37
 70
     0
102
RTVSPost2010Prop38
140
0.0
102
RTVSPost2010PropOp38
 70
     0
102
RTVSPost2010Prop39
140
1.0
102
RTVSPost2010PropOp39
 70
     0
102
RTVSPost2010Prop40
 90
        0
102
RTVSPost2010PropOp40
 70
     0
102
RTVSPost2010Prop41ColorIndex
 90
       18
102
RTVSPost2010Prop41ColorRGB
 90
        0
102
RTVSPost2010PropOp41
 70
     0
102
RTVSPost2010Prop42
 90
       50
102
RTVSPost2010PropOp42
 70
     0
102
RTVSPost2010Prop43
 90
        3
102
RTVSPost2010PropOp43
 70
     0
102
RTVSPost2010Prop44ColorIndex
 90
        5
102
RTVSPost2010Prop44ColorRGB
 90
      255
102
RTVSPost2010PropOp44
 70
     0
102
RTVSPost2010Prop45
280
     0
102
RTVSPost2010PropOp45
 70
     1
102
RTVSPost2010Prop46
 90
       50
102
RTVSPost2010PropOp46
 70
     0
102
RTVSPost2010Prop47
 90
       50
102
RTVSPost2010PropOp47
 70
     0
102
RTVSPost2010Prop48
 90
       50
102
RTVSPost2010PropOp48
 70
     0
102
RTVSPost2010Prop49
280
     0
102
RTVSPost2010PropOp49
 70
     1
102
RTVSPost2010Prop50
 90
       50
102
RTVSPost2010PropOp50
 70
     0
102
RTVSPost2010Prop51ColorIndex
 90
      256
102
RTVSPost2010Prop51ColorRGB
 90
-16777216
102
RTVSPost2010PropOp51
 70
     0
102
RTVSPost2010Prop52
140
1.0
102
RTVSPost2010PropOp52
 70
     0
102
RTVSPost2010Prop53
 90
        2
102
RTVSPost2010PropOp53
 70
     0
102
RTVSPost2010Prop54
  1
strokes_ogs.tif
102
RTVSPost2010PropOp54
 70
     0
102
RTVSPost2010Prop55
280
     0
102
RTVSPost2010PropOp55
 70
     1
102
RTVSPost2010Prop56
140
1.0
102
RTVSPost2010PropOp56
 70
     0
102
RTVSPost2010Prop57
140
1.0
102
RTVSPost2010PropOp57
 70
     0
102
RTVSPropertyOp0
 70
     0
102
RTVSPropertyOp1
 70
     0
102
RTVSPropertyOp2
 70
     0
102
RTVSPropertyOp3
 70
     0
102
RTVSPropertyOp4
 70
     0
102
RTVSPropertyOp5
 70
     0
102
RTVSPropertyOp6
 70
     0
102
RTVSPropertyOp7
 70
     0
102
RTVSPropertyOp8
 70
     0
102
RTVSPropertyOp9
 70
     0
102
RTVSPropertyOp10
 70
     0
102
RTVSPropertyOp11
 70
     0
102
RTVSPropertyOp12
 70
     0
102
RTVSPropertyOp13
 70
     0
102
RTVSPropertyOp14
 70
     2
102
RTVSPropertyOp15
 70
     0
102
RTVSPropertyOp16
 70
     0
102
RTVSPropertyOp17
 70
     0
102
RTVSPropertyOp18
 70
     0
102
RTVSPropertyOp19
 70
     0
102
RTVSPropertyOp20
 70
     0
102
RTVSPropertyOp21
 70
     0
102
RTVSPropertyOp22
 70
     0
102
RTVSPropertyOp23
 70
     0
102
RTVSPropertyOp24
 70
     0
102
RTVSPropertyOp25
 70
     0
102
RTVSPropertyOp26
 70
     0
102
RTVSPropertyOp27
 70
     0
102
RTVSPropertyOp28
 70
     1
102
RTVSPropertyOp29
 70
     1
102
RTVSPropertyOp30
 70
     1
102
RTVSPropertyOp31
 70
     1
102
RTVSPropertyOp32
 70
     1
102
RTVSPropertyOp33
 70
     1
102
RTVSPropertyOp34
 70
     1
102
RTVSPropertyOp35
 70
     1
102
RTVSPropertyOp36
 70
     1
102
RTVSPropertyOp37
 70
     0
102
RTVSPropertyOp38
 70
     0
102
RTVSPropertyOp39
 70
     0
102
RTVSPropertyOp40
 70
     0
102
RTVSPropertyOp41
 70
     0
102
RTVSPropertyOp42
 70
     0
102
RTVSPropertyOp43
 70
     0
102
RTVSPropertyOp44
 70
     0
102
RTVSPropertyOp45
 70
     1
102
RTVSPropertyOp46
 70
     0
102
RTVSPropertyOp47
 70
     0
102
RTVSPropertyOp48
 70
     0
102
RTVSPropertyOp49
 70
     1
102
RTVSPropertyOp50
 70
     0
102
RTVSPropertyOp51
 70
     0
102
RTVSPropertyOp52
 70
     0
102
RTVSPropertyOp53
 70
     0
102
RTVSPropertyOp54
 70
     0
102
RTVSPropertyOp55
 70
     1
102
RTVSPropertyOp56
 70
     0
102
RTVSPropertyOp57
 70
     0
102
RTVSPropertyOp58
 70
     0
102
RTVSPropertyOp59
 70
     0
102
RTVSPropertyOp60
 70
     0
102
RTVSPropertyOp61
 70
     0
102
RTVSPropertyOp62
 70
     0
  0
XRECORD
  5
44B
102
{ACAD_REACTORS
330
44A
102
}
330
44A
100
AcDbXrecord
280
     1
102
RTVSPost2010Prop28
280
     0
102
RTVSPost2010PropOp28
 70
     1
102
RTVSPost2010Prop29
280
     1
102
RTVSPost2010PropOp29
 70
     1
102
RTVSPost2010Prop30
280
     1
102
RTVSPost2010PropOp30
 70
     1
102
RTVSPost2010Prop31
280
     0
102
RTVSPost2010PropOp31
 70
     1
102
RTVSPost2010Prop32
280
     0
102
RTVSPost2010PropOp32
 70
     1
102
RTVSPost2010Prop33
280
     0
102
RTVSPost2010PropOp33
 70
     1
102
RTVSPost2010Prop34
280
     0
102
RTVSPost2010PropOp34
 70
     1
102
RTVSPost2010Prop35
280
     0
102
RTVSPost2010PropOp35
 70
     1
102
RTVSPost2010Prop36
280
     0
102
RTVSPost2010PropOp36
 70
     1
102
RTVSPost2010Prop37
 90
       50
102
RTVSPost2010PropOp37
 70
     1
102
RTVSPost2010Prop38
140
0.0
102
RTVSPost2010PropOp38
 70
     1
102
RTVSPost2010Prop39
140
1.0
102
RTVSPost2010PropOp39
 70
     1
102
RTVSPost2010Prop40
 90
        0
102
RTVSPost2010PropOp40
 70
     1
102
RTVSPost2010Prop41ColorIndex
 90
       18
102
RTVSPost2010Prop41ColorRGB
 90
        0
102
RTVSPost2010PropOp41
 70
     1
102
RTVSPost2010Prop42
 90
       50
102
RTVSPost2010PropOp42
 70
     1
102
RTVSPost2010Prop43
 90
        3
102
RTVSPost2010PropOp43
 70
     1
102
RTVSPost2010Prop44ColorIndex
 90
        5
102
RTVSPost2010Prop44ColorRGB
 90
      255
102
RTVSPost2010PropOp44
 70
     1
102
RTVSPost2010Prop45
280
     0
102
RTVSPost2010PropOp45
 70
     1
102
RTVSPost2010Prop46
 90
       50
102
RTVSPost2010PropOp46
 70
     1
102
RTVSPost2010Prop47
 90
       50
102
RTVSPost2010PropOp47
 70
     1
102
RTVSPost2010Prop48
 90
       50
102
RTVSPost2010PropOp48
 70
     1
102
RTVSPost2010Prop49
280
     0
102
RTVSPost2010PropOp49
 70
     1
102
RTVSPost2010Prop50
 90
       50
102
RTVSPost2010PropOp50
 70
     1
102
RTVSPost2010Prop51ColorIndex
 90
      256
102
RTVSPost2010Prop51ColorRGB
 90
-16777216
102
RTVSPost2010PropOp51
 70
     0
102
RTVSPost2010Prop52
140
1.0
102
RTVSPost2010PropOp52
 70
     0
102
RTVSPost2010Prop53
 90
        2
102
RTVSPost2010PropOp53
 70
     1
102
RTVSPost2010Prop54
  1
strokes_ogs.tif
102
RTVSPost2010PropOp54
 70
     1
102
RTVSPost2010Prop55
280
     0
102
RTVSPost2010PropOp55
 70
     1
102
RTVSPost2010Prop56
140
1.0
102
RTVSPost2010PropOp56
 70
     1
102
RTVSPost2010Prop57
140
1.0
102
RTVSPost2010PropOp57
 70
     1
102
RTVSPropertyOp0
 70
     1
102
RTVSPropertyOp1
 70
     1
102
RTVSPropertyOp2
 70
     1
102
RTVSPropertyOp3
 70
     1
102
RTVSPropertyOp4
 70
     1
102
RTVSPropertyOp5
 70
     1
102
RTVSPropertyOp6
 70
     1
102
RTVSPropertyOp7
 70
     1
102
RTVSPropertyOp8
 70
     1
102
RTVSPropertyOp9
 70
     1
102
RTVSPropertyOp10
 70
     1
102
RTVSPropertyOp11
 70
     1
102
RTVSPropertyOp12
 70
     1
102
RTVSPropertyOp13
 70
     1
102
RTVSPropertyOp14
 70
     1
102
RTVSPropertyOp15
 70
     1
102
RTVSPropertyOp16
 70
     1
102
RTVSPropertyOp17
 70
     1
102
RTVSPropertyOp18
 70
     1
102
RTVSPropertyOp19
 70
     1
102
RTVSPropertyOp20
 70
     1
102
RTVSPropertyOp21
 70
     1
102
RTVSPropertyOp22
 70
     1
102
RTVSPropertyOp23
 70
     1
102
RTVSPropertyOp24
 70
     1
102
RTVSPropertyOp25
 70
     1
102
RTVSPropertyOp26
 70
     1
102
RTVSPropertyOp27
 70
     1
102
RTVSPropertyOp28
 70
     1
102
RTVSPropertyOp29
 70
     1
102
RTVSPropertyOp30
 70
     1
102
RTVSPropertyOp31
 70
     1
102
RTVSPropertyOp32
 70
     1
102
RTVSPropertyOp33
 70
     1
102
RTVSPropertyOp34
 70
     1
102
RTVSPropertyOp35
 70
     1
102
RTVSPropertyOp36
 70
     1
102
RTVSPropertyOp37
 70
     1
102
RTVSPropertyOp38
 70
     1
102
RTVSPropertyOp39
 70
     1
102
RTVSPropertyOp40
 70
     1
102
RTVSPropertyOp41
 70
     1
102
RTVSPropertyOp42
 70
     1
102
RTVSPropertyOp43
 70
     1
102
RTVSPropertyOp44
 70
     1
102
RTVSPropertyOp45
 70
     1
102
RTVSPropertyOp46
 70
     1
102
RTVSPropertyOp47
 70
     1
102
RTVSPropertyOp48
 70
     1
102
RTVSPropertyOp49
 70
     1
102
RTVSPropertyOp50
 70
     1
102
RTVSPropertyOp51
 70
     0
102
RTVSPropertyOp52
 70
     0
102
RTVSPropertyOp53
 70
     1
102
RTVSPropertyOp54
 70
     1
102
RTVSPropertyOp55
 70
     1
102
RTVSPropertyOp56
 70
     1
102
RTVSPropertyOp57
 70
     1
102
RTVSPropertyOp58
 70
     1
102
RTVSPropertyOp59
 70
     1
102
RTVSPropertyOp60
 70
     1
102
RTVSPropertyOp61
 70
     1
102
RTVSPropertyOp62
 70
     1
  0
XRECORD
  5
45D
102
{ACAD_REACTORS
330
45C
102
}
330
45C
100
AcDbXrecord
280
     1
102
RTVSPost2010Prop28
280
     0
102
RTVSPost2010PropOp28
 70
     1
102
RTVSPost2010Prop29
280
     1
102
RTVSPost2010PropOp29
 70
     1
102
RTVSPost2010Prop30
280
     1
102
RTVSPost2010PropOp30
 70
     1
102
RTVSPost2010Prop31
280
     0
102
RTVSPost2010PropOp31
 70
     1
102
RTVSPost2010Prop32
280
     0
102
RTVSPost2010PropOp32
 70
     1
102
RTVSPost2010Prop33
280
     0
102
RTVSPost2010PropOp33
 70
     1
102
RTVSPost2010Prop34
280
     0
102
RTVSPost2010PropOp34
 70
     1
102
RTVSPost2010Prop35
280
     0
102
RTVSPost2010PropOp35
 70
     1
102
RTVSPost2010Prop36
280
     0
102
RTVSPost2010PropOp36
 70
     1
102
RTVSPost2010Prop37
 90
       50
102
RTVSPost2010PropOp37
 70
     0
102
RTVSPost2010Prop38
140
0.0
102
RTVSPost2010PropOp38
 70
     0
102
RTVSPost2010Prop39
140
1.0
102
RTVSPost2010PropOp39
 70
     0
102
RTVSPost2010Prop40
 90
        0
102
RTVSPost2010PropOp40
 70
     0
102
RTVSPost2010Prop41ColorIndex
 90
       18
102
RTVSPost2010Prop41ColorRGB
 90
        0
102
RTVSPost2010PropOp41
 70
     0
102
RTVSPost2010Prop42
 90
       50
102
RTVSPost2010PropOp42
 70
     0
102
RTVSPost2010Prop43
 90
        3
102
RTVSPost2010PropOp43
 70
     0
102
RTVSPost2010Prop44ColorIndex
 90
        5
102
RTVSPost2010Prop44ColorRGB
 90
      255
102
RTVSPost2010PropOp44
 70
     0
102
RTVSPost2010Prop45
280
     0
102
RTVSPost2010PropOp45
 70
     1
102
RTVSPost2010Prop46
 90
       50
102
RTVSPost2010PropOp46
 70
     0
102
RTVSPost2010Prop47
 90
       50
102
RTVSPost2010PropOp47
 70
     0
102
RTVSPost2010Prop48
 90
       50
102
RTVSPost2010PropOp48
 70
     0
102
RTVSPost2010Prop49
280
     0
102
RTVSPost2010PropOp49
 70
     1
102
RTVSPost2010Prop50
 90
       50
102
RTVSPost2010PropOp50
 70
     0
102
RTVSPost2010Prop51ColorIndex
 90
      256
102
RTVSPost2010Prop51ColorRGB
 90
-16777216
102
RTVSPost2010PropOp51
 70
     0
102
RTVSPost2010Prop52
140
1.0
102
RTVSPost2010PropOp52
 70
     0
102
RTVSPost2010Prop53
 90
        2
102
RTVSPost2010PropOp53
 70
     0
102
RTVSPost2010Prop54
  1
strokes_ogs.tif
102
RTVSPost2010PropOp54
 70
     0
102
RTVSPost2010Prop55
280
     0
102
RTVSPost2010PropOp55
 70
     1
102
RTVSPost2010Prop56
140
1.0
102
RTVSPost2010PropOp56
 70
     0
102
RTVSPost2010Prop57
140
1.0
102
RTVSPost2010PropOp57
 70
     0
102
RTVSPropertyOp0
 70
     0
102
RTVSPropertyOp1
 70
     0
102
RTVSPropertyOp2
 70
     0
102
RTVSPropertyOp3
 70
     0
102
RTVSPropertyOp4
 70
     0
102
RTVSPropertyOp5
 70
     0
102
RTVSPropertyOp6
 70
     0
102
RTVSPropertyOp7
 70
     0
102
RTVSPropertyOp8
 70
     0
102
RTVSPropertyOp9
 70
     0
102
RTVSPropertyOp10
 70
     0
102
RTVSPropertyOp11
 70
     0
102
RTVSPropertyOp12
 70
     0
102
RTVSPropertyOp13
 70
     0
102
RTVSPropertyOp14
 70
     2
102
RTVSPropertyOp15
 70
     0
102
RTVSPropertyOp16
 70
     0
102
RTVSPropertyOp17
 70
     0
102
RTVSPropertyOp18
 70
     0
102
RTVSPropertyOp19
 70
     0
102
RTVSPropertyOp20
 70
     0
102
RTVSPropertyOp21
 70
     0
102
RTVSPropertyOp22
 70
     0
102
RTVSPropertyOp23
 70
     0
102
RTVSPropertyOp24
 70
     0
102
RTVSPropertyOp25
 70
     0
102
RTVSPropertyOp26
 70
     0
102
RTVSPropertyOp27
 70
     0
102
RTVSPropertyOp28
 70
     1
102
RTVSPropertyOp29
 70
     1
102
RTVSPropertyOp30
 70
     1
102
RTVSPropertyOp31
 70
     1
102
RTVSPropertyOp32
 70
     1
102
RTVSPropertyOp33
 70
     1
102
RTVSPropertyOp34
 70
     1
102
RTVSPropertyOp35
 70
     1
102
RTVSPropertyOp36
 70
     1
102
RTVSPropertyOp37
 70
     0
102
RTVSPropertyOp38
 70
     0
102
RTVSPropertyOp39
 70
     0
102
RTVSPropertyOp40
 70
     0
102
RTVSPropertyOp41
 70
     0
102
RTVSPropertyOp42
 70
     0
102
RTVSPropertyOp43
 70
     0
102
RTVSPropertyOp44
 70
     0
102
RTVSPropertyOp45
 70
     1
102
RTVSPropertyOp46
 70
     0
102
RTVSPropertyOp47
 70
     0
102
RTVSPropertyOp48
 70
     0
102
RTVSPropertyOp49
 70
     1
102
RTVSPropertyOp50
 70
     0
102
RTVSPropertyOp51
 70
     0
102
RTVSPropertyOp52
 70
     0
102
RTVSPropertyOp53
 70
     0
102
RTVSPropertyOp54
 70
     0
102
RTVSPropertyOp55
 70
     1
102
RTVSPropertyOp56
 70
     0
102
RTVSPropertyOp57
 70
     0
102
RTVSPropertyOp58
 70
     0
102
RTVSPropertyOp59
 70
     0
102
RTVSPropertyOp60
 70
     0
102
RTVSPropertyOp61
 70
     0
102
RTVSPropertyOp62
 70
     0
  0
XRECORD
  5
443
102
{ACAD_REACTORS
330
442
102
}
330
442
100
AcDbXrecord
280
     1
102
RTVSPost2010Prop28
280
     0
102
RTVSPost2010PropOp28
 70
     1
102
RTVSPost2010Prop29
280
     1
102
RTVSPost2010PropOp29
 70
     1
102
RTVSPost2010Prop30
280
     1
102
RTVSPost2010PropOp30
 70
     1
102
RTVSPost2010Prop31
280
     0
102
RTVSPost2010PropOp31
 70
     1
102
RTVSPost2010Prop32
280
     0
102
RTVSPost2010PropOp32
 70
     1
102
RTVSPost2010Prop33
280
     0
102
RTVSPost2010PropOp33
 70
     1
102
RTVSPost2010Prop34
280
     0
102
RTVSPost2010PropOp34
 70
     1
102
RTVSPost2010Prop35
280
     0
102
RTVSPost2010PropOp35
 70
     1
102
RTVSPost2010Prop36
280
     0
102
RTVSPost2010PropOp36
 70
     1
102
RTVSPost2010Prop37
 90
       50
102
RTVSPost2010PropOp37
 70
     1
102
RTVSPost2010Prop38
140
0.0
102
RTVSPost2010PropOp38
 70
     1
102
RTVSPost2010Prop39
140
1.0
102
RTVSPost2010PropOp39
 70
     1
102
RTVSPost2010Prop40
 90
        0
102
RTVSPost2010PropOp40
 70
     1
102
RTVSPost2010Prop41ColorIndex
 90
       18
102
RTVSPost2010Prop41ColorRGB
 90
        0
102
RTVSPost2010PropOp41
 70
     1
102
RTVSPost2010Prop42
 90
       50
102
RTVSPost2010PropOp42
 70
     1
102
RTVSPost2010Prop43
 90
        3
102
RTVSPost2010PropOp43
 70
     1
102
RTVSPost2010Prop44ColorIndex
 90
        5
102
RTVSPost2010Prop44ColorRGB
 90
      255
102
RTVSPost2010PropOp44
 70
     1
102
RTVSPost2010Prop45
280
     0
102
RTVSPost2010PropOp45
 70
     1
102
RTVSPost2010Prop46
 90
       50
102
RTVSPost2010PropOp46
 70
     1
102
RTVSPost2010Prop47
 90
       50
102
RTVSPost2010PropOp47
 70
     1
102
RTVSPost2010Prop48
 90
       50
102
RTVSPost2010PropOp48
 70
     1
102
RTVSPost2010Prop49
280
     0
102
RTVSPost2010PropOp49
 70
     1
102
RTVSPost2010Prop50
 90
       50
102
RTVSPost2010PropOp50
 70
     1
102
RTVSPost2010Prop51ColorIndex
 90
      256
102
RTVSPost2010Prop51ColorRGB
 90
-16777216
102
RTVSPost2010PropOp51
 70
     0
102
RTVSPost2010Prop52
140
1.0
102
RTVSPost2010PropOp52
 70
     0
102
RTVSPost2010Prop53
 90
        2
102
RTVSPost2010PropOp53
 70
     1
102
RTVSPost2010Prop54
  1
strokes_ogs.tif
102
RTVSPost2010PropOp54
 70
     1
102
RTVSPost2010Prop55
280
     0
102
RTVSPost2010PropOp55
 70
     1
102
RTVSPost2010Prop56
140
1.0
102
RTVSPost2010PropOp56
 70
     1
102
RTVSPost2010Prop57
140
1.0
102
RTVSPost2010PropOp57
 70
     1
102
RTVSPropertyOp0
 70
     1
102
RTVSPropertyOp1
 70
     1
102
RTVSPropertyOp2
 70
     1
102
RTVSPropertyOp3
 70
     1
102
RTVSPropertyOp4
 70
     1
102
RTVSPropertyOp5
 70
     1
102
RTVSPropertyOp6
 70
     1
102
RTVSPropertyOp7
 70
     1
102
RTVSPropertyOp8
 70
     1
102
RTVSPropertyOp9
 70
     1
102
RTVSPropertyOp10
 70
     1
102
RTVSPropertyOp11
 70
     1
102
RTVSPropertyOp12
 70
     1
102
RTVSPropertyOp13
 70
     1
102
RTVSPropertyOp14
 70
     1
102
RTVSPropertyOp15
 70
     1
102
RTVSPropertyOp16
 70
     1
102
RTVSPropertyOp17
 70
     1
102
RTVSPropertyOp18
 70
     1
102
RTVSPropertyOp19
 70
     1
102
RTVSPropertyOp20
 70
     1
102
RTVSPropertyOp21
 70
     1
102
RTVSPropertyOp22
 70
     1
102
RTVSPropertyOp23
 70
     1
102
RTVSPropertyOp24
 70
     1
102
RTVSPropertyOp25
 70
     1
102
RTVSPropertyOp26
 70
     1
102
RTVSPropertyOp27
 70
     1
102
RTVSPropertyOp28
 70
     1
102
RTVSPropertyOp29
 70
     1
102
RTVSPropertyOp30
 70
     1
102
RTVSPropertyOp31
 70
     1
102
RTVSPropertyOp32
 70
     1
102
RTVSPropertyOp33
 70
     1
102
RTVSPropertyOp34
 70
     1
102
RTVSPropertyOp35
 70
     1
102
RTVSPropertyOp36
 70
     1
102
RTVSPropertyOp37
 70
     1
102
RTVSPropertyOp38
 70
     1
102
RTVSPropertyOp39
 70
     1
102
RTVSPropertyOp40
 70
     1
102
RTVSPropertyOp41
 70
     1
102
RTVSPropertyOp42
 70
     1
102
RTVSPropertyOp43
 70
     1
102
RTVSPropertyOp44
 70
     1
102
RTVSPropertyOp45
 70
     1
102
RTVSPropertyOp46
 70
     1
102
RTVSPropertyOp47
 70
     1
102
RTVSPropertyOp48
 70
     1
102
RTVSPropertyOp49
 70
     1
102
RTVSPropertyOp50
 70
     1
102
RTVSPropertyOp51
 70
     0
102
RTVSPropertyOp52
 70
     0
102
RTVSPropertyOp53
 70
     1
102
RTVSPropertyOp54
 70
     1
102
RTVSPropertyOp55
 70
     1
102
RTVSPropertyOp56
 70
     1
102
RTVSPropertyOp57
 70
     1
102
RTVSPropertyOp58
 70
     1
102
RTVSPropertyOp59
 70
     1
102
RTVSPropertyOp60
 70
     1
102
RTVSPropertyOp61
 70
     1
102
RTVSPropertyOp62
 70
     1
  0
XRECORD
  5
459
102
{ACAD_REACTORS
330
458
102
}
330
458
100
AcDbXrecord
280
     1
102
RTVSPost2010Prop28
280
     0
102
RTVSPost2010PropOp28
 70
     1
102
RTVSPost2010Prop29
280
     1
102
RTVSPost2010PropOp29
 70
     1
102
RTVSPost2010Prop30
280
     1
102
RTVSPost2010PropOp30
 70
     1
102
RTVSPost2010Prop31
280
     0
102
RTVSPost2010PropOp31
 70
     1
102
RTVSPost2010Prop32
280
     0
102
RTVSPost2010PropOp32
 70
     1
102
RTVSPost2010Prop33
280
     0
102
RTVSPost2010PropOp33
 70
     1
102
RTVSPost2010Prop34
280
     0
102
RTVSPost2010PropOp34
 70
     1
102
RTVSPost2010Prop35
280
     0
102
RTVSPost2010PropOp35
 70
     1
102
RTVSPost2010Prop36
280
     0
102
RTVSPost2010PropOp36
 70
     1
102
RTVSPost2010Prop37
 90
       50
102
RTVSPost2010PropOp37
 70
     1
102
RTVSPost2010Prop38
140
0.0
102
RTVSPost2010PropOp38
 70
     1
102
RTVSPost2010Prop39
140
1.0
102
RTVSPost2010PropOp39
 70
     1
102
RTVSPost2010Prop40
 90
        0
102
RTVSPost2010PropOp40
 70
     1
102
RTVSPost2010Prop41ColorIndex
 90
       18
102
RTVSPost2010Prop41ColorRGB
 90
        0
102
RTVSPost2010PropOp41
 70
     1
102
RTVSPost2010Prop42
 90
       50
102
RTVSPost2010PropOp42
 70
     1
102
RTVSPost2010Prop43
 90
        3
102
RTVSPost2010PropOp43
 70
     1
102
RTVSPost2010Prop44ColorIndex
 90
        5
102
RTVSPost2010Prop44ColorRGB
 90
      255
102
RTVSPost2010PropOp44
 70
     1
102
RTVSPost2010Prop45
280
     0
102
RTVSPost2010PropOp45
 70
     1
102
RTVSPost2010Prop46
 90
       50
102
RTVSPost2010PropOp46
 70
     1
102
RTVSPost2010Prop47
 90
       50
102
RTVSPost2010PropOp47
 70
     1
102
RTVSPost2010Prop48
 90
       50
102
RTVSPost2010PropOp48
 70
     1
102
RTVSPost2010Prop49
280
     0
102
RTVSPost2010PropOp49
 70
     1
102
RTVSPost2010Prop50
 90
       50
102
RTVSPost2010PropOp50
 70
     1
102
RTVSPost2010Prop51ColorIndex
 90
      256
102
RTVSPost2010Prop51ColorRGB
 90
-16777216
102
RTVSPost2010PropOp51
 70
     0
102
RTVSPost2010Prop52
140
1.0
102
RTVSPost2010PropOp52
 70
     0
102
RTVSPost2010Prop53
 90
        2
102
RTVSPost2010PropOp53
 70
     1
102
RTVSPost2010Prop54
  1
strokes_ogs.tif
102
RTVSPost2010PropOp54
 70
     1
102
RTVSPost2010Prop55
280
     0
102
RTVSPost2010PropOp55
 70
     1
102
RTVSPost2010Prop56
140
1.0
102
RTVSPost2010PropOp56
 70
     1
102
RTVSPost2010Prop57
140
1.0
102
RTVSPost2010PropOp57
 70
     1
102
RTVSPropertyOp0
 70
     1
102
RTVSPropertyOp1
 70
     1
102
RTVSPropertyOp2
 70
     1
102
RTVSPropertyOp3
 70
     1
102
RTVSPropertyOp4
 70
     1
102
RTVSPropertyOp5
 70
     1
102
RTVSPropertyOp6
 70
     1
102
RTVSPropertyOp7
 70
     1
102
RTVSPropertyOp8
 70
     1
102
RTVSPropertyOp9
 70
     1
102
RTVSPropertyOp10
 70
     1
102
RTVSPropertyOp11
 70
     1
102
RTVSPropertyOp12
 70
     1
102
RTVSPropertyOp13
 70
     1
102
RTVSPropertyOp14
 70
     1
102
RTVSPropertyOp15
 70
     1
102
RTVSPropertyOp16
 70
     1
102
RTVSPropertyOp17
 70
     1
102
RTVSPropertyOp18
 70
     1
102
RTVSPropertyOp19
 70
     1
102
RTVSPropertyOp20
 70
     1
102
RTVSPropertyOp21
 70
     1
102
RTVSPropertyOp22
 70
     1
102
RTVSPropertyOp23
 70
     1
102
RTVSPropertyOp24
 70
     1
102
RTVSPropertyOp25
 70
     1
102
RTVSPropertyOp26
 70
     1
102
RTVSPropertyOp27
 70
     1
102
RTVSPropertyOp28
 70
     1
102
RTVSPropertyOp29
 70
     1
102
RTVSPropertyOp30
 70
     1
102
RTVSPropertyOp31
 70
     1
102
RTVSPropertyOp32
 70
     1
102
RTVSPropertyOp33
 70
     1
102
RTVSPropertyOp34
 70
     1
102
RTVSPropertyOp35
 70
     1
102
RTVSPropertyOp36
 70
     1
102
RTVSPropertyOp37
 70
     1
102
RTVSPropertyOp38
 70
     1
102
RTVSPropertyOp39
 70
     1
102
RTVSPropertyOp40
 70
     1
102
RTVSPropertyOp41
 70
     1
102
RTVSPropertyOp42
 70
     1
102
RTVSPropertyOp43
 70
     1
102
RTVSPropertyOp44
 70
     1
102
RTVSPropertyOp45
 70
     1
102
RTVSPropertyOp46
 70
     1
102
RTVSPropertyOp47
 70
     1
102
RTVSPropertyOp48
 70
     1
102
RTVSPropertyOp49
 70
     1
102
RTVSPropertyOp50
 70
     1
102
RTVSPropertyOp51
 70
     0
102
RTVSPropertyOp52
 70
     0
102
RTVSPropertyOp53
 70
     1
102
RTVSPropertyOp54
 70
     1
102
RTVSPropertyOp55
 70
     1
102
RTVSPropertyOp56
 70
     1
102
RTVSPropertyOp57
 70
     1
102
RTVSPropertyOp58
 70
     1
102
RTVSPropertyOp59
 70
     1
102
RTVSPropertyOp60
 70
     1
102
RTVSPropertyOp61
 70
     1
102
RTVSPropertyOp62
 70
     1
  0
XRECORD
  5
457
102
{ACAD_REACTORS
330
456
102
}
330
456
100
AcDbXrecord
280
     1
102
RTVSPost2010Prop28
280
     0
102
RTVSPost2010PropOp28
 70
     1
102
RTVSPost2010Prop29
280
     1
102
RTVSPost2010PropOp29
 70
     1
102
RTVSPost2010Prop30
280
     1
102
RTVSPost2010PropOp30
 70
     1
102
RTVSPost2010Prop31
280
     0
102
RTVSPost2010PropOp31
 70
     1
102
RTVSPost2010Prop32
280
     0
102
RTVSPost2010PropOp32
 70
     1
102
RTVSPost2010Prop33
280
     0
102
RTVSPost2010PropOp33
 70
     1
102
RTVSPost2010Prop34
280
     0
102
RTVSPost2010PropOp34
 70
     1
102
RTVSPost2010Prop35
280
     0
102
RTVSPost2010PropOp35
 70
     1
102
RTVSPost2010Prop36
280
     0
102
RTVSPost2010PropOp36
 70
     1
102
RTVSPost2010Prop37
 90
       50
102
RTVSPost2010PropOp37
 70
     1
102
RTVSPost2010Prop38
140
0.0
102
RTVSPost2010PropOp38
 70
     1
102
RTVSPost2010Prop39
140
1.0
102
RTVSPost2010PropOp39
 70
     1
102
RTVSPost2010Prop40
 90
        0
102
RTVSPost2010PropOp40
 70
     1
102
RTVSPost2010Prop41ColorIndex
 90
       18
102
RTVSPost2010Prop41ColorRGB
 90
        0
102
RTVSPost2010PropOp41
 70
     1
102
RTVSPost2010Prop42
 90
       50
102
RTVSPost2010PropOp42
 70
     1
102
RTVSPost2010Prop43
 90
        3
102
RTVSPost2010PropOp43
 70
     1
102
RTVSPost2010Prop44ColorIndex
 90
        5
102
RTVSPost2010Prop44ColorRGB
 90
      255
102
RTVSPost2010PropOp44
 70
     1
102
RTVSPost2010Prop45
280
     0
102
RTVSPost2010PropOp45
 70
     1
102
RTVSPost2010Prop46
 90
       50
102
RTVSPost2010PropOp46
 70
     1
102
RTVSPost2010Prop47
 90
       50
102
RTVSPost2010PropOp47
 70
     1
102
RTVSPost2010Prop48
 90
       50
102
RTVSPost2010PropOp48
 70
     1
102
RTVSPost2010Prop49
280
     0
102
RTVSPost2010PropOp49
 70
     1
102
RTVSPost2010Prop50
 90
       50
102
RTVSPost2010PropOp50
 70
     1
102
RTVSPost2010Prop51ColorIndex
 90
      256
102
RTVSPost2010Prop51ColorRGB
 90
-16777216
102
RTVSPost2010PropOp51
 70
     0
102
RTVSPost2010Prop52
140
1.0
102
RTVSPost2010PropOp52
 70
     0
102
RTVSPost2010Prop53
 90
        2
102
RTVSPost2010PropOp53
 70
     1
102
RTVSPost2010Prop54
  1
strokes_ogs.tif
102
RTVSPost2010PropOp54
 70
     1
102
RTVSPost2010Prop55
280
     0
102
RTVSPost2010PropOp55
 70
     1
102
RTVSPost2010Prop56
140
1.0
102
RTVSPost2010PropOp56
 70
     1
102
RTVSPost2010Prop57
140
1.0
102
RTVSPost2010PropOp57
 70
     1
102
RTVSPropertyOp0
 70
     1
102
RTVSPropertyOp1
 70
     1
102
RTVSPropertyOp2
 70
     1
102
RTVSPropertyOp3
 70
     1
102
RTVSPropertyOp4
 70
     1
102
RTVSPropertyOp5
 70
     1
102
RTVSPropertyOp6
 70
     1
102
RTVSPropertyOp7
 70
     1
102
RTVSPropertyOp8
 70
     1
102
RTVSPropertyOp9
 70
     1
102
RTVSPropertyOp10
 70
     1
102
RTVSPropertyOp11
 70
     1
102
RTVSPropertyOp12
 70
     1
102
RTVSPropertyOp13
 70
     1
102
RTVSPropertyOp14
 70
     1
102
RTVSPropertyOp15
 70
     1
102
RTVSPropertyOp16
 70
     1
102
RTVSPropertyOp17
 70
     1
102
RTVSPropertyOp18
 70
     1
102
RTVSPropertyOp19
 70
     1
102
RTVSPropertyOp20
 70
     1
102
RTVSPropertyOp21
 70
     1
102
RTVSPropertyOp22
 70
     1
102
RTVSPropertyOp23
 70
     1
102
RTVSPropertyOp24
 70
     1
102
RTVSPropertyOp25
 70
     1
102
RTVSPropertyOp26
 70
     1
102
RTVSPropertyOp27
 70
     1
102
RTVSPropertyOp28
 70
     1
102
RTVSPropertyOp29
 70
     1
102
RTVSPropertyOp30
 70
     1
102
RTVSPropertyOp31
 70
     1
102
RTVSPropertyOp32
 70
     1
102
RTVSPropertyOp33
 70
     1
102
RTVSPropertyOp34
 70
     1
102
RTVSPropertyOp35
 70
     1
102
RTVSPropertyOp36
 70
     1
102
RTVSPropertyOp37
 70
     1
102
RTVSPropertyOp38
 70
     1
102
RTVSPropertyOp39
 70
     1
102
RTVSPropertyOp40
 70
     1
102
RTVSPropertyOp41
 70
     1
102
RTVSPropertyOp42
 70
     1
102
RTVSPropertyOp43
 70
     1
102
RTVSPropertyOp44
 70
     1
102
RTVSPropertyOp45
 70
     1
102
RTVSPropertyOp46
 70
     1
102
RTVSPropertyOp47
 70
     1
102
RTVSPropertyOp48
 70
     1
102
RTVSPropertyOp49
 70
     1
102
RTVSPropertyOp50
 70
     1
102
RTVSPropertyOp51
 70
     0
102
RTVSPropertyOp52
 70
     0
102
RTVSPropertyOp53
 70
     1
102
RTVSPropertyOp54
 70
     1
102
RTVSPropertyOp55
 70
     1
102
RTVSPropertyOp56
 70
     1
102
RTVSPropertyOp57
 70
     1
102
RTVSPropertyOp58
 70
     1
102
RTVSPropertyOp59
 70
     1
102
RTVSPropertyOp60
 70
     1
102
RTVSPropertyOp61
 70
     1
102
RTVSPropertyOp62
 70
     1
  0
XRECORD
  5
451
102
{ACAD_REACTORS
330
450
102
}
330
450
100
AcDbXrecord
280
     1
102
RTVSPost2010Prop28
280
     0
102
RTVSPost2010PropOp28
 70
     1
102
RTVSPost2010Prop29
280
     1
102
RTVSPost2010PropOp29
 70
     1
102
RTVSPost2010Prop30
280
     1
102
RTVSPost2010PropOp30
 70
     1
102
RTVSPost2010Prop31
280
     0
102
RTVSPost2010PropOp31
 70
     1
102
RTVSPost2010Prop32
280
     0
102
RTVSPost2010PropOp32
 70
     1
102
RTVSPost2010Prop33
280
     0
102
RTVSPost2010PropOp33
 70
     1
102
RTVSPost2010Prop34
280
     0
102
RTVSPost2010PropOp34
 70
     1
102
RTVSPost2010Prop35
280
     0
102
RTVSPost2010PropOp35
 70
     1
102
RTVSPost2010Prop36
280
     0
102
RTVSPost2010PropOp36
 70
     1
102
RTVSPost2010Prop37
 90
       50
102
RTVSPost2010PropOp37
 70
     1
102
RTVSPost2010Prop38
140
0.0
102
RTVSPost2010PropOp38
 70
     1
102
RTVSPost2010Prop39
140
1.0
102
RTVSPost2010PropOp39
 70
     1
102
RTVSPost2010Prop40
 90
        0
102
RTVSPost2010PropOp40
 70
     1
102
RTVSPost2010Prop41ColorIndex
 90
       18
102
RTVSPost2010Prop41ColorRGB
 90
        0
102
RTVSPost2010PropOp41
 70
     1
102
RTVSPost2010Prop42
 90
       50
102
RTVSPost2010PropOp42
 70
     1
102
RTVSPost2010Prop43
 90
        3
102
RTVSPost2010PropOp43
 70
     1
102
RTVSPost2010Prop44ColorIndex
 90
        5
102
RTVSPost2010Prop44ColorRGB
 90
      255
102
RTVSPost2010PropOp44
 70
     1
102
RTVSPost2010Prop45
280
     0
102
RTVSPost2010PropOp45
 70
     1
102
RTVSPost2010Prop46
 90
       50
102
RTVSPost2010PropOp46
 70
     1
102
RTVSPost2010Prop47
 90
       50
102
RTVSPost2010PropOp47
 70
     1
102
RTVSPost2010Prop48
 90
       50
102
RTVSPost2010PropOp48
 70
     1
102
RTVSPost2010Prop49
280
     0
102
RTVSPost2010PropOp49
 70
     1
102
RTVSPost2010Prop50
 90
       50
102
RTVSPost2010PropOp50
 70
     1
102
RTVSPost2010Prop51ColorIndex
 90
      256
102
RTVSPost2010Prop51ColorRGB
 90
-16777216
102
RTVSPost2010PropOp51
 70
     0
102
RTVSPost2010Prop52
140
1.0
102
RTVSPost2010PropOp52
 70
     0
102
RTVSPost2010Prop53
 90
        2
102
RTVSPost2010PropOp53
 70
     1
102
RTVSPost2010Prop54
  1
strokes_ogs.tif
102
RTVSPost2010PropOp54
 70
     1
102
RTVSPost2010Prop55
280
     0
102
RTVSPost2010PropOp55
 70
     1
102
RTVSPost2010Prop56
140
1.0
102
RTVSPost2010PropOp56
 70
     1
102
RTVSPost2010Prop57
140
1.0
102
RTVSPost2010PropOp57
 70
     1
102
RTVSPropertyOp0
 70
     1
102
RTVSPropertyOp1
 70
     1
102
RTVSPropertyOp2
 70
     1
102
RTVSPropertyOp3
 70
     1
102
RTVSPropertyOp4
 70
     1
102
RTVSPropertyOp5
 70
     1
102
RTVSPropertyOp6
 70
     1
102
RTVSPropertyOp7
 70
     1
102
RTVSPropertyOp8
 70
     1
102
RTVSPropertyOp9
 70
     1
102
RTVSPropertyOp10
 70
     1
102
RTVSPropertyOp11
 70
     1
102
RTVSPropertyOp12
 70
     1
102
RTVSPropertyOp13
 70
     1
102
RTVSPropertyOp14
 70
     1
102
RTVSPropertyOp15
 70
     1
102
RTVSPropertyOp16
 70
     1
102
RTVSPropertyOp17
 70
     1
102
RTVSPropertyOp18
 70
     1
102
RTVSPropertyOp19
 70
     1
102
RTVSPropertyOp20
 70
     1
102
RTVSPropertyOp21
 70
     1
102
RTVSPropertyOp22
 70
     1
102
RTVSPropertyOp23
 70
     1
102
RTVSPropertyOp24
 70
     1
102
RTVSPropertyOp25
 70
     1
102
RTVSPropertyOp26
 70
     1
102
RTVSPropertyOp27
 70
     1
102
RTVSPropertyOp28
 70
     1
102
RTVSPropertyOp29
 70
     1
102
RTVSPropertyOp30
 70
     1
102
RTVSPropertyOp31
 70
     1
102
RTVSPropertyOp32
 70
     1
102
RTVSPropertyOp33
 70
     1
102
RTVSPropertyOp34
 70
     1
102
RTVSPropertyOp35
 70
     1
102
RTVSPropertyOp36
 70
     1
102
RTVSPropertyOp37
 70
     1
102
RTVSPropertyOp38
 70
     1
102
RTVSPropertyOp39
 70
     1
102
RTVSPropertyOp40
 70
     1
102
RTVSPropertyOp41
 70
     1
102
RTVSPropertyOp42
 70
     1
102
RTVSPropertyOp43
 70
     1
102
RTVSPropertyOp44
 70
     1
102
RTVSPropertyOp45
 70
     1
102
RTVSPropertyOp46
 70
     1
102
RTVSPropertyOp47
 70
     1
102
RTVSPropertyOp48
 70
     1
102
RTVSPropertyOp49
 70
     1
102
RTVSPropertyOp50
 70
     1
102
RTVSPropertyOp51
 70
     0
102
RTVSPropertyOp52
 70
     0
102
RTVSPropertyOp53
 70
     1
102
RTVSPropertyOp54
 70
     1
102
RTVSPropertyOp55
 70
     1
102
RTVSPropertyOp56
 70
     1
102
RTVSPropertyOp57
 70
     1
102
RTVSPropertyOp58
 70
     1
102
RTVSPropertyOp59
 70
     1
102
RTVSPropertyOp60
 70
     1
102
RTVSPropertyOp61
 70
     1
102
RTVSPropertyOp62
 70
     1
  0
XRECORD
  5
453
102
{ACAD_REACTORS
330
452
102
}
330
452
100
AcDbXrecord
280
     1
102
RTVSPost2010Prop28
280
     0
102
RTVSPost2010PropOp28
 70
     1
102
RTVSPost2010Prop29
280
     1
102
RTVSPost2010PropOp29
 70
     1
102
RTVSPost2010Prop30
280
     1
102
RTVSPost2010PropOp30
 70
     1
102
RTVSPost2010Prop31
280
     0
102
RTVSPost2010PropOp31
 70
     1
102
RTVSPost2010Prop32
280
     0
102
RTVSPost2010PropOp32
 70
     1
102
RTVSPost2010Prop33
280
     0
102
RTVSPost2010PropOp33
 70
     1
102
RTVSPost2010Prop34
280
     0
102
RTVSPost2010PropOp34
 70
     1
102
RTVSPost2010Prop35
280
     0
102
RTVSPost2010PropOp35
 70
     1
102
RTVSPost2010Prop36
280
     0
102
RTVSPost2010PropOp36
 70
     1
102
RTVSPost2010Prop37
 90
       50
102
RTVSPost2010PropOp37
 70
     1
102
RTVSPost2010Prop38
140
0.0
102
RTVSPost2010PropOp38
 70
     1
102
RTVSPost2010Prop39
140
1.0
102
RTVSPost2010PropOp39
 70
     1
102
RTVSPost2010Prop40
 90
        0
102
RTVSPost2010PropOp40
 70
     1
102
RTVSPost2010Prop41ColorIndex
 90
       18
102
RTVSPost2010Prop41ColorRGB
 90
        0
102
RTVSPost2010PropOp41
 70
     1
102
RTVSPost2010Prop42
 90
       50
102
RTVSPost2010PropOp42
 70
     1
102
RTVSPost2010Prop43
 90
        3
102
RTVSPost2010PropOp43
 70
     1
102
RTVSPost2010Prop44ColorIndex
 90
        5
102
RTVSPost2010Prop44ColorRGB
 90
      255
102
RTVSPost2010PropOp44
 70
     1
102
RTVSPost2010Prop45
280
     0
102
RTVSPost2010PropOp45
 70
     1
102
RTVSPost2010Prop46
 90
       50
102
RTVSPost2010PropOp46
 70
     1
102
RTVSPost2010Prop47
 90
       50
102
RTVSPost2010PropOp47
 70
     1
102
RTVSPost2010Prop48
 90
       50
102
RTVSPost2010PropOp48
 70
     1
102
RTVSPost2010Prop49
280
     0
102
RTVSPost2010PropOp49
 70
     1
102
RTVSPost2010Prop50
 90
       50
102
RTVSPost2010PropOp50
 70
     1
102
RTVSPost2010Prop51ColorIndex
 90
      256
102
RTVSPost2010Prop51ColorRGB
 90
-16777216
102
RTVSPost2010PropOp51
 70
     0
102
RTVSPost2010Prop52
140
1.0
102
RTVSPost2010PropOp52
 70
     0
102
RTVSPost2010Prop53
 90
        2
102
RTVSPost2010PropOp53
 70
     1
102
RTVSPost2010Prop54
  1
strokes_ogs.tif
102
RTVSPost2010PropOp54
 70
     1
102
RTVSPost2010Prop55
280
     0
102
RTVSPost2010PropOp55
 70
     1
102
RTVSPost2010Prop56
140
1.0
102
RTVSPost2010PropOp56
 70
     1
102
RTVSPost2010Prop57
140
1.0
102
RTVSPost2010PropOp57
 70
     1
102
RTVSPropertyOp0
 70
     1
102
RTVSPropertyOp1
 70
     1
102
RTVSPropertyOp2
 70
     1
102
RTVSPropertyOp3
 70
     1
102
RTVSPropertyOp4
 70
     1
102
RTVSPropertyOp5
 70
     1
102
RTVSPropertyOp6
 70
     1
102
RTVSPropertyOp7
 70
     1
102
RTVSPropertyOp8
 70
     1
102
RTVSPropertyOp9
 70
     1
102
RTVSPropertyOp10
 70
     1
102
RTVSPropertyOp11
 70
     1
102
RTVSPropertyOp12
 70
     1
102
RTVSPropertyOp13
 70
     1
102
RTVSPropertyOp14
 70
     1
102
RTVSPropertyOp15
 70
     1
102
RTVSPropertyOp16
 70
     1
102
RTVSPropertyOp17
 70
     1
102
RTVSPropertyOp18
 70
     1
102
RTVSPropertyOp19
 70
     1
102
RTVSPropertyOp20
 70
     1
102
RTVSPropertyOp21
 70
     1
102
RTVSPropertyOp22
 70
     1
102
RTVSPropertyOp23
 70
     1
102
RTVSPropertyOp24
 70
     1
102
RTVSPropertyOp25
 70
     1
102
RTVSPropertyOp26
 70
     1
102
RTVSPropertyOp27
 70
     1
102
RTVSPropertyOp28
 70
     1
102
RTVSPropertyOp29
 70
     1
102
RTVSPropertyOp30
 70
     1
102
RTVSPropertyOp31
 70
     1
102
RTVSPropertyOp32
 70
     1
102
RTVSPropertyOp33
 70
     1
102
RTVSPropertyOp34
 70
     1
102
RTVSPropertyOp35
 70
     1
102
RTVSPropertyOp36
 70
     1
102
RTVSPropertyOp37
 70
     1
102
RTVSPropertyOp38
 70
     1
102
RTVSPropertyOp39
 70
     1
102
RTVSPropertyOp40
 70
     1
102
RTVSPropertyOp41
 70
     1
102
RTVSPropertyOp42
 70
     1
102
RTVSPropertyOp43
 70
     1
102
RTVSPropertyOp44
 70
     1
102
RTVSPropertyOp45
 70
     1
102
RTVSPropertyOp46
 70
     1
102
RTVSPropertyOp47
 70
     1
102
RTVSPropertyOp48
 70
     1
102
RTVSPropertyOp49
 70
     1
102
RTVSPropertyOp50
 70
     1
102
RTVSPropertyOp51
 70
     0
102
RTVSPropertyOp52
 70
     0
102
RTVSPropertyOp53
 70
     1
102
RTVSPropertyOp54
 70
     1
102
RTVSPropertyOp55
 70
     1
102
RTVSPropertyOp56
 70
     1
102
RTVSPropertyOp57
 70
     1
102
RTVSPropertyOp58
 70
     1
102
RTVSPropertyOp59
 70
     1
102
RTVSPropertyOp60
 70
     1
102
RTVSPropertyOp61
 70
     1
102
RTVSPropertyOp62
 70
     1
  0
XRECORD
  5
449
102
{ACAD_REACTORS
330
448
102
}
330
448
100
AcDbXrecord
280
     1
102
RTVSPost2010Prop28
280
     0
102
RTVSPost2010PropOp28
 70
     1
102
RTVSPost2010Prop29
280
     1
102
RTVSPost2010PropOp29
 70
     1
102
RTVSPost2010Prop30
280
     1
102
RTVSPost2010PropOp30
 70
     1
102
RTVSPost2010Prop31
280
     0
102
RTVSPost2010PropOp31
 70
     1
102
RTVSPost2010Prop32
280
     0
102
RTVSPost2010PropOp32
 70
     1
102
RTVSPost2010Prop33
280
     0
102
RTVSPost2010PropOp33
 70
     1
102
RTVSPost2010Prop34
280
     0
102
RTVSPost2010PropOp34
 70
     1
102
RTVSPost2010Prop35
280
     0
102
RTVSPost2010PropOp35
 70
     1
102
RTVSPost2010Prop36
280
     0
102
RTVSPost2010PropOp36
 70
     1
102
RTVSPost2010Prop37
 90
       50
102
RTVSPost2010PropOp37
 70
     1
102
RTVSPost2010Prop38
140
0.0
102
RTVSPost2010PropOp38
 70
     1
102
RTVSPost2010Prop39
140
1.0
102
RTVSPost2010PropOp39
 70
     1
102
RTVSPost2010Prop40
 90
        0
102
RTVSPost2010PropOp40
 70
     1
102
RTVSPost2010Prop41ColorIndex
 90
       18
102
RTVSPost2010Prop41ColorRGB
 90
        0
102
RTVSPost2010PropOp41
 70
     1
102
RTVSPost2010Prop42
 90
       50
102
RTVSPost2010PropOp42
 70
     1
102
RTVSPost2010Prop43
 90
        3
102
RTVSPost2010PropOp43
 70
     1
102
RTVSPost2010Prop44ColorIndex
 90
        5
102
RTVSPost2010Prop44ColorRGB
 90
      255
102
RTVSPost2010PropOp44
 70
     1
102
RTVSPost2010Prop45
280
     0
102
RTVSPost2010PropOp45
 70
     1
102
RTVSPost2010Prop46
 90
       50
102
RTVSPost2010PropOp46
 70
     1
102
RTVSPost2010Prop47
 90
       50
102
RTVSPost2010PropOp47
 70
     1
102
RTVSPost2010Prop48
 90
       50
102
RTVSPost2010PropOp48
 70
     1
102
RTVSPost2010Prop49
280
     0
102
RTVSPost2010PropOp49
 70
     1
102
RTVSPost2010Prop50
 90
       50
102
RTVSPost2010PropOp50
 70
     1
102
RTVSPost2010Prop51ColorIndex
 90
      256
102
RTVSPost2010Prop51ColorRGB
 90
-16777216
102
RTVSPost2010PropOp51
 70
     0
102
RTVSPost2010Prop52
140
1.0
102
RTVSPost2010PropOp52
 70
     0
102
RTVSPost2010Prop53
 90
        2
102
RTVSPost2010PropOp53
 70
     1
102
RTVSPost2010Prop54
  1
strokes_ogs.tif
102
RTVSPost2010PropOp54
 70
     1
102
RTVSPost2010Prop55
280
     0
102
RTVSPost2010PropOp55
 70
     1
102
RTVSPost2010Prop56
140
1.0
102
RTVSPost2010PropOp56
 70
     1
102
RTVSPost2010Prop57
140
1.0
102
RTVSPost2010PropOp57
 70
     1
102
RTVSPropertyOp0
 70
     1
102
RTVSPropertyOp1
 70
     1
102
RTVSPropertyOp2
 70
     1
102
RTVSPropertyOp3
 70
     1
102
RTVSPropertyOp4
 70
     1
102
RTVSPropertyOp5
 70
     1
102
RTVSPropertyOp6
 70
     1
102
RTVSPropertyOp7
 70
     1
102
RTVSPropertyOp8
 70
     1
102
RTVSPropertyOp9
 70
     1
102
RTVSPropertyOp10
 70
     1
102
RTVSPropertyOp11
 70
     1
102
RTVSPropertyOp12
 70
     1
102
RTVSPropertyOp13
 70
     1
102
RTVSPropertyOp14
 70
     1
102
RTVSPropertyOp15
 70
     1
102
RTVSPropertyOp16
 70
     1
102
RTVSPropertyOp17
 70
     1
102
RTVSPropertyOp18
 70
     1
102
RTVSPropertyOp19
 70
     1
102
RTVSPropertyOp20
 70
     1
102
RTVSPropertyOp21
 70
     1
102
RTVSPropertyOp22
 70
     1
102
RTVSPropertyOp23
 70
     1
102
RTVSPropertyOp24
 70
     1
102
RTVSPropertyOp25
 70
     1
102
RTVSPropertyOp26
 70
     1
102
RTVSPropertyOp27
 70
     1
102
RTVSPropertyOp28
 70
     1
102
RTVSPropertyOp29
 70
     1
102
RTVSPropertyOp30
 70
     1
102
RTVSPropertyOp31
 70
     1
102
RTVSPropertyOp32
 70
     1
102
RTVSPropertyOp33
 70
     1
102
RTVSPropertyOp34
 70
     1
102
RTVSPropertyOp35
 70
     1
102
RTVSPropertyOp36
 70
     1
102
RTVSPropertyOp37
 70
     1
102
RTVSPropertyOp38
 70
     1
102
RTVSPropertyOp39
 70
     1
102
RTVSPropertyOp40
 70
     1
102
RTVSPropertyOp41
 70
     1
102
RTVSPropertyOp42
 70
     1
102
RTVSPropertyOp43
 70
     1
102
RTVSPropertyOp44
 70
     1
102
RTVSPropertyOp45
 70
     1
102
RTVSPropertyOp46
 70
     1
102
RTVSPropertyOp47
 70
     1
102
RTVSPropertyOp48
 70
     1
102
RTVSPropertyOp49
 70
     1
102
RTVSPropertyOp50
 70
     1
102
RTVSPropertyOp51
 70
     0
102
RTVSPropertyOp52
 70
     0
102
RTVSPropertyOp53
 70
     1
102
RTVSPropertyOp54
 70
     1
102
RTVSPropertyOp55
 70
     1
102
RTVSPropertyOp56
 70
     1
102
RTVSPropertyOp57
 70
     1
102
RTVSPropertyOp58
 70
     1
102
RTVSPropertyOp59
 70
     1
102
RTVSPropertyOp60
 70
     1
102
RTVSPropertyOp61
 70
     1
102
RTVSPropertyOp62
 70
     1
  0
XRECORD
  5
43D
102
{ACAD_REACTORS
330
43C
102
}
330
43C
100
AcDbXrecord
280
     1
102
RTVSPost2010Prop28
280
     0
102
RTVSPost2010PropOp28
 70
     1
102
RTVSPost2010Prop29
280
     1
102
RTVSPost2010PropOp29
 70
     1
102
RTVSPost2010Prop30
280
     1
102
RTVSPost2010PropOp30
 70
     1
102
RTVSPost2010Prop31
280
     0
102
RTVSPost2010PropOp31
 70
     1
102
RTVSPost2010Prop32
280
     0
102
RTVSPost2010PropOp32
 70
     1
102
RTVSPost2010Prop33
280
     0
102
RTVSPost2010PropOp33
 70
     1
102
RTVSPost2010Prop34
280
     0
102
RTVSPost2010PropOp34
 70
     1
102
RTVSPost2010Prop35
280
     0
102
RTVSPost2010PropOp35
 70
     1
102
RTVSPost2010Prop36
280
     0
102
RTVSPost2010PropOp36
 70
     1
102
RTVSPost2010Prop37
 90
       50
102
RTVSPost2010PropOp37
 70
     1
102
RTVSPost2010Prop38
140
0.0
102
RTVSPost2010PropOp38
 70
     1
102
RTVSPost2010Prop39
140
1.0
102
RTVSPost2010PropOp39
 70
     1
102
RTVSPost2010Prop40
 90
        0
102
RTVSPost2010PropOp40
 70
     1
102
RTVSPost2010Prop41ColorIndex
 90
       18
102
RTVSPost2010Prop41ColorRGB
 90
        0
102
RTVSPost2010PropOp41
 70
     1
102
RTVSPost2010Prop42
 90
       50
102
RTVSPost2010PropOp42
 70
     1
102
RTVSPost2010Prop43
 90
        3
102
RTVSPost2010PropOp43
 70
     1
102
RTVSPost2010Prop44ColorIndex
 90
        5
102
RTVSPost2010Prop44ColorRGB
 90
      255
102
RTVSPost2010PropOp44
 70
     1
102
RTVSPost2010Prop45
280
     0
102
RTVSPost2010PropOp45
 70
     1
102
RTVSPost2010Prop46
 90
       50
102
RTVSPost2010PropOp46
 70
     1
102
RTVSPost2010Prop47
 90
       50
102
RTVSPost2010PropOp47
 70
     1
102
RTVSPost2010Prop48
 90
       50
102
RTVSPost2010PropOp48
 70
     1
102
RTVSPost2010Prop49
280
     0
102
RTVSPost2010PropOp49
 70
     1
102
RTVSPost2010Prop50
 90
       50
102
RTVSPost2010PropOp50
 70
     1
102
RTVSPost2010Prop51ColorIndex
 90
      256
102
RTVSPost2010Prop51ColorRGB
 90
-16777216
102
RTVSPost2010PropOp51
 70
     0
102
RTVSPost2010Prop52
140
1.0
102
RTVSPost2010PropOp52
 70
     0
102
RTVSPost2010Prop53
 90
        2
102
RTVSPost2010PropOp53
 70
     1
102
RTVSPost2010Prop54
  1
strokes_ogs.tif
102
RTVSPost2010PropOp54
 70
     1
102
RTVSPost2010Prop55
280
     0
102
RTVSPost2010PropOp55
 70
     1
102
RTVSPost2010Prop56
140
1.0
102
RTVSPost2010PropOp56
 70
     1
102
RTVSPost2010Prop57
140
1.0
102
RTVSPost2010PropOp57
 70
     1
102
RTVSPropertyOp0
 70
     1
102
RTVSPropertyOp1
 70
     1
102
RTVSPropertyOp2
 70
     1
102
RTVSPropertyOp3
 70
     1
102
RTVSPropertyOp4
 70
     1
102
RTVSPropertyOp5
 70
     1
102
RTVSPropertyOp6
 70
     1
102
RTVSPropertyOp7
 70
     1
102
RTVSPropertyOp8
 70
     1
102
RTVSPropertyOp9
 70
     1
102
RTVSPropertyOp10
 70
     1
102
RTVSPropertyOp11
 70
     1
102
RTVSPropertyOp12
 70
     1
102
RTVSPropertyOp13
 70
     1
102
RTVSPropertyOp14
 70
     1
102
RTVSPropertyOp15
 70
     1
102
RTVSPropertyOp16
 70
     1
102
RTVSPropertyOp17
 70
     1
102
RTVSPropertyOp18
 70
     1
102
RTVSPropertyOp19
 70
     1
102
RTVSPropertyOp20
 70
     1
102
RTVSPropertyOp21
 70
     1
102
RTVSPropertyOp22
 70
     1
102
RTVSPropertyOp23
 70
     1
102
RTVSPropertyOp24
 70
     1
102
RTVSPropertyOp25
 70
     1
102
RTVSPropertyOp26
 70
     1
102
RTVSPropertyOp27
 70
     1
102
RTVSPropertyOp28
 70
     1
102
RTVSPropertyOp29
 70
     1
102
RTVSPropertyOp30
 70
     1
102
RTVSPropertyOp31
 70
     1
102
RTVSPropertyOp32
 70
     1
102
RTVSPropertyOp33
 70
     1
102
RTVSPropertyOp34
 70
     1
102
RTVSPropertyOp35
 70
     1
102
RTVSPropertyOp36
 70
     1
102
RTVSPropertyOp37
 70
     1
102
RTVSPropertyOp38
 70
     1
102
RTVSPropertyOp39
 70
     1
102
RTVSPropertyOp40
 70
     1
102
RTVSPropertyOp41
 70
     1
102
RTVSPropertyOp42
 70
     1
102
RTVSPropertyOp43
 70
     1
102
RTVSPropertyOp44
 70
     1
102
RTVSPropertyOp45
 70
     1
102
RTVSPropertyOp46
 70
     1
102
RTVSPropertyOp47
 70
     1
102
RTVSPropertyOp48
 70
     1
102
RTVSPropertyOp49
 70
     1
102
RTVSPropertyOp50
 70
     1
102
RTVSPropertyOp51
 70
     0
102
RTVSPropertyOp52
 70
     0
102
RTVSPropertyOp53
 70
     1
102
RTVSPropertyOp54
 70
     1
102
RTVSPropertyOp55
 70
     1
102
RTVSPropertyOp56
 70
     1
102
RTVSPropertyOp57
 70
     1
102
RTVSPropertyOp58
 70
     1
102
RTVSPropertyOp59
 70
     1
102
RTVSPropertyOp60
 70
     1
102
RTVSPropertyOp61
 70
     1
102
RTVSPropertyOp62
 70
     1
  0
XRECORD
  5
455
102
{ACAD_REACTORS
330
454
102
}
330
454
100
AcDbXrecord
280
     1
102
RTVSPost2010Prop28
280
     0
102
RTVSPost2010PropOp28
 70
     1
102
RTVSPost2010Prop29
280
     1
102
RTVSPost2010PropOp29
 70
     1
102
RTVSPost2010Prop30
280
     1
102
RTVSPost2010PropOp30
 70
     1
102
RTVSPost2010Prop31
280
     0
102
RTVSPost2010PropOp31
 70
     1
102
RTVSPost2010Prop32
280
     0
102
RTVSPost2010PropOp32
 70
     1
102
RTVSPost2010Prop33
280
     0
102
RTVSPost2010PropOp33
 70
     1
102
RTVSPost2010Prop34
280
     0
102
RTVSPost2010PropOp34
 70
     1
102
RTVSPost2010Prop35
280
     0
102
RTVSPost2010PropOp35
 70
     1
102
RTVSPost2010Prop36
280
     0
102
RTVSPost2010PropOp36
 70
     1
102
RTVSPost2010Prop37
 90
       50
102
RTVSPost2010PropOp37
 70
     1
102
RTVSPost2010Prop38
140
0.0
102
RTVSPost2010PropOp38
 70
     1
102
RTVSPost2010Prop39
140
1.0
102
RTVSPost2010PropOp39
 70
     1
102
RTVSPost2010Prop40
 90
        0
102
RTVSPost2010PropOp40
 70
     1
102
RTVSPost2010Prop41ColorIndex
 90
       18
102
RTVSPost2010Prop41ColorRGB
 90
        0
102
RTVSPost2010PropOp41
 70
     1
102
RTVSPost2010Prop42
 90
       50
102
RTVSPost2010PropOp42
 70
     1
102
RTVSPost2010Prop43
 90
        3
102
RTVSPost2010PropOp43
 70
     1
102
RTVSPost2010Prop44ColorIndex
 90
        5
102
RTVSPost2010Prop44ColorRGB
 90
      255
102
RTVSPost2010PropOp44
 70
     1
102
RTVSPost2010Prop45
280
     0
102
RTVSPost2010PropOp45
 70
     1
102
RTVSPost2010Prop46
 90
       50
102
RTVSPost2010PropOp46
 70
     1
102
RTVSPost2010Prop47
 90
       50
102
RTVSPost2010PropOp47
 70
     1
102
RTVSPost2010Prop48
 90
       50
102
RTVSPost2010PropOp48
 70
     1
102
RTVSPost2010Prop49
280
     0
102
RTVSPost2010PropOp49
 70
     1
102
RTVSPost2010Prop50
 90
       50
102
RTVSPost2010PropOp50
 70
     1
102
RTVSPost2010Prop51ColorIndex
 90
      256
102
RTVSPost2010Prop51ColorRGB
 90
-16777216
102
RTVSPost2010PropOp51
 70
     0
102
RTVSPost2010Prop52
140
1.0
102
RTVSPost2010PropOp52
 70
     0
102
RTVSPost2010Prop53
 90
        2
102
RTVSPost2010PropOp53
 70
     1
102
RTVSPost2010Prop54
  1
strokes_ogs.tif
102
RTVSPost2010PropOp54
 70
     1
102
RTVSPost2010Prop55
280
     0
102
RTVSPost2010PropOp55
 70
     1
102
RTVSPost2010Prop56
140
1.0
102
RTVSPost2010PropOp56
 70
     1
102
RTVSPost2010Prop57
140
1.0
102
RTVSPost2010PropOp57
 70
     1
102
RTVSPropertyOp0
 70
     1
102
RTVSPropertyOp1
 70
     1
102
RTVSPropertyOp2
 70
     1
102
RTVSPropertyOp3
 70
     1
102
RTVSPropertyOp4
 70
     1
102
RTVSPropertyOp5
 70
     1
102
RTVSPropertyOp6
 70
     1
102
RTVSPropertyOp7
 70
     1
102
RTVSPropertyOp8
 70
     1
102
RTVSPropertyOp9
 70
     1
102
RTVSPropertyOp10
 70
     1
102
RTVSPropertyOp11
 70
     1
102
RTVSPropertyOp12
 70
     1
102
RTVSPropertyOp13
 70
     1
102
RTVSPropertyOp14
 70
     1
102
RTVSPropertyOp15
 70
     1
102
RTVSPropertyOp16
 70
     1
102
RTVSPropertyOp17
 70
     1
102
RTVSPropertyOp18
 70
     1
102
RTVSPropertyOp19
 70
     1
102
RTVSPropertyOp20
 70
     1
102
RTVSPropertyOp21
 70
     1
102
RTVSPropertyOp22
 70
     1
102
RTVSPropertyOp23
 70
     1
102
RTVSPropertyOp24
 70
     1
102
RTVSPropertyOp25
 70
     1
102
RTVSPropertyOp26
 70
     1
102
RTVSPropertyOp27
 70
     1
102
RTVSPropertyOp28
 70
     1
102
RTVSPropertyOp29
 70
     1
102
RTVSPropertyOp30
 70
     1
102
RTVSPropertyOp31
 70
     1
102
RTVSPropertyOp32
 70
     1
102
RTVSPropertyOp33
 70
     1
102
RTVSPropertyOp34
 70
     1
102
RTVSPropertyOp35
 70
     1
102
RTVSPropertyOp36
 70
     1
102
RTVSPropertyOp37
 70
     1
102
RTVSPropertyOp38
 70
     1
102
RTVSPropertyOp39
 70
     1
102
RTVSPropertyOp40
 70
     1
102
RTVSPropertyOp41
 70
     1
102
RTVSPropertyOp42
 70
     1
102
RTVSPropertyOp43
 70
     1
102
RTVSPropertyOp44
 70
     1
102
RTVSPropertyOp45
 70
     1
102
RTVSPropertyOp46
 70
     1
102
RTVSPropertyOp47
 70
     1
102
RTVSPropertyOp48
 70
     1
102
RTVSPropertyOp49
 70
     1
102
RTVSPropertyOp50
 70
     1
102
RTVSPropertyOp51
 70
     0
102
RTVSPropertyOp52
 70
     0
102
RTVSPropertyOp53
 70
     1
102
RTVSPropertyOp54
 70
     1
102
RTVSPropertyOp55
 70
     1
102
RTVSPropertyOp56
 70
     1
102
RTVSPropertyOp57
 70
     1
102
RTVSPropertyOp58
 70
     1
102
RTVSPropertyOp59
 70
     1
102
RTVSPropertyOp60
 70
     1
102
RTVSPropertyOp61
 70
     1
102
RTVSPropertyOp62
 70
     1
  0
ENDSEC
  0
EOF
