  0
SECTION
  2
HEADER
  9
$ACADVER
  1
AC1015
  9
$ACADMAINTVER
 70
    20
  9
$DWGCODEPAGE
  3
ANSI_932
  9
$INSBASE
 10
0.0
 20
0.0
 30
0.0
  9
$EXTMIN
 10
-1750.695488086512
 20
-904.2846077921124
 30
0.0
  9
$EXTMAX
 10
1877.857468756939
 20
1120.557421440727
 30
0.0
  9
$LIMMIN
 10
-4267.152221060483
 20
-2696.083210198413
  9
$LIMMAX
 10
7190.717422586465
 20
5141.155363923066
  9
$ORTHOMODE
 70
     0
  9
$REGENMODE
 70
     1
  9
$FILLMODE
 70
     1
  9
$QTEXTMODE
 70
     0
  9
$MIRRTEXT
 70
     0
  9
$LTSCALE
 40
20.0
  9
$ATTMODE
 70
     1
  9
$TEXTSIZE
 40
53.0
  9
$TRACEWID
 40
0.05
  9
$TEXTSTYLE
  7
KAIGAI_STANDARD_1
  9
$CLAYER
  8
NOTE
  9
$CELTYPE
  6
CONTINUOUS
  9
$CECOLOR
 62
     7
  9
$CELTSCALE
 40
1.0
  9
$DISPSILH
 70
     0
  9
$DIMSCALE
 40
1.0
  9
$DIMASZ
 40
30.0
  9
$DIMEXO
 40
20.0
  9
$DIMDLI
 40
80.0
  9
$DIMRND
 40
0.0
  9
$DIMDLE
 40
0.0
  9
$DIMEXE
 40
20.0
  9
$DIMTP
 40
0.0
  9
$DIMTM
 40
0.0
  9
$DIMTXT
 40
40.0
  9
$DIMCEN
 40
0.09
  9
$DIMTSZ
 40
0.0
  9
$DIMTOL
 70
     0
  9
$DIMLIM
 70
     0
  9
$DIMTIH
 70
     0
  9
$DIMTOH
 70
     0
  9
$DIMSE1
 70
     0
  9
$DIMSE2
 70
     0
  9
$DIMTAD
 70
     1
  9
$DIMZIN
 70
     8
  9
$DIMBLK
  1

  9
$DIMASO
 70
     1
  9
$DIMSHO
 70
     0
  9
$DIMPOST
  1

  9
$DIMAPOST
  1

  9
$DIMALT
 70
     0
  9
$DIMALTD
 70
     2
  9
$DIMALTF
 40
25.4
  9
$DIMLFAC
 40
1.0
  9
$DIMTOFL
 70
     1
  9
$DIMTVP
 40
0.0
  9
$DIMTIX
 70
     0
  9
$DIMSOXD
 70
     0
  9
$DIMSAH
 70
     0
  9
$DIMBLK1
  1

  9
$DIMBLK2
  1

  9
$DIMSTYLE
  2
Standard
  9
$DIMCLRD
 70
     0
  9
$DIMCLRE
 70
     0
  9
$DIMCLRT
 70
     0
  9
$DIMTFAC
 40
1.0
  9
$DIMGAP
 40
0.09
  9
$DIMJUST
 70
     0
  9
$DIMSD1
 70
     0
  9
$DIMSD2
 70
     0
  9
$DIMTOLJ
 70
     1
  9
$DIMTZIN
 70
     0
  9
$DIMALTZ
 70
     0
  9
$DIMALTTZ
 70
     0
  9
$DIMUPT
 70
     0
  9
$DIMDEC
 70
     4
  9
$DIMTDEC
 70
     4
  9
$DIMALTU
 70
     2
  9
$DIMALTTD
 70
     2
  9
$DIMTXSTY
  7
STANDARD
  9
$DIMAUNIT
 70
     0
  9
$DIMADEC
 70
     0
  9
$DIMALTRND
 40
0.0
  9
$DIMAZIN
 70
     0
  9
$DIMDSEP
 70
    46
  9
$DIMATFIT
 70
     3
  9
$DIMFRAC
 70
     0
  9
$DIMLDRBLK
  1

  9
$DIMLUNIT
 70
     2
  9
$DIMLWD
 70
    -2
  9
$DIMLWE
 70
    -2
  9
$DIMTMOVE
 70
     0
  9
$LUNITS
 70
     2
  9
$LUPREC
 70
     4
  9
$SKETCHINC
 40
0.1
  9
$FILLETRAD
 40
0.0
  9
$AUNITS
 70
     1
  9
$AUPREC
 70
     3
  9
$MENU
  1
ACAD
  9
$ELEVATION
 40
0.0
  9
$PELEVATION
 40
0.0
  9
$THICKNESS
 40
0.0
  9
$LIMCHECK
 70
     0
  9
$CHAMFERA
 40
0.0
  9
$CHAMFERB
 40
0.0
  9
$CHAMFERC
 40
0.0
  9
$CHAMFERD
 40
0.0
  9
$SKPOLY
 70
     0
  9
$TDCREATE
 40
2455902.607164352
  9
$TDUCREATE
 40
2455902.232164352
  9
$TDUPDATE
 40
2459096.676516204
  9
$TDUUPDATE
 40
2459096.301516204
  9
$TDINDWG
 40
1.6436229051
  9
$TDUSRTIMER
 40
1.6436192940
  9
$USRTIMER
 70
     1
  9
$ANGBASE
 50
0.0
  9
$ANGDIR
 70
     0
  9
$PDMODE
 70
     3
  9
$PDSIZE
 40
-2.0
  9
$PLINEWID
 40
0.0
  9
$SPLFRAME
 70
     0
  9
$SPLINETYPE
 70
     6
  9
$SPLINESEGS
 70
     8
  9
$HANDSEED
  5
47F
  9
$SURFTAB1
 70
     6
  9
$SURFTAB2
 70
     6
  9
$SURFTYPE
 70
     6
  9
$SURFU
 70
     6
  9
$SURFV
 70
     6
  9
$UCSBASE
  2

  9
$UCSNAME
  2

  9
$UCSORG
 10
0.0
 20
0.0
 30
0.0
  9
$UCSXDIR
 10
1.0
 20
0.0
 30
0.0
  9
$UCSYDIR
 10
0.0
 20
1.0
 30
0.0
  9
$UCSORTHOREF
  2

  9
$UCSORTHOVIEW
 70
     0
  9
$UCSORGTOP
 10
0.0
 20
0.0
 30
0.0
  9
$UCSORGBOTTOM
 10
0.0
 20
0.0
 30
0.0
  9
$UCSORGLEFT
 10
0.0
 20
0.0
 30
0.0
  9
$UCSORGRIGHT
 10
0.0
 20
0.0
 30
0.0
  9
$UCSORGFRONT
 10
0.0
 20
0.0
 30
0.0
  9
$UCSORGBACK
 10
0.0
 20
0.0
 30
0.0
  9
$PUCSBASE
  2

  9
$PUCSNAME
  2

  9
$PUCSORG
 10
0.0
 20
0.0
 30
0.0
  9
$PUCSXDIR
 10
1.0
 20
0.0
 30
0.0
  9
$PUCSYDIR
 10
0.0
 20
1.0
 30
0.0
  9
$PUCSORTHOREF
  2

  9
$PUCSORTHOVIEW
 70
     0
  9
$PUCSORGTOP
 10
0.0
 20
0.0
 30
0.0
  9
$PUCSORGBOTTOM
 10
0.0
 20
0.0
 30
0.0
  9
$PUCSORGLEFT
 10
0.0
 20
0.0
 30
0.0
  9
$PUCSORGRIGHT
 10
0.0
 20
0.0
 30
0.0
  9
$PUCSORGFRONT
 10
0.0
 20
0.0
 30
0.0
  9
$PUCSORGBACK
 10
0.0
 20
0.0
 30
0.0
  9
$USERI1
 70
     0
  9
$USERI2
 70
     0
  9
$USERI3
 70
     0
  9
$USERI4
 70
     0
  9
$USERI5
 70
     0
  9
$USERR1
 40
20.0
  9
$USERR2
 40
0.0
  9
$USERR3
 40
0.0
  9
$USERR4
 40
0.0
  9
$USERR5
 40
0.0
  9
$WORLDVIEW
 70
     1
  9
$SHADEDGE
 70
     3
  9
$SHADEDIF
 70
    70
  9
$TILEMODE
 70
     1
  9
$MAXACTVP
 70
    64
  9
$PINSBASE
 10
0.0
 20
0.0
 30
0.0
  9
$PLIMCHECK
 70
     0
  9
$PEXTMIN
 10
1.000000000000000E+20
 20
1.000000000000000E+20
 30
1.000000000000000E+20
  9
$PEXTMAX
 10
-1.000000000000000E+20
 20
-1.000000000000000E+20
 30
-1.000000000000000E+20
  9
$PLIMMIN
 10
0.0
 20
0.0
  9
$PLIMMAX
 10
12.0
 20
9.0
  9
$UNITMODE
 70
     0
  9
$VISRETAIN
 70
     1
  9
$PLINEGEN
 70
     0
  9
$PSLTSCALE
 70
     1
  9
$TREEDEPTH
 70
  3020
  9
$CMLSTYLE
  2
Standard
  9
$CMLJUST
 70
     0
  9
$CMLSCALE
 40
1.0
  9
$PROXYGRAPHICS
 70
     1
  9
$MEASUREMENT
 70
     0
  9
$CELWEIGHT
370
    -1
  9
$ENDCAPS
280
     0
  9
$JOINSTYLE
280
     0
  9
$LWDISPLAY
290
     0
  9
$INSUNITS
 70
     0
  9
$HYPERLINKBASE
  1

  9
$STYLESHEET
  1

  9
$XEDIT
290
     1
  9
$CEPSNTYPE
380
     0
  9
$PSTYLEMODE
290
     1
  9
$FINGERPRINTGUID
  2
{5C382B9C-DFFE-6645-9CC0-03882454970A}
  9
$VERSIONGUID
  2
{9E51545D-344B-D240-B4C7-C6A918F6E0B5}
  9
$EXTNAMES
290
     1
  9
$PSVPSCALE
 40
0.0
  9
$OLESTARTUP
290
     0
  0
ENDSEC
  0
SECTION
  2
CLASSES
  0
CLASS
  1
ACDBDICTIONARYWDFLT
  2
AcDbDictionaryWithDefault
  3
ObjectDBX Classes
 90
        0
280
     0
281
     0
  0
CLASS
  1
MATERIAL
  2
AcDbMaterial
  3
ObjectDBX Classes
 90
     1153
280
     0
281
     0
  0
CLASS
  1
VISUALSTYLE
  2
AcDbVisualStyle
  3
ObjectDBX Classes
 90
     4095
280
     0
281
     0
  0
CLASS
  1
SCALE
  2
AcDbScale
  3
ObjectDBX Classes
 90
     1153
280
     0
281
     0
  0
CLASS
  1
TABLESTYLE
  2
AcDbTableStyle
  3
ObjectDBX Classes
 90
     4095
280
     0
281
     0
  0
CLASS
  1
MLEADERSTYLE
  2
AcDbMLeaderStyle
  3
ACDB_MLEADERSTYLE_CLASS
 90
     4095
280
     0
281
     0
  0
CLASS
  1
ACDBSECTIONVIEWSTYLE
  2
AcDbSectionViewStyle
  3
ObjectDBX Classes
 90
     1025
280
     0
281
     0
  0
CLASS
  1
ACDBDETAILVIEWSTYLE
  2
AcDbDetailViewStyle
  3
ObjectDBX Classes
 90
     1025
280
     0
281
     0
  0
CLASS
  1
DICTIONARYVAR
  2
AcDbDictionaryVar
  3
ObjectDBX Classes
 90
        0
280
     0
281
     0
  0
CLASS
  1
CELLSTYLEMAP
  2
AcDbCellStyleMap
  3
ObjectDBX Classes
 90
     1152
280
     0
281
     0
  0
CLASS
  1
ACDBPLACEHOLDER
  2
AcDbPlaceHolder
  3
ObjectDBX Classes
 90
        0
280
     0
281
     0
  0
CLASS
  1
LAYOUT
  2
AcDbLayout
  3
ObjectDBX Classes
 90
        0
280
     0
281
     0
  0
ENDSEC
  0
SECTION
  2
TABLES
  0
TABLE
  2
VPORT
  5
8
330
0
100
AcDbSymbolTable
 70
     1
  0
VPORT
  5
81
330
8
100
AcDbSymbolTableRecord
100
AcDbViewportTableRecord
  2
*ACTIVE
 70
     0
 10
0.0
 20
0.0
 11
1.0
 21
1.0
 12
63.55398086842114
 22
276.4115900868126
 13
0.0
 23
0.0
 14
50.0
 24
50.0
 15
100.0
 25
100.0
 16
0.0
 26
0.0
 36
1.0
 17
0.0
 27
0.0
 37
0.0
 40
1600.753958903758
 41
2.572265625
 42
50.0
 43
0.0
 44
0.0
 50
0.0
 51
0.0
 71
     0
 72
  1000
 73
     1
 74
     0
 75
     0
 76
     0
 77
     0
 78
     0
281
     0
 65
     1
110
0.0
120
0.0
130
0.0
111
1.0
121
0.0
131
0.0
112
0.0
122
1.0
132
0.0
 79
     0
146
0.0
1001
ACAD_NAV_VCDISPLAY
1070
     3
  0
ENDTAB
  0
TABLE
  2
LTYPE
  5
5
330
0
100
AcDbSymbolTable
 70
     3
  0
LTYPE
  5
5A
330
5
100
AcDbSymbolTableRecord
100
AcDbLinetypeTableRecord
  2
ByBlock
 70
     0
  3

 72
    65
 73
     0
 40
0.0
  0
LTYPE
  5
5B
330
5
100
AcDbSymbolTableRecord
100
AcDbLinetypeTableRecord
  2
ByLayer
 70
     0
  3

 72
    65
 73
     0
 40
0.0
  0
LTYPE
  5
5C
330
5
100
AcDbSymbolTableRecord
100
AcDbLinetypeTableRecord
  2
CONTINUOUS
 70
     0
  3
実線
 72
    65
 73
     0
 40
0.0
  0
LTYPE
  5
75
330
5
100
AcDbSymbolTableRecord
100
AcDbLinetypeTableRecord
  2
DASHDOT
 70
     0
  3
____ _ ____ _ ____ _ ____ _ ____ _ ____ _ ____
 72
    65
 73
     4
 40
5.5
 49
4.0
 74
     0
 49
-0.6
 74
     0
 49
0.3
 74
     0
 49
-0.6
 74
     0
  0
ENDTAB
  0
TABLE
  2
LAYER
  5
2
330
0
100
AcDbSymbolTable
 70
    12
  0
LAYER
  5
54
102
{ACAD_XDICTIONARY
360
3D9
102
}
330
2
100
AcDbSymbolTableRecord
100
AcDbLayerTableRecord
  2
0
 70
     0
 62
     7
  6
CONTINUOUS
370
    -3
390
F
  0
LAYER
  5
73
102
{ACAD_XDICTIONARY
360
3DB
102
}
330
2
100
AcDbSymbolTableRecord
100
AcDbLayerTableRecord
  2
NOTE
 70
     0
 62
     4
  6
CONTINUOUS
370
    -3
390
F
  0
LAYER
  5
76
102
{ACAD_XDICTIONARY
360
3DD
102
}
330
2
100
AcDbSymbolTableRecord
100
AcDbLayerTableRecord
  2
OUTLINE
 70
     0
 62
     3
  6
CONTINUOUS
370
    -3
390
F
  0
LAYER
  5
77
102
{ACAD_XDICTIONARY
360
3DF
102
}
330
2
100
AcDbSymbolTableRecord
100
AcDbLayerTableRecord
  2
DETAIL
 70
     0
 62
     5
  6
CONTINUOUS
370
    -3
390
F
  0
LAYER
  5
78
102
{ACAD_XDICTIONARY
360
3E1
102
}
330
2
100
AcDbSymbolTableRecord
100
AcDbLayerTableRecord
  2
BASIS
 70
     0
 62
     6
  6
DASHDOT
370
    -3
390
F
  0
LAYER
  5
79
102
{ACAD_XDICTIONARY
360
3E3
102
}
330
2
100
AcDbSymbolTableRecord
100
AcDbLayerTableRecord
  2
SIZE
 70
     0
 62
    30
  6
CONTINUOUS
370
    -3
390
F
  0
LAYER
  5
7A
102
{ACAD_XDICTIONARY
360
3E5
102
}
330
2
100
AcDbSymbolTableRecord
100
AcDbLayerTableRecord
  2
ARRANGE
 70
     0
 62
     1
  6
CONTINUOUS
370
    -3
390
F
  0
LAYER
  5
7B
102
{ACAD_XDICTIONARY
360
3E7
102
}
330
2
100
AcDbSymbolTableRecord
100
AcDbLayerTableRecord
  2
FIX
 70
     0
 62
    11
  6
CONTINUOUS
370
    -3
390
F
  0
LAYER
  5
7C
102
{ACAD_XDICTIONARY
360
3E9
102
}
330
2
100
AcDbSymbolTableRecord
100
AcDbLayerTableRecord
  2
SERVICESPACE
 70
     0
 62
     2
  6
DASHDOT
370
    -3
390
F
  0
LAYER
  5
7D
102
{ACAD_XDICTIONARY
360
3EB
102
}
330
2
100
AcDbSymbolTableRecord
100
AcDbLayerTableRecord
  2
ETC
 70
     0
 62
    61
  6
CONTINUOUS
370
    -3
390
F
  0
LAYER
  5
7E
102
{ACAD_XDICTIONARY
360
3ED
102
}
330
2
100
AcDbSymbolTableRecord
100
AcDbLayerTableRecord
  2
SYMBOLLINE
 70
     0
 62
    15
  6
CONTINUOUS
370
    -3
390
F
  0
LAYER
  5
7F
330
2
100
AcDbSymbolTableRecord
100
AcDbLayerTableRecord
  2
DEFPOINTS
 70
     0
 62
     7
  6
CONTINUOUS
290
     0
370
    -3
390
F
  0
ENDTAB
  0
TABLE
  2
STYLE
  5
3
330
0
100
AcDbSymbolTable
 70
     3
  0
STYLE
  5
55
330
3
100
AcDbSymbolTableRecord
100
AcDbTextStyleTableRecord
  2
STANDARD
 70
     0
 40
0.0
 41
0.9
 50
0.0
 71
     0
 42
64.0
  3
SIMPLEX
  4
BIGFONT
  0
STYLE
  5
59
330
3
100
AcDbSymbolTableRecord
100
AcDbTextStyleTableRecord
  2
Annotative
 70
     0
 40
0.0
 41
1.0
 50
0.0
 71
     0
 42
0.2
  3
txt
  4

1001
AcadAnnotative
1000
AnnotativeData
1002
{
1070
     1
1070
     1
1002
}
  0
STYLE
  5
74
330
3
100
AcDbSymbolTableRecord
100
AcDbTextStyleTableRecord
  2
KAIGAI_STANDARD_1
 70
     0
 40
53.0
 41
0.51
 50
0.0
 71
     0
 42
53.0
  3
MONOTXT.shx
  4
BIGFONT.shx
  0
ENDTAB
  0
TABLE
  2
VIEW
  5
6
330
0
100
AcDbSymbolTable
 70
     1
  0
VIEW
  5
80
330
6
100
AcDbSymbolTableRecord
100
AcDbViewTableRecord
  2
ALL
 70
     0
 40
9000.0
 10
241.506647
 20
0.0
 41
12483.01
 11
0.0
 21
0.0
 31
1.0
 12
0.0
 22
0.0
 32
0.0
 42
50.0
 43
0.0
 44
0.0
 50
0.0
 71
     0
281
     0
 72
     0
  0
ENDTAB
  0
TABLE
  2
UCS
  5
7
330
0
100
AcDbSymbolTable
 70
     0
  0
ENDTAB
  0
TABLE
  2
APPID
  5
9
330
0
100
AcDbSymbolTable
 70
     5
  0
APPID
  5
56
330
9
100
AcDbSymbolTableRecord
100
AcDbRegAppTableRecord
  2
ACAD
 70
     0
  0
APPID
  5
5D
330
9
100
AcDbSymbolTableRecord
100
AcDbRegAppTableRecord
  2
AcadAnnotative
 70
     0
  0
APPID
  5
3D7
330
9
100
AcDbSymbolTableRecord
100
AcDbRegAppTableRecord
  2
ACAD_EXEMPT_FROM_CAD_STANDARDS
 70
     0
  0
APPID
  5
3F9
330
9
100
AcDbSymbolTableRecord
100
AcDbRegAppTableRecord
  2
ACAD_NAV_VCDISPLAY
 70
     0
  0
APPID
  5
432
330
9
100
AcDbSymbolTableRecord
100
AcDbRegAppTableRecord
  2
ACAD_MLEADERVER
 70
     0
  0
ENDTAB
  0
TABLE
  2
DIMSTYLE
  5
A
330
0
100
AcDbSymbolTable
 70
     2
100
AcDbDimStyleTable
 71
     0
  0
DIMSTYLE
105
57
330
A
100
AcDbSymbolTableRecord
100
AcDbDimStyleTableRecord
  2
Standard
 70
     0
340
55
  0
DIMSTYLE
105
58
330
A
100
AcDbSymbolTableRecord
100
AcDbDimStyleTableRecord
  2
Annotative
 70
     0
340
55
1001
AcadAnnotative
1000
AnnotativeData
1002
{
1070
     1
1070
     1
1002
}
  0
ENDTAB
  0
TABLE
  2
BLOCK_RECORD
  5
1
330
0
100
AcDbSymbolTable
 70
     0
  0
BLOCK_RECORD
  5
6F
330
1
100
AcDbSymbolTableRecord
100
AcDbBlockTableRecord
  2
*Model_Space
340
72
  0
BLOCK_RECORD
  5
6B
330
1
100
AcDbSymbolTableRecord
100
AcDbBlockTableRecord
  2
*Paper_Space
340
6E
  0
ENDTAB
  0
ENDSEC
  0
SECTION
  2
BLOCKS
  0
BLOCK
  5
70
330
6F
100
AcDbEntity
  8
0
100
AcDbBlockBegin
  2
*Model_Space
 70
     0
 10
0.0
 20
0.0
 30
0.0
  3
*Model_Space
  1

  0
ENDBLK
  5
71
330
6F
100
AcDbEntity
  8
0
100
AcDbBlockEnd
  0
BLOCK
  5
6C
330
6B
100
AcDbEntity
 67
     1
  8
0
100
AcDbBlockBegin
  2
*Paper_Space
 70
     0
 10
0.0
 20
0.0
 30
0.0
  3
*Paper_Space
  1

  0
ENDBLK
  5
6D
330
6B
100
AcDbEntity
 67
     1
  8
0
100
AcDbBlockEnd
  0
ENDSEC
  0
SECTION
  2
ENTITIES
  0
LINE
  5
86
330
6F
100
AcDbEntity
  8
DETAIL
  6
Continuous
 62
     5
100
AcDbLine
 10
1092.999753033167
 20
458.7367527661672
 30
0.0
 11
1092.999753033167
 21
58.74324723382642
 31
0.0
  0
LINE
  5
87
330
6F
100
AcDbEntity
  8
DETAIL
  6
Continuous
 62
     5
100
AcDbLine
 10
1139.999753033167
 20
542.739999999997
 30
0.0
 11
1139.999753033167
 21
-25.2600000000034
 31
0.0
  0
LINE
  5
88
330
6F
100
AcDbEntity
  8
DETAIL
  6
Continuous
 62
     5
100
AcDbLine
 10
1069.999753033167
 20
558.739999999997
 30
0.0
 11
1123.999753033167
 21
558.739999999997
 31
0.0
  0
LINE
  5
89
330
6F
100
AcDbEntity
  8
DETAIL
  6
Continuous
 62
     5
100
AcDbLine
 10
1069.999753033167
 20
-4.260000000003399
 30
0.0
 11
1069.999753033167
 21
-41.2600000000034
 31
0.0
  0
LINE
  5
8A
330
6F
100
AcDbEntity
  8
DETAIL
  6
Continuous
 62
     5
100
AcDbLine
 10
1094.999753033167
 20
503.7399999999968
 30
0.0
 11
1094.999753033167
 21
13.7399999999966
 31
0.0
  0
ARC
  5
8B
330
6F
100
AcDbEntity
  8
DETAIL
  6
Continuous
 62
     5
100
AcDbCircle
 10
1123.999753033167
 20
-25.2600000000034
 30
0.0
 40
16.0
100
AcDbArc
 50
270.0
 51
0.0
  0
ARC
  5
8C
330
6F
100
AcDbEntity
  8
DETAIL
  6
Continuous
 62
     5
100
AcDbCircle
 10
1123.999753033167
 20
542.739999999997
 30
0.0
 40
16.0
100
AcDbArc
 50
0.0
 51
90.0
  0
LINE
  5
8D
330
6F
100
AcDbEntity
  8
DETAIL
  6
Continuous
 62
     5
100
AcDbLine
 10
1069.999753033167
 20
-4.260000000003399
 30
0.0
 11
1076.999753033167
 21
-4.260000000003399
 31
0.0
  0
LINE
  5
8E
330
6F
100
AcDbEntity
  8
DETAIL
  6
Continuous
 62
     5
100
AcDbLine
 10
1069.999753033167
 20
521.739999999997
 30
0.0
 11
1076.999753033167
 21
521.739999999997
 31
0.0
  0
ARC
  5
8F
330
6F
100
AcDbEntity
  8
DETAIL
  6
Continuous
 62
     5
100
AcDbCircle
 10
1076.999753033167
 20
13.7399999999966
 30
0.0
 40
18.0
100
AcDbArc
 50
270.0
 51
0.0
  0
ARC
  5
90
330
6F
100
AcDbEntity
  8
DETAIL
  6
Continuous
 62
     5
100
AcDbCircle
 10
1076.999753033167
 20
503.7399999999968
 30
0.0
 40
18.0
100
AcDbArc
 50
0.0
 51
90.0
  0
LINE
  5
91
330
6F
100
AcDbEntity
  8
DETAIL
  6
Continuous
 62
     5
100
AcDbLine
 10
1069.999753033167
 20
558.739999999997
 30
0.0
 11
1069.999753033167
 21
521.739999999997
 31
0.0
  0
LINE
  5
92
330
6F
100
AcDbEntity
  8
DETAIL
  6
Continuous
 62
     5
100
AcDbLine
 10
1069.999753033167
 20
-41.2600000000034
 30
0.0
 11
1123.999753033167
 21
-41.2600000000034
 31
0.0
  0
LINE
  5
93
330
6F
100
AcDbEntity
  8
DETAIL
  6
Continuous
 62
     5
100
AcDbLine
 10
-743.9999999998033
 20
-41.2600000000034
 30
0.0
 11
1123.999753033167
 21
-41.2600000000034
 31
0.0
  0
LINE
  5
94
330
6F
100
AcDbEntity
  8
DETAIL
  6
Continuous
 62
     5
100
AcDbLine
 10
1094.999753033167
 20
458.7367527661672
 30
0.0
 11
-714.9999999998036
 21
458.7367527661672
 31
0.0
  0
LINE
  5
95
330
6F
100
AcDbEntity
  8
DETAIL
  6
Continuous
 62
     5
100
AcDbLine
 10
1094.999753033167
 20
58.74324723382642
 30
0.0
 11
-714.9999999998036
 21
58.74324723382642
 31
0.0
  0
LINE
  5
96
330
6F
100
AcDbEntity
  8
DETAIL
  6
Continuous
 62
     5
100
AcDbLine
 10
1076.999753033167
 20
521.7399999999975
 30
0.0
 11
-696.9999999998036
 21
521.739999999997
 31
0.0
  0
LINE
  5
97
330
6F
100
AcDbEntity
  8
DETAIL
  6
Continuous
 62
     5
100
AcDbLine
 10
1076.999753033167
 20
-4.260000000003399
 30
0.0
 11
-696.9999999998036
 21
-4.260000000003399
 31
0.0
  0
LINE
  5
98
330
6F
100
AcDbEntity
  8
DETAIL
  6
Continuous
 62
     5
100
AcDbLine
 10
-743.9999999998033
 20
558.739999999997
 30
0.0
 11
1123.999753033167
 21
558.739999999997
 31
0.0
  0
LINE
  5
99
330
6F
100
AcDbEntity
  8
DETAIL
  6
Continuous
 62
     5
100
AcDbLine
 10
-712.9999999998037
 20
458.7367527661672
 30
0.0
 11
-712.9999999998037
 21
58.74324723382642
 31
0.0
  0
LINE
  5
9A
330
6F
100
AcDbEntity
  8
DETAIL
  6
Continuous
 62
     5
100
AcDbLine
 10
-743.9999999998033
 20
-41.2600000000034
 30
0.0
 11
-689.9999999998036
 21
-41.2600000000034
 31
0.0
  0
LINE
  5
9B
330
6F
100
AcDbEntity
  8
DETAIL
  6
Continuous
 62
     5
100
AcDbLine
 10
-759.9999999998033
 20
542.739999999997
 30
0.0
 11
-759.9999999998033
 21
-25.2600000000034
 31
0.0
  0
LINE
  5
9C
330
6F
100
AcDbEntity
  8
DETAIL
  6
Continuous
 62
     5
100
AcDbLine
 10
-689.9999999998036
 20
558.739999999997
 30
0.0
 11
-743.9999999998033
 21
558.739999999997
 31
0.0
  0
LINE
  5
9D
330
6F
100
AcDbEntity
  8
DETAIL
  6
Continuous
 62
     5
100
AcDbLine
 10
-689.9999999998036
 20
-4.260000000003399
 30
0.0
 11
-689.9999999998036
 21
-41.2600000000034
 31
0.0
  0
LINE
  5
9E
330
6F
100
AcDbEntity
  8
DETAIL
  6
Continuous
 62
     5
100
AcDbLine
 10
-714.9999999998036
 20
503.7399999999968
 30
0.0
 11
-714.9999999998036
 21
13.7399999999966
 31
0.0
  0
ARC
  5
9F
330
6F
100
AcDbEntity
  8
DETAIL
  6
Continuous
 62
     5
100
AcDbCircle
 10
-743.9999999998033
 20
-25.2600000000034
 30
0.0
 40
16.0
100
AcDbArc
 50
180.0
 51
270.0
  0
ARC
  5
A0
330
6F
100
AcDbEntity
  8
DETAIL
  6
Continuous
 62
     5
100
AcDbCircle
 10
-743.9999999998033
 20
542.739999999997
 30
0.0
 40
16.0
100
AcDbArc
 50
90.0
 51
180.0
  0
LINE
  5
A1
330
6F
100
AcDbEntity
  8
DETAIL
  6
Continuous
 62
     5
100
AcDbLine
 10
-689.9999999998036
 20
-4.260000000003399
 30
0.0
 11
-696.9999999998036
 21
-4.260000000003399
 31
0.0
  0
LINE
  5
A2
330
6F
100
AcDbEntity
  8
DETAIL
  6
Continuous
 62
     5
100
AcDbLine
 10
-689.9999999998036
 20
521.739999999997
 30
0.0
 11
-696.9999999998036
 21
521.739999999997
 31
0.0
  0
ARC
  5
A3
330
6F
100
AcDbEntity
  8
DETAIL
  6
Continuous
 62
     5
100
AcDbCircle
 10
-696.9999999998036
 20
13.7399999999966
 30
0.0
 40
18.0
100
AcDbArc
 50
180.0
 51
270.0
  0
ARC
  5
A4
330
6F
100
AcDbEntity
  8
DETAIL
  6
Continuous
 62
     5
100
AcDbCircle
 10
-696.9999999998036
 20
503.7399999999968
 30
0.0
 40
18.0
100
AcDbArc
 50
90.0
 51
180.0
  0
LINE
  5
A5
330
6F
100
AcDbEntity
  8
DETAIL
  6
Continuous
 62
     5
100
AcDbLine
 10
-689.9999999998036
 20
558.739999999997
 30
0.0
 11
-689.9999999998036
 21
521.739999999997
 31
0.0
  0
LINE
  5
A6
330
6F
100
AcDbEntity
  8
DETAIL
  6
Continuous
 62
     5
100
AcDbLine
 10
-702.0499999999664
 20
-217.2600000000007
 30
0.0
 11
-700.0499999999663
 21
-217.2600000000007
 31
0.0
  0
LINE
  5
A7
330
6F
100
AcDbEntity
  8
DETAIL
  6
Continuous
 62
     5
100
AcDbLine
 10
702.0500000000319
 20
-217.2600000000007
 30
0.0
 11
700.050000000032
 21
-217.2600000000007
 31
0.0
  0
LINE
  5
A8
330
6F
100
AcDbEntity
  8
DETAIL
  6
Continuous
 62
     5
100
AcDbLine
 10
750.0000000000326
 20
-216.2600000000007
 30
0.0
 11
700.0000000000328
 21
-216.2600000000007
 31
0.0
  0
LINE
  5
A9
330
6F
100
AcDbEntity
  8
DETAIL
  6
Continuous
 62
     5
100
AcDbLine
 10
-699.9999999999671
 20
-216.2600000000007
 30
0.0
 11
-749.9999999999671
 21
-216.2600000000007
 31
0.0
  0
LINE
  5
AA
330
6F
100
AcDbEntity
  8
DETAIL
  6
Continuous
 62
     5
100
AcDbLine
 10
700.0000000000328
 20
-215.4600000000005
 30
0.0
 11
-699.9999999999671
 21
-215.4600000000005
 31
0.0
  0
LINE
  5
AB
330
6F
100
AcDbEntity
  8
DETAIL
  6
Continuous
 62
     5
100
AcDbLine
 10
-749.9999999999671
 20
-197.2600000000007
 30
0.0
 11
-733.9999999999671
 21
-197.2600000000007
 31
0.0
  0
LINE
  5
AC
330
6F
100
AcDbEntity
  8
DETAIL
  6
Continuous
 62
     5
100
AcDbLine
 10
750.0000000000326
 20
-197.2600000000007
 30
0.0
 11
734.0000000000326
 21
-197.2600000000007
 31
0.0
  0
LINE
  5
AD
330
6F
100
AcDbEntity
  8
DETAIL
  6
Continuous
 62
     5
100
AcDbLine
 10
-749.9999999999671
 20
-185.2600000000005
 30
0.0
 11
-733.9999999999671
 21
-185.2600000000005
 31
0.0
  0
LINE
  5
AE
330
6F
100
AcDbEntity
  8
DETAIL
  6
Continuous
 62
     5
100
AcDbLine
 10
750.0000000000326
 20
-185.2600000000005
 30
0.0
 11
734.0000000000326
 21
-185.2600000000005
 31
0.0
  0
LINE
  5
AF
330
6F
100
AcDbEntity
  8
DETAIL
  6
Continuous
 62
     5
100
AcDbLine
 10
750.0000000000326
 20
-166.2600000000006
 30
0.0
 11
700.0000000000328
 21
-166.2600000000006
 31
0.0
  0
LINE
  5
B0
330
6F
100
AcDbEntity
  8
DETAIL
  6
Continuous
 62
     5
100
AcDbLine
 10
-699.9999999999671
 20
-166.2600000000006
 30
0.0
 11
-749.9999999999671
 21
-166.2600000000006
 31
0.0
  0
LINE
  5
B1
330
6F
100
AcDbEntity
  8
DETAIL
  6
Continuous
 62
     5
100
AcDbLine
 10
-703.9999999999671
 20
-165.4600000000004
 30
0.0
 11
-699.9999999999671
 21
-165.4600000000004
 31
0.0
  0
LINE
  5
B2
330
6F
100
AcDbEntity
  8
DETAIL
  6
Continuous
 62
     5
100
AcDbLine
 10
704.0000000000328
 20
-156.4110000000004
 30
0.0
 11
700.0000000000328
 21
-156.4110000000004
 31
0.0
  0
LINE
  5
B3
330
6F
100
AcDbEntity
  8
DETAIL
  6
Continuous
 62
     5
100
AcDbLine
 10
-749.9999999999671
 20
-166.2600000000006
 30
0.0
 11
-749.9999999999671
 21
-185.2600000000005
 31
0.0
  0
LINE
  5
B4
330
6F
100
AcDbEntity
  8
DETAIL
  6
Continuous
 62
     5
100
AcDbLine
 10
-749.9999999999671
 20
-197.2600000000007
 30
0.0
 11
-749.9999999999671
 21
-216.2600000000007
 31
0.0
  0
LINE
  5
B5
330
6F
100
AcDbEntity
  8
DETAIL
  6
Continuous
 62
     5
100
AcDbLine
 10
-733.9999999999671
 20
-183.2600000000005
 30
0.0
 11
-733.9999999999671
 21
-185.2600000000005
 31
0.0
  0
LINE
  5
B6
330
6F
100
AcDbEntity
  8
DETAIL
  6
Continuous
 62
     5
100
AcDbLine
 10
-733.9999999999671
 20
-197.2600000000007
 30
0.0
 11
-733.9999999999671
 21
-199.2600000000005
 31
0.0
  0
LINE
  5
B7
330
6F
100
AcDbEntity
  8
DETAIL
  6
Continuous
 62
     5
100
AcDbLine
 10
-719.9999999999671
 20
-199.2600000000005
 30
0.0
 11
-719.9999999999671
 21
-183.2600000000005
 31
0.0
  0
LINE
  5
B8
330
6F
100
AcDbEntity
  8
DETAIL
  6
Continuous
 62
     5
100
AcDbLine
 10
-703.9999999999671
 20
-41.26000000000362
 30
0.0
 11
-703.9999999999671
 21
-166.2600000000006
 31
0.0
  0
LINE
  5
B9
330
6F
100
AcDbEntity
  8
DETAIL
  6
Continuous
 62
     5
100
AcDbLine
 10
-702.0499999999664
 20
-217.2600000000007
 30
0.0
 11
-702.0499999999664
 21
-216.2600000000007
 31
0.0
  0
LINE
  5
BA
330
6F
100
AcDbEntity
  8
DETAIL
  6
Continuous
 62
     5
100
AcDbLine
 10
-700.0499999999663
 20
-217.2600000000007
 30
0.0
 11
-700.0499999999663
 21
-216.2600000000007
 31
0.0
  0
LINE
  5
BB
330
6F
100
AcDbEntity
  8
DETAIL
  6
Continuous
 62
     5
100
AcDbLine
 10
-699.9999999999671
 20
-60.56000000000086
 30
0.0
 11
-699.9999999999671
 21
-219.2600000000007
 31
0.0
  0
LINE
  5
BC
330
6F
100
AcDbEntity
  8
DETAIL
  6
Continuous
 62
     5
100
AcDbLine
 10
-698.9999999999671
 20
-60.56000000000086
 30
0.0
 11
-698.9999999999671
 21
-41.26000000000362
 31
0.0
  0
LINE
  5
BD
330
6F
100
AcDbEntity
  8
DETAIL
  6
Continuous
 62
     5
100
AcDbLine
 10
-688.9999999999671
 20
-60.56000000000086
 30
0.0
 11
-688.9999999999671
 21
-41.26000000000362
 31
0.0
  0
LINE
  5
BE
330
6F
100
AcDbEntity
  8
DETAIL
  6
Continuous
 62
     5
100
AcDbLine
 10
-688.4999999999671
 20
-48.90142135620089
 30
0.0
 11
-688.4999999999671
 21
-60.56000000000086
 31
0.0
  0
LINE
  5
BF
330
6F
100
AcDbEntity
  8
DETAIL
  6
Continuous
 62
     5
100
AcDbLine
 10
-688.4999999999671
 20
-48.90142135620089
 30
0.0
 11
-688.4999999999671
 21
-41.26000000000362
 31
0.0
  0
LINE
  5
C0
330
6F
100
AcDbEntity
  8
DETAIL
  6
Continuous
 62
     5
100
AcDbLine
 10
704.0000000000328
 20
-109.4110000000005
 30
0.0
 11
700.0000000000328
 21
-109.4110000000005
 31
0.0
  0
LINE
  5
C1
330
6F
100
AcDbEntity
  8
DETAIL
  6
Continuous
 62
     5
100
AcDbLine
 10
700.0000000000328
 20
-96.41100000000051
 30
0.0
 11
723.0000000000326
 21
-96.41100000000051
 31
0.0
  0
LINE
  5
C2
330
6F
100
AcDbEntity
  8
DETAIL
  6
Continuous
 62
     5
100
AcDbLine
 10
756.5000000000326
 20
-90.91100000000052
 30
0.0
 11
738.4999999875326
 21
-90.91100000000052
 31
0.0
  0
LINE
  5
C3
330
6F
100
AcDbEntity
  8
DETAIL
  6
Continuous
 62
     5
100
AcDbLine
 10
723.0000000000326
 20
-88.41100000000052
 30
0.0
 11
737.0000000000326
 21
-88.41100000000052
 31
0.0
  0
LINE
  5
C4
330
6F
100
AcDbEntity
  8
DETAIL
  6
Continuous
 62
     5
100
AcDbLine
 10
737.0000000000326
 20
-87.85100000000101
 30
0.0
 11
738.5000000000326
 21
-87.85100000000101
 31
0.0
  0
LINE
  5
C5
330
6F
100
AcDbEntity
  8
DETAIL
  6
Continuous
 62
     5
100
AcDbLine
 10
723.0000000000326
 20
-79.91100000000051
 30
0.0
 11
735.6850454237317
 21
-79.91100000000051
 31
0.0
  0
LINE
  5
C6
330
6F
100
AcDbEntity
  8
DETAIL
  6
Continuous
 62
     5
100
AcDbLine
 10
754.7982940778329
 20
-79.91100000000051
 30
0.0
 11
740.2017059221325
 21
-79.91100000000051
 31
0.0
  0
LINE
  5
C7
330
6F
100
AcDbEntity
  8
DETAIL
  6
Continuous
 62
     5
100
AcDbLine
 10
737.0000000000326
 20
-71.9710000000009
 30
0.0
 11
738.5000000000326
 21
-71.9710000000009
 31
0.0
  0
LINE
  5
C8
330
6F
100
AcDbEntity
  8
DETAIL
  6
Continuous
 62
     5
100
AcDbLine
 10
737.0000000000326
 20
-71.41100000000051
 30
0.0
 11
723.0000000000326
 21
-71.41100000000051
 31
0.0
  0
LINE
  5
C9
330
6F
100
AcDbEntity
  8
DETAIL
  6
Continuous
 62
     5
100
AcDbLine
 10
756.5000000000326
 20
-68.9110000000005
 30
0.0
 11
738.5000000000326
 21
-68.9110000000005
 31
0.0
  0
LINE
  5
CA
330
6F
100
AcDbEntity
  8
DETAIL
  6
Continuous
 62
     5
100
AcDbLine
 10
700.0000000000328
 20
-63.4110000000005
 30
0.0
 11
723.0000000000326
 21
-63.4110000000005
 31
0.0
  0
LINE
  5
CB
330
6F
100
AcDbEntity
  8
DETAIL
  6
Continuous
 62
     5
100
AcDbLine
 10
-699.9999999999671
 20
-60.56000000000086
 30
0.0
 11
-688.4999999999671
 21
-60.56000000000086
 31
0.0
  0
LINE
  5
CC
330
6F
100
AcDbEntity
  8
DETAIL
  6
Continuous
 62
     5
100
AcDbLine
 10
700.0000000000328
 20
-60.56000000000086
 30
0.0
 11
688.5000000000328
 21
-60.56000000000086
 31
0.0
  0
LINE
  5
CD
330
6F
100
AcDbEntity
  8
DETAIL
  6
Continuous
 62
     5
100
AcDbLine
 10
688.5000000000328
 20
-59.8913708499008
 30
0.0
 11
-688.4999999999671
 21
-59.8913708499008
 31
0.0
  0
LINE
  5
CE
330
6F
100
AcDbEntity
  8
DETAIL
  6
Continuous
 62
     5
100
AcDbLine
 10
688.5000000000328
 20
-57.20436508140074
 30
0.0
 11
-688.4999999999671
 21
-57.20436508140074
 31
0.0
  0
LINE
  5
CF
330
6F
100
AcDbEntity
  8
DETAIL
  6
Continuous
 62
     5
100
AcDbLine
 10
-688.4999999999671
 20
-48.90142135620089
 30
0.0
 11
688.5000000000328
 21
-48.90142135620089
 31
0.0
  0
LWPOLYLINE
  5
D0
330
6F
100
AcDbEntity
  8
DETAIL
  6
Continuous
 62
     5
100
AcDbPolyline
 90
        5
 70
     0
 43
0.0
 10
-688.4999999999671
 20
-57.72550187400111
 10
-688.6628482865669
 20
-57.50886999340082
 10
-688.8368236435671
 20
-57.20540612850027
 10
-688.985937356967
 20
-56.85322925220089
 10
-688.9999999999671
 20
-56.8050345216011
  0
LWPOLYLINE
  5
D7
330
6F
100
AcDbEntity
  8
DETAIL
  6
Continuous
 62
     5
100
AcDbPolyline
 90
        5
 70
     0
 43
0.0
 10
756.5000000000326
 20
-75.76704262110116
 10
757.2728904620324
 20
-76.28663767540047
 10
757.9776490777328
 20
-77.21521239300045
 10
758.4048089793323
 20
-78.42138582480082
 10
758.5485281374332
 20
-79.91100000000051
  0
LWPOLYLINE
  5
DE
330
6F
100
AcDbEntity
  8
DETAIL
  6
Continuous
 62
     5
100
AcDbPolyline
 90
        5
 70
     0
 43
0.0
 10
756.5000000000326
 20
-84.05495737890078
 10
757.2728904620324
 20
-83.53536232460054
 10
757.9776490777328
 20
-82.60678760700058
 10
758.4048089793323
 20
-81.40061417520108
 10
758.5485281374332
 20
-79.91100000000051
  0
LWPOLYLINE
  5
E5
330
6F
100
AcDbEntity
  8
DETAIL
  6
Continuous
 62
     5
100
AcDbPolyline
 90
        5
 70
     0
 43
0.0
 10
754.7982940778329
 20
-79.91100000000051
 10
755.5553491239335
 20
-81.37912532270043
 10
756.0838632582325
 20
-82.7659794745009
 10
756.3963414157332
 20
-84.10011271800113
 10
756.5000000000326
 20
-85.41100000000051
  0
LWPOLYLINE
  5
EC
330
6F
100
AcDbEntity
  8
DETAIL
  6
Continuous
 62
     5
100
AcDbPolyline
 90
        5
 70
     0
 43
0.0
 10
754.7982940778329
 20
-68.9110000000005
 10
755.5553491239335
 20
-70.37912532270047
 10
756.0838632582325
 20
-71.7659794745009
 10
756.3963414157332
 20
-73.10011271800113
 10
756.5000000000326
 20
-74.41100000000052
  0
LWPOLYLINE
  5
F3
330
6F
100
AcDbEntity
  8
DETAIL
  6
Continuous
 62
     5
100
AcDbPolyline
 90
        5
 70
     0
 43
0.0
 10
735.6850454237317
 20
-79.91100000000051
 10
736.2721148809323
 20
-81.05006801290029
 10
736.679512018032
 20
-82.12059411410109
 10
736.9201447545328
 20
-83.14959650750052
 10
737.0000000000326
 20
-84.16100000000051
  0
LWPOLYLINE
  5
FA
330
6F
100
AcDbEntity
  8
DETAIL
  6
Continuous
 62
     5
100
AcDbPolyline
 90
        5
 70
     0
 43
0.0
 10
735.6850454237317
 20
-71.41100000000051
 10
736.2730518714322
 20
-72.55215313580037
 10
736.6802707945315
 20
-73.62305558380056
 10
736.9203542015331
 20
-74.65092994270026
 10
737.0000000000326
 20
-75.66100000000052
  0
LWPOLYLINE
  5
101
330
6F
100
AcDbEntity
  8
DETAIL
  6
Continuous
 62
     5
100
AcDbPolyline
 90
        5
 70
     0
 43
0.0
 10
738.499999984333
 20
-85.41099980200076
 10
738.6036162730322
 20
-86.72161846250082
 10
738.9157918112323
 20
-88.05490374410101
 10
739.4440215177326
 20
-89.44147608990034
 10
740.2017059221325
 20
-90.91100000000052
  0
LWPOLYLINE
  5
108
330
6F
100
AcDbEntity
  8
DETAIL
  6
Continuous
 62
     5
100
AcDbPolyline
 90
        5
 70
     0
 43
0.0
 10
738.5000000000326
 20
-74.41100000000052
 10
738.6036162730322
 20
-75.72161846250081
 10
738.9157918112323
 20
-77.05490374410103
 10
739.4440215177326
 20
-78.44147608990033
 10
740.2017059221325
 20
-79.91100000000051
  0
LINE
  5
10F
330
6F
100
AcDbEntity
  8
DETAIL
  6
Continuous
 62
     5
100
AcDbLine
 10
688.5000000000328
 20
-48.90142135620089
 30
0.0
 11
688.5000000000328
 21
-60.56000000000086
 31
0.0
  0
LINE
  5
110
330
6F
100
AcDbEntity
  8
DETAIL
  6
Continuous
 62
     5
100
AcDbLine
 10
688.5000000000328
 20
-48.90142135620089
 30
0.0
 11
688.5000000000328
 21
-41.26000000000362
 31
0.0
  0
LINE
  5
111
330
6F
100
AcDbEntity
  8
DETAIL
  6
Continuous
 62
     5
100
AcDbLine
 10
689.0000000000328
 20
-41.26000000000362
 30
0.0
 11
689.0000000000328
 21
-60.56000000000086
 31
0.0
  0
LINE
  5
112
330
6F
100
AcDbEntity
  8
DETAIL
  6
Continuous
 62
     5
100
AcDbLine
 10
699.0000000000328
 20
-41.26000000000362
 30
0.0
 11
699.0000000000328
 21
-60.56000000000086
 31
0.0
  0
LINE
  5
113
330
6F
100
AcDbEntity
  8
DETAIL
  6
Continuous
 62
     5
100
AcDbLine
 10
699.4000000000321
 20
-60.56000000000086
 30
0.0
 11
699.4000000000319
 21
-41.26000000000362
 31
0.0
  0
LINE
  5
114
330
6F
100
AcDbEntity
  8
DETAIL
  6
Continuous
 62
     5
100
AcDbLine
 10
700.0000000000328
 20
-41.26000000000362
 30
0.0
 11
700.0000000000328
 21
-60.56000000000086
 31
0.0
  0
LINE
  5
115
330
6F
100
AcDbEntity
  8
DETAIL
  6
Continuous
 62
     5
100
AcDbLine
 10
700.0000000000328
 20
-60.56000000000086
 30
0.0
 11
700.0000000000328
 21
-219.2600000000007
 31
0.0
  0
LINE
  5
116
330
6F
100
AcDbEntity
  8
DETAIL
  6
Continuous
 62
     5
100
AcDbLine
 10
700.050000000032
 20
-216.2600000000007
 30
0.0
 11
700.050000000032
 21
-217.2600000000007
 31
0.0
  0
LINE
  5
117
330
6F
100
AcDbEntity
  8
DETAIL
  6
Continuous
 62
     5
100
AcDbLine
 10
702.0500000000319
 20
-216.2600000000007
 30
0.0
 11
702.0500000000319
 21
-217.2600000000007
 31
0.0
  0
LINE
  5
118
330
6F
100
AcDbEntity
  8
DETAIL
  6
Continuous
 62
     5
100
AcDbLine
 10
704.0000000000328
 20
-41.26000000000362
 30
0.0
 11
704.0000000000328
 21
-63.4110000000005
 31
0.0
  0
LINE
  5
119
330
6F
100
AcDbEntity
  8
DETAIL
  6
Continuous
 62
     5
100
AcDbLine
 10
704.0000000000328
 20
-166.2600000000006
 30
0.0
 11
704.0000000000328
 21
-96.41100000000051
 31
0.0
  0
LINE
  5
11A
330
6F
100
AcDbEntity
  8
DETAIL
  6
Continuous
 62
     5
100
AcDbLine
 10
720.0000000000328
 20
-183.2600000000005
 30
0.0
 11
720.0000000000328
 21
-199.2600000000005
 31
0.0
  0
LINE
  5
11B
330
6F
100
AcDbEntity
  8
DETAIL
  6
Continuous
 62
     5
100
AcDbLine
 10
723.0000000000326
 20
-63.4110000000005
 30
0.0
 11
723.0000000000326
 21
-96.41100000000051
 31
0.0
  0
LINE
  5
11C
330
6F
100
AcDbEntity
  8
DETAIL
  6
Continuous
 62
     5
100
AcDbLine
 10
734.0000000000326
 20
-199.2600000000005
 30
0.0
 11
734.0000000000326
 21
-197.2600000000007
 31
0.0
  0
LINE
  5
11D
330
6F
100
AcDbEntity
  8
DETAIL
  6
Continuous
 62
     5
100
AcDbLine
 10
734.0000000000326
 20
-185.2600000000005
 30
0.0
 11
734.0000000000326
 21
-183.2600000000005
 31
0.0
  0
LINE
  5
11E
330
6F
100
AcDbEntity
  8
DETAIL
  6
Continuous
 62
     5
100
AcDbLine
 10
737.0000000000326
 20
-88.41100000000052
 30
0.0
 11
737.0000000000326
 21
-71.41100000000051
 31
0.0
  0
LINE
  5
11F
330
6F
100
AcDbEntity
  8
DETAIL
  6
Continuous
 62
     5
100
AcDbLine
 10
738.5000000000326
 20
-90.91100009700085
 30
0.0
 11
738.5000000000326
 21
-68.91099990330028
 31
0.0
  0
LWPOLYLINE
  5
120
330
6F
100
AcDbEntity
  8
DETAIL
  6
Continuous
 62
     5
100
AcDbPolyline
 90
        6
 70
     0
 43
0.0
 10
689.0000000000328
 20
-55.78010101270091
 10
688.9746185378315
 20
-56.2292816667009
 10
688.901077791732
 20
-56.65862617450103
 10
688.7859373569336
 20
-57.05322925220071
 10
688.636823643632
 20
-57.40540612850099
 10
688.5000000000328
 20
-57.64406654800087
  0
LWPOLYLINE
  5
128
330
6F
100
AcDbEntity
  8
DETAIL
  6
Continuous
 62
     5
100
AcDbPolyline
 90
        5
 70
     0
 43
0.0
 10
737.0000000000326
 20
-75.66100000000052
 10
736.9202311843325
 20
-76.67185345000098
 10
736.6799781866319
 20
-77.69989396260051
 10
736.2728678485325
 20
-78.77025647150046
 10
735.6850454237317
 20
-79.91100000000051
  0
LWPOLYLINE
  5
12F
330
6F
100
AcDbEntity
  8
DETAIL
  6
Continuous
 62
     5
100
AcDbPolyline
 90
        5
 70
     0
 43
0.0
 10
740.2017059221325
 20
-68.9110000000005
 10
739.4446508760317
 20
-70.37912532270047
 10
738.9161367418327
 20
-71.7659794745009
 10
738.6036585842322
 20
-73.10011271800113
 10
738.5000000000326
 20
-74.41100000000052
  0
LWPOLYLINE
  5
136
330
6F
100
AcDbEntity
  8
DETAIL
  6
Continuous
 62
     5
100
AcDbPolyline
 90
        5
 70
     0
 43
0.0
 10
740.2017059221325
 20
-79.91100000000051
 10
739.4446509004336
 20
-81.37912526850094
 10
738.9161367735324
 20
-82.76597937180076
 10
738.6036586077315
 20
-84.10011256840105
 10
738.499999984333
 20
-85.41099980200076
  0
LINE
  5
13D
330
6F
100
AcDbEntity
  8
DETAIL
  6
Continuous
 62
     5
100
AcDbLine
 10
750.0000000000326
 20
-166.2600000000006
 30
0.0
 11
750.0000000000326
 21
-185.2600000000005
 31
0.0
  0
LINE
  5
13E
330
6F
100
AcDbEntity
  8
DETAIL
  6
Continuous
 62
     5
100
AcDbLine
 10
750.0000000000326
 20
-197.2600000000007
 30
0.0
 11
750.0000000000326
 21
-216.2600000000007
 31
0.0
  0
LINE
  5
13F
330
6F
100
AcDbEntity
  8
DETAIL
  6
Continuous
 62
     5
100
AcDbLine
 10
756.5000000000326
 20
-68.91099999880089
 30
0.0
 11
756.5000000000326
 21
-90.91100000120103
 31
0.0
  0
LWPOLYLINE
  5
140
330
6F
100
AcDbEntity
  8
DETAIL
  6
Continuous
 62
     5
100
AcDbPolyline
 90
        5
 70
     0
 43
0.0
 10
737.0000000000326
 20
-84.16100000000051
 10
736.9202158493314
 20
-85.17195106440111
 10
736.6799418345326
 20
-86.20001190090034
 10
736.2727497719313
 20
-87.27051926800093
 10
735.6850454237317
 20
-88.41100000000052
  0
LWPOLYLINE
  5
147
330
6F
100
AcDbEntity
  8
DETAIL
  6
Continuous
 62
     5
100
AcDbPolyline
 90
        5
 70
     0
 43
0.0
 10
756.5000000000326
 20
-74.41100000000052
 10
756.3963837269326
 20
-75.72161846250081
 10
756.084208188733
 20
-77.05490374410103
 10
755.5559784823326
 20
-78.44147608990033
 10
754.7982940778329
 20
-79.91100000000051
  0
LWPOLYLINE
  5
14E
330
6F
100
AcDbEntity
  8
DETAIL
  6
Continuous
 62
     5
100
AcDbPolyline
 90
        5
 70
     0
 43
0.0
 10
756.5000000000326
 20
-85.41100000000051
 10
756.3963837269326
 20
-86.72161846250082
 10
756.084208188733
 20
-88.05490374410101
 10
755.5559784823326
 20
-89.44147608990034
 10
754.7982940778329
 20
-90.91100000000052
  0
ARC
  5
155
330
6F
100
AcDbEntity
  8
DETAIL
  6
Continuous
 62
     5
100
AcDbCircle
 10
-726.999999999967
 20
-199.2600000000005
 30
0.0
 40
7.0
100
AcDbArc
 50
180.0
 51
0.0
  0
ARC
  5
156
330
6F
100
AcDbEntity
  8
DETAIL
  6
Continuous
 62
     5
100
AcDbCircle
 10
-726.999999999967
 20
-183.2600000000005
 30
0.0
 40
7.0
100
AcDbArc
 50
0.0
 51
180.0
  0
ARC
  5
157
330
6F
100
AcDbEntity
  8
DETAIL
  6
Continuous
 62
     5
100
AcDbCircle
 10
727.0000000000326
 20
-183.2600000000005
 30
0.0
 40
7.0
100
AcDbArc
 50
0.0
 51
180.0
  0
ARC
  5
158
330
6F
100
AcDbEntity
  8
DETAIL
  6
Continuous
 62
     5
100
AcDbCircle
 10
727.0000000000326
 20
-199.2600000000005
 30
0.0
 40
7.0
100
AcDbArc
 50
180.0
 51
0.0
  0
LINE
  5
159
330
6F
100
AcDbEntity
  8
DETAIL
  6
Continuous
 62
     5
100
AcDbLine
 10
-690.8999999999669
 20
-475.2600000000008
 30
0.0
 11
-690.8999999999669
 21
-219.2600000000007
 31
0.0
  0
LINE
  5
15A
330
6F
100
AcDbEntity
  8
DETAIL
  6
Continuous
 62
     5
100
AcDbLine
 10
-681.8999999999667
 20
-222.2600000000007
 30
0.0
 11
-681.8999999999667
 21
-475.2600000000008
 31
0.0
  0
LINE
  5
15B
330
6F
100
AcDbEntity
  8
DETAIL
  6
Continuous
 62
     5
100
AcDbLine
 10
-680.9999999999672
 20
-219.2600000000007
 30
0.0
 11
-680.9999999999672
 21
-222.2600000000007
 31
0.0
  0
LINE
  5
15C
330
6F
100
AcDbEntity
  8
DETAIL
  6
Continuous
 62
     5
100
AcDbLine
 10
686.7000000000332
 20
-461.2600000000006
 30
0.0
 11
685.9000000000324
 21
-461.2600000000006
 31
0.0
  0
LINE
  5
15D
330
6F
100
AcDbEntity
  8
DETAIL
  6
Continuous
 62
     5
100
AcDbLine
 10
686.7000000000332
 20
-458.2600000000006
 30
0.0
 11
738.9000000000321
 21
-458.2600000000006
 31
0.0
  0
LINE
  5
15E
330
6F
100
AcDbEntity
  8
DETAIL
  6
Continuous
 62
     5
100
AcDbLine
 10
686.7000000000332
 20
-457.6600000000003
 30
0.0
 11
738.9000000000321
 21
-457.6600000000003
 31
0.0
  0
LINE
  5
15F
330
6F
100
AcDbEntity
  8
DETAIL
  6
Continuous
 62
     5
100
AcDbLine
 10
686.7000000000332
 20
-407.2600000000006
 30
0.0
 11
685.9000000000324
 21
-407.2600000000006
 31
0.0
  0
LINE
  5
160
330
6F
100
AcDbEntity
  8
DETAIL
  6
Continuous
 62
     5
100
AcDbLine
 10
686.7000000000332
 20
-379.2600000000009
 30
0.0
 11
685.9000000000324
 21
-379.2600000000009
 31
0.0
  0
LINE
  5
161
330
6F
100
AcDbEntity
  8
DETAIL
  6
Continuous
 62
     5
100
AcDbLine
 10
686.7000000000332
 20
-328.860000000001
 30
0.0
 11
738.9000000000321
 21
-328.860000000001
 31
0.0
  0
LINE
  5
162
330
6F
100
AcDbEntity
  8
DETAIL
  6
Continuous
 62
     5
100
AcDbLine
 10
685.9000000000324
 20
-328.2600000000007
 30
0.0
 11
738.9000000000321
 21
-328.2600000000007
 31
0.0
  0
LINE
  5
163
330
6F
100
AcDbEntity
  8
DETAIL
  6
Continuous
 62
     5
100
AcDbLine
 10
686.7000000000332
 20
-321.0100000000007
 30
0.0
 11
708.9000000000321
 21
-321.0100000000007
 31
0.0
  0
LINE
  5
164
330
6F
100
AcDbEntity
  8
DETAIL
  6
Continuous
 62
     5
100
AcDbLine
 10
705.1959564300322
 20
-318.8100000000009
 30
0.0
 11
686.7000000000332
 21
-318.8100000000009
 31
0.0
  0
LINE
  5
165
330
6F
100
AcDbEntity
  8
DETAIL
  6
Continuous
 62
     5
100
AcDbLine
 10
686.7000000000332
 20
-311.0100000000007
 30
0.0
 11
703.3979338229327
 21
-311.0100000000007
 31
0.0
  0
LINE
  5
166
330
6F
100
AcDbEntity
  8
DETAIL
  6
Continuous
 62
     5
100
AcDbLine
 10
705.9032956549327
 20
-311.0100000000007
 30
0.0
 11
708.9000000000321
 21
-311.0100000000007
 31
0.0
  0
LINE
  5
167
330
6F
100
AcDbEntity
  8
DETAIL
  6
Continuous
 62
     5
100
AcDbLine
 10
704.5966155610329
 20
-308.8100000000009
 30
0.0
 11
686.7000000000332
 21
-308.8100000000009
 31
0.0
  0
LINE
  5
168
330
6F
100
AcDbEntity
  8
DETAIL
  6
Continuous
 62
     5
100
AcDbLine
 10
686.7000000000332
 20
-307.7100000000005
 30
0.0
 11
705.1959564300322
 21
-307.7100000000005
 31
0.0
  0
LINE
  5
169
330
6F
100
AcDbEntity
  8
DETAIL
  6
Continuous
 62
     5
100
AcDbLine
 10
708.9000000000321
 20
-305.5100000000007
 30
0.0
 11
686.7000000000332
 21
-305.5100000000007
 31
0.0
  0
LINE
  5
16A
330
6F
100
AcDbEntity
  8
DETAIL
  6
Continuous
 62
     5
100
AcDbLine
 10
686.7000000000332
 20
-297.7100000000005
 30
0.0
 11
705.1959564300322
 21
-297.7100000000005
 31
0.0
  0
LINE
  5
16B
330
6F
100
AcDbEntity
  8
DETAIL
  6
Continuous
 62
     5
100
AcDbLine
 10
708.9000000000321
 20
-295.5100000000007
 30
0.0
 11
686.7000000000332
 21
-295.5100000000007
 31
0.0
  0
LINE
  5
16C
330
6F
100
AcDbEntity
  8
DETAIL
  6
Continuous
 62
     5
100
AcDbLine
 10
686.7000000000332
 20
-290.2600000000007
 30
0.0
 11
686.9000000000323
 21
-290.2600000000007
 31
0.0
  0
LINE
  5
16D
330
6F
100
AcDbEntity
  8
DETAIL
  6
Continuous
 62
     5
100
AcDbLine
 10
686.7000000000332
 20
-289.2600000000007
 30
0.0
 11
685.9000000000324
 21
-289.2600000000007
 31
0.0
  0
LINE
  5
16E
330
6F
100
AcDbEntity
  8
DETAIL
  6
Continuous
 62
     5
100
AcDbLine
 10
692.557847795033
 20
-281.2749545762003
 30
0.0
 11
702.992893218834
 21
-281.2749545762003
 31
0.0
  0
LINE
  5
16F
330
6F
100
AcDbEntity
  8
DETAIL
  6
Continuous
 62
     5
100
AcDbLine
 10
685.9000000000324
 20
-280.2600000000007
 30
0.0
 11
686.9000000000323
 21
-280.2600000000007
 31
0.0
  0
LINE
  5
170
330
6F
100
AcDbEntity
  8
DETAIL
  6
Continuous
 62
     5
100
AcDbLine
 10
685.9000000000324
 20
-279.4600000000004
 30
0.0
 11
686.9000000000323
 21
-279.4600000000004
 31
0.0
  0
LINE
  5
171
330
6F
100
AcDbEntity
  8
DETAIL
  6
Continuous
 62
     5
100
AcDbLine
 10
685.9000000000324
 20
-279.2600000000007
 30
0.0
 11
686.9000000000323
 21
-279.2600000000007
 31
0.0
  0
LINE
  5
172
330
6F
100
AcDbEntity
  8
DETAIL
  6
Continuous
 62
     5
100
AcDbLine
 10
689.300000000032
 20
-278.9600000000004
 30
0.0
 11
686.9000000000323
 21
-278.9600000000004
 31
0.0
  0
LINE
  5
173
330
6F
100
AcDbEntity
  8
DETAIL
  6
Continuous
 62
     5
100
AcDbLine
 10
690.992893218834
 20
-277.0225000000004
 30
0.0
 11
689.300000000032
 21
-277.0225000000004
 31
0.0
  0
LINE
  5
174
330
6F
100
AcDbEntity
  8
DETAIL
  6
Continuous
 62
     5
100
AcDbLine
 10
692.557847795033
 20
-276.3674772881009
 30
0.0
 11
702.992893218834
 21
-276.3674772881009
 31
0.0
  0
LINE
  5
175
330
6F
100
AcDbEntity
  8
DETAIL
  6
Continuous
 62
     5
100
AcDbLine
 10
689.300000000032
 20
-275.9600000000004
 30
0.0
 11
686.9000000000323
 21
-275.9600000000004
 31
0.0
  0
LINE
  5
176
330
6F
100
AcDbEntity
  8
DETAIL
  6
Continuous
 62
     5
100
AcDbLine
 10
689.300000000032
 20
-266.9600000000004
 30
0.0
 11
686.9000000000323
 21
-266.9600000000004
 31
0.0
  0
LINE
  5
177
330
6F
100
AcDbEntity
  8
DETAIL
  6
Continuous
 62
     5
100
AcDbLine
 10
692.557847795033
 20
-266.5525227119001
 30
0.0
 11
702.992893218834
 21
-266.5525227119001
 31
0.0
  0
LINE
  5
178
330
6F
100
AcDbEntity
  8
DETAIL
  6
Continuous
 62
     5
100
AcDbLine
 10
690.992893218834
 20
-265.8975000000004
 30
0.0
 11
689.300000000032
 21
-265.8975000000004
 31
0.0
  0
LINE
  5
179
330
6F
100
AcDbEntity
  8
DETAIL
  6
Continuous
 62
     5
100
AcDbLine
 10
689.300000000032
 20
-263.9600000000005
 30
0.0
 11
686.9000000000323
 21
-263.9600000000005
 31
0.0
  0
LINE
  5
17A
330
6F
100
AcDbEntity
  8
DETAIL
  6
Continuous
 62
     5
100
AcDbLine
 10
692.557847795033
 20
-261.6450454238005
 30
0.0
 11
702.992893218834
 21
-261.6450454238005
 31
0.0
  0
LINE
  5
17B
330
6F
100
AcDbEntity
  8
DETAIL
  6
Continuous
 62
     5
100
AcDbLine
 10
685.9000000000324
 20
-242.2600000000007
 30
0.0
 11
686.7000000000332
 21
-242.2600000000007
 31
0.0
  0
LINE
  5
17C
330
6F
100
AcDbEntity
  8
DETAIL
  6
Continuous
 62
     5
100
AcDbLine
 10
681.9000000000324
 20
-222.2600000000007
 30
0.0
 11
-681.8999999999667
 21
-222.2600000000007
 31
0.0
  0
LINE
  5
17D
330
6F
100
AcDbEntity
  8
DETAIL
  6
Continuous
 62
     5
100
AcDbLine
 10
702.800000000032
 20
-312.1074175786002
 30
0.0
 11
704.7318566836328
 21
-313.1600000000003
 31
0.0
  0
LINE
  5
17E
330
6F
100
AcDbEntity
  8
DETAIL
  6
Continuous
 62
     5
100
AcDbLine
 10
702.800000000032
 20
-302.1074175786002
 30
0.0
 11
704.7318566836328
 21
-303.1600000000003
 31
0.0
  0
LINE
  5
17F
330
6F
100
AcDbEntity
  8
DETAIL
  6
Continuous
 62
     5
100
AcDbLine
 10
690.992893218834
 20
-279.7100000000004
 30
0.0
 11
692.557847795033
 21
-281.2749545762003
 31
0.0
  0
LINE
  5
180
330
6F
100
AcDbEntity
  8
DETAIL
  6
Continuous
 62
     5
100
AcDbLine
 10
704.0407577320329
 20
-263.4600000000004
 30
0.0
 11
705.992893218834
 21
-265.4600000000004
 31
0.0
  0
LINE
  5
181
330
6F
100
AcDbEntity
  8
DETAIL
  6
Continuous
 62
     5
100
AcDbLine
 10
702.992893218834
 20
-261.6450454238005
 30
0.0
 11
704.0407577320329
 21
-263.4600000000004
 31
0.0
  0
LINE
  5
182
330
6F
100
AcDbEntity
  8
DETAIL
  6
Continuous
 62
     5
100
AcDbLine
 10
702.800000000032
 20
-314.4125824215012
 30
0.0
 11
705.1959564300322
 21
-318.8100000000009
 31
0.0
  0
LINE
  5
183
330
6F
100
AcDbEntity
  8
DETAIL
  6
Continuous
 62
     5
100
AcDbLine
 10
708.9000000000321
 20
-321.0100000000007
 30
0.0
 11
704.7318566836328
 21
-313.3600000000011
 31
0.0
  0
LINE
  5
184
330
6F
100
AcDbEntity
  8
DETAIL
  6
Continuous
 62
     5
100
AcDbLine
 10
702.800000000032
 20
-304.4125824215011
 30
0.0
 11
703.3979338229327
 21
-305.5100000000007
 31
0.0
  0
LINE
  5
185
330
6F
100
AcDbEntity
  8
DETAIL
  6
Continuous
 62
     5
100
AcDbLine
 10
704.5966155610329
 20
-307.7100000000005
 30
0.0
 11
704.8962859955318
 21
-308.2600000000007
 31
0.0
  0
LINE
  5
186
330
6F
100
AcDbEntity
  8
DETAIL
  6
Continuous
 62
     5
100
AcDbLine
 10
708.9000000000321
 20
-311.0100000000007
 30
0.0
 11
707.4016478275336
 21
-308.2600000000007
 31
0.0
  0
LINE
  5
187
330
6F
100
AcDbEntity
  8
DETAIL
  6
Continuous
 62
     5
100
AcDbLine
 10
705.9032956549327
 20
-305.5100000000007
 30
0.0
 11
704.7318566836328
 21
-303.360000000001
 31
0.0
  0
LINE
  5
188
330
6F
100
AcDbEntity
  8
DETAIL
  6
Continuous
 62
     5
100
AcDbLine
 10
681.0000000000327
 20
-219.2600000000007
 30
0.0
 11
681.0000000000327
 21
-222.2600000000007
 31
0.0
  0
LINE
  5
189
330
6F
100
AcDbEntity
  8
DETAIL
  6
Continuous
 62
     5
100
AcDbLine
 10
681.9000000000324
 20
-475.2600000000008
 30
0.0
 11
681.9000000000324
 21
-222.2600000000007
 31
0.0
  0
LINE
  5
18A
330
6F
100
AcDbEntity
  8
DETAIL
  6
Continuous
 62
     5
100
AcDbLine
 10
685.9000000000324
 20
-219.2600000000007
 30
0.0
 11
685.9000000000324
 21
-475.2600000000008
 31
0.0
  0
LINE
  5
18B
330
6F
100
AcDbEntity
  8
DETAIL
  6
Continuous
 62
     5
100
AcDbLine
 10
686.7000000000332
 20
-242.2600000000007
 30
0.0
 11
686.7000000000332
 21
-244.2474871491008
 31
0.0
  0
LINE
  5
18C
330
6F
100
AcDbEntity
  8
DETAIL
  6
Continuous
 62
     5
100
AcDbLine
 10
686.7000000000332
 20
-279.2600000000007
 30
0.0
 11
686.7000000000332
 21
-279.4600000000004
 31
0.0
  0
LINE
  5
18D
330
6F
100
AcDbEntity
  8
DETAIL
  6
Continuous
 62
     5
100
AcDbLine
 10
686.7000000000332
 20
-289.2600000000007
 30
0.0
 11
686.7000000000332
 21
-379.2600000000009
 31
0.0
  0
LINE
  5
18E
330
6F
100
AcDbEntity
  8
DETAIL
  6
Continuous
 62
     5
100
AcDbLine
 10
686.7000000000332
 20
-407.2600000000006
 30
0.0
 11
686.7000000000332
 21
-473.2600000000005
 31
0.0
  0
LINE
  5
18F
330
6F
100
AcDbEntity
  8
DETAIL
  6
Continuous
 62
     5
100
AcDbLine
 10
686.9000000000323
 20
-245.2600000000007
 30
0.0
 11
686.9000000000323
 21
-279.2600000000007
 31
0.0
  0
LINE
  5
190
330
6F
100
AcDbEntity
  8
DETAIL
  6
Continuous
 62
     5
100
AcDbLine
 10
686.9000000000323
 20
-290.2600000000007
 30
0.0
 11
686.9000000000323
 21
-279.4600000000004
 31
0.0
  0
LINE
  5
191
330
6F
100
AcDbEntity
  8
DETAIL
  6
Continuous
 62
     5
100
AcDbLine
 10
689.300000000032
 20
-278.9596836395008
 30
0.0
 11
689.300000000032
 21
-263.9603163606011
 31
0.0
  0
LINE
  5
192
330
6F
100
AcDbEntity
  8
DETAIL
  6
Continuous
 62
     5
100
AcDbLine
 10
690.992893218834
 20
-263.2100000000004
 30
0.0
 11
690.992893218834
 21
-279.7100000000004
 31
0.0
  0
LINE
  5
193
330
6F
100
AcDbEntity
  8
DETAIL
  6
Continuous
 62
     5
100
AcDbLine
 10
704.0407577320329
 20
-279.4600000000004
 30
0.0
 11
704.0407577320329
 21
-263.4600000000004
 31
0.0
  0
LINE
  5
194
330
6F
100
AcDbEntity
  8
DETAIL
  6
Continuous
 62
     5
100
AcDbLine
 10
705.992893218834
 20
-265.4607358961007
 30
0.0
 11
705.992893218834
 21
-277.4592641040003
 31
0.0
  0
LINE
  5
195
330
6F
100
AcDbEntity
  8
DETAIL
  6
Continuous
 62
     5
100
AcDbLine
 10
738.9000000000321
 20
-328.2600000000007
 30
0.0
 11
738.9000000000321
 21
-328.860000000001
 31
0.0
  0
LINE
  5
196
330
6F
100
AcDbEntity
  8
DETAIL
  6
Continuous
 62
     5
100
AcDbLine
 10
738.9000000000321
 20
-458.2600000000006
 30
0.0
 11
738.9000000000321
 21
-457.6600000000003
 31
0.0
  0
LINE
  5
197
330
6F
100
AcDbEntity
  8
DETAIL
  6
Continuous
 62
     5
100
AcDbLine
 10
739.7000000000335
 20
-329.0600000000008
 30
0.0
 11
739.7000000000335
 21
-457.4600000000002
 31
0.0
  0
LINE
  5
198
330
6F
100
AcDbEntity
  8
DETAIL
  6
Continuous
 62
     5
100
AcDbLine
 10
705.1959564300322
 20
-297.7100000000005
 30
0.0
 11
702.800000000032
 21
-302.1074175786002
 31
0.0
  0
LINE
  5
199
330
6F
100
AcDbEntity
  8
DETAIL
  6
Continuous
 62
     5
100
AcDbLine
 10
704.7318566836328
 20
-303.1600000000003
 30
0.0
 11
708.9000000000321
 21
-295.5100000000007
 31
0.0
  0
LINE
  5
19A
330
6F
100
AcDbEntity
  8
DETAIL
  6
Continuous
 62
     5
100
AcDbLine
 10
705.1959564300322
 20
-307.7100000000005
 30
0.0
 11
702.800000000032
 21
-312.1074175786002
 31
0.0
  0
LINE
  5
19B
330
6F
100
AcDbEntity
  8
DETAIL
  6
Continuous
 62
     5
100
AcDbLine
 10
702.992893218834
 20
-281.2749545762003
 30
0.0
 11
704.0407577320329
 21
-279.4600000000004
 31
0.0
  0
LINE
  5
19C
330
6F
100
AcDbEntity
  8
DETAIL
  6
Continuous
 62
     5
100
AcDbLine
 10
704.0407577320329
 20
-279.4600000000004
 30
0.0
 11
705.992893218834
 21
-277.4600000000004
 31
0.0
  0
LINE
  5
19D
330
6F
100
AcDbEntity
  8
DETAIL
  6
Continuous
 62
     5
100
AcDbLine
 10
690.992893218834
 20
-263.2100000000004
 30
0.0
 11
692.557847795033
 21
-261.6450454238005
 31
0.0
  0
LINE
  5
19E
330
6F
100
AcDbEntity
  8
DETAIL
  6
Continuous
 62
     5
100
AcDbLine
 10
704.7318566836328
 20
-303.360000000001
 30
0.0
 11
702.800000000032
 21
-304.4125824215011
 31
0.0
  0
LINE
  5
19F
330
6F
100
AcDbEntity
  8
DETAIL
  6
Continuous
 62
     5
100
AcDbLine
 10
704.7318566836328
 20
-313.3600000000011
 30
0.0
 11
702.800000000032
 21
-314.4125824215012
 31
0.0
  0
LINE
  5
1A0
330
6F
100
AcDbEntity
  8
DETAIL
  6
Continuous
 62
     5
100
AcDbLine
 10
704.7318566836328
 20
-313.1600000000003
 30
0.0
 11
708.9000000000321
 21
-305.5100000000007
 31
0.0
  0
ARC
  5
1A1
330
6F
100
AcDbEntity
  8
DETAIL
  6
Continuous
 62
     5
100
AcDbCircle
 10
681.7000000000335
 20
-473.2600000000005
 30
0.0
 40
5.0
100
AcDbArc
 50
336.3449870964682
 51
0.0
  0
ARC
  5
1A2
330
6F
100
AcDbEntity
  8
DETAIL
  6
Continuous
 62
     5
100
AcDbCircle
 10
738.9000000000321
 20
-457.4600000000002
 30
0.0
 40
0.8
100
AcDbArc
 50
270.0
 51
0.0
  0
ARC
  5
1A3
330
6F
100
AcDbEntity
  8
DETAIL
  6
Continuous
 62
     5
100
AcDbCircle
 10
683.9000000000322
 20
-245.2600000000007
 30
0.0
 40
3.0
100
AcDbArc
 50
0.0
 51
47.91247243486097
  0
ARC
  5
1A4
330
6F
100
AcDbEntity
  8
DETAIL
  6
Continuous
 62
     5
100
AcDbCircle
 10
738.9000000000321
 20
-329.0600000000008
 30
0.0
 40
0.8
100
AcDbArc
 50
0.0000000001042204
 51
90.0
  0
LINE
  5
1A5
330
6F
100
AcDbEntity
  8
DETAIL
  6
Continuous
 62
     5
100
AcDbLine
 10
-680.9999999999672
 20
-219.2600000000007
 30
0.0
 11
-699.9999999999671
 21
-219.2600000000007
 31
0.0
  0
LINE
  5
1A6
330
6F
100
AcDbEntity
  8
DETAIL
  6
Continuous
 62
     5
100
AcDbLine
 10
700.0000000000328
 20
-219.2600000000007
 30
0.0
 11
681.0000000000327
 21
-219.2600000000007
 31
0.0
  0
LINE
  5
1A7
330
6F
100
AcDbEntity
  8
DETAIL
  6
Continuous
 62
     5
100
AcDbLine
 10
-700.7999999999664
 20
-485.2600000000006
 30
0.0
 11
-700.7999999999664
 21
-475.2600000000008
 31
0.0
  0
LINE
  5
1A8
330
6F
100
AcDbEntity
  8
DETAIL
  6
Continuous
 62
     5
100
AcDbLine
 10
-700.7999999999664
 20
-485.2600000000006
 30
0.0
 11
700.4000000000321
 21
-485.2600000000006
 31
0.0
  0
LINE
  5
1A9
330
6F
100
AcDbEntity
  8
DETAIL
  6
Continuous
 62
     5
100
AcDbLine
 10
-700.7999999999664
 20
-475.2600000000008
 30
0.0
 11
700.4000000000321
 21
-475.2600000000008
 31
0.0
  0
LINE
  5
1AA
330
6F
100
AcDbEntity
  8
DETAIL
  6
Continuous
 62
     5
100
AcDbLine
 10
700.4000000000321
 20
-485.2600000000006
 30
0.0
 11
700.4000000000321
 21
-475.2600000000008
 31
0.0
  0
LINE
  5
1AB
330
6F
100
AcDbEntity
  8
DETAIL
  6
Continuous
 62
     5
100
AcDbLine
 10
679.2166650311827
 20
-526.7600000000006
 30
0.0
 11
679.016665031184
 21
-526.7600000000006
 31
0.0
  0
LINE
  5
1AC
330
6F
100
AcDbEntity
  8
DETAIL
  6
Continuous
 62
     5
100
AcDbLine
 10
-679.0166650311182
 20
-526.7600000000006
 30
0.0
 11
-679.2166650311172
 21
-526.7600000000006
 31
0.0
  0
LINE
  5
1AD
330
6F
100
AcDbEntity
  8
DETAIL
  6
Continuous
 62
     5
100
AcDbLine
 10
679.016665031184
 20
-517.1515290310003
 30
0.0
 11
-679.0166650311182
 21
-517.1515290310003
 31
0.0
  0
LINE
  5
1AE
330
6F
100
AcDbEntity
  8
DETAIL
  6
Continuous
 62
     5
100
AcDbLine
 10
692.0692043158815
 20
-497.7600000000006
 30
0.0
 11
683.7134624401841
 21
-497.7600000000006
 31
0.0
  0
LINE
  5
1AF
330
6F
100
AcDbEntity
  8
DETAIL
  6
Continuous
 62
     5
100
AcDbLine
 10
-679.0166650311182
 20
-497.7600000000006
 30
0.0
 11
-692.169204098718
 21
-497.7600000000006
 31
0.0
  0
LINE
  5
1B0
330
6F
100
AcDbEntity
  8
DETAIL
  6
Continuous
 62
     5
100
AcDbLine
 10
679.016665031184
 20
-496.4722245511008
 30
0.0
 11
-679.0166650311182
 21
-496.4722245511008
 31
0.0
  0
LINE
  5
1B1
330
6F
100
AcDbEntity
  8
DETAIL
  6
Continuous
 62
     5
100
AcDbLine
 10
679.016665031184
 20
-496.3750482074005
 30
0.0
 11
-679.0166650311182
 21
-496.3750482074005
 31
0.0
  0
LINE
  5
1B2
330
6F
100
AcDbEntity
  8
DETAIL
  6
Continuous
 62
     5
100
AcDbLine
 10
699.5000000000836
 20
-493.7600000000005
 30
0.0
 11
-699.4999999999162
 21
-493.7600000000005
 31
0.0
  0
LINE
  5
1B3
330
6F
100
AcDbEntity
  8
DETAIL
  6
Continuous
 62
     5
100
AcDbLine
 10
-699.4999999999162
 20
-491.2600000000006
 30
0.0
 11
699.5000000000836
 21
-491.2600000000006
 31
0.0
  0
LINE
  5
1B4
330
6F
100
AcDbEntity
  8
DETAIL
  6
Continuous
 62
     5
100
AcDbLine
 10
-699.4999999999162
 20
-491.2600000000006
 30
0.0
 11
699.5000000000836
 21
-491.2600000000006
 31
0.0
  0
LINE
  5
1B5
330
6F
100
AcDbEntity
  8
DETAIL
  6
Continuous
 62
     5
100
AcDbLine
 10
-690.7067960235181
 20
-497.9221400053005
 30
0.0
 11
-690.5635991758172
 21
-498.0009088541002
 31
0.0
  0
LINE
  5
1B6
330
6F
100
AcDbEntity
  8
DETAIL
  6
Continuous
 62
     5
100
AcDbLine
 10
-690.9924483928189
 20
-497.7604786552006
 30
0.0
 11
-690.7039256856187
 21
-497.9237189033006
 31
0.0
  0
LINE
  5
1B7
330
6F
100
AcDbEntity
  8
DETAIL
  6
Continuous
 62
     5
100
AcDbLine
 10
-689.2151419827166
 20
-516.9345240644002
 30
0.0
 11
-689.5155336811183
 21
-499.7250951871005
 31
0.0
  0
LINE
  5
1B8
330
6F
100
AcDbEntity
  8
DETAIL
  6
Continuous
 62
     5
100
AcDbLine
 10
-699.4999999999162
 20
-493.7600000000005
 30
0.0
 11
-699.4999999999162
 21
-489.2600000000006
 31
0.0
  0
LINE
  5
1B9
330
6F
100
AcDbEntity
  8
DETAIL
  6
Continuous
 62
     5
100
AcDbLine
 10
-679.0166650311182
 20
-531.8600000000001
 30
0.0
 11
-679.0166650311182
 21
-496.3750482074005
 31
0.0
  0
LINE
  5
1BA
330
6F
100
AcDbEntity
  8
DETAIL
  6
Continuous
 62
     5
100
AcDbLine
 10
690.8311249802824
 20
-497.8438878399006
 30
0.0
 11
690.9714109116832
 21
-497.7600000000006
 31
0.0
  0
LINE
  5
1BB
330
6F
100
AcDbEntity
  8
DETAIL
  6
Continuous
 62
     5
100
AcDbLine
 10
690.8266058228836
 20
-497.8465904355003
 30
0.0
 11
690.9713984119825
 21
-497.7600000000006
 31
0.0
  0
LINE
  5
1BC
330
6F
100
AcDbEntity
  8
DETAIL
  6
Continuous
 62
     5
100
AcDbLine
 10
690.6488772716837
 20
-497.9514252087006
 30
0.0
 11
690.8311249802824
 21
-497.8438878399006
 31
0.0
  0
LINE
  5
1BD
330
6F
100
AcDbEntity
  8
DETAIL
  6
Continuous
 62
     5
100
AcDbLine
 10
690.6519674989832
 20
-497.9496024105006
 30
0.0
 11
690.655415976682
 21
-497.9476255198
 31
0.0
  0
LINE
  5
1BE
330
6F
100
AcDbEntity
  8
DETAIL
  6
Continuous
 62
     5
100
AcDbLine
 10
690.5321849994832
 20
-498.0182692192006
 30
0.0
 11
690.6488772716837
 21
-497.9514252087006
 31
0.0
  0
LINE
  5
1BF
330
6F
100
AcDbEntity
  8
DETAIL
  6
Continuous
 62
     5
100
AcDbLine
 10
679.016665031184
 20
-531.8600000000001
 30
0.0
 11
679.016665031184
 21
-496.3750482074005
 31
0.0
  0
LINE
  5
1C0
330
6F
100
AcDbEntity
  8
DETAIL
  6
Continuous
 62
     5
100
AcDbLine
 10
699.5000000000836
 20
-493.7600000000005
 30
0.0
 11
699.5000000000836
 21
-489.2600000000006
 31
0.0
  0
LINE
  5
1C1
330
6F
100
AcDbEntity
  8
DETAIL
  6
Continuous
 62
     5
100
AcDbLine
 10
689.2151419827825
 20
-516.9345240644002
 30
0.0
 11
689.5155336811839
 21
-499.7250951871005
 31
0.0
  0
ARC
  5
1C2
330
6F
100
AcDbEntity
  8
DETAIL
  6
Continuous
 62
     5
100
AcDbCircle
 10
-679.2166650311172
 20
-516.7600000000005
 30
0.0
 40
10.0
100
AcDbArc
 50
180.9999999999757
 51
270.0
  0
ARC
  5
1C3
330
6F
100
AcDbEntity
  8
DETAIL
  6
Continuous
 62
     5
100
AcDbCircle
 10
-692.1692109475189
 20
-493.7600000000005
 30
0.0
 40
4.0
100
AcDbArc
 50
186.3793702184707
 51
270.0000056148748
  0
ARC
  5
1C4
330
6F
100
AcDbEntity
  8
DETAIL
  6
Continuous
 62
     5
100
AcDbCircle
 10
-691.5152273520178
 20
-499.7600000000006
 30
0.0
 40
1.999999713499999
100
AcDbArc
 50
1.000000859716697
 51
61.58856578419996
  0
ARC
  5
1C5
330
6F
100
AcDbEntity
  8
DETAIL
  6
Continuous
 62
     5
100
AcDbCircle
 10
-696.6413469025174
 20
-494.2600000000005
 30
0.0
 40
0.5
100
AcDbArc
 50
6.379370127861509
 51
89.99999917280256
  0
ARC
  5
1C6
330
6F
100
AcDbEntity
  8
DETAIL
  6
Continuous
 62
     5
100
AcDbCircle
 10
679.2166650311827
 20
-516.7600000000005
 30
0.0
 40
10.0
100
AcDbArc
 50
270.0
 51
358.9999999999721
  0
ARC
  5
1C7
330
6F
100
AcDbEntity
  8
DETAIL
  6
Continuous
 62
     5
100
AcDbCircle
 10
692.0692109475821
 20
-493.7600000000005
 30
0.0
 40
4.0
100
AcDbArc
 50
269.9999976051191
 51
353.6206297842052
  0
ARC
  5
1C8
330
6F
100
AcDbEntity
  8
DETAIL
  6
Continuous
 62
     5
100
AcDbCircle
 10
691.515226440384
 20
-499.7600000000006
 30
0.0
 40
1.999999561499999
100
AcDbArc
 50
119.439575125885
 51
178.9999986844581
  0
ARC
  5
1C9
330
6F
100
AcDbEntity
  8
DETAIL
  6
Continuous
 62
     5
100
AcDbCircle
 10
696.5413469025825
 20
-494.2600000000005
 30
0.0
 40
0.5
100
AcDbArc
 50
90.00000060468684
 51
173.6206298503774
  0
LINE
  5
1CA
330
6F
100
AcDbEntity
  8
DETAIL
  6
Continuous
 62
     5
100
AcDbLine
 10
-699.9999999999671
 20
-489.2600000000006
 30
0.0
 11
700.0000000000328
 21
-489.2600000000006
 31
0.0
  0
LINE
  5
1CB
330
6F
100
AcDbEntity
  8
DETAIL
  6
Continuous
 62
     5
100
AcDbLine
 10
-699.9999999999162
 20
-489.2600000000006
 30
0.0
 11
-699.9999999999671
 21
-485.2600000000006
 31
0.0
  0
LINE
  5
1CC
330
6F
100
AcDbEntity
  8
DETAIL
  6
Continuous
 62
     5
100
AcDbLine
 10
700.0000000000836
 20
-489.2600000000006
 30
0.0
 11
700.0000000000836
 21
-485.2600000000006
 31
0.0
  0
LINE
  5
1CD
330
6F
100
AcDbEntity
  8
NOTE
  6
Continuous
 62
     4
100
AcDbLine
 10
777.5000000001328
 20
-33.18035432531315
 30
0.0
 11
777.5000000001328
 21
7.358354325328487
 31
0.0
  0
LINE
  5
1CE
330
6F
100
AcDbEntity
  8
NOTE
  6
Continuous
 62
     4
100
AcDbLine
 10
795.7271194250877
 20
-12.91099999999232
 30
0.0
 11
759.2728805751776
 21
-12.91099999999232
 31
0.0
  0
LINE
  5
1CF
330
6F
100
AcDbEntity
  8
NOTE
  6
Continuous
 62
     4
100
AcDbLine
 10
756.5000000001328
 20
-102.4973305282697
 30
0.0
 11
756.5000000001328
 21
-57.32466947171679
 31
0.0
  0
LINE
  5
1D0
330
6F
100
AcDbEntity
  8
NOTE
  6
Continuous
 62
     4
100
AcDbLine
 10
773.5537212177951
 20
-79.91099999999324
 30
0.0
 11
739.4462787824702
 21
-79.91099999999324
 31
0.0
  0
LINE
  5
1D1
330
6F
100
AcDbEntity
  8
SIZE
  6
Continuous
 62
    30
100
AcDbLine
 10
700.0000000001327
 20
-116.4109999999923
 30
0.0
 11
700.0000000001327
 21
-155.2924962583452
 31
0.0
  0
LINE
  5
1D2
330
6F
100
AcDbEntity
  8
SIZE
  6
Continuous
 62
    30
100
AcDbLine
 10
756.5000000001328
 20
-122.4973305282697
 30
0.0
 11
756.5000000001328
 21
-155.2924962583452
 31
0.0
  0
LINE
  5
1D3
330
6F
100
AcDbEntity
  8
SIZE
  6
Continuous
 62
    30
100
AcDbLine
 10
756.5000000001328
 20
-135.2924962583452
 30
0.0
 11
700.0000000001327
 21
-135.2924962583452
 31
0.0
  0
LINE
  5
1D4
330
6F
100
AcDbEntity
  8
SIZE
  6
Continuous
 62
    30
100
AcDbLine
 10
700.0000000001327
 20
-135.2924962583452
 30
0.0
 11
542.2142857143183
 21
-135.2924962583452
 31
0.0
  0
CIRCLE
  5
1D5
330
6F
100
AcDbEntity
  8
SIZE
  6
Continuous
 62
    30
100
AcDbCircle
 10
756.5000000001328
 20
-135.2924962583452
 30
0.0
 40
7.5
  0
CIRCLE
  5
1D6
330
6F
100
AcDbEntity
  8
SIZE
  6
Continuous
 62
    30
100
AcDbCircle
 10
700.0000000001327
 20
-135.2924962583452
 30
0.0
 40
7.5
  0
TEXT
  5
1D7
330
6F
100
AcDbEntity
  8
SIZE
  6
Continuous
 62
    30
100
AcDbText
 10
562.2142857143183
 20
-115.2924962583452
 30
0.0
 40
40.0
  1
57
 41
0.9
 72
     1
 11
591.3571428571754
 21
-115.2924962583452
 31
0.0
100
AcDbText
  0
POINT
  5
1D8
330
6F
100
AcDbEntity
  8
DEFPOINTS
  6
Continuous
 62
    30
100
AcDbPoint
 10
700.0000000001327
 20
-96.41099999999235
 30
0.0
  0
POINT
  5
1D9
330
6F
100
AcDbEntity
  8
DEFPOINTS
  6
Continuous
 62
    30
100
AcDbPoint
 10
756.5000000001328
 20
-102.4973305282697
 30
0.0
  0
POINT
  5
1DA
330
6F
100
AcDbEntity
  8
DEFPOINTS
  6
Continuous
 62
    30
100
AcDbPoint
 10
756.5000000001328
 20
-135.2924962583452
 30
0.0
  0
LINE
  5
1DB
330
6F
100
AcDbEntity
  8
SIZE
  6
Continuous
 62
    30
100
AcDbLine
 10
700.0000000001327
 20
-116.4109999999923
 30
0.0
 11
700.0000000001327
 21
-339.9263547235855
 31
0.0
  0
LINE
  5
1DC
330
6F
100
AcDbEntity
  8
SIZE
  6
Continuous
 62
    30
100
AcDbLine
 10
777.5000000001328
 20
-53.18035432531313
 30
0.0
 11
777.5000000001328
 21
-339.9263547235855
 31
0.0
  0
LINE
  5
1DD
330
6F
100
AcDbEntity
  8
SIZE
  6
Continuous
 62
    30
100
AcDbLine
 10
777.5000000001328
 20
-319.9263547235855
 30
0.0
 11
700.0000000001327
 21
-319.9263547235855
 31
0.0
  0
LINE
  5
1DE
330
6F
100
AcDbEntity
  8
SIZE
  6
Continuous
 62
    30
100
AcDbLine
 10
700.0000000001327
 20
-319.9263547235855
 30
0.0
 11
571.7142857144184
 21
-319.9263547235855
 31
0.0
  0
CIRCLE
  5
1DF
330
6F
100
AcDbEntity
  8
SIZE
  6
Continuous
 62
    30
100
AcDbCircle
 10
777.5000000001328
 20
-319.9263547235855
 30
0.0
 40
7.5
  0
CIRCLE
  5
1E0
330
6F
100
AcDbEntity
  8
SIZE
  6
Continuous
 62
    30
100
AcDbCircle
 10
700.0000000001327
 20
-319.9263547235855
 30
0.0
 40
7.5
  0
TEXT
  5
1E1
330
6F
100
AcDbEntity
  8
SIZE
  6
Continuous
 62
    30
100
AcDbText
 10
591.7142857144182
 20
-299.9263547235855
 30
0.0
 40
40.0
  1
78
 41
0.9
 72
     1
 11
620.8571428572753
 21
-299.9263547235855
 31
0.0
100
AcDbText
  0
POINT
  5
1E2
330
6F
100
AcDbEntity
  8
DEFPOINTS
  6
Continuous
 62
    30
100
AcDbPoint
 10
700.0000000001327
 20
-96.41099999999235
 30
0.0
  0
POINT
  5
1E3
330
6F
100
AcDbEntity
  8
DEFPOINTS
  6
Continuous
 62
    30
100
AcDbPoint
 10
777.5000000001328
 20
-33.18035432531315
 30
0.0
  0
POINT
  5
1E4
330
6F
100
AcDbEntity
  8
DEFPOINTS
  6
Continuous
 62
    30
100
AcDbPoint
 10
777.5000000001328
 20
-319.9263547235855
 30
0.0
  0
LINE
  5
1E5
330
6F
100
AcDbEntity
  8
SIZE
  6
Continuous
 62
    30
100
AcDbLine
 10
719.5000000001328
 20
-215.5599999999936
 30
0.0
 11
1484.073694324999
 21
-215.5599999999938
 31
0.0
  0
LINE
  5
1E6
330
6F
100
AcDbEntity
  8
SIZE
  6
Continuous
 62
    30
100
AcDbLine
 10
793.5537212177948
 20
-79.91099999999324
 30
0.0
 11
1484.073694324999
 21
-79.91099999999342
 31
0.0
  0
LINE
  5
1E7
330
6F
100
AcDbEntity
  8
SIZE
  6
Continuous
 62
    30
100
AcDbLine
 10
1464.073694324999
 20
-215.5599999999938
 30
0.0
 11
1464.073694324999
 21
-79.91099999999342
 31
0.0
  0
CIRCLE
  5
1E8
330
6F
100
AcDbEntity
  8
SIZE
  6
Continuous
 62
    30
100
AcDbCircle
 10
1464.073694324999
 20
-215.5599999999938
 30
0.0
 40
7.5
  0
CIRCLE
  5
1E9
330
6F
100
AcDbEntity
  8
SIZE
  6
Continuous
 62
    30
100
AcDbCircle
 10
1464.073694324999
 20
-79.91099999999342
 30
0.0
 40
7.5
  0
TEXT
  5
1EA
330
6F
100
AcDbEntity
  8
SIZE
  6
Continuous
 62
    30
100
AcDbText
 10
1444.073694324999
 20
-189.7354999999934
 30
0.0
 40
40.0
  1
136
 50
90.0
 41
0.9
 72
     1
 11
1444.073694324999
 21
-147.7354999999934
 31
0.0
100
AcDbText
  0
POINT
  5
1EB
330
6F
100
AcDbEntity
  8
DEFPOINTS
  6
Continuous
 62
    30
100
AcDbPoint
 10
699.5000000001327
 20
-215.5599999999936
 30
0.0
  0
POINT
  5
1EC
330
6F
100
AcDbEntity
  8
DEFPOINTS
  6
Continuous
 62
    30
100
AcDbPoint
 10
773.5537212177951
 20
-79.91099999999324
 30
0.0
  0
POINT
  5
1ED
330
6F
100
AcDbEntity
  8
DEFPOINTS
  6
Continuous
 62
    30
100
AcDbPoint
 10
1464.073694324999
 20
-79.91099999999342
 30
0.0
  0
LINE
  5
1EE
330
6F
100
AcDbEntity
  8
SIZE
  6
Continuous
 62
    30
100
AcDbLine
 10
815.7271194250878
 20
-12.91099999999232
 30
0.0
 11
1484.073694324998
 21
-12.91099999999252
 31
0.0
  0
LINE
  5
1EF
330
6F
100
AcDbEntity
  8
SIZE
  6
Continuous
 62
    30
100
AcDbLine
 10
793.5537212177948
 20
-79.91099999999324
 30
0.0
 11
1484.073694324998
 21
-79.91099999999342
 31
0.0
  0
LINE
  5
1F0
330
6F
100
AcDbEntity
  8
SIZE
  6
Continuous
 62
    30
100
AcDbLine
 10
1464.073694324997
 20
-79.91099999999342
 30
0.0
 11
1464.073694324997
 21
-12.91099999999252
 31
0.0
  0
LINE
  5
1F1
330
6F
100
AcDbEntity
  8
SIZE
  6
Continuous
 62
    30
100
AcDbLine
 10
1464.073694324997
 20
-12.91099999999252
 30
0.0
 11
1464.073694324997
 21
119.5651904762003
 31
0.0
  0
CIRCLE
  5
1F2
330
6F
100
AcDbEntity
  8
SIZE
  6
Continuous
 62
    30
100
AcDbCircle
 10
1464.073694324997
 20
-79.91099999999342
 30
0.0
 40
7.5
  0
CIRCLE
  5
1F3
330
6F
100
AcDbEntity
  8
SIZE
  6
Continuous
 62
    30
100
AcDbCircle
 10
1464.073694324997
 20
-12.91099999999252
 30
0.0
 40
7.5
  0
TEXT
  5
1F4
330
6F
100
AcDbEntity
  8
SIZE
  6
Continuous
 62
    30
100
AcDbText
 10
1444.073694324997
 20
41.2794761904863
 30
0.0
 40
40.0
  1
67
 50
90.0
 41
0.9
 72
     1
 11
1444.073694324997
 21
70.42233333334344
 31
0.0
100
AcDbText
  0
POINT
  5
1F5
330
6F
100
AcDbEntity
  8
DEFPOINTS
  6
Continuous
 62
    30
100
AcDbPoint
 10
795.7271194250877
 20
-12.91099999999232
 30
0.0
  0
POINT
  5
1F6
330
6F
100
AcDbEntity
  8
DEFPOINTS
  6
Continuous
 62
    30
100
AcDbPoint
 10
773.5537212177951
 20
-79.91099999999324
 30
0.0
  0
POINT
  5
1F7
330
6F
100
AcDbEntity
  8
DEFPOINTS
  6
Continuous
 62
    30
100
AcDbPoint
 10
1464.073694324997
 20
-79.91099999999342
 30
0.0
  0
LINE
  5
1F8
330
6F
100
AcDbEntity
  8
SIZE
  6
Continuous
 62
    30
100
AcDbLine
 10
-759.9999999998033
 20
562.739999999997
 30
0.0
 11
-759.9999999998033
 21
798.621117338815
 31
0.0
  0
LINE
  5
1F9
330
6F
100
AcDbEntity
  8
SIZE
  6
Continuous
 62
    30
100
AcDbLine
 10
1139.999753033167
 20
562.739999999997
 30
0.0
 11
1139.999753033167
 21
798.621117338815
 31
0.0
  0
LINE
  5
1FA
330
6F
100
AcDbEntity
  8
SIZE
  6
Continuous
 62
    30
100
AcDbLine
 10
-759.9999999998033
 20
778.6211173388148
 30
0.0
 11
1139.999753033167
 21
778.6211173388148
 31
0.0
  0
CIRCLE
  5
1FB
330
6F
100
AcDbEntity
  8
SIZE
  6
Continuous
 62
    30
100
AcDbCircle
 10
-759.9999999998033
 20
778.6211173388148
 30
0.0
 40
7.5
  0
CIRCLE
  5
1FC
330
6F
100
AcDbEntity
  8
SIZE
  6
Continuous
 62
    30
100
AcDbCircle
 10
1139.999753033167
 20
778.6211173388148
 30
0.0
 40
7.5
  0
TEXT
  5
1FD
330
6F
100
AcDbEntity
  8
SIZE
  6
Continuous
 62
    30
100
AcDbText
 10
129.9998765166819
 20
798.621117338815
 30
0.0
 40
40.0
  1
1900
 41
0.9
 72
     1
 11
189.9998765166818
 21
798.621117338815
 31
0.0
100
AcDbText
  0
POINT
  5
1FE
330
6F
100
AcDbEntity
  8
DEFPOINTS
  6
Continuous
 62
    30
100
AcDbPoint
 10
-759.9999999998033
 20
542.739999999997
 30
0.0
  0
POINT
  5
1FF
330
6F
100
AcDbEntity
  8
DEFPOINTS
  6
Continuous
 62
    30
100
AcDbPoint
 10
1139.999753033167
 20
542.739999999997
 30
0.0
  0
POINT
  5
200
330
6F
100
AcDbEntity
  8
DEFPOINTS
  6
Continuous
 62
    30
100
AcDbPoint
 10
1139.999753033167
 20
778.6211173388148
 30
0.0
  0
LINE
  5
201
330
6F
100
AcDbEntity
  8
SIZE
  6
Continuous
 62
    30
100
AcDbLine
 10
1143.999753033167
 20
558.739999999997
 30
0.0
 11
1877.857468756939
 21
558.7399999999968
 31
0.0
  0
LINE
  5
202
330
6F
100
AcDbEntity
  8
SIZE
  6
Continuous
 62
    30
100
AcDbLine
 10
1143.999753033167
 20
-41.2600000000034
 30
0.0
 11
1877.857468756939
 21
-41.2600000000036
 31
0.0
  0
LINE
  5
203
330
6F
100
AcDbEntity
  8
SIZE
  6
Continuous
 62
    30
100
AcDbLine
 10
1857.85746875694
 20
558.7399999999968
 30
0.0
 11
1857.85746875694
 21
-41.2600000000036
 31
0.0
  0
CIRCLE
  5
204
330
6F
100
AcDbEntity
  8
SIZE
  6
Continuous
 62
    30
100
AcDbCircle
 10
1857.85746875694
 20
558.7399999999968
 30
0.0
 40
7.5
  0
CIRCLE
  5
205
330
6F
100
AcDbEntity
  8
SIZE
  6
Continuous
 62
    30
100
AcDbCircle
 10
1857.85746875694
 20
-41.2600000000036
 30
0.0
 40
7.5
  0
TEXT
  5
206
330
6F
100
AcDbEntity
  8
SIZE
  6
Continuous
 62
    30
100
AcDbText
 10
1837.85746875694
 20
212.4542857142826
 30
0.0
 40
40.0
  1
600
 50
90.0
 41
0.9
 72
     1
 11
1837.85746875694
 21
258.7399999999969
 31
0.0
100
AcDbText
  0
POINT
  5
207
330
6F
100
AcDbEntity
  8
DEFPOINTS
  6
Continuous
 62
    30
100
AcDbPoint
 10
1123.999753033167
 20
558.739999999997
 30
0.0
  0
POINT
  5
208
330
6F
100
AcDbEntity
  8
DEFPOINTS
  6
Continuous
 62
    30
100
AcDbPoint
 10
1123.999753033167
 20
-41.2600000000034
 30
0.0
  0
POINT
  5
209
330
6F
100
AcDbEntity
  8
DEFPOINTS
  6
Continuous
 62
    30
100
AcDbPoint
 10
1857.85746875694
 20
-41.2600000000036
 30
0.0
  0
TEXT
  5
20A
330
6F
100
AcDbEntity
  8
ETC
  6
Continuous
 62
    61
100
AcDbText
 10
-674.3057337741192
 20
947.5881146285068
 30
0.0
 40
64.0
  1
加湿器組込（下吸込）
 41
0.9
100
AcDbText
  0
LWPOLYLINE
  5
20B
330
6F
100
AcDbEntity
  8
SERVICESPACE
  6
DASHDOT
 62
     2
100
AcDbPolyline
 90
        4
 70
     1
 43
0.0
 10
900.0029693351862
 20
-298.2915944470292
 10
1350.000000000031
 20
-298.2600000000007
 10
1350.000000000031
 20
-748.2600000000005
 10
900.0000000000309
 20
-748.2600000000005
  0
LINE
  5
211
330
6F
100
AcDbEntity
  8
SIZE
  6
Continuous
 62
    30
100
AcDbLine
 10
900.0000000000309
 20
-768.2600000000003
 30
0.0
 11
900.0000000000309
 21
-904.2846077921124
 31
0.0
  0
LINE
  5
212
330
6F
100
AcDbEntity
  8
SIZE
  6
Continuous
 62
    30
100
AcDbLine
 10
1350.000000000031
 20
-768.2600000000003
 30
0.0
 11
1350.000000000031
 21
-904.2846077921124
 31
0.0
  0
LINE
  5
213
330
6F
100
AcDbEntity
  8
SIZE
  6
Continuous
 62
    30
100
AcDbLine
 10
900.0000000000309
 20
-884.2846077921123
 30
0.0
 11
1350.000000000031
 21
-884.2846077921123
 31
0.0
  0
CIRCLE
  5
214
330
6F
100
AcDbEntity
  8
SIZE
  6
Continuous
 62
    30
100
AcDbCircle
 10
900.0000000000309
 20
-884.2846077921123
 30
0.0
 40
7.5
  0
CIRCLE
  5
215
330
6F
100
AcDbEntity
  8
SIZE
  6
Continuous
 62
    30
100
AcDbCircle
 10
1350.000000000031
 20
-884.2846077921123
 30
0.0
 40
7.5
  0
TEXT
  5
216
330
6F
100
AcDbEntity
  8
SIZE
  6
Continuous
 62
    30
100
AcDbText
 10
1078.714285714316
 20
-864.2846077921126
 30
0.0
 40
40.0
  1
450
 41
0.9
 72
     1
 11
1125.000000000031
 21
-864.2846077921126
 31
0.0
100
AcDbText
  0
POINT
  5
217
330
6F
100
AcDbEntity
  8
DEFPOINTS
  6
Continuous
 62
    30
100
AcDbPoint
 10
900.0000000000309
 20
-748.2600000000005
 30
0.0
  0
POINT
  5
218
330
6F
100
AcDbEntity
  8
DEFPOINTS
  6
Continuous
 62
    30
100
AcDbPoint
 10
1350.000000000031
 20
-748.2600000000005
 30
0.0
  0
POINT
  5
219
330
6F
100
AcDbEntity
  8
DEFPOINTS
  6
Continuous
 62
    30
100
AcDbPoint
 10
1350.000000000031
 20
-884.2846077921123
 30
0.0
  0
LINE
  5
21A
330
6F
100
AcDbEntity
  8
SIZE
  6
Continuous
 62
    30
100
AcDbLine
 10
1370.000000000031
 20
-298.2600000000007
 30
0.0
 11
1484.073694324998
 21
-298.2600000000007
 31
0.0
  0
LINE
  5
21B
330
6F
100
AcDbEntity
  8
SIZE
  6
Continuous
 62
    30
100
AcDbLine
 10
1370.000000000031
 20
-748.2600000000005
 30
0.0
 11
1484.073694324998
 21
-748.2600000000005
 31
0.0
  0
LINE
  5
21C
330
6F
100
AcDbEntity
  8
SIZE
  6
Continuous
 62
    30
100
AcDbLine
 10
1464.073694324998
 20
-298.2600000000007
 30
0.0
 11
1464.073694324997
 21
-748.2600000000005
 31
0.0
  0
CIRCLE
  5
21D
330
6F
100
AcDbEntity
  8
SIZE
  6
Continuous
 62
    30
100
AcDbCircle
 10
1464.073694324998
 20
-298.2600000000007
 30
0.0
 40
7.5
  0
CIRCLE
  5
21E
330
6F
100
AcDbEntity
  8
SIZE
  6
Continuous
 62
    30
100
AcDbCircle
 10
1464.073694324997
 20
-748.2600000000005
 30
0.0
 40
7.5
  0
TEXT
  5
21F
330
6F
100
AcDbEntity
  8
SIZE
  6
Continuous
 62
    30
100
AcDbText
 10
1444.073694324998
 20
-569.5457142857147
 30
0.0
 40
40.0
  1
450
 50
90.0
 41
0.9
 72
     1
 11
1444.073694324998
 21
-523.2600000000005
 31
0.0
100
AcDbText
  0
POINT
  5
220
330
6F
100
AcDbEntity
  8
DEFPOINTS
  6
Continuous
 62
    30
100
AcDbPoint
 10
1350.000000000031
 20
-298.2600000000007
 30
0.0
  0
POINT
  5
221
330
6F
100
AcDbEntity
  8
DEFPOINTS
  6
Continuous
 62
    30
100
AcDbPoint
 10
1350.000000000031
 20
-748.2600000000005
 30
0.0
  0
POINT
  5
222
330
6F
100
AcDbEntity
  8
DEFPOINTS
  6
Continuous
 62
    30
100
AcDbPoint
 10
1464.073694324997
 20
-748.2600000000005
 30
0.0
  0
LINE
  5
223
330
6F
100
AcDbEntity
  8
SERVICESPACE
  6
DASHDOT
 62
     2
100
AcDbLine
 10
1350.000000000031
 20
-298.2600000000007
 30
0.0
 11
900.0000000000309
 21
-748.2600000000005
 31
0.0
  0
LINE
  5
224
330
6F
100
AcDbEntity
  8
SERVICESPACE
  6
DASHDOT
 62
     2
100
AcDbLine
 10
900.0029693351862
 20
-298.2915944470292
 30
0.0
 11
1350.000000000031
 21
-748.2600000000005
 31
0.0
  0
LINE
  5
225
330
6F
100
AcDbEntity
  8
SIZE
  6
Continuous
 62
    30
100
AcDbLine
 10
1370.000000000031
 20
-298.2600000000007
 30
0.0
 11
1585.002960218294
 21
-298.2600000000007
 31
0.0
  0
LINE
  5
226
330
6F
100
AcDbEntity
  8
SIZE
  6
Continuous
 62
    30
100
AcDbLine
 10
770.0000000001311
 20
-216.2600000000007
 30
0.0
 11
1585.002960218294
 21
-216.2600000000009
 31
0.0
  0
LINE
  5
227
330
6F
100
AcDbEntity
  8
SIZE
  6
Continuous
 62
    30
100
AcDbLine
 10
1565.002960218295
 20
-216.2600000000009
 30
0.0
 11
1565.002960218295
 21
-298.2600000000007
 31
0.0
  0
LINE
  5
228
330
6F
100
AcDbEntity
  8
SIZE
  6
Continuous
 62
    30
100
AcDbLine
 10
1565.002960218295
 20
-298.2600000000007
 30
0.0
 11
1565.002960218295
 21
-567.1171428571454
 31
0.0
  0
CIRCLE
  5
229
330
6F
100
AcDbEntity
  8
SIZE
  6
Continuous
 62
    30
100
AcDbCircle
 10
1565.002960218295
 20
-216.2600000000009
 30
0.0
 40
7.5
  0
CIRCLE
  5
22A
330
6F
100
AcDbEntity
  8
SIZE
  6
Continuous
 62
    30
100
AcDbCircle
 10
1565.002960218295
 20
-298.2600000000007
 30
0.0
 40
7.5
  0
TEXT
  5
22B
330
6F
100
AcDbEntity
  8
SIZE
  6
Continuous
 62
    30
100
AcDbText
 10
1545.002960218295
 20
-547.1171428571456
 30
0.0
 40
40.0
  1
80~100
 50
90.0
 41
0.9
 72
     1
 11
1545.002960218295
 21
-447.6885714285741
 31
0.0
100
AcDbText
  0
POINT
  5
22C
330
6F
100
AcDbEntity
  8
DEFPOINTS
  6
Continuous
 62
    30
100
AcDbPoint
 10
1350.000000000031
 20
-298.2600000000007
 30
0.0
  0
POINT
  5
22D
330
6F
100
AcDbEntity
  8
DEFPOINTS
  6
Continuous
 62
    30
100
AcDbPoint
 10
750.000000000131
 20
-216.2600000000007
 30
0.0
  0
POINT
  5
22E
330
6F
100
AcDbEntity
  8
DEFPOINTS
  6
Continuous
 62
    30
100
AcDbPoint
 10
1565.002960218295
 20
-216.2600000000009
 30
0.0
  0
LINE
  5
22F
330
6F
100
AcDbEntity
  8
SIZE
  6
Continuous
 62
    30
100
AcDbLine
 10
900.0000000000309
 20
-768.2600000000003
 30
0.0
 11
900.0000000000309
 21
-904.2846077921124
 31
0.0
  0
LINE
  5
230
330
6F
100
AcDbEntity
  8
SIZE
  6
Continuous
 62
    30
100
AcDbLine
 10
700.000000000131
 20
-239.2600000000007
 30
0.0
 11
700.000000000131
 21
-904.2846077921124
 31
0.0
  0
LINE
  5
231
330
6F
100
AcDbEntity
  8
SIZE
  6
Continuous
 62
    30
100
AcDbLine
 10
900.0000000000309
 20
-884.2846077921123
 30
0.0
 11
700.000000000131
 21
-884.2846077921123
 31
0.0
  0
LINE
  5
232
330
6F
100
AcDbEntity
  8
SIZE
  6
Continuous
 62
    30
100
AcDbLine
 10
700.000000000131
 20
-884.2846077921123
 30
0.0
 11
396.8571428572738
 21
-884.2846077921123
 31
0.0
  0
CIRCLE
  5
233
330
6F
100
AcDbEntity
  8
SIZE
  6
Continuous
 62
    30
100
AcDbCircle
 10
900.0000000000309
 20
-884.2846077921123
 30
0.0
 40
7.5
  0
CIRCLE
  5
234
330
6F
100
AcDbEntity
  8
SIZE
  6
Continuous
 62
    30
100
AcDbCircle
 10
700.000000000131
 20
-884.2846077921123
 30
0.0
 40
7.5
  0
TEXT
  5
235
330
6F
100
AcDbEntity
  8
SIZE
  6
Continuous
 62
    30
100
AcDbText
 10
416.8571428572738
 20
-864.2846077921126
 30
0.0
 40
40.0
  1
150~200
 41
0.9
 72
     1
 11
533.4285714287024
 21
-864.2846077921126
 31
0.0
100
AcDbText
  0
POINT
  5
236
330
6F
100
AcDbEntity
  8
DEFPOINTS
  6
Continuous
 62
    30
100
AcDbPoint
 10
900.0000000000309
 20
-748.2600000000005
 30
0.0
  0
POINT
  5
237
330
6F
100
AcDbEntity
  8
DEFPOINTS
  6
Continuous
 62
    30
100
AcDbPoint
 10
700.000000000131
 20
-219.2600000000007
 30
0.0
  0
POINT
  5
238
330
6F
100
AcDbEntity
  8
DEFPOINTS
  6
Continuous
 62
    30
100
AcDbPoint
 10
700.000000000131
 20
-884.2846077921123
 30
0.0
  0
TEXT
  5
239
330
6F
100
AcDbEntity
  8
NOTE
  6
Continuous
 62
     4
100
AcDbText
 10
1029.522456946137
 20
-720.6591054114817
 30
0.0
 40
64.0
  1
点検口
 41
0.9
100
AcDbText
  0
LINE
  5
23A
330
6F
100
AcDbEntity
  8
OUTLINE
  6
Continuous
 62
     3
100
AcDbLine
 10
-703.9999999998672
 20
-41.26000000000385
 30
0.0
 11
-743.999999999967
 21
-41.26000000000295
 31
0.0
  0
ARC
  5
23B
330
6F
100
AcDbEntity
  8
OUTLINE
  6
Continuous
 62
     3
100
AcDbCircle
 10
-743.999999999967
 20
-25.26000000000295
 30
0.0
 40
16.0
100
AcDbArc
 50
180.0
 51
270.0
  0
LINE
  5
23C
330
6F
100
AcDbEntity
  8
OUTLINE
  6
Continuous
 62
     3
100
AcDbLine
 10
-759.999999999967
 20
-25.26000000000295
 30
0.0
 11
-759.999999999967
 21
542.739999999997
 31
0.0
  0
ARC
  5
23D
330
6F
100
AcDbEntity
  8
OUTLINE
  6
Continuous
 62
     3
100
AcDbCircle
 10
-743.999999999967
 20
542.7400000000005
 30
0.0
 40
16.0
100
AcDbArc
 50
90.0
 51
180.0
  0
LINE
  5
23E
330
6F
100
AcDbEntity
  8
OUTLINE
  6
Continuous
 62
     3
100
AcDbLine
 10
-743.999999999967
 20
558.7399999999997
 30
0.0
 11
1123.999753033167
 21
558.739999999997
 31
0.0
  0
ARC
  5
23F
330
6F
100
AcDbEntity
  8
OUTLINE
  6
Continuous
 62
     3
100
AcDbCircle
 10
1123.999753033167
 20
542.739999999997
 30
0.0
 40
16.0
100
AcDbArc
 50
0.0
 51
90.0
  0
LINE
  5
240
330
6F
100
AcDbEntity
  8
OUTLINE
  6
Continuous
 62
     3
100
AcDbLine
 10
1139.999753033167
 20
542.739999999997
 30
0.0
 11
1139.999753033167
 21
-25.26000000000295
 31
0.0
  0
ARC
  5
241
330
6F
100
AcDbEntity
  8
OUTLINE
  6
Continuous
 62
     3
100
AcDbCircle
 10
1123.999753033167
 20
-25.26000000000295
 30
0.0
 40
16.0
100
AcDbArc
 50
270.0
 51
0.0
  0
LINE
  5
242
330
6F
100
AcDbEntity
  8
OUTLINE
  6
Continuous
 62
     3
100
AcDbLine
 10
1123.999753033167
 20
-41.26000000000295
 30
0.0
 11
704.000000000131
 21
-41.26000000000295
 31
0.0
  0
LINE
  5
243
330
6F
100
AcDbEntity
  8
OUTLINE
  6
Continuous
 62
     3
100
AcDbLine
 10
-702.0499999998665
 20
-217.2600000000011
 30
0.0
 11
-700.0499999998661
 21
-217.2600000000011
 31
0.0
  0
LINE
  5
244
330
6F
100
AcDbEntity
  8
OUTLINE
  6
Continuous
 62
     3
100
AcDbLine
 10
702.050000000132
 20
-217.2600000000011
 30
0.0
 11
700.0500000001318
 21
-217.2600000000011
 31
0.0
  0
LINE
  5
245
330
6F
100
AcDbEntity
  8
OUTLINE
  6
Continuous
 62
     3
100
AcDbLine
 10
750.0000000001326
 20
-216.2600000000011
 30
0.0
 11
702.050000000132
 21
-216.2600000000011
 31
0.0
  0
LINE
  5
246
330
6F
100
AcDbEntity
  8
OUTLINE
  6
Continuous
 62
     3
100
AcDbLine
 10
700.0500000001318
 20
-216.2600000000011
 30
0.0
 11
700.0000000001327
 21
-216.2600000000011
 31
0.0
  0
LINE
  5
247
330
6F
100
AcDbEntity
  8
OUTLINE
  6
Continuous
 62
     3
100
AcDbLine
 10
-699.9999999998672
 20
-216.2600000000011
 30
0.0
 11
-700.0499999998661
 21
-216.2600000000011
 31
0.0
  0
LINE
  5
248
330
6F
100
AcDbEntity
  8
OUTLINE
  6
Continuous
 62
     3
100
AcDbLine
 10
-702.0499999998665
 20
-216.2600000000011
 30
0.0
 11
-749.9999999998672
 21
-216.2600000000011
 31
0.0
  0
LINE
  5
249
330
6F
100
AcDbEntity
  8
OUTLINE
  6
Continuous
 62
     3
100
AcDbLine
 10
-749.9999999998672
 20
-197.2600000000011
 30
0.0
 11
-733.9999999998672
 21
-197.2600000000011
 31
0.0
  0
LINE
  5
24A
330
6F
100
AcDbEntity
  8
OUTLINE
  6
Continuous
 62
     3
100
AcDbLine
 10
750.0000000001326
 20
-197.2600000000011
 30
0.0
 11
734.0000000001325
 21
-197.2600000000011
 31
0.0
  0
LINE
  5
24B
330
6F
100
AcDbEntity
  8
OUTLINE
  6
Continuous
 62
     3
100
AcDbLine
 10
-749.9999999998672
 20
-185.2600000000011
 30
0.0
 11
-733.9999999998672
 21
-185.2600000000011
 31
0.0
  0
LINE
  5
24C
330
6F
100
AcDbEntity
  8
OUTLINE
  6
Continuous
 62
     3
100
AcDbLine
 10
750.0000000001326
 20
-185.2600000000011
 30
0.0
 11
734.0000000001325
 21
-185.2600000000011
 31
0.0
  0
LINE
  5
24D
330
6F
100
AcDbEntity
  8
OUTLINE
  6
Continuous
 62
     3
100
AcDbLine
 10
750.0000000001326
 20
-166.2600000000011
 30
0.0
 11
704.0000000001327
 21
-166.2600000000011
 31
0.0
  0
LINE
  5
24E
330
6F
100
AcDbEntity
  8
OUTLINE
  6
Continuous
 62
     3
100
AcDbLine
 10
-703.9999999998672
 20
-166.2600000000011
 30
0.0
 11
-749.9999999998672
 21
-166.2600000000011
 31
0.0
  0
LINE
  5
24F
330
6F
100
AcDbEntity
  8
OUTLINE
  6
Continuous
 62
     3
100
AcDbLine
 10
-703.9999999998672
 20
-165.4600000000009
 30
0.0
 11
-699.9999999998672
 21
-165.4600000000009
 31
0.0
  0
LINE
  5
250
330
6F
100
AcDbEntity
  8
OUTLINE
  6
Continuous
 62
     3
100
AcDbLine
 10
-749.9999999998672
 20
-166.2600000000011
 30
0.0
 11
-749.9999999998672
 21
-185.2600000000011
 31
0.0
  0
LINE
  5
251
330
6F
100
AcDbEntity
  8
OUTLINE
  6
Continuous
 62
     3
100
AcDbLine
 10
-749.9999999998672
 20
-197.2600000000011
 30
0.0
 11
-749.9999999998672
 21
-216.2600000000011
 31
0.0
  0
LINE
  5
252
330
6F
100
AcDbEntity
  8
OUTLINE
  6
Continuous
 62
     3
100
AcDbLine
 10
-733.9999999998672
 20
-183.2600000000011
 30
0.0
 11
-733.9999999998672
 21
-185.2600000000011
 31
0.0
  0
LINE
  5
253
330
6F
100
AcDbEntity
  8
OUTLINE
  6
Continuous
 62
     3
100
AcDbLine
 10
-733.9999999998672
 20
-197.2600000000011
 30
0.0
 11
-733.9999999998672
 21
-199.2600000000011
 31
0.0
  0
LINE
  5
254
330
6F
100
AcDbEntity
  8
OUTLINE
  6
Continuous
 62
     3
100
AcDbLine
 10
-719.9999999998672
 20
-199.2600000000011
 30
0.0
 11
-719.9999999998672
 21
-183.2600000000011
 31
0.0
  0
LINE
  5
255
330
6F
100
AcDbEntity
  8
OUTLINE
  6
Continuous
 62
     3
100
AcDbLine
 10
-703.9999999998672
 20
-41.26000000000385
 30
0.0
 11
-703.9999999998672
 21
-166.2600000000011
 31
0.0
  0
LINE
  5
256
330
6F
100
AcDbEntity
  8
OUTLINE
  6
Continuous
 62
     3
100
AcDbLine
 10
-702.0499999998665
 20
-217.2600000000011
 30
0.0
 11
-702.0499999998665
 21
-216.2600000000011
 31
0.0
  0
LINE
  5
257
330
6F
100
AcDbEntity
  8
OUTLINE
  6
Continuous
 62
     3
100
AcDbLine
 10
-700.0499999998661
 20
-217.2600000000011
 30
0.0
 11
-700.0499999998661
 21
-216.2600000000011
 31
0.0
  0
LINE
  5
258
330
6F
100
AcDbEntity
  8
OUTLINE
  6
Continuous
 62
     3
100
AcDbLine
 10
-699.9999999998672
 20
-216.2600000000011
 30
0.0
 11
-699.9999999998672
 21
-219.2600000000011
 31
0.0
  0
LINE
  5
259
330
6F
100
AcDbEntity
  8
OUTLINE
  6
Continuous
 62
     3
100
AcDbLine
 10
704.000000000131
 20
-96.41100000000095
 30
0.0
 11
723.0000000001328
 21
-96.41100000000095
 31
0.0
  0
LINE
  5
25A
330
6F
100
AcDbEntity
  8
OUTLINE
  6
Continuous
 62
     3
100
AcDbLine
 10
756.5000000001328
 20
-90.91100000000094
 30
0.0
 11
738.4999999876328
 21
-90.91100000000094
 31
0.0
  0
LINE
  5
25B
330
6F
100
AcDbEntity
  8
OUTLINE
  6
Continuous
 62
     3
100
AcDbLine
 10
723.0000000001328
 20
-88.41100000000094
 30
0.0
 11
737.0000000001326
 21
-88.41100000000094
 31
0.0
  0
LINE
  5
25C
330
6F
100
AcDbEntity
  8
OUTLINE
  6
Continuous
 62
     3
100
AcDbLine
 10
737.0000000001326
 20
-87.85100000000147
 30
0.0
 11
738.5000000001324
 21
-87.85100000000147
 31
0.0
  0
LINE
  5
25D
330
6F
100
AcDbEntity
  8
OUTLINE
  6
Continuous
 62
     3
100
AcDbLine
 10
737.0000000001326
 20
-71.97100000000137
 30
0.0
 11
738.5000000001324
 21
-71.97100000000137
 31
0.0
  0
LINE
  5
25E
330
6F
100
AcDbEntity
  8
OUTLINE
  6
Continuous
 62
     3
100
AcDbLine
 10
737.0000000001326
 20
-71.41100000000097
 30
0.0
 11
723.0000000001328
 21
-71.41100000000097
 31
0.0
  0
LINE
  5
25F
330
6F
100
AcDbEntity
  8
OUTLINE
  6
Continuous
 62
     3
100
AcDbLine
 10
756.5000000001328
 20
-68.91100000000097
 30
0.0
 11
738.5000000001324
 21
-68.91100000000097
 31
0.0
  0
LINE
  5
260
330
6F
100
AcDbEntity
  8
OUTLINE
  6
Continuous
 62
     3
100
AcDbLine
 10
704.0000000001327
 20
-63.41100000000096
 30
0.0
 11
723.0000000001328
 21
-63.41100000000096
 31
0.0
  0
LWPOLYLINE
  5
261
330
6F
100
AcDbEntity
  8
OUTLINE
  6
Continuous
 62
     3
100
AcDbPolyline
 90
        5
 70
     0
 43
0.0
 10
756.5000000001328
 20
-75.76704262110162
 10
757.2728904621325
 20
-76.28663767540094
 10
757.9776490778331
 20
-77.21521239300091
 10
758.4048089794322
 20
-78.42138582480129
 10
758.5485281375331
 20
-79.91100000000095
  0
LWPOLYLINE
  5
268
330
6F
100
AcDbEntity
  8
OUTLINE
  6
Continuous
 62
     3
100
AcDbPolyline
 90
        5
 70
     0
 43
0.0
 10
756.5000000001328
 20
-84.05495737890124
 10
757.2728904621325
 20
-83.53536232460101
 10
757.9776490778331
 20
-82.60678760700102
 10
758.4048089794322
 20
-81.40061417520156
 10
758.5485281375331
 20
-79.91100000000095
  0
LINE
  5
26F
330
6F
100
AcDbEntity
  8
OUTLINE
  6
Continuous
 62
     3
100
AcDbLine
 10
700.0000000001342
 20
-216.260000000002
 30
0.0
 11
700.0000000001327
 21
-219.2600000000011
 31
0.0
  0
LINE
  5
270
330
6F
100
AcDbEntity
  8
OUTLINE
  6
Continuous
 62
     3
100
AcDbLine
 10
700.0500000001318
 20
-216.2600000000011
 30
0.0
 11
700.0500000001318
 21
-217.2600000000011
 31
0.0
  0
LINE
  5
271
330
6F
100
AcDbEntity
  8
OUTLINE
  6
Continuous
 62
     3
100
AcDbLine
 10
702.050000000132
 20
-216.2600000000011
 30
0.0
 11
702.050000000132
 21
-217.2600000000011
 31
0.0
  0
LINE
  5
272
330
6F
100
AcDbEntity
  8
OUTLINE
  6
Continuous
 62
     3
100
AcDbLine
 10
704.0000000001327
 20
-41.26000000000385
 30
0.0
 11
704.0000000001327
 21
-63.41100000000096
 31
0.0
  0
LINE
  5
273
330
6F
100
AcDbEntity
  8
OUTLINE
  6
Continuous
 62
     3
100
AcDbLine
 10
704.0000000001327
 20
-166.2600000000011
 30
0.0
 11
704.0000000001327
 21
-96.41100000000095
 31
0.0
  0
LINE
  5
274
330
6F
100
AcDbEntity
  8
OUTLINE
  6
Continuous
 62
     3
100
AcDbLine
 10
720.0000000001328
 20
-183.2600000000011
 30
0.0
 11
720.0000000001328
 21
-199.2600000000011
 31
0.0
  0
LINE
  5
275
330
6F
100
AcDbEntity
  8
OUTLINE
  6
Continuous
 62
     3
100
AcDbLine
 10
723.0000000001328
 20
-63.41100000000096
 30
0.0
 11
723.0000000001309
 21
-71.41100000000188
 31
0.0
  0
LINE
  5
276
330
6F
100
AcDbEntity
  8
OUTLINE
  6
Continuous
 62
     3
100
AcDbLine
 10
723.0000000001309
 20
-88.41100000000185
 30
0.0
 11
723.0000000001328
 21
-96.41100000000095
 31
0.0
  0
LINE
  5
277
330
6F
100
AcDbEntity
  8
OUTLINE
  6
Continuous
 62
     3
100
AcDbLine
 10
734.0000000001325
 20
-199.2600000000011
 30
0.0
 11
734.0000000001325
 21
-197.2600000000011
 31
0.0
  0
LINE
  5
278
330
6F
100
AcDbEntity
  8
OUTLINE
  6
Continuous
 62
     3
100
AcDbLine
 10
734.0000000001325
 20
-185.2600000000011
 30
0.0
 11
734.0000000001325
 21
-183.2600000000011
 31
0.0
  0
LINE
  5
279
330
6F
100
AcDbEntity
  8
OUTLINE
  6
Continuous
 62
     3
100
AcDbLine
 10
737.0000000001326
 20
-88.41100000000094
 30
0.0
 11
737.0000000001311
 21
-87.85100000000147
 31
0.0
  0
LINE
  5
27A
330
6F
100
AcDbEntity
  8
OUTLINE
  6
Continuous
 62
     3
100
AcDbLine
 10
737.0000000001326
 20
-71.97100000000137
 30
0.0
 11
737.0000000001326
 21
-71.41100000000097
 31
0.0
  0
LINE
  5
27B
330
6F
100
AcDbEntity
  8
OUTLINE
  6
Continuous
 62
     3
100
AcDbLine
 10
738.5000000001324
 20
-90.91100009700131
 30
0.0
 11
738.5000000001324
 21
-87.85100000000147
 31
0.0
  0
LINE
  5
27C
330
6F
100
AcDbEntity
  8
OUTLINE
  6
Continuous
 62
     3
100
AcDbLine
 10
738.5000000001324
 20
-71.97100000000137
 30
0.0
 11
738.5000000001324
 21
-68.91099990330076
 31
0.0
  0
LINE
  5
27D
330
6F
100
AcDbEntity
  8
OUTLINE
  6
Continuous
 62
     3
100
AcDbLine
 10
750.0000000001326
 20
-166.2600000000011
 30
0.0
 11
750.0000000001326
 21
-185.2600000000011
 31
0.0
  0
LINE
  5
27E
330
6F
100
AcDbEntity
  8
OUTLINE
  6
Continuous
 62
     3
100
AcDbLine
 10
750.0000000001326
 20
-197.2600000000011
 30
0.0
 11
750.0000000001326
 21
-216.2600000000011
 31
0.0
  0
LINE
  5
27F
330
6F
100
AcDbEntity
  8
OUTLINE
  6
Continuous
 62
     3
100
AcDbLine
 10
756.5000000001328
 20
-68.91099999880134
 30
0.0
 11
756.5000000001328
 21
-75.76704262110162
 31
0.0
  0
LINE
  5
280
330
6F
100
AcDbEntity
  8
OUTLINE
  6
Continuous
 62
     3
100
AcDbLine
 10
756.5000000001328
 20
-84.05495737890124
 30
0.0
 11
756.5000000001328
 21
-90.9110000012015
 31
0.0
  0
ARC
  5
281
330
6F
100
AcDbEntity
  8
OUTLINE
  6
Continuous
 62
     3
100
AcDbCircle
 10
-726.9999999998672
 20
-199.2600000000011
 30
0.0
 40
7.0
100
AcDbArc
 50
180.0
 51
0.0
  0
ARC
  5
282
330
6F
100
AcDbEntity
  8
OUTLINE
  6
Continuous
 62
     3
100
AcDbCircle
 10
-726.9999999998672
 20
-183.2600000000011
 30
0.0
 40
7.0
100
AcDbArc
 50
0.0
 51
180.0
  0
ARC
  5
283
330
6F
100
AcDbEntity
  8
OUTLINE
  6
Continuous
 62
     3
100
AcDbCircle
 10
727.0000000001328
 20
-183.2600000000011
 30
0.0
 40
7.0
100
AcDbArc
 50
0.0
 51
180.0
  0
ARC
  5
284
330
6F
100
AcDbEntity
  8
OUTLINE
  6
Continuous
 62
     3
100
AcDbCircle
 10
727.0000000001328
 20
-199.2600000000011
 30
0.0
 40
7.0
100
AcDbArc
 50
180.0
 51
0.0
  0
LINE
  5
285
330
6F
100
AcDbEntity
  8
OUTLINE
  6
Continuous
 62
     3
100
AcDbLine
 10
-690.899999999867
 20
-475.2600000000011
 30
0.0
 11
-690.899999999867
 21
-219.2600000000011
 31
0.0
  0
LINE
  5
286
330
6F
100
AcDbEntity
  8
OUTLINE
  6
Continuous
 62
     3
100
AcDbLine
 10
686.7000000001334
 20
-458.2600000000011
 30
0.0
 11
738.9000000001324
 21
-458.2600000000011
 31
0.0
  0
LINE
  5
287
330
6F
100
AcDbEntity
  8
OUTLINE
  6
Continuous
 62
     3
100
AcDbLine
 10
686.7000000001334
 20
-328.8600000000006
 30
0.0
 11
738.9000000001324
 21
-328.8600000000006
 31
0.0
  0
LINE
  5
288
330
6F
100
AcDbEntity
  8
OUTLINE
  6
Continuous
 62
     3
100
AcDbLine
 10
686.7000000001334
 20
-328.2600000000003
 30
0.0
 11
738.9000000001324
 21
-328.2600000000012
 31
0.0
  0
LINE
  5
289
330
6F
100
AcDbEntity
  8
OUTLINE
  6
Continuous
 62
     3
100
AcDbLine
 10
686.7000000001334
 20
-321.0100000000012
 30
0.0
 11
708.9000000001324
 21
-321.0100000000012
 31
0.0
  0
LINE
  5
28A
330
6F
100
AcDbEntity
  8
OUTLINE
  6
Continuous
 62
     3
100
AcDbLine
 10
705.1959564301324
 20
-318.8100000000013
 30
0.0
 11
686.7000000001334
 21
-318.8100000000013
 31
0.0
  0
LINE
  5
28B
330
6F
100
AcDbEntity
  8
OUTLINE
  6
Continuous
 62
     3
100
AcDbLine
 10
686.7000000001334
 20
-311.0100000000012
 30
0.0
 11
703.3979338230326
 21
-311.0100000000012
 31
0.0
  0
LINE
  5
28C
330
6F
100
AcDbEntity
  8
OUTLINE
  6
Continuous
 62
     3
100
AcDbLine
 10
705.9032956550328
 20
-311.0100000000012
 30
0.0
 11
708.9000000001324
 21
-311.0100000000012
 31
0.0
  0
LINE
  5
28D
330
6F
100
AcDbEntity
  8
OUTLINE
  6
Continuous
 62
     3
100
AcDbLine
 10
704.5966155611332
 20
-308.8100000000013
 30
0.0
 11
686.7000000001334
 21
-308.8100000000013
 31
0.0
  0
LINE
  5
28E
330
6F
100
AcDbEntity
  8
OUTLINE
  6
Continuous
 62
     3
100
AcDbLine
 10
686.7000000001334
 20
-307.7100000000009
 30
0.0
 11
704.5966155611349
 21
-307.7100000000009
 31
0.0
  0
LINE
  5
28F
330
6F
100
AcDbEntity
  8
OUTLINE
  6
Continuous
 62
     3
100
AcDbLine
 10
708.9000000001324
 20
-305.5100000000012
 30
0.0
 11
705.9032956550345
 21
-305.5100000000003
 31
0.0
  0
LINE
  5
290
330
6F
100
AcDbEntity
  8
OUTLINE
  6
Continuous
 62
     3
100
AcDbLine
 10
703.3979338230326
 20
-305.5100000000012
 30
0.0
 11
686.7000000001334
 21
-305.5100000000012
 31
0.0
  0
LINE
  5
291
330
6F
100
AcDbEntity
  8
OUTLINE
  6
Continuous
 62
     3
100
AcDbLine
 10
686.7000000001334
 20
-297.7100000000009
 30
0.0
 11
705.1959564301324
 21
-297.7100000000009
 31
0.0
  0
LINE
  5
292
330
6F
100
AcDbEntity
  8
OUTLINE
  6
Continuous
 62
     3
100
AcDbLine
 10
708.9000000001324
 20
-295.5100000000012
 30
0.0
 11
686.7000000001334
 21
-295.5100000000012
 31
0.0
  0
LINE
  5
293
330
6F
100
AcDbEntity
  8
OUTLINE
  6
Continuous
 62
     3
100
AcDbLine
 10
686.7000000001334
 20
-290.2600000000012
 30
0.0
 11
686.9000000001324
 21
-290.2600000000012
 31
0.0
  0
LINE
  5
294
330
6F
100
AcDbEntity
  8
OUTLINE
  6
Continuous
 62
     3
100
AcDbLine
 10
692.557847795133
 20
-281.2749545762017
 30
0.0
 11
702.9928932189343
 21
-281.2749545762017
 31
0.0
  0
LINE
  5
295
330
6F
100
AcDbEntity
  8
OUTLINE
  6
Continuous
 62
     3
100
AcDbLine
 10
686.7000000001334
 20
-279.4600000000009
 30
0.0
 11
686.9000000001324
 21
-279.4600000000009
 31
0.0
  0
LINE
  5
296
330
6F
100
AcDbEntity
  8
OUTLINE
  6
Continuous
 62
     3
100
AcDbLine
 10
686.7000000001334
 20
-279.2600000000011
 30
0.0
 11
686.9000000001324
 21
-279.2600000000011
 31
0.0
  0
LINE
  5
297
330
6F
100
AcDbEntity
  8
OUTLINE
  6
Continuous
 62
     3
100
AcDbLine
 10
689.3000000001318
 20
-278.9600000000009
 30
0.0
 11
686.9000000001324
 21
-278.9600000000009
 31
0.0
  0
LINE
  5
298
330
6F
100
AcDbEntity
  8
OUTLINE
  6
Continuous
 62
     3
100
AcDbLine
 10
690.9928932189343
 20
-277.022500000001
 30
0.0
 11
689.3000000001318
 21
-277.022500000001
 31
0.0
  0
LINE
  5
299
330
6F
100
AcDbEntity
  8
OUTLINE
  6
Continuous
 62
     3
100
AcDbLine
 10
690.9928932189343
 20
-265.897500000001
 30
0.0
 11
689.3000000001318
 21
-265.897500000001
 31
0.0
  0
LINE
  5
29A
330
6F
100
AcDbEntity
  8
OUTLINE
  6
Continuous
 62
     3
100
AcDbLine
 10
689.3000000001318
 20
-263.9600000000009
 30
0.0
 11
686.9000000001324
 21
-263.9600000000009
 31
0.0
  0
LINE
  5
29B
330
6F
100
AcDbEntity
  8
OUTLINE
  6
Continuous
 62
     3
100
AcDbLine
 10
692.557847795133
 20
-261.6450454238011
 30
0.0
 11
702.9928932189343
 21
-261.6450454238011
 31
0.0
  0
LINE
  5
29C
330
6F
100
AcDbEntity
  8
OUTLINE
  6
Continuous
 62
     3
100
AcDbLine
 10
685.9000000001324
 20
-242.2600000000011
 30
0.0
 11
686.7000000001334
 21
-242.2600000000011
 31
0.0
  0
LINE
  5
29D
330
6F
100
AcDbEntity
  8
OUTLINE
  6
Continuous
 62
     3
100
AcDbLine
 10
702.8000000001318
 20
-312.1074175786016
 30
0.0
 11
704.7318566837327
 21
-313.1600000000017
 31
0.0
  0
LINE
  5
29E
330
6F
100
AcDbEntity
  8
OUTLINE
  6
Continuous
 62
     3
100
AcDbLine
 10
702.8000000001318
 20
-302.1074175786016
 30
0.0
 11
704.7318566837327
 21
-303.1600000000017
 31
0.0
  0
LINE
  5
29F
330
6F
100
AcDbEntity
  8
OUTLINE
  6
Continuous
 62
     3
100
AcDbLine
 10
690.9928932189343
 20
-279.710000000001
 30
0.0
 11
692.557847795133
 21
-281.2749545762017
 31
0.0
  0
LINE
  5
2A0
330
6F
100
AcDbEntity
  8
OUTLINE
  6
Continuous
 62
     3
100
AcDbLine
 10
704.040757732133
 20
-263.460000000001
 30
0.0
 11
705.9928932189343
 21
-265.460000000001
 31
0.0
  0
LINE
  5
2A1
330
6F
100
AcDbEntity
  8
OUTLINE
  6
Continuous
 62
     3
100
AcDbLine
 10
702.9928932189343
 20
-261.6450454238011
 30
0.0
 11
704.040757732133
 21
-263.460000000001
 31
0.0
  0
LINE
  5
2A2
330
6F
100
AcDbEntity
  8
OUTLINE
  6
Continuous
 62
     3
100
AcDbLine
 10
702.8000000001318
 20
-314.4125824215007
 30
0.0
 11
705.1959564301324
 21
-318.8100000000013
 31
0.0
  0
LINE
  5
2A3
330
6F
100
AcDbEntity
  8
OUTLINE
  6
Continuous
 62
     3
100
AcDbLine
 10
708.9000000001324
 20
-321.0100000000012
 30
0.0
 11
704.7318566837327
 21
-313.3600000000006
 31
0.0
  0
LINE
  5
2A4
330
6F
100
AcDbEntity
  8
OUTLINE
  6
Continuous
 62
     3
100
AcDbLine
 10
702.8000000001318
 20
-304.4125824215007
 30
0.0
 11
703.3979338230326
 21
-305.5100000000012
 31
0.0
  0
LINE
  5
2A5
330
6F
100
AcDbEntity
  8
OUTLINE
  6
Continuous
 62
     3
100
AcDbLine
 10
704.5966155611332
 20
-307.7100000000009
 30
0.0
 11
704.8962859956317
 21
-308.2600000000012
 31
0.0
  0
LINE
  5
2A6
330
6F
100
AcDbEntity
  8
OUTLINE
  6
Continuous
 62
     3
100
AcDbLine
 10
708.9000000001324
 20
-311.0100000000012
 30
0.0
 11
707.4016478276335
 21
-308.2600000000012
 31
0.0
  0
LINE
  5
2A7
330
6F
100
AcDbEntity
  8
OUTLINE
  6
Continuous
 62
     3
100
AcDbLine
 10
705.9032956550328
 20
-305.5100000000012
 30
0.0
 11
704.7318566837327
 21
-303.3600000000006
 31
0.0
  0
LINE
  5
2A8
330
6F
100
AcDbEntity
  8
OUTLINE
  6
Continuous
 62
     3
100
AcDbLine
 10
685.9000000001324
 20
-219.2600000000011
 30
0.0
 11
685.9000000001324
 21
-242.2600000000011
 31
0.0
  0
LINE
  5
2A9
330
6F
100
AcDbEntity
  8
OUTLINE
  6
Continuous
 62
     3
100
AcDbLine
 10
686.7000000001334
 20
-242.2600000000011
 30
0.0
 11
686.7000000001334
 21
-244.2474871491013
 31
0.0
  0
LINE
  5
2AA
330
6F
100
AcDbEntity
  8
OUTLINE
  6
Continuous
 62
     3
100
AcDbLine
 10
686.7000000001334
 20
-279.2600000000011
 30
0.0
 11
686.7000000001334
 21
-279.4600000000009
 31
0.0
  0
LINE
  5
2AB
330
6F
100
AcDbEntity
  8
OUTLINE
  6
Continuous
 62
     3
100
AcDbLine
 10
686.7000000001334
 20
-290.2600000000012
 30
0.0
 11
686.7000000001334
 21
-295.510000000002
 31
0.0
  0
LINE
  5
2AC
330
6F
100
AcDbEntity
  8
OUTLINE
  6
Continuous
 62
     3
100
AcDbLine
 10
686.7000000001334
 20
-297.7100000000009
 30
0.0
 11
686.7000000001316
 21
-305.5100000000012
 31
0.0
  0
LINE
  5
2AD
330
6F
100
AcDbEntity
  8
OUTLINE
  6
Continuous
 62
     3
100
AcDbLine
 10
686.7000000001334
 20
-307.7100000000009
 30
0.0
 11
686.7000000001334
 21
-308.8100000000013
 31
0.0
  0
LINE
  5
2AE
330
6F
100
AcDbEntity
  8
OUTLINE
  6
Continuous
 62
     3
100
AcDbLine
 10
686.7000000001334
 20
-311.010000000002
 30
0.0
 11
686.7000000001334
 21
-318.8100000000013
 31
0.0
  0
LINE
  5
2AF
330
6F
100
AcDbEntity
  8
OUTLINE
  6
Continuous
 62
     3
100
AcDbLine
 10
686.7000000001334
 20
-321.0100000000003
 30
0.0
 11
686.7000000001334
 21
-328.2600000000012
 31
0.0
  0
LINE
  5
2B0
330
6F
100
AcDbEntity
  8
OUTLINE
  6
Continuous
 62
     3
100
AcDbLine
 10
686.7000000001334
 20
-458.2600000000011
 30
0.0
 11
686.7000000001334
 21
-473.2600000000011
 31
0.0
  0
LINE
  5
2B1
330
6F
100
AcDbEntity
  8
OUTLINE
  6
Continuous
 62
     3
100
AcDbLine
 10
686.9000000001324
 20
-245.2600000000011
 30
0.0
 11
686.9000000001324
 21
-263.9600000000009
 31
0.0
  0
LINE
  5
2B2
330
6F
100
AcDbEntity
  8
OUTLINE
  6
Continuous
 62
     3
100
AcDbLine
 10
686.9000000001324
 20
-278.9600000000009
 30
0.0
 11
686.9000000001324
 21
-279.2600000000011
 31
0.0
  0
LINE
  5
2B3
330
6F
100
AcDbEntity
  8
OUTLINE
  6
Continuous
 62
     3
100
AcDbLine
 10
686.9000000001324
 20
-290.2600000000012
 30
0.0
 11
686.9000000001324
 21
-279.4600000000009
 31
0.0
  0
LINE
  5
2B4
330
6F
100
AcDbEntity
  8
OUTLINE
  6
Continuous
 62
     3
100
AcDbLine
 10
689.3000000001318
 20
-278.9596836395012
 30
0.0
 11
689.3000000001337
 21
-277.022500000001
 31
0.0
  0
LINE
  5
2B5
330
6F
100
AcDbEntity
  8
OUTLINE
  6
Continuous
 62
     3
100
AcDbLine
 10
689.3000000001318
 20
-265.897500000001
 30
0.0
 11
689.3000000001318
 21
-263.9603163606007
 31
0.0
  0
LINE
  5
2B6
330
6F
100
AcDbEntity
  8
OUTLINE
  6
Continuous
 62
     3
100
AcDbLine
 10
690.9928932189343
 20
-263.210000000001
 30
0.0
 11
690.9928932189343
 21
-265.897500000001
 31
0.0
  0
LINE
  5
2B7
330
6F
100
AcDbEntity
  8
OUTLINE
  6
Continuous
 62
     3
100
AcDbLine
 10
690.9928932189343
 20
-277.022500000001
 30
0.0
 11
690.9928932189343
 21
-279.710000000001
 31
0.0
  0
LINE
  5
2B8
330
6F
100
AcDbEntity
  8
OUTLINE
  6
Continuous
 62
     3
100
AcDbLine
 10
705.9928932189343
 20
-265.4607358961011
 30
0.0
 11
705.9928932189343
 21
-277.4592641040017
 31
0.0
  0
LINE
  5
2B9
330
6F
100
AcDbEntity
  8
OUTLINE
  6
Continuous
 62
     3
100
AcDbLine
 10
738.9000000001324
 20
-328.2600000000012
 30
0.0
 11
738.9000000001324
 21
-328.8600000000006
 31
0.0
  0
LINE
  5
2BA
330
6F
100
AcDbEntity
  8
OUTLINE
  6
Continuous
 62
     3
100
AcDbLine
 10
739.7000000001335
 20
-329.0600000000012
 30
0.0
 11
739.7000000001335
 21
-457.4600000000008
 31
0.0
  0
LINE
  5
2BB
330
6F
100
AcDbEntity
  8
OUTLINE
  6
Continuous
 62
     3
100
AcDbLine
 10
705.1959564301324
 20
-297.7100000000009
 30
0.0
 11
702.8000000001318
 21
-302.1074175786016
 31
0.0
  0
LINE
  5
2BC
330
6F
100
AcDbEntity
  8
OUTLINE
  6
Continuous
 62
     3
100
AcDbLine
 10
704.7318566837327
 20
-303.1600000000017
 30
0.0
 11
708.9000000001324
 21
-295.5100000000012
 31
0.0
  0
LINE
  5
2BD
330
6F
100
AcDbEntity
  8
OUTLINE
  6
Continuous
 62
     3
100
AcDbLine
 10
704.8962859956263
 20
-308.2599999999911
 30
0.0
 11
702.8000000001318
 21
-312.1074175786016
 31
0.0
  0
LINE
  5
2BE
330
6F
100
AcDbEntity
  8
OUTLINE
  6
Continuous
 62
     3
100
AcDbLine
 10
702.9928932189343
 20
-281.2749545762017
 30
0.0
 11
704.040757732133
 21
-279.4600000000009
 31
0.0
  0
LINE
  5
2BF
330
6F
100
AcDbEntity
  8
OUTLINE
  6
Continuous
 62
     3
100
AcDbLine
 10
704.040757732133
 20
-279.4600000000009
 30
0.0
 11
705.9928932189343
 21
-277.460000000001
 31
0.0
  0
LINE
  5
2C0
330
6F
100
AcDbEntity
  8
OUTLINE
  6
Continuous
 62
     3
100
AcDbLine
 10
690.9928932189343
 20
-263.210000000001
 30
0.0
 11
692.557847795133
 21
-261.6450454238011
 31
0.0
  0
LINE
  5
2C1
330
6F
100
AcDbEntity
  8
OUTLINE
  6
Continuous
 62
     3
100
AcDbLine
 10
704.7318566837327
 20
-303.3600000000006
 30
0.0
 11
702.8000000001318
 21
-304.4125824215007
 31
0.0
  0
LINE
  5
2C2
330
6F
100
AcDbEntity
  8
OUTLINE
  6
Continuous
 62
     3
100
AcDbLine
 10
704.7318566837327
 20
-313.3600000000006
 30
0.0
 11
702.8000000001318
 21
-314.4125824215007
 31
0.0
  0
LINE
  5
2C3
330
6F
100
AcDbEntity
  8
OUTLINE
  6
Continuous
 62
     3
100
AcDbLine
 10
704.7318566837327
 20
-313.1600000000017
 30
0.0
 11
708.9000000001324
 21
-305.5100000000012
 31
0.0
  0
ARC
  5
2C4
330
6F
100
AcDbEntity
  8
OUTLINE
  6
Continuous
 62
     3
100
AcDbCircle
 10
681.7000000001335
 20
-473.2600000000011
 30
0.0
 40
5.0
100
AcDbArc
 50
336.3449870964682
 51
0.0
  0
ARC
  5
2C5
330
6F
100
AcDbEntity
  8
OUTLINE
  6
Continuous
 62
     3
100
AcDbCircle
 10
738.9000000001324
 20
-457.4600000000008
 30
0.0
 40
0.8
100
AcDbArc
 50
270.0
 51
0.0
  0
ARC
  5
2C6
330
6F
100
AcDbEntity
  8
OUTLINE
  6
Continuous
 62
     3
100
AcDbCircle
 10
683.9000000001324
 20
-245.2600000000011
 30
0.0
 40
3.0
100
AcDbArc
 50
0.0
 51
21.03946978118546
  0
ARC
  5
2C7
330
6F
100
AcDbEntity
  8
OUTLINE
  6
Continuous
 62
     3
100
AcDbCircle
 10
738.9000000001324
 20
-329.0600000000012
 30
0.0
 40
0.8
100
AcDbArc
 50
0.0000000001042204
 51
90.0
  0
LINE
  5
2C8
330
6F
100
AcDbEntity
  8
OUTLINE
  6
Continuous
 62
     3
100
AcDbLine
 10
-690.899999999867
 20
-219.2600000000011
 30
0.0
 11
-699.9999999998672
 21
-219.2600000000011
 31
0.0
  0
LINE
  5
2C9
330
6F
100
AcDbEntity
  8
OUTLINE
  6
Continuous
 62
     3
100
AcDbLine
 10
700.0000000001327
 20
-219.2600000000011
 30
0.0
 11
685.9000000001324
 21
-219.2600000000011
 31
0.0
  0
LINE
  5
2CA
330
6F
100
AcDbEntity
  8
OUTLINE
  6
Continuous
 62
     3
100
AcDbLine
 10
-700.7999999998665
 20
-485.2600000000011
 30
0.0
 11
-700.7999999998665
 21
-475.2600000000011
 31
0.0
  0
LINE
  5
2CB
330
6F
100
AcDbEntity
  8
OUTLINE
  6
Continuous
 62
     3
100
AcDbLine
 10
-700.7999999998665
 20
-485.2600000000011
 30
0.0
 11
-699.9999999998689
 21
-485.2600000000011
 31
0.0
  0
LINE
  5
2CC
330
6F
100
AcDbEntity
  8
OUTLINE
  6
Continuous
 62
     3
100
AcDbLine
 10
700.0000000001835
 20
-485.2600000000011
 30
0.0
 11
700.4000000001324
 21
-485.2600000000011
 31
0.0
  0
LINE
  5
2CD
330
6F
100
AcDbEntity
  8
OUTLINE
  6
Continuous
 62
     3
100
AcDbLine
 10
-700.7999999998665
 20
-475.2600000000011
 30
0.0
 11
-690.899999999867
 21
-475.2600000000011
 31
0.0
  0
LINE
  5
2CE
330
6F
100
AcDbEntity
  8
OUTLINE
  6
Continuous
 62
     3
100
AcDbLine
 10
686.2825756950897
 20
-475.2600000000011
 30
0.0
 11
700.4000000001324
 21
-475.2600000000011
 31
0.0
  0
LINE
  5
2CF
330
6F
100
AcDbEntity
  8
OUTLINE
  6
Continuous
 62
     3
100
AcDbLine
 10
700.4000000001324
 20
-485.2600000000011
 30
0.0
 11
700.4000000001324
 21
-475.2600000000011
 31
0.0
  0
LINE
  5
2D0
330
6F
100
AcDbEntity
  8
OUTLINE
  6
Continuous
 62
     3
100
AcDbLine
 10
679.2166650312829
 20
-526.7600000000011
 30
0.0
 11
679.016665031284
 21
-526.7600000000011
 31
0.0
  0
LINE
  5
2D1
330
6F
100
AcDbEntity
  8
OUTLINE
  6
Continuous
 62
     3
100
AcDbLine
 10
-679.0166650310184
 20
-526.7600000000011
 30
0.0
 11
-679.216665031017
 21
-526.7600000000011
 31
0.0
  0
LINE
  5
2D2
330
6F
100
AcDbEntity
  8
OUTLINE
  6
Continuous
 62
     3
100
AcDbLine
 10
692.0692043159816
 20
-497.7600000000011
 30
0.0
 11
690.9714109117848
 21
-497.7600000000001
 31
0.0
  0
LINE
  5
2D3
330
6F
100
AcDbEntity
  8
OUTLINE
  6
Continuous
 62
     3
100
AcDbLine
 10
699.5000000001835
 20
-493.7600000000011
 30
0.0
 11
696.5413469026823
 21
-493.7600000000011
 31
0.0
  0
LINE
  5
2D4
330
6F
100
AcDbEntity
  8
OUTLINE
  6
Continuous
 62
     3
100
AcDbLine
 10
-696.6413469024175
 20
-493.7600000000011
 30
0.0
 11
-699.4999999998163
 21
-493.7600000000011
 31
0.0
  0
LINE
  5
2D5
330
6F
100
AcDbEntity
  8
OUTLINE
  6
Continuous
 62
     3
100
AcDbLine
 10
-690.7067960234178
 20
-497.9221400053011
 30
0.0
 11
-690.563599175717
 21
-498.0009088541009
 31
0.0
  0
LINE
  5
2D6
330
6F
100
AcDbEntity
  8
OUTLINE
  6
Continuous
 62
     3
100
AcDbLine
 10
-690.9924483927187
 20
-497.7604786552008
 30
0.0
 11
-690.7039256855187
 21
-497.9237189033009
 31
0.0
  0
LINE
  5
2D7
330
6F
100
AcDbEntity
  8
OUTLINE
  6
Continuous
 62
     3
100
AcDbLine
 10
-689.2151419826167
 20
-516.9345240644007
 30
0.0
 11
-689.5155336810184
 21
-499.7250951871007
 31
0.0
  0
LINE
  5
2D8
330
6F
100
AcDbEntity
  8
OUTLINE
  6
Continuous
 62
     3
100
AcDbLine
 10
-699.4999999998163
 20
-493.7600000000011
 30
0.0
 11
-699.4999999998163
 21
-489.2600000000011
 31
0.0
  0
LINE
  5
2D9
330
6F
100
AcDbEntity
  8
OUTLINE
  6
Continuous
 62
     3
100
AcDbLine
 10
-679.0166650310184
 20
-531.8600000000006
 30
0.0
 11
-679.0166650310184
 21
-526.7600000000011
 31
0.0
  0
LINE
  5
2DA
330
6F
100
AcDbEntity
  8
OUTLINE
  6
Continuous
 62
     3
100
AcDbLine
 10
690.8311249803826
 20
-497.8438878399011
 30
0.0
 11
690.9714109117831
 21
-497.7600000000011
 31
0.0
  0
LINE
  5
2DB
330
6F
100
AcDbEntity
  8
OUTLINE
  6
Continuous
 62
     3
100
AcDbLine
 10
690.8266058229835
 20
-497.8465904355007
 30
0.0
 11
690.9713984120825
 21
-497.7600000000011
 31
0.0
  0
LINE
  5
2DC
330
6F
100
AcDbEntity
  8
OUTLINE
  6
Continuous
 62
     3
100
AcDbLine
 10
690.6488772717839
 20
-497.9514252087009
 30
0.0
 11
690.8311249803826
 21
-497.8438878399011
 31
0.0
  0
LINE
  5
2DD
330
6F
100
AcDbEntity
  8
OUTLINE
  6
Continuous
 62
     3
100
AcDbLine
 10
690.6519674990833
 20
-497.9496024105008
 30
0.0
 11
690.655415976782
 21
-497.9476255198003
 31
0.0
  0
LINE
  5
2DE
330
6F
100
AcDbEntity
  8
OUTLINE
  6
Continuous
 62
     3
100
AcDbLine
 10
690.5321849995835
 20
-498.0182692192011
 30
0.0
 11
690.6488772717839
 21
-497.9514252087009
 31
0.0
  0
LINE
  5
2DF
330
6F
100
AcDbEntity
  8
OUTLINE
  6
Continuous
 62
     3
100
AcDbLine
 10
679.016665031284
 20
-531.8600000000006
 30
0.0
 11
679.0166650312857
 21
-526.7600000000011
 31
0.0
  0
LINE
  5
2E0
330
6F
100
AcDbEntity
  8
OUTLINE
  6
Continuous
 62
     3
100
AcDbLine
 10
699.5000000001835
 20
-493.7600000000011
 30
0.0
 11
699.5000000001835
 21
-489.2600000000011
 31
0.0
  0
LINE
  5
2E1
330
6F
100
AcDbEntity
  8
OUTLINE
  6
Continuous
 62
     3
100
AcDbLine
 10
689.2151419828824
 20
-516.9345240644007
 30
0.0
 11
689.515533681284
 21
-499.7250951871007
 31
0.0
  0
ARC
  5
2E2
330
6F
100
AcDbEntity
  8
OUTLINE
  6
Continuous
 62
     3
100
AcDbCircle
 10
-679.216665031017
 20
-516.7600000000011
 30
0.0
 40
10.0
100
AcDbArc
 50
180.9999999999757
 51
270.0
  0
ARC
  5
2E3
330
6F
100
AcDbEntity
  8
OUTLINE
  6
Continuous
 62
     3
100
AcDbCircle
 10
-692.1692109474188
 20
-493.7600000000011
 30
0.0
 40
4.0
100
AcDbArc
 50
186.3793702184707
 51
270.0000056148748
  0
ARC
  5
2E4
330
6F
100
AcDbEntity
  8
OUTLINE
  6
Continuous
 62
     3
100
AcDbCircle
 10
-691.5152273519179
 20
-499.7600000000011
 30
0.0
 40
1.999999713499999
100
AcDbArc
 50
1.000000859716697
 51
61.58856578419996
  0
ARC
  5
2E5
330
6F
100
AcDbEntity
  8
OUTLINE
  6
Continuous
 62
     3
100
AcDbCircle
 10
-696.6413469024175
 20
-494.2600000000011
 30
0.0
 40
0.5
100
AcDbArc
 50
6.379370127861509
 51
89.99999917280256
  0
ARC
  5
2E6
330
6F
100
AcDbEntity
  8
OUTLINE
  6
Continuous
 62
     3
100
AcDbCircle
 10
679.2166650312829
 20
-516.7600000000011
 30
0.0
 40
10.0
100
AcDbArc
 50
270.0
 51
358.9999999999721
  0
ARC
  5
2E7
330
6F
100
AcDbEntity
  8
OUTLINE
  6
Continuous
 62
     3
100
AcDbCircle
 10
692.0692109476822
 20
-493.7600000000011
 30
0.0
 40
4.0
100
AcDbArc
 50
269.9999976051191
 51
353.6206297842052
  0
ARC
  5
2E8
330
6F
100
AcDbEntity
  8
OUTLINE
  6
Continuous
 62
     3
100
AcDbCircle
 10
691.5152264404841
 20
-499.7600000000011
 30
0.0
 40
1.999999561499999
100
AcDbArc
 50
119.4395751258914
 51
178.9999986844581
  0
ARC
  5
2E9
330
6F
100
AcDbEntity
  8
OUTLINE
  6
Continuous
 62
     3
100
AcDbCircle
 10
696.5413469026823
 20
-494.2600000000011
 30
0.0
 40
0.5
100
AcDbArc
 50
90.00000060468684
 51
173.6206298503774
  0
LINE
  5
2EA
330
6F
100
AcDbEntity
  8
OUTLINE
  6
Continuous
 62
     3
100
AcDbLine
 10
-699.9999999998672
 20
-489.2600000000011
 30
0.0
 11
-699.4999999998163
 21
-489.2600000000011
 31
0.0
  0
LINE
  5
2EB
330
6F
100
AcDbEntity
  8
OUTLINE
  6
Continuous
 62
     3
100
AcDbLine
 10
699.5000000001835
 20
-489.2600000000011
 30
0.0
 11
700.0000000001327
 21
-489.2600000000011
 31
0.0
  0
LINE
  5
2EC
330
6F
100
AcDbEntity
  8
OUTLINE
  6
Continuous
 62
     3
100
AcDbLine
 10
-699.9999999998163
 20
-489.2600000000011
 30
0.0
 11
-699.9999999998672
 21
-485.2600000000011
 31
0.0
  0
LINE
  5
2ED
330
6F
100
AcDbEntity
  8
OUTLINE
  6
Continuous
 62
     3
100
AcDbLine
 10
700.0000000001835
 20
-489.2600000000011
 30
0.0
 11
700.0000000001835
 21
-485.2600000000011
 31
0.0
  0
LINE
  5
2EE
330
6F
100
AcDbEntity
  8
NOTE
  6
Continuous
 62
     4
100
AcDbLine
 10
456.2749227924014
 20
-718.7081127428285
 30
0.0
 11
442.40740933292
 21
-718.7081127428285
 31
0.0
  0
LINE
  5
2EF
330
6F
100
AcDbEntity
  8
NOTE
  6
Continuous
 62
     4
100
AcDbLine
 10
500.1424362518827
 20
-718.7081127428285
 30
0.0
 11
486.2749227924012
 21
-718.7081127428285
 31
0.0
  0
LINE
  5
2F0
330
6F
100
AcDbEntity
  8
NOTE
  6
Continuous
 62
     4
100
AcDbLine
 10
456.2749227924014
 20
-688.7081127428285
 30
0.0
 11
486.2749227924012
 21
-688.7081127428285
 31
0.0
  0
LINE
  5
2F1
330
6F
100
AcDbEntity
  8
NOTE
  6
Continuous
 62
     4
100
AcDbLine
 10
486.2749227924012
 20
-688.7081127428285
 30
0.0
 11
486.2749227924012
 21
-718.7081127428285
 31
0.0
  0
LINE
  5
2F2
330
6F
100
AcDbEntity
  8
NOTE
  6
Continuous
 62
     4
100
AcDbLine
 10
456.2749227924014
 20
-688.7081127428285
 30
0.0
 11
456.2749227924014
 21
-718.7081127428285
 31
0.0
  0
LINE
  5
2F3
330
6F
100
AcDbEntity
  8
NOTE
  6
Continuous
 62
     4
100
AcDbLine
 10
500.1424362518827
 20
-718.7081127428285
 30
0.0
 11
471.2749227924013
 21
-758.7081127428286
 31
0.0
  0
LINE
  5
2F4
330
6F
100
AcDbEntity
  8
NOTE
  6
Continuous
 62
     4
100
AcDbLine
 10
442.40740933292
 20
-718.7081127428285
 30
0.0
 11
471.2749227924013
 21
-758.7081127428286
 31
0.0
  0
LINE
  5
2F5
330
6F
100
AcDbEntity
  8
NOTE
  6
Continuous
 62
     4
100
AcDbLine
 10
807.0871064324988
 20
-3.465354203135348
 30
0.0
 11
777.5000000001328
 21
-12.91100000103006
 31
0.0
  0
LINE
  5
2F6
330
6F
100
AcDbEntity
  8
NOTE
  6
Continuous
 62
     4
100
AcDbLine
 10
777.5000000001328
 20
-12.91100000103006
 30
0.0
 11
798.4003630003098
 21
10.06272233646473
 31
0.0
  0
LINE
  5
2F7
330
6F
100
AcDbEntity
  8
NOTE
  6
Continuous
 62
     4
100
AcDbLine
 10
777.5000000001328
 20
-12.91100000103006
 30
0.0
 11
802.7437347164049
 21
3.298684066664689
 31
0.0
  0
LINE
  5
2F8
330
6F
100
AcDbEntity
  8
NOTE
  6
Continuous
 62
     4
100
AcDbLine
 10
802.7437347164049
 20
3.298684066664689
 30
0.0
 11
1206.647238154899
 21
262.6560358278034
 31
0.0
  0
LINE
  5
2F9
330
6F
100
AcDbEntity
  8
NOTE
  6
Continuous
 62
     4
100
AcDbLine
 10
1206.647238154899
 20
262.6560358278034
 30
0.0
 11
1699.494895803835
 21
262.6560358278034
 31
0.0
  0
LINE
  5
2FA
330
6F
100
AcDbEntity
  8
NOTE
  6
Continuous
 62
     4
100
AcDbLine
 10
786.7243203947
 20
-72.76204565267858
 30
0.0
 11
756.5000000000326
 21
-79.91099999999324
 31
0.0
  0
LINE
  5
2FB
330
6F
100
AcDbEntity
  8
NOTE
  6
Continuous
 62
     4
100
AcDbLine
 10
756.5000000000326
 20
-79.91099999999324
 30
0.0
 11
779.1005521969209
 21
-58.60766382991823
 31
0.0
  0
LINE
  5
2FC
330
6F
100
AcDbEntity
  8
NOTE
  6
Continuous
 62
     4
100
AcDbLine
 10
756.5000000000326
 20
-79.91099999999324
 30
0.0
 11
782.9124362958099
 21
-65.68485474129841
 31
0.0
  0
LINE
  5
2FD
330
6F
100
AcDbEntity
  8
NOTE
  6
Continuous
 62
     4
100
AcDbLine
 10
782.9124362958099
 20
-65.68485474129841
 30
0.0
 11
1191.831493510687
 21
154.5652517555932
 31
0.0
  0
LINE
  5
2FE
330
6F
100
AcDbEntity
  8
NOTE
  6
Continuous
 62
     4
100
AcDbLine
 10
1191.831493510687
 20
154.5652517555932
 30
0.0
 11
1643.076986523138
 21
154.5652517555932
 31
0.0
  0
TEXT
  5
2FF
330
6F
100
AcDbEntity
  8
NOTE
  6
Continuous
 62
     4
100
AcDbText
 10
1223.400931679778
 20
271.9585410686864
 30
0.0
 40
64.0
  1
RG %%c15.88
100
AcDbText
  0
TEXT
  5
300
330
6F
100
AcDbEntity
  8
NOTE
  6
Continuous
 62
     4
100
AcDbText
 10
1212.009356441449
 20
165.0236195897319
 30
0.0
 40
64.0
  1
RL %%c9.52
100
AcDbText
  0
LINE
  5
301
330
6F
100
AcDbEntity
  8
NOTE
  6
Continuous
 62
     4
100
AcDbLine
 10
727.0000000000326
 20
-221.2600000000001
 30
0.0
 11
727.0000000000326
 21
-161.2600000000002
 31
0.0
  0
LINE
  5
302
330
6F
100
AcDbEntity
  8
NOTE
  6
Continuous
 62
     4
100
AcDbLine
 10
706.5465625496671
 20
-191.2600000000001
 30
0.0
 11
766.9851937532659
 21
-191.2600000000001
 31
0.0
  0
LINE
  5
303
330
6F
100
AcDbEntity
  8
NOTE
  6
Continuous
 62
     4
100
AcDbLine
 10
-726.999999999967
 20
-221.2600000000001
 30
0.0
 11
-726.999999999967
 21
-161.2600000000002
 31
0.0
  0
LINE
  5
304
330
6F
100
AcDbEntity
  8
NOTE
  6
Continuous
 62
     4
100
AcDbLine
 10
-706.5465625496016
 20
-191.2600000000001
 30
0.0
 11
-766.9851937532004
 21
-191.2600000000001
 31
0.0
  0
CIRCLE
  5
305
330
6F
100
AcDbEntity
  8
FIX
  6
Continuous
 62
    11
100
AcDbCircle
 10
727.0000000000326
 20
-191.2600000000001
 30
0.0
 40
12.0
  0
CIRCLE
  5
306
330
6F
100
AcDbEntity
  8
FIX
  6
Continuous
 62
    11
100
AcDbCircle
 10
-726.999999999967
 20
-191.2600000000001
 30
0.0
 40
12.0
  0
LINE
  5
307
330
6F
100
AcDbEntity
  8
SIZE
  6
Continuous
 62
    30
100
AcDbLine
 10
-749.9999999999655
 20
-236.2600000000002
 30
0.0
 11
-749.9999999999655
 21
-695.3770989071504
 31
0.0
  0
LINE
  5
308
330
6F
100
AcDbEntity
  8
SIZE
  6
Continuous
 62
    30
100
AcDbLine
 10
-726.9999999999655
 20
-249.2600000000002
 30
0.0
 11
-726.9999999999655
 21
-695.3770989071504
 31
0.0
  0
LINE
  5
309
330
6F
100
AcDbEntity
  8
SIZE
  6
Continuous
 62
    30
100
AcDbLine
 10
-726.9999999999655
 20
-675.3770989071503
 30
0.0
 11
-696.9999999999656
 21
-675.3770989071503
 31
0.0
  0
LINE
  5
30A
330
6F
100
AcDbEntity
  8
SIZE
  6
Continuous
 62
    30
100
AcDbLine
 10
-749.9999999999655
 20
-675.3770989071503
 30
0.0
 11
-911.4193730882
 21
-675.3770989071503
 31
0.0
  0
LINE
  5
30B
330
6F
100
AcDbEntity
  8
SIZE
  6
Continuous
 62
    30
100
AcDbLine
 10
-726.9999999999655
 20
-675.3770989071503
 30
0.0
 11
-749.9999999999655
 21
-675.3770989071503
 31
0.0
  0
CIRCLE
  5
30C
330
6F
100
AcDbEntity
  8
SIZE
  6
Continuous
 62
    30
100
AcDbCircle
 10
-726.9999999999655
 20
-675.3770989071503
 30
0.0
 40
7.5
  0
CIRCLE
  5
30D
330
6F
100
AcDbEntity
  8
SIZE
  6
Continuous
 62
    30
100
AcDbCircle
 10
-749.9999999999655
 20
-675.3770989071503
 30
0.0
 40
7.5
  0
TEXT
  5
30E
330
6F
100
AcDbEntity
  8
SIZE
  6
Continuous
 62
    30
100
AcDbText
 10
-891.4193730882001
 20
-655.3770989071503
 30
0.0
 40
40.0
  1
23
 41
0.9
 72
     1
 11
-862.2765159453429
 21
-655.3770989071503
 31
0.0
100
AcDbText
  0
POINT
  5
30F
330
6F
100
AcDbEntity
  8
DEFPOINTS
  6
Continuous
 62
    30
100
AcDbPoint
 10
-749.9999999999655
 20
-216.2600000000002
 30
0.0
  0
POINT
  5
310
330
6F
100
AcDbEntity
  8
DEFPOINTS
  6
Continuous
 62
    30
100
AcDbPoint
 10
-726.9999999999655
 20
-229.2600000000001
 30
0.0
  0
POINT
  5
311
330
6F
100
AcDbEntity
  8
DEFPOINTS
  6
Continuous
 62
    30
100
AcDbPoint
 10
-726.9999999999655
 20
-675.3770989071503
 30
0.0
  0
LINE
  5
312
330
6F
100
AcDbEntity
  8
SIZE
  6
Continuous
 62
    30
100
AcDbLine
 10
-726.9999999999655
 20
-249.2600000000002
 30
0.0
 11
-726.9999999999655
 21
-695.3770989071504
 31
0.0
  0
LINE
  5
313
330
6F
100
AcDbEntity
  8
SIZE
  6
Continuous
 62
    30
100
AcDbLine
 10
727.0000000000326
 20
-241.2600000000002
 30
0.0
 11
727.0000000000326
 21
-695.3770989071504
 31
0.0
  0
LINE
  5
314
330
6F
100
AcDbEntity
  8
SIZE
  6
Continuous
 62
    30
100
AcDbLine
 10
-726.9999999999655
 20
-675.3770989071503
 30
0.0
 11
727.0000000000326
 21
-675.3770989071503
 31
0.0
  0
CIRCLE
  5
315
330
6F
100
AcDbEntity
  8
SIZE
  6
Continuous
 62
    30
100
AcDbCircle
 10
-726.9999999999655
 20
-675.3770989071503
 30
0.0
 40
7.5
  0
CIRCLE
  5
316
330
6F
100
AcDbEntity
  8
SIZE
  6
Continuous
 62
    30
100
AcDbCircle
 10
727.0000000000326
 20
-675.3770989071503
 30
0.0
 40
7.5
  0
TEXT
  5
317
330
6F
100
AcDbEntity
  8
SIZE
  6
Continuous
 62
    30
100
AcDbText
 10
-60.8571428571092
 20
-655.3770989071503
 30
0.0
 40
40.0
  1
1454
 41
0.9
 72
     1
 11
0.0000000000336513
 21
-655.3770989071503
 31
0.0
100
AcDbText
  0
POINT
  5
318
330
6F
100
AcDbEntity
  8
DEFPOINTS
  6
Continuous
 62
    30
100
AcDbPoint
 10
-726.9999999999655
 20
-229.2600000000001
 30
0.0
  0
POINT
  5
319
330
6F
100
AcDbEntity
  8
DEFPOINTS
  6
Continuous
 62
    30
100
AcDbPoint
 10
727.0000000000326
 20
-221.2600000000001
 30
0.0
  0
POINT
  5
31A
330
6F
100
AcDbEntity
  8
DEFPOINTS
  6
Continuous
 62
    30
100
AcDbPoint
 10
727.0000000000326
 20
-675.3770989071503
 30
0.0
  0
LINE
  5
31B
330
6F
100
AcDbEntity
  8
SIZE
  6
Continuous
 62
    30
100
AcDbLine
 10
727.0000000000326
 20
-241.2600000000002
 30
0.0
 11
727.0000000000326
 21
-695.3770989071504
 31
0.0
  0
LINE
  5
31C
330
6F
100
AcDbEntity
  8
SIZE
  6
Continuous
 62
    30
100
AcDbLine
 10
750.0000000000341
 20
-236.2600000000002
 30
0.0
 11
750.0000000000341
 21
-695.3770989071504
 31
0.0
  0
LINE
  5
31D
330
6F
100
AcDbEntity
  8
SIZE
  6
Continuous
 62
    30
100
AcDbLine
 10
727.0000000000326
 20
-675.3770989071503
 30
0.0
 11
697.0000000000328
 21
-675.3770989071503
 31
0.0
  0
LINE
  5
31E
330
6F
100
AcDbEntity
  8
SIZE
  6
Continuous
 62
    30
100
AcDbLine
 10
750.0000000000341
 20
-675.3770989071503
 30
0.0
 11
908.285714285749
 21
-675.3770989071503
 31
0.0
  0
LINE
  5
31F
330
6F
100
AcDbEntity
  8
SIZE
  6
Continuous
 62
    30
100
AcDbLine
 10
727.0000000000326
 20
-675.3770989071503
 30
0.0
 11
750.0000000000341
 21
-675.3770989071503
 31
0.0
  0
CIRCLE
  5
320
330
6F
100
AcDbEntity
  8
SIZE
  6
Continuous
 62
    30
100
AcDbCircle
 10
727.0000000000326
 20
-675.3770989071503
 30
0.0
 40
7.5
  0
CIRCLE
  5
321
330
6F
100
AcDbEntity
  8
SIZE
  6
Continuous
 62
    30
100
AcDbCircle
 10
750.0000000000341
 20
-675.3770989071503
 30
0.0
 40
7.5
  0
TEXT
  5
322
330
6F
100
AcDbEntity
  8
SIZE
  6
Continuous
 62
    30
100
AcDbText
 10
830.0000000000345
 20
-655.3770989071503
 30
0.0
 40
40.0
  1
23
 41
0.9
 72
     1
 11
859.1428571428915
 21
-655.3770989071503
 31
0.0
100
AcDbText
  0
POINT
  5
323
330
6F
100
AcDbEntity
  8
DEFPOINTS
  6
Continuous
 62
    30
100
AcDbPoint
 10
727.0000000000326
 20
-221.2600000000001
 30
0.0
  0
POINT
  5
324
330
6F
100
AcDbEntity
  8
DEFPOINTS
  6
Continuous
 62
    30
100
AcDbPoint
 10
750.0000000000341
 20
-216.2600000000002
 30
0.0
  0
POINT
  5
325
330
6F
100
AcDbEntity
  8
DEFPOINTS
  6
Continuous
 62
    30
100
AcDbPoint
 10
750.0000000000341
 20
-675.3770989071503
 30
0.0
  0
LINE
  5
326
330
6F
100
AcDbEntity
  8
NOTE
  6
Continuous
 62
     4
100
AcDbLine
 10
-734.2086831920141
 20
-161.0498696094144
 30
0.0
 11
-726.999999999967
 21
-191.2600000000001
 31
0.0
  0
LINE
  5
327
330
6F
100
AcDbEntity
  8
NOTE
  6
Continuous
 62
     4
100
AcDbLine
 10
-726.999999999967
 20
-191.2600000000001
 30
0.0
 11
-748.3479678650694
 21
-168.7016011292904
 31
0.0
  0
LINE
  5
328
330
6F
100
AcDbEntity
  8
NOTE
  6
Continuous
 62
     4
100
AcDbLine
 10
-726.999999999967
 20
-191.2600000000001
 30
0.0
 11
-741.2783255285421
 21
-164.8757353693524
 31
0.0
  0
LINE
  5
329
330
6F
100
AcDbEntity
  8
NOTE
  6
Continuous
 62
     4
100
AcDbLine
 10
-741.2783255285421
 20
-164.8757353693524
 30
0.0
 11
-838.3780578310361
 21
14.55041845428695
 31
0.0
  0
LINE
  5
32A
330
6F
100
AcDbEntity
  8
NOTE
  6
Continuous
 62
     4
100
AcDbLine
 10
-838.3780578310361
 20
14.55041845428695
 30
0.0
 11
-1750.695488086512
 21
14.55041845428695
 31
0.0
  0
TEXT
  5
32B
330
6F
100
AcDbEntity
  8
NOTE
  6
Continuous
 62
     4
100
AcDbText
 10
-1734.617940802505
 20
44.52472877266244
 30
0.0
 40
64.0
  1
AH 2×2 M10ボルト用
100
AcDbText
  0
LINE
  5
32C
330
6F
100
AcDbEntity
  8
DETAIL
  6
Continuous
 62
     5
100
AcDbLine
 10
577.4911688048448
 20
-566.7600000000001
 30
0.0
 11
382.5088311953442
 21
-566.7600000000001
 31
0.0
  0
LINE
  5
32D
330
6F
100
AcDbEntity
  8
DETAIL
  6
Continuous
 62
     5
100
AcDbLine
 10
257.4911688048451
 20
-566.7600000000001
 30
0.0
 11
62.5088311953441
 21
-566.7600000000001
 31
0.0
  0
LINE
  5
32E
330
6F
100
AcDbEntity
  8
DETAIL
  6
Continuous
 62
     5
100
AcDbLine
 10
679.016665031184
 20
-531.8599999999996
 30
0.0
 11
537.9709470890301
 21
-531.8599999999996
 31
0.0
  0
LINE
  5
32F
330
6F
100
AcDbEntity
  8
DETAIL
  6
Continuous
 62
     5
100
AcDbLine
 10
537.9709470890301
 20
-531.8599999999996
 30
0.0
 11
161.9790529109814
 21
-531.8599999999996
 31
0.0
  0
LINE
  5
330
330
6F
100
AcDbEntity
  8
DETAIL
  6
Continuous
 62
     5
100
AcDbLine
 10
166.9790529109814
 20
-531.8599999999996
 30
0.0
 11
-679.0166650311182
 21
-531.8599999999996
 31
0.0
  0
LINE
  5
331
330
6F
100
AcDbEntity
  8
DETAIL
  6
Continuous
 62
     5
100
AcDbLine
 10
109.4162724552443
 20
-531.7600000000001
 30
0.0
 11
210.5837275449448
 21
-531.7600000000001
 31
0.0
  0
LINE
  5
332
330
6F
100
AcDbEntity
  8
DETAIL
  6
Continuous
 62
     5
100
AcDbLine
 10
429.4162724552442
 20
-531.7600000000001
 30
0.0
 11
530.5837275449448
 21
-531.7600000000001
 31
0.0
  0
LWPOLYLINE
  5
333
330
6F
100
AcDbEntity
  8
DETAIL
  6
Continuous
 62
     5
100
AcDbPolyline
 90
       30
 70
     0
 43
0.0
 10
212.970947089143
 20
-531.8599999999996
 10
210.7389427250437
 20
-531.7764248521998
 10
208.3502541494436
 20
-531.5236541073
 10
205.7812566247449
 20
-531.1006881895998
 10
203.006700326845
 20
-530.5106506073998
 10
200.0020314097437
 20
-529.7624940735004
 10
196.7465933167441
 20
-528.8760984358003
 10
193.2171487463438
 20
-527.8794381689002
 10
189.3928258411433
 20
-526.8134115905004
 10
185.2706469265431
 20
-525.7326687956001
 10
180.8997358225424
 20
-524.7107384907003
 10
176.3610347095436
 20
-523.8214245877998
 10
171.7282315379452
 20
-523.1197044908001
 10
167.0485608752424
 20
-522.6386153078002
 10
162.3504554516439
 20
-522.3948814972
 10
157.6495445485452
 20
-522.3948814972
 10
152.9514391249431
 20
-522.6386153078002
 10
148.2717684623439
 20
-523.1197044908001
 10
143.6389652906437
 20
-523.8214245877998
 10
139.1002641776431
 20
-524.7107384907003
 10
134.7293530737442
 20
-525.7326687956001
 10
130.607174159044
 20
-526.8134115905004
 10
126.7828512538435
 20
-527.8794381689002
 10
123.2534066835433
 20
-528.8760984358003
 10
119.9979685904436
 20
-529.7624940735004
 10
116.9932996734424
 20
-530.5106506073998
 10
114.2187433754443
 20
-531.1006881895998
 10
111.6497458507438
 20
-531.5236541073
 10
109.2610572751437
 20
-531.7764248521998
 10
107.0290529110425
 20
-531.8599999999996
  0
LWPOLYLINE
  5
353
330
6F
100
AcDbEntity
  8
DETAIL
  6
Continuous
 62
     5
100
AcDbPolyline
 90
       30
 70
     0
 43
0.0
 10
532.970947089143
 20
-531.8599999999996
 10
530.7389427250436
 20
-531.7764248521998
 10
528.3502541494433
 20
-531.5236541073
 10
525.7812566247447
 20
-531.1006881895998
 10
523.0067003268449
 20
-530.5106506073998
 10
520.0020314097436
 20
-529.7624940735004
 10
516.7465933167441
 20
-528.8760984358003
 10
513.2171487463438
 20
-527.8794381689002
 10
509.3928258411431
 20
-526.8134115905004
 10
505.2706469265431
 20
-525.7326687956001
 10
500.8997358225423
 20
-524.7107384907003
 10
496.3610347096437
 20
-523.8214245877998
 10
491.728231537945
 20
-523.1197044908001
 10
487.0485608752423
 20
-522.6386153078002
 10
482.3504554516438
 20
-522.3948814972
 10
477.649544548545
 20
-522.3948814972
 10
472.9514391249431
 20
-522.6386153078002
 10
468.2717684623439
 20
-523.1197044908001
 10
463.6389652906436
 20
-523.8214245877998
 10
459.1002641776431
 20
-524.7107384907003
 10
454.7293530737443
 20
-525.7326687956001
 10
450.607174159044
 20
-526.8134115905004
 10
446.7828512538433
 20
-527.8794381689002
 10
443.253406683543
 20
-528.8760984358003
 10
439.9979685904436
 20
-529.7624940735004
 10
436.9932996734424
 20
-530.5106506073998
 10
434.2187433754443
 20
-531.1006881895998
 10
431.6497458507437
 20
-531.5236541073
 10
429.2610572751437
 20
-531.7764248521998
 10
427.0290529110424
 20
-531.8599999999996
  0
LINE
  5
373
330
6F
100
AcDbEntity
  8
DETAIL
  6
Continuous
 62
     5
100
AcDbLine
 10
60.00716808924336
 20
-531.8599999999996
 30
0.0
 11
62.5088311953441
 21
-566.7600000000001
 31
0.0
  0
LINE
  5
374
330
6F
100
AcDbEntity
  8
DETAIL
  6
Continuous
 62
     5
100
AcDbLine
 10
380.0071680892433
 20
-531.8599999999996
 30
0.0
 11
382.5088311953442
 21
-566.7600000000001
 31
0.0
  0
LINE
  5
375
330
6F
100
AcDbEntity
  8
DETAIL
  6
Continuous
 62
     5
100
AcDbLine
 10
259.992831910944
 20
-531.8599999999996
 30
0.0
 11
257.4911688048451
 21
-566.7600000000001
 31
0.0
  0
LINE
  5
376
330
6F
100
AcDbEntity
  8
DETAIL
  6
Continuous
 62
     5
100
AcDbLine
 10
579.9928319109437
 20
-531.8599999999996
 30
0.0
 11
577.4911688048448
 21
-566.7600000000001
 31
0.0
  0
LINE
  5
377
330
6F
100
AcDbEntity
  8
OUTLINE
  6
Continuous
 62
     3
100
AcDbLine
 10
577.4911688049451
 20
-566.7600000000011
 30
0.0
 11
382.508831195444
 21
-566.7600000000011
 31
0.0
  0
LINE
  5
378
330
6F
100
AcDbEntity
  8
OUTLINE
  6
Continuous
 62
     3
100
AcDbLine
 10
257.4911688049451
 20
-566.7600000000011
 30
0.0
 11
62.50883119544415
 21
-566.7600000000011
 31
0.0
  0
LINE
  5
379
330
6F
100
AcDbEntity
  8
OUTLINE
  6
Continuous
 62
     3
100
AcDbLine
 10
679.016665031284
 20
-531.8600000000006
 30
0.0
 11
579.9928319110432
 21
-531.8600000000007
 31
0.0
  0
LINE
  5
37A
330
6F
100
AcDbEntity
  8
OUTLINE
  6
Continuous
 62
     3
100
AcDbLine
 10
380.0071680893434
 20
-531.8600000000007
 30
0.0
 11
259.9928319110436
 21
-531.8600000000006
 31
0.0
  0
LINE
  5
37B
330
6F
100
AcDbEntity
  8
OUTLINE
  6
Continuous
 62
     3
100
AcDbLine
 10
60.00716808934338
 20
-531.8600000000006
 30
0.0
 11
-60.0071680889555
 21
-531.8600000000007
 31
0.0
  0
LINE
  5
37C
330
6F
100
AcDbEntity
  8
OUTLINE
  6
Continuous
 62
     3
100
AcDbLine
 10
-259.9928319106561
 20
-531.8600000000006
 30
0.0
 11
-380.0071680889558
 21
-531.8600000000006
 31
0.0
  0
LINE
  5
37D
330
6F
100
AcDbEntity
  8
OUTLINE
  6
Continuous
 62
     3
100
AcDbLine
 10
-579.9928319106567
 20
-531.8600000000006
 30
0.0
 11
-679.0166650310184
 21
-531.8600000000006
 31
0.0
  0
LINE
  5
37E
330
6F
100
AcDbEntity
  8
OUTLINE
  6
Continuous
 62
     3
100
AcDbLine
 10
60.00716808934338
 20
-531.8600000000006
 30
0.0
 11
62.50883119544415
 21
-566.7600000000011
 31
0.0
  0
LINE
  5
37F
330
6F
100
AcDbEntity
  8
OUTLINE
  6
Continuous
 62
     3
100
AcDbLine
 10
380.0071680893434
 20
-531.8600000000007
 30
0.0
 11
382.508831195444
 21
-566.7600000000011
 31
0.0
  0
LINE
  5
380
330
6F
100
AcDbEntity
  8
OUTLINE
  6
Continuous
 62
     3
100
AcDbLine
 10
259.9928319110436
 20
-531.8600000000006
 30
0.0
 11
257.4911688049451
 21
-566.7600000000011
 31
0.0
  0
LINE
  5
381
330
6F
100
AcDbEntity
  8
OUTLINE
  6
Continuous
 62
     3
100
AcDbLine
 10
579.9928319110432
 20
-531.8600000000007
 30
0.0
 11
577.4911688049451
 21
-566.7600000000011
 31
0.0
  0
LINE
  5
382
330
6F
100
AcDbEntity
  8
DETAIL
  6
Continuous
 62
     5
100
AcDbLine
 10
-62.50883119515492
 20
-566.7600000000001
 30
0.0
 11
-257.4911688046559
 21
-566.7600000000001
 31
0.0
  0
LINE
  5
383
330
6F
100
AcDbEntity
  8
DETAIL
  6
Continuous
 62
     5
100
AcDbLine
 10
-210.5837275447557
 20
-531.7600000000001
 30
0.0
 11
-109.416272455055
 21
-531.7600000000001
 31
0.0
  0
LWPOLYLINE
  5
384
330
6F
100
AcDbEntity
  8
DETAIL
  6
Continuous
 62
     5
100
AcDbPolyline
 90
       30
 70
     0
 43
0.0
 10
-107.029052910857
 20
-531.8599999999996
 10
-109.2610572749563
 20
-531.7764248521998
 10
-111.6497458505564
 20
-531.5236541073
 10
-114.2187433752551
 20
-531.1006881895998
 10
-116.9932996731548
 20
-530.5106506073998
 10
-119.9979685902563
 20
-529.7624940735004
 10
-123.2534066832559
 20
-528.8760984358003
 10
-126.7828512536562
 20
-527.8794381689002
 10
-130.6071741588566
 20
-526.8134115905004
 10
-134.7293530734569
 20
-525.7326687956001
 10
-139.1002641774575
 20
-524.7107384907003
 10
-143.6389652904563
 20
-523.8214245877998
 10
-148.2717684620547
 20
-523.1197044908001
 10
-152.9514391247576
 20
-522.6386153078002
 10
-157.649544548356
 20
-522.3948814972
 10
-162.3504554514547
 20
-522.3948814972
 10
-167.0485608750568
 20
-522.6386153078002
 10
-171.728231537656
 20
-523.1197044908001
 10
-176.3610347093562
 20
-523.8214245877998
 10
-180.8997358223568
 20
-524.7107384907003
 10
-185.2706469262557
 20
-525.7326687956001
 10
-189.392825840956
 20
-526.8134115905004
 10
-193.2171487461564
 20
-527.8794381689002
 10
-196.7465933164567
 20
-528.8760984358003
 10
-200.0020314095564
 20
-529.7624940735004
 10
-203.0067003265576
 20
-530.5106506073998
 10
-205.7812566245557
 20
-531.1006881895998
 10
-208.3502541492562
 20
-531.5236541073
 10
-210.7389427248563
 20
-531.7764248521998
 10
-212.9709470889575
 20
-531.8599999999996
  0
LINE
  5
3A4
330
6F
100
AcDbEntity
  8
DETAIL
  6
Continuous
 62
     5
100
AcDbLine
 10
-259.9928319107566
 20
-531.8599999999996
 30
0.0
 11
-257.4911688046559
 21
-566.7600000000001
 31
0.0
  0
LINE
  5
3A5
330
6F
100
AcDbEntity
  8
DETAIL
  6
Continuous
 62
     5
100
AcDbLine
 10
-60.00716808905599
 20
-531.8599999999996
 30
0.0
 11
-62.50883119515492
 21
-566.7600000000001
 31
0.0
  0
LINE
  5
3A6
330
6F
100
AcDbEntity
  8
OUTLINE
  6
Continuous
 62
     3
100
AcDbLine
 10
-62.50883119505488
 20
-566.7600000000011
 30
0.0
 11
-257.4911688045558
 21
-566.7600000000011
 31
0.0
  0
LINE
  5
3A7
330
6F
100
AcDbEntity
  8
OUTLINE
  6
Continuous
 62
     3
100
AcDbLine
 10
-259.9928319106561
 20
-531.8600000000006
 30
0.0
 11
-257.4911688045558
 21
-566.7600000000011
 31
0.0
  0
LINE
  5
3A8
330
6F
100
AcDbEntity
  8
OUTLINE
  6
Continuous
 62
     3
100
AcDbLine
 10
-60.0071680889555
 20
-531.8600000000007
 30
0.0
 11
-62.50883119505488
 21
-566.7600000000011
 31
0.0
  0
LINE
  5
3A9
330
6F
100
AcDbEntity
  8
DETAIL
  6
Continuous
 62
     5
100
AcDbLine
 10
-382.5088311951549
 20
-566.7600000000001
 30
0.0
 11
-577.4911688046557
 21
-566.7600000000001
 31
0.0
  0
LINE
  5
3AA
330
6F
100
AcDbEntity
  8
DETAIL
  6
Continuous
 62
     5
100
AcDbLine
 10
-530.5837275447556
 20
-531.7600000000001
 30
0.0
 11
-429.4162724550552
 21
-531.7600000000001
 31
0.0
  0
LWPOLYLINE
  5
3AB
330
6F
100
AcDbEntity
  8
DETAIL
  6
Continuous
 62
     5
100
AcDbPolyline
 90
       30
 70
     0
 43
0.0
 10
-427.0290529108568
 20
-531.8599999999996
 10
-429.2610572749563
 20
-531.7764248521998
 10
-431.6497458505564
 20
-531.5236541073
 10
-434.2187433752551
 20
-531.1006881895998
 10
-436.9932996731549
 20
-530.5106506073998
 10
-439.9979685902563
 20
-529.7624940735004
 10
-443.2534066832557
 20
-528.8760984358003
 10
-446.7828512536561
 20
-527.8794381689002
 10
-450.6071741588566
 20
-526.8134115905004
 10
-454.7293530734568
 20
-525.7326687956001
 10
-459.1002641774576
 20
-524.7107384907003
 10
-463.6389652904563
 20
-523.8214245877998
 10
-468.2717684620548
 20
-523.1197044908001
 10
-472.9514391247575
 20
-522.6386153078002
 10
-477.6495445483559
 20
-522.3948814972
 10
-482.3504554514546
 20
-522.3948814972
 10
-487.0485608750568
 20
-522.6386153078002
 10
-491.728231537656
 20
-523.1197044908001
 10
-496.3610347093561
 20
-523.8214245877998
 10
-500.8997358223568
 20
-524.7107384907003
 10
-505.2706469262557
 20
-525.7326687956001
 10
-509.3928258409558
 20
-526.8134115905004
 10
-513.2171487461563
 20
-527.8794381689002
 10
-516.7465933164566
 20
-528.8760984358003
 10
-520.0020314095564
 20
-529.7624940735004
 10
-523.0067003265576
 20
-530.5106506073998
 10
-525.7812566245555
 20
-531.1006881895998
 10
-528.3502541492562
 20
-531.5236541073
 10
-530.7389427248563
 20
-531.7764248521998
 10
-532.9709470889572
 20
-531.8599999999996
  0
LINE
  5
3CB
330
6F
100
AcDbEntity
  8
DETAIL
  6
Continuous
 62
     5
100
AcDbLine
 10
-579.9928319107567
 20
-531.8599999999996
 30
0.0
 11
-577.4911688046557
 21
-566.7600000000001
 31
0.0
  0
LINE
  5
3CC
330
6F
100
AcDbEntity
  8
DETAIL
  6
Continuous
 62
     5
100
AcDbLine
 10
-380.007168089056
 20
-531.8599999999996
 30
0.0
 11
-382.5088311951549
 21
-566.7600000000001
 31
0.0
  0
LINE
  5
3CD
330
6F
100
AcDbEntity
  8
OUTLINE
  6
Continuous
 62
     3
100
AcDbLine
 10
-382.5088311950549
 20
-566.7600000000011
 30
0.0
 11
-577.4911688045557
 21
-566.7600000000011
 31
0.0
  0
LINE
  5
3CE
330
6F
100
AcDbEntity
  8
OUTLINE
  6
Continuous
 62
     3
100
AcDbLine
 10
-579.9928319106567
 20
-531.8600000000006
 30
0.0
 11
-577.4911688045557
 21
-566.7600000000011
 31
0.0
  0
LINE
  5
3CF
330
6F
100
AcDbEntity
  8
OUTLINE
  6
Continuous
 62
     3
100
AcDbLine
 10
-380.0071680889558
 20
-531.8600000000006
 30
0.0
 11
-382.5088311950549
 21
-566.7600000000011
 31
0.0
  0
TEXT
  5
3D0
330
6F
100
AcDbEntity
  8
ETC
  6
Continuous
 62
    61
100
AcDbText
 10
-683.3933400726455
 20
1056.557421440726
 30
0.0
 40
64.0
  1
PDFY-P112_140GMG7_6
 41
0.9
100
AcDbText
  0
LINE
  5
3D1
330
6F
100
AcDbEntity
  8
BASIS
  6
DASHDOT
 62
     6
100
AcDbLine
 10
0.0000000000327418
 20
607.6279084300383
 30
0.0
 11
0.0000000000327418
 21
-611.8443523089609
 31
0.0
  0
LINE
  5
3D2
330
6F
100
AcDbEntity
  8
BASIS
  6
DASHDOT
 62
     6
100
AcDbLine
 10
1188.114947777016
 20
-0.0000000000109139
 30
0.0
 11
-789.9695411619757
 21
-0.0000000000109139
 31
0.0
  0
CIRCLE
  5
3D3
330
6F
100
AcDbEntity
  8
ARRANGE
  6
Continuous
 62
     1
100
AcDbCircle
 10
0.0
 20
0.0
 30
0.0
 40
40.0
  0
LINE
  5
3D4
330
6F
100
AcDbEntity
  8
ARRANGE
  6
Continuous
 62
     1
100
AcDbLine
 10
-36.84543740731897
 20
-36.84543740731805
 30
0.0
 11
36.84543740738082
 21
36.84543740737991
 31
0.0
  0
LINE
  5
3D5
330
6F
100
AcDbEntity
  8
ARRANGE
  6
Continuous
 62
     1
100
AcDbLine
 10
-36.84543740731897
 20
36.84543740737991
 30
0.0
 11
36.84543740738082
 21
-36.84543740731989
 31
0.0
  0
ENDSEC
  0
SECTION
  2
OBJECTS
  0
DICTIONARY
  5
C
330
0
100
AcDbDictionary
281
     1
  3
ACAD_CIP_PREVIOUS_PRODUCT_INFO
350
3D6
  3
ACAD_COLOR
350
62
  3
ACAD_DETAILVIEWSTYLE
350
69
  3
ACAD_GROUP
350
D
  3
ACAD_LAYOUT
350
61
  3
ACAD_MATERIAL
350
10
  3
ACAD_MLEADERSTYLE
350
65
  3
ACAD_MLINESTYLE
350
5E
  3
ACAD_PLOTSETTINGS
350
60
  3
ACAD_PLOTSTYLENAME
350
E
  3
ACAD_SCALELIST
350
42
  3
ACAD_SECTIONVIEWSTYLE
350
67
  3
ACAD_TABLESTYLE
350
63
  3
ACAD_VISUALSTYLE
350
29
  3
ACDB_RECOMPOSE_DATA
350
444
  3
AcDbVariableDictionary
350
3EF
  3
DWGPROPS
350
445
  0
DICTIONARY
  5
3D9
330
54
100
AcDbDictionary
280
     1
281
     1
  3
ADSK_XREC_LAYER_RECONCILED
360
3DA
  0
DICTIONARY
  5
3DB
330
73
100
AcDbDictionary
280
     1
281
     1
  3
ADSK_XREC_LAYER_RECONCILED
360
3DC
  0
DICTIONARY
  5
3DD
330
76
100
AcDbDictionary
280
     1
281
     1
  3
ADSK_XREC_LAYER_RECONCILED
360
3DE
  0
DICTIONARY
  5
3DF
330
77
100
AcDbDictionary
280
     1
281
     1
  3
ADSK_XREC_LAYER_RECONCILED
360
3E0
  0
DICTIONARY
  5
3E1
330
78
100
AcDbDictionary
280
     1
281
     1
  3
ADSK_XREC_LAYER_RECONCILED
360
3E2
  0
DICTIONARY
  5
3E3
330
79
100
AcDbDictionary
280
     1
281
     1
  3
ADSK_XREC_LAYER_RECONCILED
360
3E4
  0
DICTIONARY
  5
3E5
330
7A
100
AcDbDictionary
280
     1
281
     1
  3
ADSK_XREC_LAYER_RECONCILED
360
3E6
  0
DICTIONARY
  5
3E7
330
7B
100
AcDbDictionary
280
     1
281
     1
  3
ADSK_XREC_LAYER_RECONCILED
360
3E8
  0
DICTIONARY
  5
3E9
330
7C
100
AcDbDictionary
280
     1
281
     1
  3
ADSK_XREC_LAYER_RECONCILED
360
3EA
  0
DICTIONARY
  5
3EB
330
7D
100
AcDbDictionary
280
     1
281
     1
  3
ADSK_XREC_LAYER_RECONCILED
360
3EC
  0
DICTIONARY
  5
3ED
330
7E
100
AcDbDictionary
280
     1
281
     1
  3
ADSK_XREC_LAYER_RECONCILED
360
3EE
  0
XRECORD
  5
3D6
102
{ACAD_REACTORS
330
C
102
}
330
C
100
AcDbXrecord
280
     1
300
ACD
300
2018
300
86830ACD_2018_0F
  0
DICTIONARY
  5
62
102
{ACAD_REACTORS
330
C
102
}
330
C
100
AcDbDictionary
281
     1
  0
DICTIONARY
  5
69
102
{ACAD_REACTORS
330
C
102
}
330
C
100
AcDbDictionary
281
     1
  3
Imperial24
350
6A
  0
DICTIONARY
  5
D
102
{ACAD_REACTORS
330
C
102
}
330
C
100
AcDbDictionary
281
     1
  0
DICTIONARY
  5
61
102
{ACAD_REACTORS
330
C
102
}
330
C
100
AcDbDictionary
281
     1
  3
Model
350
72
  3
レイアウト1
350
6E
  0
DICTIONARY
  5
10
102
{ACAD_REACTORS
330
C
102
}
330
C
100
AcDbDictionary
281
     1
  3
ByBlock
350
19
  3
ByLayer
350
11
  3
Global
350
21
  0
DICTIONARY
  5
65
102
{ACAD_REACTORS
330
C
102
}
330
C
100
AcDbDictionary
281
     1
  3
Standard
350
66
  0
DICTIONARY
  5
5E
102
{ACAD_REACTORS
330
C
102
}
330
C
100
AcDbDictionary
281
     1
  3
Standard
350
5F
  0
DICTIONARY
  5
60
102
{ACAD_REACTORS
330
C
102
}
330
C
100
AcDbDictionary
281
     1
  0
ACDBDICTIONARYWDFLT
  5
E
102
{ACAD_REACTORS
330
C
102
}
330
C
100
AcDbDictionary
281
     1
  3
Normal
350
F
100
AcDbDictionaryWithDefault
340
F
  0
DICTIONARY
  5
42
102
{ACAD_REACTORS
330
C
102
}
330
C
100
AcDbDictionary
281
     1
  3
A0
350
43
  3
A1
350
44
  3
A2
350
45
  3
A3
350
46
  3
A4
350
47
  3
A5
350
48
  3
A6
350
49
  3
A7
350
4A
  3
A8
350
4B
  3
A9
350
4C
  3
B0
350
4D
  3
B1
350
4E
  3
B2
350
4F
  3
B3
350
50
  3
B4
350
51
  3
B5
350
52
  3
B6
350
53
  0
DICTIONARY
  5
67
102
{ACAD_REACTORS
330
C
102
}
330
C
100
AcDbDictionary
281
     1
  3
Imperial24
350
68
  0
DICTIONARY
  5
63
102
{ACAD_REACTORS
330
C
102
}
330
C
100
AcDbDictionary
281
     1
  3
Standard
350
64
  0
DICTIONARY
  5
29
102
{ACAD_REACTORS
330
C
102
}
330
C
100
AcDbDictionary
281
     1
  3
2dWireframe
350
2F
  3
Basic
350
2E
  3
Brighten
350
35
  3
ColorChange
350
39
  3
Conceptual
350
32
  3
Dim
350
34
  3
EdgeColorOff
350
41
  3
Facepattern
350
38
  3
Flat
350
2A
  3
FlatWithEdges
350
2B
  3
Gouraud
350
2C
  3
GouraudWithEdges
350
2D
  3
Hidden
350
31
  3
JitterOff
350
3F
  3
Linepattern
350
37
  3
OverhangOff
350
40
  3
Realistic
350
33
  3
Shaded
350
3E
  3
Shaded with edges
350
3D
  3
Shades of Gray
350
3A
  3
Sketchy
350
3B
  3
Thicken
350
36
  3
Wireframe
350
30
  3
X-Ray
350
3C
  0
XRECORD
  5
444
102
{ACAD_REACTORS
330
C
102
}
330
C
100
AcDbXrecord
280
     1
 90
        1
330
64
  0
DICTIONARY
  5
3EF
102
{ACAD_REACTORS
330
C
102
}
330
C
100
AcDbDictionary
281
     1
  3
CANNOSCALE
350
3F4
  3
CMLEADERSTYLE
350
3F1
  3
CTABLESTYLE
350
3F0
  3
CVIEWDETAILSTYLE
350
3F2
  3
CVIEWSECTIONSTYLE
350
3F3
  3
DIMASSOC
350
3F7
  3
INDEXCTL
350
3F6
  3
SORTENTS
350
3F5
  3
XCLIPFRAME
350
442
  0
XRECORD
  5
445
102
{ACAD_REACTORS
330
C
102
}
330
C
100
AcDbXrecord
280
     1
  1
DWGPROPS COOKIE
  2

  3

  4

  6

  7

  8
y_uebo
  9

300
=
301
=
302
=
303
=
304
=
305
=
306
=
307
=
308
=
309
=
 40
1.643622905092592
 41
2455902.607164352
 42
2459096.676516204
  1

 90
        0
  0
XRECORD
  5
3DA
102
{ACAD_REACTORS
330
3D9
102
}
330
3D9
100
AcDbXrecord
280
     1
290
     1
  0
XRECORD
  5
3DC
102
{ACAD_REACTORS
330
3DB
102
}
330
3DB
100
AcDbXrecord
280
     1
290
     1
  0
XRECORD
  5
3DE
102
{ACAD_REACTORS
330
3DD
102
}
330
3DD
100
AcDbXrecord
280
     1
290
     1
  0
XRECORD
  5
3E0
102
{ACAD_REACTORS
330
3DF
102
}
330
3DF
100
AcDbXrecord
280
     1
290
     1
  0
XRECORD
  5
3E2
102
{ACAD_REACTORS
330
3E1
102
}
330
3E1
100
AcDbXrecord
280
     1
290
     1
  0
XRECORD
  5
3E4
102
{ACAD_REACTORS
330
3E3
102
}
330
3E3
100
AcDbXrecord
280
     1
290
     1
  0
XRECORD
  5
3E6
102
{ACAD_REACTORS
330
3E5
102
}
330
3E5
100
AcDbXrecord
280
     1
290
     1
  0
XRECORD
  5
3E8
102
{ACAD_REACTORS
330
3E7
102
}
330
3E7
100
AcDbXrecord
280
     1
290
     1
  0
XRECORD
  5
3EA
102
{ACAD_REACTORS
330
3E9
102
}
330
3E9
100
AcDbXrecord
280
     1
290
     1
  0
XRECORD
  5
3EC
102
{ACAD_REACTORS
330
3EB
102
}
330
3EB
100
AcDbXrecord
280
     1
290
     1
  0
XRECORD
  5
3EE
102
{ACAD_REACTORS
330
3ED
102
}
330
3ED
100
AcDbXrecord
280
     1
290
     1
  0
ACDBDETAILVIEWSTYLE
  5
6A
102
{ACAD_XDICTIONARY
360
479
102
}
102
{ACAD_REACTORS
330
69
102
}
330
69
100
AcDbModelDocViewStyle
 70
     0
  3
Imperial24
290
     0
100
AcDbDetailViewStyle
 70
     0
 71
     0
 90
        3
 71
     1
340
55
 40
0.24
340
0
 40
0.24
300

 40
0.36
280
     3
 71
     2
340
5C
 90
       25
 71
     3
340
55
 40
0.24
 90
        1
 40
0.75
 90
        1
300
%<\AcVar ViewType \f "%tc1">% %<\AcVar ViewDetailId>%\PSCALE %<\AcVar ViewScale \f "%sn">%
 71
     4
340
5C
 90
       25
340
5C
 90
       25
280
     0
  0
LAYOUT
  5
72
102
{ACAD_XDICTIONARY
360
47D
102
}
102
{ACAD_REACTORS
330
61
102
}
330
61
100
AcDbPlotSettings
  1

  2
OKI C931(PS)
  4

  6

 40
0.0
 41
0.0
 42
0.0
 43
0.0
 44
0.0
 45
0.0
 46
0.0
 47
0.0
 48
0.0
 49
0.0
140
0.0
141
0.0
142
1.0
143
1.0
 70
  1712
 72
     0
 73
     0
 74
     0
  7

 75
     0
147
1.0
148
0.0
149
0.0
100
AcDbLayout
  1
Model
 70
     1
 71
     0
 10
0.0
 20
0.0
 11
12.0
 21
9.0
 12
0.0
 22
0.0
 32
0.0
 14
0.0
 24
0.0
 34
0.0
 15
0.0
 25
0.0
 35
0.0
146
0.0
 13
0.0
 23
0.0
 33
0.0
 16
1.0
 26
0.0
 36
0.0
 17
0.0
 27
1.0
 37
0.0
 76
     0
330
6F
331
81
  0
LAYOUT
  5
6E
102
{ACAD_XDICTIONARY
360
47B
102
}
102
{ACAD_REACTORS
330
61
102
}
330
61
100
AcDbPlotSettings
  1

  2
OKI C931(PS)
  4

  6

 40
0.0
 41
0.0
 42
0.0
 43
0.0
 44
0.0
 45
0.0
 46
0.0
 47
0.0
 48
0.0
 49
0.0
140
0.0
141
0.0
142
1.0
143
1.0
 70
   688
 72
     0
 73
     0
 74
     5
  7

 75
    16
147
1.0
148
0.0
149
0.0
100
AcDbLayout
  1
レイアウト1
 70
     1
 71
     1
 10
0.0
 20
0.0
 11
12.0
 21
9.0
 12
0.0
 22
0.0
 32
0.0
 14
1.000000000000000E+20
 24
1.000000000000000E+20
 34
1.000000000000000E+20
 15
-1.000000000000000E+20
 25
-1.000000000000000E+20
 35
-1.000000000000000E+20
146
0.0
 13
0.0
 23
0.0
 33
0.0
 16
1.0
 26
0.0
 36
0.0
 17
0.0
 27
1.0
 37
0.0
 76
     0
330
6B
  0
MATERIAL
  5
19
102
{ACAD_XDICTIONARY
360
1A
102
}
102
{ACAD_REACTORS
330
10
102
}
330
10
100
AcDbMaterial
  1
ByBlock
 72
     0
 43
0.0208333333333333
 43
0.0
 43
0.0
 43
0.0
 43
0.0
 43
0.0208333333333333
 43
0.0
 43
0.0
 43
0.0
 43
0.0
 43
1.0
 43
0.0
 43
0.0
 43
0.0
 43
0.0
 43
1.0
 77
     0
 47
0.0208333333333333
 47
0.0
 47
0.0
 47
0.0
 47
0.0
 47
0.0208333333333333
 47
0.0
 47
0.0
 47
0.0
 47
0.0
 47
1.0
 47
0.0
 47
0.0
 47
0.0
 47
0.0
 47
1.0
171
     0
 49
0.0208333333333333
 49
0.0
 49
0.0
 49
0.0
 49
0.0
 49
0.0208333333333333
 49
0.0
 49
0.0
 49
0.0
 49
0.0
 49
1.0
 49
0.0
 49
0.0
 49
0.0
 49
0.0
 49
1.0
175
     0
142
0.0208333333333333
142
0.0
142
0.0
142
0.0
142
0.0
142
0.0208333333333333
142
0.0
142
0.0
142
0.0
142
0.0
142
1.0
142
0.0
142
0.0
142
0.0
142
0.0
142
1.0
179
     0
144
0.0208333333333333
144
0.0
144
0.0
144
0.0
144
0.0
144
0.0208333333333333
144
0.0
144
0.0
144
0.0
144
0.0
144
1.0
144
0.0
144
0.0
144
0.0
144
0.0
144
1.0
147
0.0208333333333333
147
0.0
147
0.0
147
0.0
147
0.0
147
0.0208333333333333
147
0.0
147
0.0
147
0.0
147
0.0
147
1.0
147
0.0
147
0.0
147
0.0
147
0.0
147
1.0
  0
MATERIAL
  5
11
102
{ACAD_XDICTIONARY
360
12
102
}
102
{ACAD_REACTORS
330
10
102
}
330
10
100
AcDbMaterial
  1
ByLayer
 72
     0
 43
0.0208333333333333
 43
0.0
 43
0.0
 43
0.0
 43
0.0
 43
0.0208333333333333
 43
0.0
 43
0.0
 43
0.0
 43
0.0
 43
1.0
 43
0.0
 43
0.0
 43
0.0
 43
0.0
 43
1.0
 77
     0
 47
0.0208333333333333
 47
0.0
 47
0.0
 47
0.0
 47
0.0
 47
0.0208333333333333
 47
0.0
 47
0.0
 47
0.0
 47
0.0
 47
1.0
 47
0.0
 47
0.0
 47
0.0
 47
0.0
 47
1.0
171
     0
 49
0.0208333333333333
 49
0.0
 49
0.0
 49
0.0
 49
0.0
 49
0.0208333333333333
 49
0.0
 49
0.0
 49
0.0
 49
0.0
 49
1.0
 49
0.0
 49
0.0
 49
0.0
 49
0.0
 49
1.0
175
     0
142
0.0208333333333333
142
0.0
142
0.0
142
0.0
142
0.0
142
0.0208333333333333
142
0.0
142
0.0
142
0.0
142
0.0
142
1.0
142
0.0
142
0.0
142
0.0
142
0.0
142
1.0
179
     0
144
0.0208333333333333
144
0.0
144
0.0
144
0.0
144
0.0
144
0.0208333333333333
144
0.0
144
0.0
144
0.0
144
0.0
144
1.0
144
0.0
144
0.0
144
0.0
144
0.0
144
1.0
147
0.0208333333333333
147
0.0
147
0.0
147
0.0
147
0.0
147
0.0208333333333333
147
0.0
147
0.0
147
0.0
147
0.0
147
1.0
147
0.0
147
0.0
147
0.0
147
0.0
147
1.0
  0
MATERIAL
  5
21
102
{ACAD_XDICTIONARY
360
22
102
}
102
{ACAD_REACTORS
330
10
102
}
330
10
100
AcDbMaterial
  1
Global
 72
     0
 43
0.0208333333333333
 43
0.0
 43
0.0
 43
0.0
 43
0.0
 43
0.0208333333333333
 43
0.0
 43
0.0
 43
0.0
 43
0.0
 43
1.0
 43
0.0
 43
0.0
 43
0.0
 43
0.0
 43
1.0
 77
     0
 47
0.0208333333333333
 47
0.0
 47
0.0
 47
0.0
 47
0.0
 47
0.0208333333333333
 47
0.0
 47
0.0
 47
0.0
 47
0.0
 47
1.0
 47
0.0
 47
0.0
 47
0.0
 47
0.0
 47
1.0
171
     0
 49
0.0208333333333333
 49
0.0
 49
0.0
 49
0.0
 49
0.0
 49
0.0208333333333333
 49
0.0
 49
0.0
 49
0.0
 49
0.0
 49
1.0
 49
0.0
 49
0.0
 49
0.0
 49
0.0
 49
1.0
175
     0
142
0.0208333333333333
142
0.0
142
0.0
142
0.0
142
0.0
142
0.0208333333333333
142
0.0
142
0.0
142
0.0
142
0.0
142
1.0
142
0.0
142
0.0
142
0.0
142
0.0
142
1.0
179
     0
144
0.0208333333333333
144
0.0
144
0.0
144
0.0
144
0.0
144
0.0208333333333333
144
0.0
144
0.0
144
0.0
144
0.0
144
1.0
144
0.0
144
0.0
144
0.0
144
0.0
144
1.0
147
0.0208333333333333
147
0.0
147
0.0
147
0.0
147
0.0
147
0.0208333333333333
147
0.0
147
0.0
147
0.0
147
0.0
147
1.0
147
0.0
147
0.0
147
0.0
147
0.0
147
1.0
  0
MLEADERSTYLE
  5
66
102
{ACAD_REACTORS
330
65
102
}
330
65
100
AcDbMLeaderStyle
170
     2
171
     1
172
     0
 90
        2
 40
0.0
 41
0.0
173
     1
 91
-1056964608
340
5A
 92
       -2
290
     1
 42
0.09
291
     1
 43
0.36
  3
Standard
 44
0.18
300

342
55
174
     1
178
     6
175
     1
176
     0
 93
-1056964608
 45
0.18
292
     0
297
     0
 46
0.18
 94
-1056964608
 47
1.0
 49
1.0
140
1.0
293
     1
141
0.0
294
     1
177
     0
142
1.0
295
     0
296
     0
143
0.125
1001
ACAD_MLEADERVER
1070
     2
  0
MLINESTYLE
  5
5F
102
{ACAD_REACTORS
330
5E
102
}
330
5E
100
AcDbMlineStyle
  2
STANDARD
 70
     0
  3

 62
   256
 51
90.0
 52
90.0
 71
     2
 49
0.5
 62
   256
  6
BYLAYER
 49
-0.5
 62
   256
  6
BYLAYER
  0
ACDBPLACEHOLDER
  5
F
102
{ACAD_REACTORS
330
E
102
}
330
E
  0
SCALE
  5
43
102
{ACAD_REACTORS
330
42
102
}
330
42
100
AcDbScale
 70
     0
300
1:1
140
1.0
141
1.0
290
     1
  0
SCALE
  5
44
102
{ACAD_REACTORS
330
42
102
}
330
42
100
AcDbScale
 70
     0
300
1/128" = 1'-0"
140
0.0078125
141
12.0
290
     0
  0
SCALE
  5
45
102
{ACAD_REACTORS
330
42
102
}
330
42
100
AcDbScale
 70
     0
300
1/64" = 1'-0"
140
0.015625
141
12.0
290
     0
  0
SCALE
  5
46
102
{ACAD_REACTORS
330
42
102
}
330
42
100
AcDbScale
 70
     0
300
1/32" = 1'-0"
140
0.03125
141
12.0
290
     0
  0
SCALE
  5
47
102
{ACAD_REACTORS
330
42
102
}
330
42
100
AcDbScale
 70
     0
300
1/16" = 1'-0"
140
0.0625
141
12.0
290
     0
  0
SCALE
  5
48
102
{ACAD_REACTORS
330
42
102
}
330
42
100
AcDbScale
 70
     0
300
3/32" = 1'-0"
140
0.09375
141
12.0
290
     0
  0
SCALE
  5
49
102
{ACAD_REACTORS
330
42
102
}
330
42
100
AcDbScale
 70
     0
300
1/8" = 1'-0"
140
0.125
141
12.0
290
     0
  0
SCALE
  5
4A
102
{ACAD_REACTORS
330
42
102
}
330
42
100
AcDbScale
 70
     0
300
3/16" = 1'-0"
140
0.1875
141
12.0
290
     0
  0
SCALE
  5
4B
102
{ACAD_REACTORS
330
42
102
}
330
42
100
AcDbScale
 70
     0
300
1/4" = 1'-0"
140
0.25
141
12.0
290
     0
  0
SCALE
  5
4C
102
{ACAD_REACTORS
330
42
102
}
330
42
100
AcDbScale
 70
     0
300
3/8" = 1'-0"
140
0.375
141
12.0
290
     0
  0
SCALE
  5
4D
102
{ACAD_REACTORS
330
42
102
}
330
42
100
AcDbScale
 70
     0
300
1/2" = 1'-0"
140
0.5
141
12.0
290
     0
  0
SCALE
  5
4E
102
{ACAD_REACTORS
330
42
102
}
330
42
100
AcDbScale
 70
     0
300
3/4" = 1'-0"
140
0.75
141
12.0
290
     0
  0
SCALE
  5
4F
102
{ACAD_REACTORS
330
42
102
}
330
42
100
AcDbScale
 70
     0
300
1" = 1'-0"
140
1.0
141
12.0
290
     0
  0
SCALE
  5
50
102
{ACAD_REACTORS
330
42
102
}
330
42
100
AcDbScale
 70
     0
300
1-1/2" = 1'-0"
140
1.5
141
12.0
290
     0
  0
SCALE
  5
51
102
{ACAD_REACTORS
330
42
102
}
330
42
100
AcDbScale
 70
     0
300
3" = 1'-0"
140
3.0
141
12.0
290
     0
  0
SCALE
  5
52
102
{ACAD_REACTORS
330
42
102
}
330
42
100
AcDbScale
 70
     0
300
6" = 1'-0"
140
6.0
141
12.0
290
     0
  0
SCALE
  5
53
102
{ACAD_REACTORS
330
42
102
}
330
42
100
AcDbScale
 70
     0
300
1'-0" = 1'-0"
140
12.0
141
12.0
290
     0
  0
ACDBSECTIONVIEWSTYLE
  5
68
102
{ACAD_XDICTIONARY
360
477
102
}
102
{ACAD_REACTORS
330
67
102
}
330
67
100
AcDbModelDocViewStyle
 70
     0
  3
Imperial24
290
     0
100
AcDbSectionViewStyle
 70
     0
 71
     0
 90
       78
 71
     1
340
55
 40
0.24
340
0
340
0
 40
0.24
300
I, O, Q, S, X, Z
 40
0.48
 90
        3
 40
0.18
 90
        1
 71
     2
340
5C
 90
       25
340
5C
 90
       50
 40
0.24
 40
0.0
 40
0.24
 71
     3
340
55
 40
0.24
 90
        1
 40
0.75
 90
        1
300
%<\AcVar ViewType \f "%tc1">% %<\AcVar ViewSectionStartId>%-%<\AcVar ViewSectionEndId>%\PSCALE %<\AcVar ViewScale \f "%sn">%
 71
     4
300
ANSI31
 40
1.0
 90
        0
290
     0
290
     0
 90
        6
 40
0.0
 40
1.570796326794896
 40
0.2617993877991494
 40
1.308996938995747
 40
-0.2617993877991494
 40
1.832595714594045
  0
TABLESTYLE
  5
64
102
{ACAD_XDICTIONARY
360
3FA
102
}
102
{ACAD_REACTORS
330
63
102
}
330
63
100
AcDbTableStyle
  3
Standard
 70
     0
 71
     0
 40
0.06
 41
0.06
280
     0
281
     0
  7
STANDARD
140
0.18
170
     2
 62
     0
 63
     7
283
     0
274
    -2
284
     1
 64
     0
275
    -2
285
     1
 65
     0
276
    -2
286
     1
 66
     0
277
    -2
287
     1
 67
     0
278
    -2
288
     1
 68
     0
279
    -2
289
     1
 69
     0
  7
STANDARD
140
0.25
170
     5
 62
     0
 63
     7
283
     0
274
    -2
284
     1
 64
     0
275
    -2
285
     1
 65
     0
276
    -2
286
     1
 66
     0
277
    -2
287
     1
 67
     0
278
    -2
288
     1
 68
     0
279
    -2
289
     1
 69
     0
  7
STANDARD
140
0.18
170
     5
 62
     0
 63
     7
283
     0
274
    -2
284
     1
 64
     0
275
    -2
285
     1
 65
     0
276
    -2
286
     1
 66
     0
277
    -2
287
     1
 67
     0
278
    -2
288
     1
 68
     0
279
    -2
289
     1
 69
     0
  0
VISUALSTYLE
  5
2F
102
{ACAD_XDICTIONARY
360
450
102
}
102
{ACAD_REACTORS
330
29
102
}
330
29
100
AcDbVisualStyle
  2

 70
     4
 71
     0
 72
     2
 73
     0
 90
        0
 40
-0.6
 41
-30.0
 62
     5
 63
     7
 74
     1
 91
        4
 64
     7
 65
   257
 75
     1
175
     1
 42
1.0
 92
        0
 66
   257
 43
1.0
 76
     1
 77
     6
 78
     2
 67
     7
 79
     5
170
     0
171
     0
290
     0
174
     0
 93
        1
 44
0.0
173
     0
291
     0
 45
0.0
1001
ACAD
1000
AcDbSavedByObjectVersion
1070
     0
  0
VISUALSTYLE
  5
2E
102
{ACAD_XDICTIONARY
360
44E
102
}
102
{ACAD_REACTORS
330
29
102
}
330
29
100
AcDbVisualStyle
  2

 70
     7
 71
     1
 72
     0
 73
     1
 90
        0
 40
-0.6
 41
-30.0
 62
     5
 63
     7
 74
     0
 91
        4
 64
     7
 65
   257
 75
     1
175
     1
 42
1.0
 92
        8
 66
     7
 43
1.0
 76
     1
 77
     6
 78
     2
 67
     7
 79
     5
170
     0
171
     0
290
     0
174
     0
 93
        1
 44
0.0
173
     0
291
     1
 45
0.0
1001
ACAD
1000
AcDbSavedByObjectVersion
1070
     0
  0
VISUALSTYLE
  5
35
102
{ACAD_XDICTIONARY
360
45C
102
}
102
{ACAD_REACTORS
330
29
102
}
330
29
100
AcDbVisualStyle
  2

 70
    12
 71
     2
 72
     2
 73
     0
 90
        0
 40
-0.6
 41
-30.0
 62
     5
 63
     7
 74
     1
 91
        4
 64
     7
 65
   257
 75
     1
175
     1
 42
1.0
 92
        8
 66
     7
 43
1.0
 76
     1
 77
     6
 78
     2
 67
     7
 79
     5
170
     0
171
     0
290
     0
174
     0
 93
        1
 44
50.0
173
     0
291
     1
 45
0.0
1001
ACAD
1000
AcDbSavedByObjectVersion
1070
     0
  0
VISUALSTYLE
  5
39
102
{ACAD_XDICTIONARY
360
464
102
}
102
{ACAD_REACTORS
330
29
102
}
330
29
100
AcDbVisualStyle
  2

 70
    16
 71
     2
 72
     2
 73
     3
 90
        0
 40
-0.6
 41
-30.0
 62
     5
 63
     8
 74
     1
 91
        4
 64
     7
 65
   257
 75
     1
175
     1
 42
1.0
 92
        8
 66
     8
 43
1.0
 76
     1
 77
     6
 78
     2
 67
     7
 79
     5
170
     0
171
     0
290
     0
174
     0
 93
        1
 44
0.0
173
     0
291
     1
 45
0.0
1001
ACAD
1000
AcDbSavedByObjectVersion
1070
     0
  0
VISUALSTYLE
  5
32
102
{ACAD_XDICTIONARY
360
456
102
}
102
{ACAD_REACTORS
330
29
102
}
330
29
100
AcDbVisualStyle
  2

 70
     9
 71
     3
 72
     2
 73
     0
 90
        0
 40
-0.6
 41
-30.0
 62
     5
 63
     7
 74
     2
 91
        2
 64
     7
 65
   257
 75
     1
175
     1
 42
179.0
 92
        8
 66
     7
 43
1.0
 76
     1
 77
     6
 78
     2
 67
     7
 79
     3
170
     0
171
     0
290
     0
174
     0
 93
        1
 44
0.0
173
     0
291
     0
 45
0.0
1001
ACAD
1000
AcDbSavedByObjectVersion
1070
     0
  0
VISUALSTYLE
  5
34
102
{ACAD_XDICTIONARY
360
45A
102
}
102
{ACAD_REACTORS
330
29
102
}
330
29
100
AcDbVisualStyle
  2

 70
    11
 71
     2
 72
     2
 73
     0
 90
        0
 40
-0.6
 41
-30.0
 62
     5
 63
     7
 74
     1
 91
        4
 64
     7
 65
   257
 75
     1
175
     1
 42
1.0
 92
        8
 66
     7
 43
1.0
 76
     1
 77
     6
 78
     2
 67
     7
 79
     5
170
     0
171
     0
290
     0
174
     0
 93
        1
 44
-50.0
173
     0
291
     1
 45
0.0
1001
ACAD
1000
AcDbSavedByObjectVersion
1070
     0
  0
VISUALSTYLE
  5
41
102
{ACAD_XDICTIONARY
360
474
102
}
102
{ACAD_REACTORS
330
29
102
}
330
29
100
AcDbVisualStyle
  2

 70
    22
 71
     2
 72
     2
 73
     0
 90
        0
 40
-0.6
 41
-30.0
 62
     5
 63
     7
 74
     1
 91
        4
 64
     7
 65
   257
 75
     1
175
     1
 42
1.0
 92
        8
 66
     7
 43
1.0
 76
     1
 77
     6
 78
     2
 67
     7
 79
     5
170
     0
171
     0
290
     0
174
     0
 93
        1
 44
0.0
173
     0
291
     1
 45
0.0
1001
ACAD
1000
AcDbSavedByObjectVersion
1070
     0
  0
VISUALSTYLE
  5
38
102
{ACAD_XDICTIONARY
360
462
102
}
102
{ACAD_REACTORS
330
29
102
}
330
29
100
AcDbVisualStyle
  2

 70
    15
 71
     2
 72
     2
 73
     0
 90
        0
 40
-0.6
 41
-30.0
 62
     5
 63
     7
 74
     1
 91
        4
 64
     7
 65
   257
 75
     1
175
     1
 42
1.0
 92
        8
 66
     7
 43
1.0
 76
     1
 77
     6
 78
     2
 67
     7
 79
     5
170
     0
171
     0
290
     0
174
     0
 93
        1
 44
0.0
173
     0
291
     1
 45
0.0
1001
ACAD
1000
AcDbSavedByObjectVersion
1070
     0
  0
VISUALSTYLE
  5
2A
102
{ACAD_XDICTIONARY
360
446
102
}
102
{ACAD_REACTORS
330
29
102
}
330
29
100
AcDbVisualStyle
  2

 70
     0
 71
     2
 72
     1
 73
     1
 90
        2
 40
-0.6
 41
30.0
 62
     5
 63
     7
 74
     0
 91
        0
 64
     7
 65
   257
 75
     1
175
     1
 42
1.0
 92
        8
 66
     7
 43
1.0
 76
     1
 77
     6
 78
     2
 67
     7
 79
     5
170
     0
171
     0
290
     0
174
     0
 93
       13
 44
0.0
173
     0
291
     1
 45
0.0
1001
ACAD
1000
AcDbSavedByObjectVersion
1070
     0
  0
VISUALSTYLE
  5
2B
102
{ACAD_XDICTIONARY
360
448
102
}
102
{ACAD_REACTORS
330
29
102
}
330
29
100
AcDbVisualStyle
  2

 70
     1
 71
     2
 72
     1
 73
     1
 90
        2
 40
-0.6
 41
30.0
 62
     5
 63
     7
 74
     1
 91
        0
 64
     7
 65
   257
 75
     1
175
     1
 42
1.0
 92
        0
 66
   257
 43
1.0
 76
     1
 77
     6
 78
     2
 67
     7
 79
     5
170
     0
171
     0
290
     0
174
     0
 93
       13
 44
0.0
173
     0
291
     1
 45
0.0
1001
ACAD
1000
AcDbSavedByObjectVersion
1070
     0
  0
VISUALSTYLE
  5
2C
102
{ACAD_XDICTIONARY
360
44A
102
}
102
{ACAD_REACTORS
330
29
102
}
330
29
100
AcDbVisualStyle
  2

 70
     2
 71
     2
 72
     2
 73
     1
 90
        2
 40
-0.6
 41
30.0
 62
     5
 63
     7
 74
     0
 91
        0
 64
     7
 65
   257
 75
     1
175
     1
 42
1.0
 92
        0
 66
     7
 43
1.0
 76
     1
 77
     6
 78
     2
 67
     7
 79
     5
170
     0
171
     0
290
     0
174
     0
 93
       13
 44
0.0
173
     0
291
     1
 45
0.0
1001
ACAD
1000
AcDbSavedByObjectVersion
1070
     0
  0
VISUALSTYLE
  5
2D
102
{ACAD_XDICTIONARY
360
44C
102
}
102
{ACAD_REACTORS
330
29
102
}
330
29
100
AcDbVisualStyle
  2

 70
     3
 71
     2
 72
     2
 73
     1
 90
        2
 40
-0.6
 41
30.0
 62
     5
 63
     7
 74
     1
 91
        0
 64
     7
 65
   257
 75
     1
175
     1
 42
1.0
 92
        0
 66
   257
 43
1.0
 76
     1
 77
     6
 78
     2
 67
     7
 79
     5
170
     0
171
     0
290
     0
174
     0
 93
       13
 44
0.0
173
     0
291
     1
 45
0.0
1001
ACAD
1000
AcDbSavedByObjectVersion
1070
     0
  0
VISUALSTYLE
  5
31
102
{ACAD_XDICTIONARY
360
454
102
}
102
{ACAD_REACTORS
330
29
102
}
330
29
100
AcDbVisualStyle
  2

 70
     6
 71
     1
 72
     2
 73
     2
 90
        0
 40
-0.6
 41
-30.0
 62
     5
 63
     7
 74
     2
 91
        2
 64
     7
 65
   257
 75
     2
175
     1
 42
40.0
 92
        0
 66
   257
 43
1.0
 76
     1
 77
     6
 78
     2
 67
     7
 79
     3
170
     0
171
     0
290
     0
174
     0
 93
        1
 44
0.0
173
     0
291
     0
 45
0.0
1001
ACAD
1000
AcDbSavedByObjectVersion
1070
     0
  0
VISUALSTYLE
  5
3F
102
{ACAD_XDICTIONARY
360
470
102
}
102
{ACAD_REACTORS
330
29
102
}
330
29
100
AcDbVisualStyle
  2

 70
    20
 71
     2
 72
     2
 73
     0
 90
        0
 40
-0.6
 41
-30.0
 62
     5
 63
     7
 74
     1
 91
        4
 64
     7
 65
   257
 75
     1
175
     1
 42
1.0
 92
       10
 66
     7
 43
1.0
 76
     1
 77
     6
 78
     2
 67
     7
 79
     5
170
     0
171
     0
290
     0
174
     0
 93
        1
 44
0.0
173
     0
291
     1
 45
0.0
1001
ACAD
1000
AcDbSavedByObjectVersion
1070
     0
  0
VISUALSTYLE
  5
37
102
{ACAD_XDICTIONARY
360
460
102
}
102
{ACAD_REACTORS
330
29
102
}
330
29
100
AcDbVisualStyle
  2

 70
    14
 71
     2
 72
     2
 73
     0
 90
        0
 40
-0.6
 41
-30.0
 62
     5
 63
     7
 74
     1
 91
        4
 64
     7
 65
   257
 75
     7
175
     7
 42
1.0
 92
        8
 66
     7
 43
1.0
 76
     1
 77
     6
 78
     2
 67
     7
 79
     5
170
     0
171
     0
290
     0
174
     0
 93
        1
 44
0.0
173
     0
291
     1
 45
0.0
1001
ACAD
1000
AcDbSavedByObjectVersion
1070
     0
  0
VISUALSTYLE
  5
40
102
{ACAD_XDICTIONARY
360
472
102
}
102
{ACAD_REACTORS
330
29
102
}
330
29
100
AcDbVisualStyle
  2

 70
    21
 71
     2
 72
     2
 73
     0
 90
        0
 40
-0.6
 41
-30.0
 62
     5
 63
     7
 74
     1
 91
        4
 64
     7
 65
   257
 75
     1
175
     1
 42
1.0
 92
        9
 66
     7
 43
1.0
 76
     1
 77
     6
 78
     2
 67
     7
 79
     5
170
     0
171
     0
290
     0
174
     0
 93
        1
 44
0.0
173
     0
291
     1
 45
0.0
1001
ACAD
1000
AcDbSavedByObjectVersion
1070
     0
  0
VISUALSTYLE
  5
33
102
{ACAD_XDICTIONARY
360
458
102
}
102
{ACAD_REACTORS
330
29
102
}
330
29
100
AcDbVisualStyle
  2

 70
     8
 71
     2
 72
     3
 73
     0
 90
        2
 40
-0.6
 41
30.0
 62
     5
 63
     7
 74
     0
 91
        0
 64
     7
 65
   257
 75
     1
175
     1
 42
1.0
 92
        8
 66
   257
 43
1.0
 76
     1
 77
     6
 78
     2
 67
     7
 79
     3
170
     0
171
     0
290
     0
174
     0
 93
       13
 44
0.0
173
     0
291
     0
 45
0.0
1001
ACAD
1000
AcDbSavedByObjectVersion
1070
     0
  0
VISUALSTYLE
  5
3E
102
{ACAD_XDICTIONARY
360
46E
102
}
102
{ACAD_REACTORS
330
29
102
}
330
29
100
AcDbVisualStyle
  2

 70
    27
 71
     2
 72
     2
 73
     1
 90
        2
 40
-0.6
 41
30.0
 62
     5
 63
     7
 74
     0
 91
        4
 64
     7
 65
   257
 75
     1
175
     1
 42
1.0
 92
        8
 66
   257
 43
1.0
 76
     1
 77
     6
 78
     2
 67
     8
 79
     3
170
     0
171
     0
290
     0
174
     0
 93
        5
 44
0.0
173
     0
291
     0
 45
0.0
1001
ACAD
1000
AcDbSavedByObjectVersion
1070
     0
  0
VISUALSTYLE
  5
3D
102
{ACAD_XDICTIONARY
360
46C
102
}
102
{ACAD_REACTORS
330
29
102
}
330
29
100
AcDbVisualStyle
  2

 70
    26
 71
     2
 72
     2
 73
     1
 90
        2
 40
-0.6
 41
30.0
 62
     5
 63
     7
 74
     1
 91
        2
 64
     7
 65
   257
 75
     2
175
     1
 42
1.0
 92
        8
 66
   257
 43
1.0
 76
     1
 77
     6
 78
     2
 67
     7
 79
     3
170
     0
171
     0
290
     0
174
     0
 93
        5
 44
0.0
173
     0
291
     0
 45
0.0
1001
ACAD
1000
AcDbSavedByObjectVersion
1070
     0
  0
VISUALSTYLE
  5
3A
102
{ACAD_XDICTIONARY
360
466
102
}
102
{ACAD_REACTORS
330
29
102
}
330
29
100
AcDbVisualStyle
  2

 70
    23
 71
     2
 72
     2
 73
     3
 90
        0
 40
-0.6
 41
-30.0
 62
     5
 63
     7
 74
     2
 91
        2
 64
     7
 65
     7
 75
     1
175
     1
 42
40.0
 92
        8
 66
     7
 43
1.0
 76
     1
 77
     6
 78
     2
 67
     7
 79
     3
170
     0
171
     0
290
     0
174
     0
 93
        1
 44
0.0
173
     0
291
     0
 45
0.0
1001
ACAD
1000
AcDbSavedByObjectVersion
1070
     0
  0
VISUALSTYLE
  5
3B
102
{ACAD_XDICTIONARY
360
468
102
}
102
{ACAD_REACTORS
330
29
102
}
330
29
100
AcDbVisualStyle
  2

 70
    24
 71
     1
 72
     2
 73
     2
 90
        0
 40
-0.6
 41
-30.0
 62
     5
 63
     7
 74
     2
 91
        2
 64
     7
 65
     7
 75
     1
175
     1
 42
40.0
 92
       11
 66
     7
 43
1.0
 76
     1
 77
     6
 78
     2
 67
     7
 79
     6
170
     0
171
     0
290
     0
174
     0
 93
        1
 44
0.0
173
     0
291
     0
 45
0.0
1001
ACAD
1000
AcDbSavedByObjectVersion
1070
     0
  0
VISUALSTYLE
  5
36
102
{ACAD_XDICTIONARY
360
45E
102
}
102
{ACAD_REACTORS
330
29
102
}
330
29
100
AcDbVisualStyle
  2

 70
    13
 71
     2
 72
     2
 73
     0
 90
        0
 40
-0.6
 41
-30.0
 62
     5
 63
     7
 74
     1
 91
        4
 64
     7
 65
   257
 75
     1
175
     1
 42
1.0
 92
       12
 66
     7
 43
1.0
 76
     1
 77
     6
 78
     2
 67
     7
 79
     5
170
     0
171
     0
290
     0
174
     0
 93
        1
 44
0.0
173
     0
291
     1
 45
0.0
1001
ACAD
1000
AcDbSavedByObjectVersion
1070
     0
  0
VISUALSTYLE
  5
30
102
{ACAD_XDICTIONARY
360
452
102
}
102
{ACAD_REACTORS
330
29
102
}
330
29
100
AcDbVisualStyle
  2

 70
     5
 71
     0
 72
     2
 73
     0
 90
        0
 40
-0.6
 41
-30.0
 62
     5
 63
     7
 74
     1
 91
        4
 64
     7
 65
   257
 75
     1
175
     1
 42
1.0
 92
        0
 66
   257
 43
1.0
 76
     1
 77
     6
 78
     2
 67
     7
 79
     3
170
     0
171
     0
290
     0
174
     0
 93
        1
 44
0.0
173
     0
291
     0
 45
0.0
1001
ACAD
1000
AcDbSavedByObjectVersion
1070
     0
  0
VISUALSTYLE
  5
3C
102
{ACAD_XDICTIONARY
360
46A
102
}
102
{ACAD_REACTORS
330
29
102
}
330
29
100
AcDbVisualStyle
  2

 70
    25
 71
     2
 72
     2
 73
     1
 90
        1
 40
0.5
 41
-30.0
 62
     5
 63
     7
 74
     1
 91
        0
 64
     7
 65
   257
 75
     1
175
     1
 42
1.0
 92
        8
 66
     7
 43
1.0
 76
     1
 77
     6
 78
     2
 67
     7
 79
     3
170
     0
171
     0
290
     0
174
     0
 93
       13
 44
0.0
173
     0
291
     0
 45
0.0
1001
ACAD
1000
AcDbSavedByObjectVersion
1070
     0
  0
DICTIONARYVAR
  5
3F4
102
{ACAD_REACTORS
330
3EF
102
}
330
3EF
100
DictionaryVariables
280
     0
  1
1:1
  0
DICTIONARYVAR
  5
3F1
102
{ACAD_REACTORS
330
3EF
102
}
330
3EF
100
DictionaryVariables
280
     0
  1
STANDARD
  0
DICTIONARYVAR
  5
3F0
102
{ACAD_REACTORS
330
3EF
102
}
330
3EF
100
DictionaryVariables
280
     0
  1
STANDARD
  0
DICTIONARYVAR
  5
3F2
102
{ACAD_REACTORS
330
3EF
102
}
330
3EF
100
DictionaryVariables
280
     0
  1
Imperial24
  0
DICTIONARYVAR
  5
3F3
102
{ACAD_REACTORS
330
3EF
102
}
330
3EF
100
DictionaryVariables
280
     0
  1
Imperial24
  0
DICTIONARYVAR
  5
3F7
102
{ACAD_REACTORS
330
3EF
102
}
330
3EF
100
DictionaryVariables
280
     0
  1
1
  0
DICTIONARYVAR
  5
3F6
102
{ACAD_REACTORS
330
3EF
102
}
330
3EF
100
DictionaryVariables
280
     0
  1
0
  0
DICTIONARYVAR
  5
3F5
102
{ACAD_REACTORS
330
3EF
102
}
330
3EF
100
DictionaryVariables
280
     0
  1
127
  0
DICTIONARYVAR
  5
442
102
{ACAD_REACTORS
330
3EF
102
}
330
3EF
100
DictionaryVariables
280
     0
  1
2
  0
DICTIONARY
  5
479
330
6A
100
AcDbDictionary
280
     1
281
     1
  3
ACAD_XREC_ROUNDTRIP
360
47A
  0
DICTIONARY
  5
47D
330
72
100
AcDbDictionary
280
     1
281
     1
  3
ACAD_XREC_ROUNDTRIP
360
47E
  0
DICTIONARY
  5
47B
330
6E
100
AcDbDictionary
280
     1
281
     1
  3
ACAD_XREC_ROUNDTRIP
360
47C
  0
DICTIONARY
  5
1A
330
19
100
AcDbDictionary
280
     1
281
     1
  3
ACAD_XREC_ROUNDTRIP
360
3FF
  3
BUMPTILE
360
1C
  3
DIFFUSETILE
360
1B
  3
OPACITYTILE
360
1F
  3
REFLECTIONTILE
360
1E
  3
REFRACTIONTILE
360
20
  3
SPECULARTILE
360
1D
  0
DICTIONARY
  5
12
330
11
100
AcDbDictionary
280
     1
281
     1
  3
ACAD_XREC_ROUNDTRIP
360
3FE
  3
BUMPTILE
360
14
  3
DIFFUSETILE
360
13
  3
OPACITYTILE
360
17
  3
REFLECTIONTILE
360
16
  3
REFRACTIONTILE
360
18
  3
SPECULARTILE
360
15
  0
DICTIONARY
  5
22
330
21
100
AcDbDictionary
280
     1
281
     1
  3
ACAD_XREC_ROUNDTRIP
360
400
  3
BUMPTILE
360
24
  3
DIFFUSETILE
360
23
  3
OPACITYTILE
360
27
  3
REFLECTIONTILE
360
26
  3
REFRACTIONTILE
360
28
  3
SPECULARTILE
360
25
  0
DICTIONARY
  5
477
330
68
100
AcDbDictionary
280
     1
281
     1
  3
ACAD_XREC_ROUNDTRIP
360
478
  0
DICTIONARY
  5
3FA
330
64
100
AcDbDictionary
280
     1
281
     1
  3
ACAD_ROUNDTRIP_2008_TABLESTYLE_CELLSTYLEMAP
360
443
  3
ACAD_XREC_ROUNDTRIP
360
476
  0
DICTIONARY
  5
450
330
2F
100
AcDbDictionary
280
     1
281
     1
  3
ACAD_XREC_ROUNDTRIP
360
451
  0
DICTIONARY
  5
44E
330
2E
100
AcDbDictionary
280
     1
281
     1
  3
ACAD_XREC_ROUNDTRIP
360
44F
  0
DICTIONARY
  5
45C
330
35
100
AcDbDictionary
280
     1
281
     1
  3
ACAD_XREC_ROUNDTRIP
360
45D
  0
DICTIONARY
  5
464
330
39
100
AcDbDictionary
280
     1
281
     1
  3
ACAD_XREC_ROUNDTRIP
360
465
  0
DICTIONARY
  5
456
330
32
100
AcDbDictionary
280
     1
281
     1
  3
ACAD_XREC_ROUNDTRIP
360
457
  0
DICTIONARY
  5
45A
330
34
100
AcDbDictionary
280
     1
281
     1
  3
ACAD_XREC_ROUNDTRIP
360
45B
  0
DICTIONARY
  5
474
330
41
100
AcDbDictionary
280
     1
281
     1
  3
ACAD_XREC_ROUNDTRIP
360
475
  0
DICTIONARY
  5
462
330
38
100
AcDbDictionary
280
     1
281
     1
  3
ACAD_XREC_ROUNDTRIP
360
463
  0
DICTIONARY
  5
446
330
2A
100
AcDbDictionary
280
     1
281
     1
  3
ACAD_XREC_ROUNDTRIP
360
447
  0
DICTIONARY
  5
448
330
2B
100
AcDbDictionary
280
     1
281
     1
  3
ACAD_XREC_ROUNDTRIP
360
449
  0
DICTIONARY
  5
44A
330
2C
100
AcDbDictionary
280
     1
281
     1
  3
ACAD_XREC_ROUNDTRIP
360
44B
  0
DICTIONARY
  5
44C
330
2D
100
AcDbDictionary
280
     1
281
     1
  3
ACAD_XREC_ROUNDTRIP
360
44D
  0
DICTIONARY
  5
454
330
31
100
AcDbDictionary
280
     1
281
     1
  3
ACAD_XREC_ROUNDTRIP
360
455
  0
DICTIONARY
  5
470
330
3F
100
AcDbDictionary
280
     1
281
     1
  3
ACAD_XREC_ROUNDTRIP
360
471
  0
DICTIONARY
  5
460
330
37
100
AcDbDictionary
280
     1
281
     1
  3
ACAD_XREC_ROUNDTRIP
360
461
  0
DICTIONARY
  5
472
330
40
100
AcDbDictionary
280
     1
281
     1
  3
ACAD_XREC_ROUNDTRIP
360
473
  0
DICTIONARY
  5
458
330
33
100
AcDbDictionary
280
     1
281
     1
  3
ACAD_XREC_ROUNDTRIP
360
459
  0
DICTIONARY
  5
46E
330
3E
100
AcDbDictionary
280
     1
281
     1
  3
ACAD_XREC_ROUNDTRIP
360
46F
  0
DICTIONARY
  5
46C
330
3D
100
AcDbDictionary
280
     1
281
     1
  3
ACAD_XREC_ROUNDTRIP
360
46D
  0
DICTIONARY
  5
466
330
3A
100
AcDbDictionary
280
     1
281
     1
  3
ACAD_XREC_ROUNDTRIP
360
467
  0
DICTIONARY
  5
468
330
3B
100
AcDbDictionary
280
     1
281
     1
  3
ACAD_XREC_ROUNDTRIP
360
469
  0
DICTIONARY
  5
45E
330
36
100
AcDbDictionary
280
     1
281
     1
  3
ACAD_XREC_ROUNDTRIP
360
45F
  0
DICTIONARY
  5
452
330
30
100
AcDbDictionary
280
     1
281
     1
  3
ACAD_XREC_ROUNDTRIP
360
453
  0
DICTIONARY
  5
46A
330
3C
100
AcDbDictionary
280
     1
281
     1
  3
ACAD_XREC_ROUNDTRIP
360
46B
  0
XRECORD
  5
47A
102
{ACAD_REACTORS
330
479
102
}
330
479
100
AcDbXrecord
280
     1
102
DISPLAYNAME
  1
Imperial24
102
FLAGS
 90
        0
  0
XRECORD
  5
47E
102
{ACAD_REACTORS
330
47D
102
}
330
47D
100
AcDbXrecord
280
     1
102
SHADEPLOT
 70
     0
102
SHADEPLOTRESLEVEL
 70
     2
102
SHADEPLOTCUSTOMDPI
 70
   300
  0
XRECORD
  5
47C
102
{ACAD_REACTORS
330
47B
102
}
330
47B
100
AcDbXrecord
280
     1
102
SHADEPLOT
 70
     0
102
SHADEPLOTRESLEVEL
 70
     2
102
SHADEPLOTCUSTOMDPI
 70
   300
  0
XRECORD
  5
3FF
102
{ACAD_REACTORS
330
1A
102
}
330
1A
100
AcDbXrecord
280
     1
102
MATERIAL
148
0.0
149
0.0
149
0.0
 93
        0
 94
      127
282
     0
 72
     0
 77
     0
171
     0
175
     0
179
     0
273
     0
  0
XRECORD
  5
1C
102
{ACAD_REACTORS
330
1A
102
}
330
1A
100
AcDbXrecord
280
     1
270
     1
271
     1
  0
XRECORD
  5
1B
102
{ACAD_REACTORS
330
1A
102
}
330
1A
100
AcDbXrecord
280
     1
270
     1
271
     1
  0
XRECORD
  5
1F
102
{ACAD_REACTORS
330
1A
102
}
330
1A
100
AcDbXrecord
280
     1
270
     1
271
     1
  0
XRECORD
  5
1E
102
{ACAD_REACTORS
330
1A
102
}
330
1A
100
AcDbXrecord
280
     1
270
     1
271
     1
  0
XRECORD
  5
20
102
{ACAD_REACTORS
330
1A
102
}
330
1A
100
AcDbXrecord
280
     1
270
     1
271
     1
  0
XRECORD
  5
1D
102
{ACAD_REACTORS
330
1A
102
}
330
1A
100
AcDbXrecord
280
     1
270
     1
271
     1
  0
XRECORD
  5
3FE
102
{ACAD_REACTORS
330
12
102
}
330
12
100
AcDbXrecord
280
     1
102
MATERIAL
148
0.0
149
0.0
149
0.0
 93
        0
 94
      127
282
     0
 72
     0
 77
     0
171
     0
175
     0
179
     0
273
     0
  0
XRECORD
  5
14
102
{ACAD_REACTORS
330
12
102
}
330
12
100
AcDbXrecord
280
     1
270
     1
271
     1
  0
XRECORD
  5
13
102
{ACAD_REACTORS
330
12
102
}
330
12
100
AcDbXrecord
280
     1
270
     1
271
     1
  0
XRECORD
  5
17
102
{ACAD_REACTORS
330
12
102
}
330
12
100
AcDbXrecord
280
     1
270
     1
271
     1
  0
XRECORD
  5
16
102
{ACAD_REACTORS
330
12
102
}
330
12
100
AcDbXrecord
280
     1
270
     1
271
     1
  0
XRECORD
  5
18
102
{ACAD_REACTORS
330
12
102
}
330
12
100
AcDbXrecord
280
     1
270
     1
271
     1
  0
XRECORD
  5
15
102
{ACAD_REACTORS
330
12
102
}
330
12
100
AcDbXrecord
280
     1
270
     1
271
     1
  0
XRECORD
  5
400
102
{ACAD_REACTORS
330
22
102
}
330
22
100
AcDbXrecord
280
     1
102
MATERIAL
148
0.0
149
0.0
149
0.0
 93
        0
 94
      127
282
     0
 72
     0
 77
     0
171
     0
175
     0
179
     0
273
     0
  0
XRECORD
  5
24
102
{ACAD_REACTORS
330
22
102
}
330
22
100
AcDbXrecord
280
     1
270
     1
271
     1
  0
XRECORD
  5
23
102
{ACAD_REACTORS
330
22
102
}
330
22
100
AcDbXrecord
280
     1
270
     1
271
     1
  0
XRECORD
  5
27
102
{ACAD_REACTORS
330
22
102
}
330
22
100
AcDbXrecord
280
     1
270
     1
271
     1
  0
XRECORD
  5
26
102
{ACAD_REACTORS
330
22
102
}
330
22
100
AcDbXrecord
280
     1
270
     1
271
     1
  0
XRECORD
  5
28
102
{ACAD_REACTORS
330
22
102
}
330
22
100
AcDbXrecord
280
     1
270
     1
271
     1
  0
XRECORD
  5
25
102
{ACAD_REACTORS
330
22
102
}
330
22
100
AcDbXrecord
280
     1
270
     1
271
     1
  0
XRECORD
  5
478
102
{ACAD_REACTORS
330
477
102
}
330
477
100
AcDbXrecord
280
     1
102
DISPLAYNAME
  1
Imperial24
102
FLAGS
 90
        0
  0
CELLSTYLEMAP
  5
443
102
{ACAD_REACTORS
330
3FA
102
}
330
3FA
100
AcDbCellStyleMap
 90
        3
300
CELLSTYLE
  1
TABLEFORMAT_BEGIN
 90
        5
170
     1
 91
        0
 92
    32768
 62
   257
 93
        1
300
CONTENTFORMAT
  1
CONTENTFORMAT_BEGIN
 90
        0
 91
        0
 92
      512
 93
        0
300

 40
0.0
140
1.0
 94
        5
 62
     0
340
55
144
0.25
309
CONTENTFORMAT_END
171
     1
301
MARGIN
  1
CELLMARGIN_BEGIN
 40
0.06
 40
0.06
 40
0.06
 40
0.06
 40
0.18
 40
0.18
309
CELLMARGIN_END
 94
        6
 95
        1
302
GRIDFORMAT
  1
GRIDFORMAT_BEGIN
 90
        0
 91
        1
 62
     0
 92
       -2
340
0
 93
        0
 40
0.045
309
GRIDFORMAT_END
 95
        2
302
GRIDFORMAT
  1
GRIDFORMAT_BEGIN
 90
        0
 91
        1
 62
     0
 92
       -2
340
0
 93
        0
 40
0.045
309
GRIDFORMAT_END
 95
        4
302
GRIDFORMAT
  1
GRIDFORMAT_BEGIN
 90
        0
 91
        1
 62
     0
 92
       -2
340
0
 93
        0
 40
0.045
309
GRIDFORMAT_END
 95
        8
302
GRIDFORMAT
  1
GRIDFORMAT_BEGIN
 90
        0
 91
        1
 62
     0
 92
       -2
340
0
 93
        0
 40
0.045
309
GRIDFORMAT_END
 95
       16
302
GRIDFORMAT
  1
GRIDFORMAT_BEGIN
 90
        0
 91
        1
 62
     0
 92
       -2
340
0
 93
        0
 40
0.045
309
GRIDFORMAT_END
 95
       32
302
GRIDFORMAT
  1
GRIDFORMAT_BEGIN
 90
        0
 91
        1
 62
     0
 92
       -2
340
0
 93
        0
 40
0.045
309
GRIDFORMAT_END
309
TABLEFORMAT_END
  1
CELLSTYLE_BEGIN
 90
        1
 91
        1
300
_TITLE
309
CELLSTYLE_END
300
CELLSTYLE
  1
TABLEFORMAT_BEGIN
 90
        5
170
     1
 91
        0
 92
        0
 62
   257
 93
        1
300
CONTENTFORMAT
  1
CONTENTFORMAT_BEGIN
 90
        0
 91
        0
 92
      512
 93
        0
300

 40
0.0
140
1.0
 94
        5
 62
     0
340
55
144
0.18
309
CONTENTFORMAT_END
171
     1
301
MARGIN
  1
CELLMARGIN_BEGIN
 40
0.06
 40
0.06
 40
0.06
 40
0.06
 40
0.18
 40
0.18
309
CELLMARGIN_END
 94
        6
 95
        1
302
GRIDFORMAT
  1
GRIDFORMAT_BEGIN
 90
        0
 91
        1
 62
     0
 92
       -2
340
0
 93
        0
 40
0.045
309
GRIDFORMAT_END
 95
        2
302
GRIDFORMAT
  1
GRIDFORMAT_BEGIN
 90
        0
 91
        1
 62
     0
 92
       -2
340
0
 93
        0
 40
0.045
309
GRIDFORMAT_END
 95
        4
302
GRIDFORMAT
  1
GRIDFORMAT_BEGIN
 90
        0
 91
        1
 62
     0
 92
       -2
340
0
 93
        0
 40
0.045
309
GRIDFORMAT_END
 95
        8
302
GRIDFORMAT
  1
GRIDFORMAT_BEGIN
 90
        0
 91
        1
 62
     0
 92
       -2
340
0
 93
        0
 40
0.045
309
GRIDFORMAT_END
 95
       16
302
GRIDFORMAT
  1
GRIDFORMAT_BEGIN
 90
        0
 91
        1
 62
     0
 92
       -2
340
0
 93
        0
 40
0.045
309
GRIDFORMAT_END
 95
       32
302
GRIDFORMAT
  1
GRIDFORMAT_BEGIN
 90
        0
 91
        1
 62
     0
 92
       -2
340
0
 93
        0
 40
0.045
309
GRIDFORMAT_END
309
TABLEFORMAT_END
  1
CELLSTYLE_BEGIN
 90
        2
 91
        1
300
_HEADER
309
CELLSTYLE_END
300
CELLSTYLE
  1
TABLEFORMAT_BEGIN
 90
        5
170
     1
 91
        0
 92
        0
 62
   257
 93
        1
300
CONTENTFORMAT
  1
CONTENTFORMAT_BEGIN
 90
        0
 91
        0
 92
      512
 93
        0
300

 40
0.0
140
1.0
 94
        2
 62
     0
340
55
144
0.18
309
CONTENTFORMAT_END
171
     1
301
MARGIN
  1
CELLMARGIN_BEGIN
 40
0.06
 40
0.06
 40
0.06
 40
0.06
 40
0.18
 40
0.18
309
CELLMARGIN_END
 94
        6
 95
        1
302
GRIDFORMAT
  1
GRIDFORMAT_BEGIN
 90
        0
 91
        1
 62
     0
 92
       -2
340
0
 93
        0
 40
0.045
309
GRIDFORMAT_END
 95
        2
302
GRIDFORMAT
  1
GRIDFORMAT_BEGIN
 90
        0
 91
        1
 62
     0
 92
       -2
340
0
 93
        0
 40
0.045
309
GRIDFORMAT_END
 95
        4
302
GRIDFORMAT
  1
GRIDFORMAT_BEGIN
 90
        0
 91
        1
 62
     0
 92
       -2
340
0
 93
        0
 40
0.045
309
GRIDFORMAT_END
 95
        8
302
GRIDFORMAT
  1
GRIDFORMAT_BEGIN
 90
        0
 91
        1
 62
     0
 92
       -2
340
0
 93
        0
 40
0.045
309
GRIDFORMAT_END
 95
       16
302
GRIDFORMAT
  1
GRIDFORMAT_BEGIN
 90
        0
 91
        1
 62
     0
 92
       -2
340
0
 93
        0
 40
0.045
309
GRIDFORMAT_END
 95
       32
302
GRIDFORMAT
  1
GRIDFORMAT_BEGIN
 90
        0
 91
        1
 62
     0
 92
       -2
340
0
 93
        0
 40
0.045
309
GRIDFORMAT_END
309
TABLEFORMAT_END
  1
CELLSTYLE_BEGIN
 90
        3
 91
        2
300
_DATA
309
CELLSTYLE_END
  0
XRECORD
  5
476
102
{ACAD_REACTORS
330
3FA
102
}
330
3FA
100
AcDbXrecord
280
     1
102
ACAD_ROUNDTRIP_PRE2007_TABLESTYLE
 90
      512
 91
        0
  1

 92
      512
 93
        0
  2

 94
      512
 95
        0
  3

  0
XRECORD
  5
451
102
{ACAD_REACTORS
330
450
102
}
330
450
100
AcDbXrecord
280
     1
102
RTVSPost2010Prop28
280
     1
102
RTVSPost2010PropOp28
 70
     1
102
RTVSPost2010Prop29
280
     1
102
RTVSPost2010PropOp29
 70
     1
102
RTVSPost2010Prop30
280
     0
102
RTVSPost2010PropOp30
 70
     1
102
RTVSPost2010Prop31
280
     0
102
RTVSPost2010PropOp31
 70
     1
102
RTVSPost2010Prop32
280
     0
102
RTVSPost2010PropOp32
 70
     1
102
RTVSPost2010Prop33
280
     0
102
RTVSPost2010PropOp33
 70
     1
102
RTVSPost2010Prop34
280
     0
102
RTVSPost2010PropOp34
 70
     1
102
RTVSPost2010Prop35
280
     0
102
RTVSPost2010PropOp35
 70
     1
102
RTVSPost2010Prop36
280
     0
102
RTVSPost2010PropOp36
 70
     1
102
RTVSPost2010Prop37
 90
       50
102
RTVSPost2010PropOp37
 70
     1
102
RTVSPost2010Prop38
140
0.0
102
RTVSPost2010PropOp38
 70
     1
102
RTVSPost2010Prop39
140
1.0
102
RTVSPost2010PropOp39
 70
     1
102
RTVSPost2010Prop40
 90
        0
102
RTVSPost2010PropOp40
 70
     1
102
RTVSPost2010Prop41ColorIndex
 90
       18
102
RTVSPost2010Prop41ColorRGB
 90
        0
102
RTVSPost2010PropOp41
 70
     1
102
RTVSPost2010Prop42
 90
       50
102
RTVSPost2010PropOp42
 70
     1
102
RTVSPost2010Prop43
 90
        3
102
RTVSPost2010PropOp43
 70
     1
102
RTVSPost2010Prop44ColorIndex
 90
        5
102
RTVSPost2010Prop44ColorRGB
 90
      255
102
RTVSPost2010PropOp44
 70
     1
102
RTVSPost2010Prop45
280
     0
102
RTVSPost2010PropOp45
 70
     1
102
RTVSPost2010Prop46
 90
       50
102
RTVSPost2010PropOp46
 70
     1
102
RTVSPost2010Prop47
 90
       50
102
RTVSPost2010PropOp47
 70
     1
102
RTVSPost2010Prop48
 90
       50
102
RTVSPost2010PropOp48
 70
     1
102
RTVSPost2010Prop49
280
     0
102
RTVSPost2010PropOp49
 70
     1
102
RTVSPost2010Prop50
 90
       50
102
RTVSPost2010PropOp50
 70
     1
102
RTVSPost2010Prop51ColorIndex
 90
      256
102
RTVSPost2010Prop51ColorRGB
 90
-16777216
102
RTVSPost2010PropOp51
 70
     0
102
RTVSPost2010Prop52
140
1.0
102
RTVSPost2010PropOp52
 70
     0
102
RTVSPost2010Prop53
 90
        2
102
RTVSPost2010PropOp53
 70
     1
102
RTVSPost2010Prop54
  1
strokes_ogs.tif
102
RTVSPost2010PropOp54
 70
     1
102
RTVSPost2010Prop55
280
     0
102
RTVSPost2010PropOp55
 70
     1
102
RTVSPost2010Prop56
140
1.0
102
RTVSPost2010PropOp56
 70
     1
102
RTVSPost2010Prop57
140
1.0
102
RTVSPost2010PropOp57
 70
     1
102
RTVSPropertyOp0
 70
     1
102
RTVSPropertyOp1
 70
     1
102
RTVSPropertyOp2
 70
     1
102
RTVSPropertyOp3
 70
     1
102
RTVSPropertyOp4
 70
     1
102
RTVSPropertyOp5
 70
     1
102
RTVSPropertyOp6
 70
     1
102
RTVSPropertyOp7
 70
     1
102
RTVSPropertyOp8
 70
     1
102
RTVSPropertyOp9
 70
     1
102
RTVSPropertyOp10
 70
     1
102
RTVSPropertyOp11
 70
     1
102
RTVSPropertyOp12
 70
     1
102
RTVSPropertyOp13
 70
     1
102
RTVSPropertyOp14
 70
     1
102
RTVSPropertyOp15
 70
     1
102
RTVSPropertyOp16
 70
     1
102
RTVSPropertyOp17
 70
     1
102
RTVSPropertyOp18
 70
     1
102
RTVSPropertyOp19
 70
     1
102
RTVSPropertyOp20
 70
     1
102
RTVSPropertyOp21
 70
     1
102
RTVSPropertyOp22
 70
     1
102
RTVSPropertyOp23
 70
     1
102
RTVSPropertyOp24
 70
     1
102
RTVSPropertyOp25
 70
     1
102
RTVSPropertyOp26
 70
     1
102
RTVSPropertyOp27
 70
     1
102
RTVSPropertyOp28
 70
     1
102
RTVSPropertyOp29
 70
     1
102
RTVSPropertyOp30
 70
     1
102
RTVSPropertyOp31
 70
     1
102
RTVSPropertyOp32
 70
     1
102
RTVSPropertyOp33
 70
     1
102
RTVSPropertyOp34
 70
     1
102
RTVSPropertyOp35
 70
     1
102
RTVSPropertyOp36
 70
     1
102
RTVSPropertyOp37
 70
     1
102
RTVSPropertyOp38
 70
     1
102
RTVSPropertyOp39
 70
     1
102
RTVSPropertyOp40
 70
     1
102
RTVSPropertyOp41
 70
     1
102
RTVSPropertyOp42
 70
     1
102
RTVSPropertyOp43
 70
     1
102
RTVSPropertyOp44
 70
     1
102
RTVSPropertyOp45
 70
     1
102
RTVSPropertyOp46
 70
     1
102
RTVSPropertyOp47
 70
     1
102
RTVSPropertyOp48
 70
     1
102
RTVSPropertyOp49
 70
     1
102
RTVSPropertyOp50
 70
     1
102
RTVSPropertyOp51
 70
     0
102
RTVSPropertyOp52
 70
     0
102
RTVSPropertyOp53
 70
     1
102
RTVSPropertyOp54
 70
     1
102
RTVSPropertyOp55
 70
     1
102
RTVSPropertyOp56
 70
     1
102
RTVSPropertyOp57
 70
     1
102
RTVSPropertyOp58
 70
     1
102
RTVSPropertyOp59
 70
     1
102
RTVSPropertyOp60
 70
     1
102
RTVSPropertyOp61
 70
     1
102
RTVSPropertyOp62
 70
     1
  0
XRECORD
  5
44F
102
{ACAD_REACTORS
330
44E
102
}
330
44E
100
AcDbXrecord
280
     1
102
RTVSPost2010Prop28
280
     0
102
RTVSPost2010PropOp28
 70
     1
102
RTVSPost2010Prop29
280
     1
102
RTVSPost2010PropOp29
 70
     1
102
RTVSPost2010Prop30
280
     1
102
RTVSPost2010PropOp30
 70
     1
102
RTVSPost2010Prop31
280
     0
102
RTVSPost2010PropOp31
 70
     1
102
RTVSPost2010Prop32
280
     0
102
RTVSPost2010PropOp32
 70
     1
102
RTVSPost2010Prop33
280
     0
102
RTVSPost2010PropOp33
 70
     1
102
RTVSPost2010Prop34
280
     0
102
RTVSPost2010PropOp34
 70
     1
102
RTVSPost2010Prop35
280
     0
102
RTVSPost2010PropOp35
 70
     1
102
RTVSPost2010Prop36
280
     0
102
RTVSPost2010PropOp36
 70
     1
102
RTVSPost2010Prop37
 90
       50
102
RTVSPost2010PropOp37
 70
     1
102
RTVSPost2010Prop38
140
0.0
102
RTVSPost2010PropOp38
 70
     1
102
RTVSPost2010Prop39
140
1.0
102
RTVSPost2010PropOp39
 70
     1
102
RTVSPost2010Prop40
 90
        0
102
RTVSPost2010PropOp40
 70
     1
102
RTVSPost2010Prop41ColorIndex
 90
       18
102
RTVSPost2010Prop41ColorRGB
 90
        0
102
RTVSPost2010PropOp41
 70
     1
102
RTVSPost2010Prop42
 90
       50
102
RTVSPost2010PropOp42
 70
     1
102
RTVSPost2010Prop43
 90
        3
102
RTVSPost2010PropOp43
 70
     1
102
RTVSPost2010Prop44ColorIndex
 90
        5
102
RTVSPost2010Prop44ColorRGB
 90
      255
102
RTVSPost2010PropOp44
 70
     1
102
RTVSPost2010Prop45
280
     0
102
RTVSPost2010PropOp45
 70
     1
102
RTVSPost2010Prop46
 90
       50
102
RTVSPost2010PropOp46
 70
     1
102
RTVSPost2010Prop47
 90
       50
102
RTVSPost2010PropOp47
 70
     1
102
RTVSPost2010Prop48
 90
       50
102
RTVSPost2010PropOp48
 70
     1
102
RTVSPost2010Prop49
280
     0
102
RTVSPost2010PropOp49
 70
     1
102
RTVSPost2010Prop50
 90
       50
102
RTVSPost2010PropOp50
 70
     1
102
RTVSPost2010Prop51ColorIndex
 90
      256
102
RTVSPost2010Prop51ColorRGB
 90
-16777216
102
RTVSPost2010PropOp51
 70
     0
102
RTVSPost2010Prop52
140
1.0
102
RTVSPost2010PropOp52
 70
     0
102
RTVSPost2010Prop53
 90
        2
102
RTVSPost2010PropOp53
 70
     1
102
RTVSPost2010Prop54
  1
strokes_ogs.tif
102
RTVSPost2010PropOp54
 70
     1
102
RTVSPost2010Prop55
280
     0
102
RTVSPost2010PropOp55
 70
     1
102
RTVSPost2010Prop56
140
1.0
102
RTVSPost2010PropOp56
 70
     1
102
RTVSPost2010Prop57
140
1.0
102
RTVSPost2010PropOp57
 70
     1
102
RTVSPropertyOp0
 70
     1
102
RTVSPropertyOp1
 70
     1
102
RTVSPropertyOp2
 70
     1
102
RTVSPropertyOp3
 70
     1
102
RTVSPropertyOp4
 70
     1
102
RTVSPropertyOp5
 70
     1
102
RTVSPropertyOp6
 70
     1
102
RTVSPropertyOp7
 70
     1
102
RTVSPropertyOp8
 70
     1
102
RTVSPropertyOp9
 70
     1
102
RTVSPropertyOp10
 70
     1
102
RTVSPropertyOp11
 70
     1
102
RTVSPropertyOp12
 70
     1
102
RTVSPropertyOp13
 70
     1
102
RTVSPropertyOp14
 70
     1
102
RTVSPropertyOp15
 70
     1
102
RTVSPropertyOp16
 70
     1
102
RTVSPropertyOp17
 70
     1
102
RTVSPropertyOp18
 70
     1
102
RTVSPropertyOp19
 70
     1
102
RTVSPropertyOp20
 70
     1
102
RTVSPropertyOp21
 70
     1
102
RTVSPropertyOp22
 70
     1
102
RTVSPropertyOp23
 70
     1
102
RTVSPropertyOp24
 70
     1
102
RTVSPropertyOp25
 70
     1
102
RTVSPropertyOp26
 70
     1
102
RTVSPropertyOp27
 70
     1
102
RTVSPropertyOp28
 70
     1
102
RTVSPropertyOp29
 70
     1
102
RTVSPropertyOp30
 70
     1
102
RTVSPropertyOp31
 70
     1
102
RTVSPropertyOp32
 70
     1
102
RTVSPropertyOp33
 70
     1
102
RTVSPropertyOp34
 70
     1
102
RTVSPropertyOp35
 70
     1
102
RTVSPropertyOp36
 70
     1
102
RTVSPropertyOp37
 70
     1
102
RTVSPropertyOp38
 70
     1
102
RTVSPropertyOp39
 70
     1
102
RTVSPropertyOp40
 70
     1
102
RTVSPropertyOp41
 70
     1
102
RTVSPropertyOp42
 70
     1
102
RTVSPropertyOp43
 70
     1
102
RTVSPropertyOp44
 70
     1
102
RTVSPropertyOp45
 70
     1
102
RTVSPropertyOp46
 70
     1
102
RTVSPropertyOp47
 70
     1
102
RTVSPropertyOp48
 70
     1
102
RTVSPropertyOp49
 70
     1
102
RTVSPropertyOp50
 70
     1
102
RTVSPropertyOp51
 70
     0
102
RTVSPropertyOp52
 70
     0
102
RTVSPropertyOp53
 70
     1
102
RTVSPropertyOp54
 70
     1
102
RTVSPropertyOp55
 70
     1
102
RTVSPropertyOp56
 70
     1
102
RTVSPropertyOp57
 70
     1
102
RTVSPropertyOp58
 70
     1
102
RTVSPropertyOp59
 70
     1
102
RTVSPropertyOp60
 70
     1
102
RTVSPropertyOp61
 70
     1
102
RTVSPropertyOp62
 70
     1
  0
XRECORD
  5
45D
102
{ACAD_REACTORS
330
45C
102
}
330
45C
100
AcDbXrecord
280
     1
102
RTVSPost2010Prop28
280
     0
102
RTVSPost2010PropOp28
 70
     1
102
RTVSPost2010Prop29
280
     1
102
RTVSPost2010PropOp29
 70
     1
102
RTVSPost2010Prop30
280
     1
102
RTVSPost2010PropOp30
 70
     1
102
RTVSPost2010Prop31
280
     0
102
RTVSPost2010PropOp31
 70
     1
102
RTVSPost2010Prop32
280
     0
102
RTVSPost2010PropOp32
 70
     1
102
RTVSPost2010Prop33
280
     0
102
RTVSPost2010PropOp33
 70
     1
102
RTVSPost2010Prop34
280
     0
102
RTVSPost2010PropOp34
 70
     1
102
RTVSPost2010Prop35
280
     0
102
RTVSPost2010PropOp35
 70
     1
102
RTVSPost2010Prop36
280
     0
102
RTVSPost2010PropOp36
 70
     1
102
RTVSPost2010Prop37
 90
       50
102
RTVSPost2010PropOp37
 70
     1
102
RTVSPost2010Prop38
140
0.0
102
RTVSPost2010PropOp38
 70
     1
102
RTVSPost2010Prop39
140
1.0
102
RTVSPost2010PropOp39
 70
     1
102
RTVSPost2010Prop40
 90
        0
102
RTVSPost2010PropOp40
 70
     1
102
RTVSPost2010Prop41ColorIndex
 90
       18
102
RTVSPost2010Prop41ColorRGB
 90
        0
102
RTVSPost2010PropOp41
 70
     1
102
RTVSPost2010Prop42
 90
       50
102
RTVSPost2010PropOp42
 70
     1
102
RTVSPost2010Prop43
 90
        3
102
RTVSPost2010PropOp43
 70
     1
102
RTVSPost2010Prop44ColorIndex
 90
        5
102
RTVSPost2010Prop44ColorRGB
 90
      255
102
RTVSPost2010PropOp44
 70
     1
102
RTVSPost2010Prop45
280
     0
102
RTVSPost2010PropOp45
 70
     1
102
RTVSPost2010Prop46
 90
       50
102
RTVSPost2010PropOp46
 70
     1
102
RTVSPost2010Prop47
 90
       50
102
RTVSPost2010PropOp47
 70
     1
102
RTVSPost2010Prop48
 90
       50
102
RTVSPost2010PropOp48
 70
     1
102
RTVSPost2010Prop49
280
     0
102
RTVSPost2010PropOp49
 70
     1
102
RTVSPost2010Prop50
 90
       50
102
RTVSPost2010PropOp50
 70
     1
102
RTVSPost2010Prop51ColorIndex
 90
      256
102
RTVSPost2010Prop51ColorRGB
 90
-16777216
102
RTVSPost2010PropOp51
 70
     0
102
RTVSPost2010Prop52
140
1.0
102
RTVSPost2010PropOp52
 70
     0
102
RTVSPost2010Prop53
 90
        2
102
RTVSPost2010PropOp53
 70
     1
102
RTVSPost2010Prop54
  1
strokes_ogs.tif
102
RTVSPost2010PropOp54
 70
     1
102
RTVSPost2010Prop55
280
     0
102
RTVSPost2010PropOp55
 70
     1
102
RTVSPost2010Prop56
140
1.0
102
RTVSPost2010PropOp56
 70
     1
102
RTVSPost2010Prop57
140
1.0
102
RTVSPost2010PropOp57
 70
     1
102
RTVSPropertyOp0
 70
     1
102
RTVSPropertyOp1
 70
     1
102
RTVSPropertyOp2
 70
     1
102
RTVSPropertyOp3
 70
     1
102
RTVSPropertyOp4
 70
     1
102
RTVSPropertyOp5
 70
     1
102
RTVSPropertyOp6
 70
     1
102
RTVSPropertyOp7
 70
     1
102
RTVSPropertyOp8
 70
     1
102
RTVSPropertyOp9
 70
     1
102
RTVSPropertyOp10
 70
     1
102
RTVSPropertyOp11
 70
     1
102
RTVSPropertyOp12
 70
     1
102
RTVSPropertyOp13
 70
     1
102
RTVSPropertyOp14
 70
     1
102
RTVSPropertyOp15
 70
     1
102
RTVSPropertyOp16
 70
     1
102
RTVSPropertyOp17
 70
     1
102
RTVSPropertyOp18
 70
     1
102
RTVSPropertyOp19
 70
     1
102
RTVSPropertyOp20
 70
     1
102
RTVSPropertyOp21
 70
     1
102
RTVSPropertyOp22
 70
     1
102
RTVSPropertyOp23
 70
     1
102
RTVSPropertyOp24
 70
     1
102
RTVSPropertyOp25
 70
     1
102
RTVSPropertyOp26
 70
     1
102
RTVSPropertyOp27
 70
     1
102
RTVSPropertyOp28
 70
     1
102
RTVSPropertyOp29
 70
     1
102
RTVSPropertyOp30
 70
     1
102
RTVSPropertyOp31
 70
     1
102
RTVSPropertyOp32
 70
     1
102
RTVSPropertyOp33
 70
     1
102
RTVSPropertyOp34
 70
     1
102
RTVSPropertyOp35
 70
     1
102
RTVSPropertyOp36
 70
     1
102
RTVSPropertyOp37
 70
     1
102
RTVSPropertyOp38
 70
     1
102
RTVSPropertyOp39
 70
     1
102
RTVSPropertyOp40
 70
     1
102
RTVSPropertyOp41
 70
     1
102
RTVSPropertyOp42
 70
     1
102
RTVSPropertyOp43
 70
     1
102
RTVSPropertyOp44
 70
     1
102
RTVSPropertyOp45
 70
     1
102
RTVSPropertyOp46
 70
     1
102
RTVSPropertyOp47
 70
     1
102
RTVSPropertyOp48
 70
     1
102
RTVSPropertyOp49
 70
     1
102
RTVSPropertyOp50
 70
     1
102
RTVSPropertyOp51
 70
     0
102
RTVSPropertyOp52
 70
     0
102
RTVSPropertyOp53
 70
     1
102
RTVSPropertyOp54
 70
     1
102
RTVSPropertyOp55
 70
     1
102
RTVSPropertyOp56
 70
     1
102
RTVSPropertyOp57
 70
     1
102
RTVSPropertyOp58
 70
     1
102
RTVSPropertyOp59
 70
     1
102
RTVSPropertyOp60
 70
     1
102
RTVSPropertyOp61
 70
     1
102
RTVSPropertyOp62
 70
     1
  0
XRECORD
  5
465
102
{ACAD_REACTORS
330
464
102
}
330
464
100
AcDbXrecord
280
     1
102
RTVSPost2010Prop28
280
     0
102
RTVSPost2010PropOp28
 70
     1
102
RTVSPost2010Prop29
280
     1
102
RTVSPost2010PropOp29
 70
     1
102
RTVSPost2010Prop30
280
     1
102
RTVSPost2010PropOp30
 70
     1
102
RTVSPost2010Prop31
280
     0
102
RTVSPost2010PropOp31
 70
     1
102
RTVSPost2010Prop32
280
     0
102
RTVSPost2010PropOp32
 70
     1
102
RTVSPost2010Prop33
280
     0
102
RTVSPost2010PropOp33
 70
     1
102
RTVSPost2010Prop34
280
     0
102
RTVSPost2010PropOp34
 70
     1
102
RTVSPost2010Prop35
280
     0
102
RTVSPost2010PropOp35
 70
     1
102
RTVSPost2010Prop36
280
     0
102
RTVSPost2010PropOp36
 70
     1
102
RTVSPost2010Prop37
 90
       50
102
RTVSPost2010PropOp37
 70
     1
102
RTVSPost2010Prop38
140
0.0
102
RTVSPost2010PropOp38
 70
     1
102
RTVSPost2010Prop39
140
1.0
102
RTVSPost2010PropOp39
 70
     1
102
RTVSPost2010Prop40
 90
        0
102
RTVSPost2010PropOp40
 70
     1
102
RTVSPost2010Prop41ColorIndex
 90
       18
102
RTVSPost2010Prop41ColorRGB
 90
        0
102
RTVSPost2010PropOp41
 70
     1
102
RTVSPost2010Prop42
 90
       50
102
RTVSPost2010PropOp42
 70
     1
102
RTVSPost2010Prop43
 90
        3
102
RTVSPost2010PropOp43
 70
     1
102
RTVSPost2010Prop44ColorIndex
 90
        5
102
RTVSPost2010Prop44ColorRGB
 90
      255
102
RTVSPost2010PropOp44
 70
     1
102
RTVSPost2010Prop45
280
     0
102
RTVSPost2010PropOp45
 70
     1
102
RTVSPost2010Prop46
 90
       50
102
RTVSPost2010PropOp46
 70
     1
102
RTVSPost2010Prop47
 90
       50
102
RTVSPost2010PropOp47
 70
     1
102
RTVSPost2010Prop48
 90
       50
102
RTVSPost2010PropOp48
 70
     1
102
RTVSPost2010Prop49
280
     0
102
RTVSPost2010PropOp49
 70
     1
102
RTVSPost2010Prop50
 90
       50
102
RTVSPost2010PropOp50
 70
     1
102
RTVSPost2010Prop51ColorIndex
 90
      256
102
RTVSPost2010Prop51ColorRGB
 90
-16777216
102
RTVSPost2010PropOp51
 70
     0
102
RTVSPost2010Prop52
140
1.0
102
RTVSPost2010PropOp52
 70
     0
102
RTVSPost2010Prop53
 90
        2
102
RTVSPost2010PropOp53
 70
     1
102
RTVSPost2010Prop54
  1
strokes_ogs.tif
102
RTVSPost2010PropOp54
 70
     1
102
RTVSPost2010Prop55
280
     0
102
RTVSPost2010PropOp55
 70
     1
102
RTVSPost2010Prop56
140
1.0
102
RTVSPost2010PropOp56
 70
     1
102
RTVSPost2010Prop57
140
1.0
102
RTVSPost2010PropOp57
 70
     1
102
RTVSPropertyOp0
 70
     1
102
RTVSPropertyOp1
 70
     1
102
RTVSPropertyOp2
 70
     1
102
RTVSPropertyOp3
 70
     1
102
RTVSPropertyOp4
 70
     1
102
RTVSPropertyOp5
 70
     1
102
RTVSPropertyOp6
 70
     1
102
RTVSPropertyOp7
 70
     1
102
RTVSPropertyOp8
 70
     1
102
RTVSPropertyOp9
 70
     1
102
RTVSPropertyOp10
 70
     1
102
RTVSPropertyOp11
 70
     1
102
RTVSPropertyOp12
 70
     1
102
RTVSPropertyOp13
 70
     1
102
RTVSPropertyOp14
 70
     1
102
RTVSPropertyOp15
 70
     1
102
RTVSPropertyOp16
 70
     1
102
RTVSPropertyOp17
 70
     1
102
RTVSPropertyOp18
 70
     1
102
RTVSPropertyOp19
 70
     1
102
RTVSPropertyOp20
 70
     1
102
RTVSPropertyOp21
 70
     1
102
RTVSPropertyOp22
 70
     1
102
RTVSPropertyOp23
 70
     1
102
RTVSPropertyOp24
 70
     1
102
RTVSPropertyOp25
 70
     1
102
RTVSPropertyOp26
 70
     1
102
RTVSPropertyOp27
 70
     1
102
RTVSPropertyOp28
 70
     1
102
RTVSPropertyOp29
 70
     1
102
RTVSPropertyOp30
 70
     1
102
RTVSPropertyOp31
 70
     1
102
RTVSPropertyOp32
 70
     1
102
RTVSPropertyOp33
 70
     1
102
RTVSPropertyOp34
 70
     1
102
RTVSPropertyOp35
 70
     1
102
RTVSPropertyOp36
 70
     1
102
RTVSPropertyOp37
 70
     1
102
RTVSPropertyOp38
 70
     1
102
RTVSPropertyOp39
 70
     1
102
RTVSPropertyOp40
 70
     1
102
RTVSPropertyOp41
 70
     1
102
RTVSPropertyOp42
 70
     1
102
RTVSPropertyOp43
 70
     1
102
RTVSPropertyOp44
 70
     1
102
RTVSPropertyOp45
 70
     1
102
RTVSPropertyOp46
 70
     1
102
RTVSPropertyOp47
 70
     1
102
RTVSPropertyOp48
 70
     1
102
RTVSPropertyOp49
 70
     1
102
RTVSPropertyOp50
 70
     1
102
RTVSPropertyOp51
 70
     0
102
RTVSPropertyOp52
 70
     0
102
RTVSPropertyOp53
 70
     1
102
RTVSPropertyOp54
 70
     1
102
RTVSPropertyOp55
 70
     1
102
RTVSPropertyOp56
 70
     1
102
RTVSPropertyOp57
 70
     1
102
RTVSPropertyOp58
 70
     1
102
RTVSPropertyOp59
 70
     1
102
RTVSPropertyOp60
 70
     1
102
RTVSPropertyOp61
 70
     1
102
RTVSPropertyOp62
 70
     1
  0
XRECORD
  5
457
102
{ACAD_REACTORS
330
456
102
}
330
456
100
AcDbXrecord
280
     1
102
RTVSPost2010Prop28
280
     0
102
RTVSPost2010PropOp28
 70
     1
102
RTVSPost2010Prop29
280
     1
102
RTVSPost2010PropOp29
 70
     1
102
RTVSPost2010Prop30
280
     1
102
RTVSPost2010PropOp30
 70
     1
102
RTVSPost2010Prop31
280
     0
102
RTVSPost2010PropOp31
 70
     1
102
RTVSPost2010Prop32
280
     0
102
RTVSPost2010PropOp32
 70
     1
102
RTVSPost2010Prop33
280
     0
102
RTVSPost2010PropOp33
 70
     1
102
RTVSPost2010Prop34
280
     0
102
RTVSPost2010PropOp34
 70
     1
102
RTVSPost2010Prop35
280
     0
102
RTVSPost2010PropOp35
 70
     1
102
RTVSPost2010Prop36
280
     0
102
RTVSPost2010PropOp36
 70
     1
102
RTVSPost2010Prop37
 90
       50
102
RTVSPost2010PropOp37
 70
     1
102
RTVSPost2010Prop38
140
0.0
102
RTVSPost2010PropOp38
 70
     1
102
RTVSPost2010Prop39
140
1.0
102
RTVSPost2010PropOp39
 70
     1
102
RTVSPost2010Prop40
 90
        0
102
RTVSPost2010PropOp40
 70
     1
102
RTVSPost2010Prop41ColorIndex
 90
       18
102
RTVSPost2010Prop41ColorRGB
 90
        0
102
RTVSPost2010PropOp41
 70
     1
102
RTVSPost2010Prop42
 90
       50
102
RTVSPost2010PropOp42
 70
     1
102
RTVSPost2010Prop43
 90
        3
102
RTVSPost2010PropOp43
 70
     1
102
RTVSPost2010Prop44ColorIndex
 90
        5
102
RTVSPost2010Prop44ColorRGB
 90
      255
102
RTVSPost2010PropOp44
 70
     1
102
RTVSPost2010Prop45
280
     0
102
RTVSPost2010PropOp45
 70
     1
102
RTVSPost2010Prop46
 90
       50
102
RTVSPost2010PropOp46
 70
     1
102
RTVSPost2010Prop47
 90
       50
102
RTVSPost2010PropOp47
 70
     1
102
RTVSPost2010Prop48
 90
       50
102
RTVSPost2010PropOp48
 70
     1
102
RTVSPost2010Prop49
280
     0
102
RTVSPost2010PropOp49
 70
     1
102
RTVSPost2010Prop50
 90
       50
102
RTVSPost2010PropOp50
 70
     1
102
RTVSPost2010Prop51ColorIndex
 90
      256
102
RTVSPost2010Prop51ColorRGB
 90
-16777216
102
RTVSPost2010PropOp51
 70
     0
102
RTVSPost2010Prop52
140
1.0
102
RTVSPost2010PropOp52
 70
     0
102
RTVSPost2010Prop53
 90
        2
102
RTVSPost2010PropOp53
 70
     1
102
RTVSPost2010Prop54
  1
strokes_ogs.tif
102
RTVSPost2010PropOp54
 70
     1
102
RTVSPost2010Prop55
280
     0
102
RTVSPost2010PropOp55
 70
     1
102
RTVSPost2010Prop56
140
1.0
102
RTVSPost2010PropOp56
 70
     1
102
RTVSPost2010Prop57
140
1.0
102
RTVSPost2010PropOp57
 70
     1
102
RTVSPropertyOp0
 70
     1
102
RTVSPropertyOp1
 70
     1
102
RTVSPropertyOp2
 70
     1
102
RTVSPropertyOp3
 70
     1
102
RTVSPropertyOp4
 70
     1
102
RTVSPropertyOp5
 70
     1
102
RTVSPropertyOp6
 70
     1
102
RTVSPropertyOp7
 70
     1
102
RTVSPropertyOp8
 70
     1
102
RTVSPropertyOp9
 70
     1
102
RTVSPropertyOp10
 70
     1
102
RTVSPropertyOp11
 70
     1
102
RTVSPropertyOp12
 70
     1
102
RTVSPropertyOp13
 70
     1
102
RTVSPropertyOp14
 70
     1
102
RTVSPropertyOp15
 70
     1
102
RTVSPropertyOp16
 70
     1
102
RTVSPropertyOp17
 70
     1
102
RTVSPropertyOp18
 70
     1
102
RTVSPropertyOp19
 70
     1
102
RTVSPropertyOp20
 70
     1
102
RTVSPropertyOp21
 70
     1
102
RTVSPropertyOp22
 70
     1
102
RTVSPropertyOp23
 70
     1
102
RTVSPropertyOp24
 70
     1
102
RTVSPropertyOp25
 70
     1
102
RTVSPropertyOp26
 70
     1
102
RTVSPropertyOp27
 70
     1
102
RTVSPropertyOp28
 70
     1
102
RTVSPropertyOp29
 70
     1
102
RTVSPropertyOp30
 70
     1
102
RTVSPropertyOp31
 70
     1
102
RTVSPropertyOp32
 70
     1
102
RTVSPropertyOp33
 70
     1
102
RTVSPropertyOp34
 70
     1
102
RTVSPropertyOp35
 70
     1
102
RTVSPropertyOp36
 70
     1
102
RTVSPropertyOp37
 70
     1
102
RTVSPropertyOp38
 70
     1
102
RTVSPropertyOp39
 70
     1
102
RTVSPropertyOp40
 70
     1
102
RTVSPropertyOp41
 70
     1
102
RTVSPropertyOp42
 70
     1
102
RTVSPropertyOp43
 70
     1
102
RTVSPropertyOp44
 70
     1
102
RTVSPropertyOp45
 70
     1
102
RTVSPropertyOp46
 70
     1
102
RTVSPropertyOp47
 70
     1
102
RTVSPropertyOp48
 70
     1
102
RTVSPropertyOp49
 70
     1
102
RTVSPropertyOp50
 70
     1
102
RTVSPropertyOp51
 70
     0
102
RTVSPropertyOp52
 70
     0
102
RTVSPropertyOp53
 70
     1
102
RTVSPropertyOp54
 70
     1
102
RTVSPropertyOp55
 70
     1
102
RTVSPropertyOp56
 70
     1
102
RTVSPropertyOp57
 70
     1
102
RTVSPropertyOp58
 70
     1
102
RTVSPropertyOp59
 70
     1
102
RTVSPropertyOp60
 70
     1
102
RTVSPropertyOp61
 70
     1
102
RTVSPropertyOp62
 70
     1
  0
XRECORD
  5
45B
102
{ACAD_REACTORS
330
45A
102
}
330
45A
100
AcDbXrecord
280
     1
102
RTVSPost2010Prop28
280
     0
102
RTVSPost2010PropOp28
 70
     1
102
RTVSPost2010Prop29
280
     1
102
RTVSPost2010PropOp29
 70
     1
102
RTVSPost2010Prop30
280
     1
102
RTVSPost2010PropOp30
 70
     1
102
RTVSPost2010Prop31
280
     0
102
RTVSPost2010PropOp31
 70
     1
102
RTVSPost2010Prop32
280
     0
102
RTVSPost2010PropOp32
 70
     1
102
RTVSPost2010Prop33
280
     0
102
RTVSPost2010PropOp33
 70
     1
102
RTVSPost2010Prop34
280
     0
102
RTVSPost2010PropOp34
 70
     1
102
RTVSPost2010Prop35
280
     0
102
RTVSPost2010PropOp35
 70
     1
102
RTVSPost2010Prop36
280
     0
102
RTVSPost2010PropOp36
 70
     1
102
RTVSPost2010Prop37
 90
       50
102
RTVSPost2010PropOp37
 70
     1
102
RTVSPost2010Prop38
140
0.0
102
RTVSPost2010PropOp38
 70
     1
102
RTVSPost2010Prop39
140
1.0
102
RTVSPost2010PropOp39
 70
     1
102
RTVSPost2010Prop40
 90
        0
102
RTVSPost2010PropOp40
 70
     1
102
RTVSPost2010Prop41ColorIndex
 90
       18
102
RTVSPost2010Prop41ColorRGB
 90
        0
102
RTVSPost2010PropOp41
 70
     1
102
RTVSPost2010Prop42
 90
       50
102
RTVSPost2010PropOp42
 70
     1
102
RTVSPost2010Prop43
 90
        3
102
RTVSPost2010PropOp43
 70
     1
102
RTVSPost2010Prop44ColorIndex
 90
        5
102
RTVSPost2010Prop44ColorRGB
 90
      255
102
RTVSPost2010PropOp44
 70
     1
102
RTVSPost2010Prop45
280
     0
102
RTVSPost2010PropOp45
 70
     1
102
RTVSPost2010Prop46
 90
       50
102
RTVSPost2010PropOp46
 70
     1
102
RTVSPost2010Prop47
 90
       50
102
RTVSPost2010PropOp47
 70
     1
102
RTVSPost2010Prop48
 90
       50
102
RTVSPost2010PropOp48
 70
     1
102
RTVSPost2010Prop49
280
     0
102
RTVSPost2010PropOp49
 70
     1
102
RTVSPost2010Prop50
 90
       50
102
RTVSPost2010PropOp50
 70
     1
102
RTVSPost2010Prop51ColorIndex
 90
      256
102
RTVSPost2010Prop51ColorRGB
 90
-16777216
102
RTVSPost2010PropOp51
 70
     0
102
RTVSPost2010Prop52
140
1.0
102
RTVSPost2010PropOp52
 70
     0
102
RTVSPost2010Prop53
 90
        2
102
RTVSPost2010PropOp53
 70
     1
102
RTVSPost2010Prop54
  1
strokes_ogs.tif
102
RTVSPost2010PropOp54
 70
     1
102
RTVSPost2010Prop55
280
     0
102
RTVSPost2010PropOp55
 70
     1
102
RTVSPost2010Prop56
140
1.0
102
RTVSPost2010PropOp56
 70
     1
102
RTVSPost2010Prop57
140
1.0
102
RTVSPost2010PropOp57
 70
     1
102
RTVSPropertyOp0
 70
     1
102
RTVSPropertyOp1
 70
     1
102
RTVSPropertyOp2
 70
     1
102
RTVSPropertyOp3
 70
     1
102
RTVSPropertyOp4
 70
     1
102
RTVSPropertyOp5
 70
     1
102
RTVSPropertyOp6
 70
     1
102
RTVSPropertyOp7
 70
     1
102
RTVSPropertyOp8
 70
     1
102
RTVSPropertyOp9
 70
     1
102
RTVSPropertyOp10
 70
     1
102
RTVSPropertyOp11
 70
     1
102
RTVSPropertyOp12
 70
     1
102
RTVSPropertyOp13
 70
     1
102
RTVSPropertyOp14
 70
     1
102
RTVSPropertyOp15
 70
     1
102
RTVSPropertyOp16
 70
     1
102
RTVSPropertyOp17
 70
     1
102
RTVSPropertyOp18
 70
     1
102
RTVSPropertyOp19
 70
     1
102
RTVSPropertyOp20
 70
     1
102
RTVSPropertyOp21
 70
     1
102
RTVSPropertyOp22
 70
     1
102
RTVSPropertyOp23
 70
     1
102
RTVSPropertyOp24
 70
     1
102
RTVSPropertyOp25
 70
     1
102
RTVSPropertyOp26
 70
     1
102
RTVSPropertyOp27
 70
     1
102
RTVSPropertyOp28
 70
     1
102
RTVSPropertyOp29
 70
     1
102
RTVSPropertyOp30
 70
     1
102
RTVSPropertyOp31
 70
     1
102
RTVSPropertyOp32
 70
     1
102
RTVSPropertyOp33
 70
     1
102
RTVSPropertyOp34
 70
     1
102
RTVSPropertyOp35
 70
     1
102
RTVSPropertyOp36
 70
     1
102
RTVSPropertyOp37
 70
     1
102
RTVSPropertyOp38
 70
     1
102
RTVSPropertyOp39
 70
     1
102
RTVSPropertyOp40
 70
     1
102
RTVSPropertyOp41
 70
     1
102
RTVSPropertyOp42
 70
     1
102
RTVSPropertyOp43
 70
     1
102
RTVSPropertyOp44
 70
     1
102
RTVSPropertyOp45
 70
     1
102
RTVSPropertyOp46
 70
     1
102
RTVSPropertyOp47
 70
     1
102
RTVSPropertyOp48
 70
     1
102
RTVSPropertyOp49
 70
     1
102
RTVSPropertyOp50
 70
     1
102
RTVSPropertyOp51
 70
     0
102
RTVSPropertyOp52
 70
     0
102
RTVSPropertyOp53
 70
     1
102
RTVSPropertyOp54
 70
     1
102
RTVSPropertyOp55
 70
     1
102
RTVSPropertyOp56
 70
     1
102
RTVSPropertyOp57
 70
     1
102
RTVSPropertyOp58
 70
     1
102
RTVSPropertyOp59
 70
     1
102
RTVSPropertyOp60
 70
     1
102
RTVSPropertyOp61
 70
     1
102
RTVSPropertyOp62
 70
     1
  0
XRECORD
  5
475
102
{ACAD_REACTORS
330
474
102
}
330
474
100
AcDbXrecord
280
     1
102
RTVSPost2010Prop28
280
     0
102
RTVSPost2010PropOp28
 70
     1
102
RTVSPost2010Prop29
280
     1
102
RTVSPost2010PropOp29
 70
     1
102
RTVSPost2010Prop30
280
     1
102
RTVSPost2010PropOp30
 70
     1
102
RTVSPost2010Prop31
280
     0
102
RTVSPost2010PropOp31
 70
     1
102
RTVSPost2010Prop32
280
     0
102
RTVSPost2010PropOp32
 70
     1
102
RTVSPost2010Prop33
280
     0
102
RTVSPost2010PropOp33
 70
     1
102
RTVSPost2010Prop34
280
     0
102
RTVSPost2010PropOp34
 70
     1
102
RTVSPost2010Prop35
280
     0
102
RTVSPost2010PropOp35
 70
     1
102
RTVSPost2010Prop36
280
     0
102
RTVSPost2010PropOp36
 70
     1
102
RTVSPost2010Prop37
 90
       50
102
RTVSPost2010PropOp37
 70
     0
102
RTVSPost2010Prop38
140
0.0
102
RTVSPost2010PropOp38
 70
     0
102
RTVSPost2010Prop39
140
1.0
102
RTVSPost2010PropOp39
 70
     0
102
RTVSPost2010Prop40
 90
        0
102
RTVSPost2010PropOp40
 70
     0
102
RTVSPost2010Prop41ColorIndex
 90
       18
102
RTVSPost2010Prop41ColorRGB
 90
        0
102
RTVSPost2010PropOp41
 70
     0
102
RTVSPost2010Prop42
 90
       50
102
RTVSPost2010PropOp42
 70
     0
102
RTVSPost2010Prop43
 90
        3
102
RTVSPost2010PropOp43
 70
     0
102
RTVSPost2010Prop44ColorIndex
 90
        5
102
RTVSPost2010Prop44ColorRGB
 90
      255
102
RTVSPost2010PropOp44
 70
     0
102
RTVSPost2010Prop45
280
     0
102
RTVSPost2010PropOp45
 70
     1
102
RTVSPost2010Prop46
 90
       50
102
RTVSPost2010PropOp46
 70
     0
102
RTVSPost2010Prop47
 90
       50
102
RTVSPost2010PropOp47
 70
     0
102
RTVSPost2010Prop48
 90
       50
102
RTVSPost2010PropOp48
 70
     0
102
RTVSPost2010Prop49
280
     0
102
RTVSPost2010PropOp49
 70
     1
102
RTVSPost2010Prop50
 90
       50
102
RTVSPost2010PropOp50
 70
     0
102
RTVSPost2010Prop51ColorIndex
 90
      256
102
RTVSPost2010Prop51ColorRGB
 90
-16777216
102
RTVSPost2010PropOp51
 70
     0
102
RTVSPost2010Prop52
140
1.0
102
RTVSPost2010PropOp52
 70
     0
102
RTVSPost2010Prop53
 90
        2
102
RTVSPost2010PropOp53
 70
     0
102
RTVSPost2010Prop54
  1
strokes_ogs.tif
102
RTVSPost2010PropOp54
 70
     0
102
RTVSPost2010Prop55
280
     0
102
RTVSPost2010PropOp55
 70
     1
102
RTVSPost2010Prop56
140
1.0
102
RTVSPost2010PropOp56
 70
     0
102
RTVSPost2010Prop57
140
1.0
102
RTVSPost2010PropOp57
 70
     0
102
RTVSPropertyOp0
 70
     0
102
RTVSPropertyOp1
 70
     0
102
RTVSPropertyOp2
 70
     0
102
RTVSPropertyOp3
 70
     0
102
RTVSPropertyOp4
 70
     0
102
RTVSPropertyOp5
 70
     0
102
RTVSPropertyOp6
 70
     0
102
RTVSPropertyOp7
 70
     0
102
RTVSPropertyOp8
 70
     0
102
RTVSPropertyOp9
 70
     0
102
RTVSPropertyOp10
 70
     0
102
RTVSPropertyOp11
 70
     0
102
RTVSPropertyOp12
 70
     0
102
RTVSPropertyOp13
 70
     0
102
RTVSPropertyOp14
 70
     2
102
RTVSPropertyOp15
 70
     0
102
RTVSPropertyOp16
 70
     0
102
RTVSPropertyOp17
 70
     0
102
RTVSPropertyOp18
 70
     0
102
RTVSPropertyOp19
 70
     0
102
RTVSPropertyOp20
 70
     0
102
RTVSPropertyOp21
 70
     0
102
RTVSPropertyOp22
 70
     0
102
RTVSPropertyOp23
 70
     0
102
RTVSPropertyOp24
 70
     0
102
RTVSPropertyOp25
 70
     0
102
RTVSPropertyOp26
 70
     0
102
RTVSPropertyOp27
 70
     0
102
RTVSPropertyOp28
 70
     1
102
RTVSPropertyOp29
 70
     1
102
RTVSPropertyOp30
 70
     1
102
RTVSPropertyOp31
 70
     1
102
RTVSPropertyOp32
 70
     1
102
RTVSPropertyOp33
 70
     1
102
RTVSPropertyOp34
 70
     1
102
RTVSPropertyOp35
 70
     1
102
RTVSPropertyOp36
 70
     1
102
RTVSPropertyOp37
 70
     0
102
RTVSPropertyOp38
 70
     0
102
RTVSPropertyOp39
 70
     0
102
RTVSPropertyOp40
 70
     0
102
RTVSPropertyOp41
 70
     0
102
RTVSPropertyOp42
 70
     0
102
RTVSPropertyOp43
 70
     0
102
RTVSPropertyOp44
 70
     0
102
RTVSPropertyOp45
 70
     1
102
RTVSPropertyOp46
 70
     0
102
RTVSPropertyOp47
 70
     0
102
RTVSPropertyOp48
 70
     0
102
RTVSPropertyOp49
 70
     1
102
RTVSPropertyOp50
 70
     0
102
RTVSPropertyOp51
 70
     0
102
RTVSPropertyOp52
 70
     0
102
RTVSPropertyOp53
 70
     0
102
RTVSPropertyOp54
 70
     0
102
RTVSPropertyOp55
 70
     1
102
RTVSPropertyOp56
 70
     0
102
RTVSPropertyOp57
 70
     0
102
RTVSPropertyOp58
 70
     0
102
RTVSPropertyOp59
 70
     0
102
RTVSPropertyOp60
 70
     0
102
RTVSPropertyOp61
 70
     0
102
RTVSPropertyOp62
 70
     0
  0
XRECORD
  5
463
102
{ACAD_REACTORS
330
462
102
}
330
462
100
AcDbXrecord
280
     1
102
RTVSPost2010Prop28
280
     0
102
RTVSPost2010PropOp28
 70
     1
102
RTVSPost2010Prop29
280
     1
102
RTVSPost2010PropOp29
 70
     1
102
RTVSPost2010Prop30
280
     1
102
RTVSPost2010PropOp30
 70
     1
102
RTVSPost2010Prop31
280
     0
102
RTVSPost2010PropOp31
 70
     1
102
RTVSPost2010Prop32
280
     0
102
RTVSPost2010PropOp32
 70
     1
102
RTVSPost2010Prop33
280
     0
102
RTVSPost2010PropOp33
 70
     1
102
RTVSPost2010Prop34
280
     0
102
RTVSPost2010PropOp34
 70
     1
102
RTVSPost2010Prop35
280
     0
102
RTVSPost2010PropOp35
 70
     1
102
RTVSPost2010Prop36
280
     0
102
RTVSPost2010PropOp36
 70
     1
102
RTVSPost2010Prop37
 90
       50
102
RTVSPost2010PropOp37
 70
     1
102
RTVSPost2010Prop38
140
0.0
102
RTVSPost2010PropOp38
 70
     1
102
RTVSPost2010Prop39
140
1.0
102
RTVSPost2010PropOp39
 70
     1
102
RTVSPost2010Prop40
 90
        0
102
RTVSPost2010PropOp40
 70
     1
102
RTVSPost2010Prop41ColorIndex
 90
       18
102
RTVSPost2010Prop41ColorRGB
 90
        0
102
RTVSPost2010PropOp41
 70
     1
102
RTVSPost2010Prop42
 90
       50
102
RTVSPost2010PropOp42
 70
     1
102
RTVSPost2010Prop43
 90
        3
102
RTVSPost2010PropOp43
 70
     1
102
RTVSPost2010Prop44ColorIndex
 90
        5
102
RTVSPost2010Prop44ColorRGB
 90
      255
102
RTVSPost2010PropOp44
 70
     1
102
RTVSPost2010Prop45
280
     0
102
RTVSPost2010PropOp45
 70
     1
102
RTVSPost2010Prop46
 90
       50
102
RTVSPost2010PropOp46
 70
     1
102
RTVSPost2010Prop47
 90
       50
102
RTVSPost2010PropOp47
 70
     1
102
RTVSPost2010Prop48
 90
       50
102
RTVSPost2010PropOp48
 70
     1
102
RTVSPost2010Prop49
280
     0
102
RTVSPost2010PropOp49
 70
     1
102
RTVSPost2010Prop50
 90
       50
102
RTVSPost2010PropOp50
 70
     1
102
RTVSPost2010Prop51ColorIndex
 90
      256
102
RTVSPost2010Prop51ColorRGB
 90
-16777216
102
RTVSPost2010PropOp51
 70
     0
102
RTVSPost2010Prop52
140
1.0
102
RTVSPost2010PropOp52
 70
     0
102
RTVSPost2010Prop53
 90
        2
102
RTVSPost2010PropOp53
 70
     1
102
RTVSPost2010Prop54
  1
strokes_ogs.tif
102
RTVSPost2010PropOp54
 70
     1
102
RTVSPost2010Prop55
280
     0
102
RTVSPost2010PropOp55
 70
     1
102
RTVSPost2010Prop56
140
1.0
102
RTVSPost2010PropOp56
 70
     1
102
RTVSPost2010Prop57
140
1.0
102
RTVSPost2010PropOp57
 70
     1
102
RTVSPropertyOp0
 70
     1
102
RTVSPropertyOp1
 70
     1
102
RTVSPropertyOp2
 70
     1
102
RTVSPropertyOp3
 70
     1
102
RTVSPropertyOp4
 70
     1
102
RTVSPropertyOp5
 70
     1
102
RTVSPropertyOp6
 70
     1
102
RTVSPropertyOp7
 70
     1
102
RTVSPropertyOp8
 70
     1
102
RTVSPropertyOp9
 70
     1
102
RTVSPropertyOp10
 70
     1
102
RTVSPropertyOp11
 70
     1
102
RTVSPropertyOp12
 70
     1
102
RTVSPropertyOp13
 70
     1
102
RTVSPropertyOp14
 70
     1
102
RTVSPropertyOp15
 70
     1
102
RTVSPropertyOp16
 70
     1
102
RTVSPropertyOp17
 70
     1
102
RTVSPropertyOp18
 70
     1
102
RTVSPropertyOp19
 70
     1
102
RTVSPropertyOp20
 70
     1
102
RTVSPropertyOp21
 70
     1
102
RTVSPropertyOp22
 70
     1
102
RTVSPropertyOp23
 70
     1
102
RTVSPropertyOp24
 70
     1
102
RTVSPropertyOp25
 70
     1
102
RTVSPropertyOp26
 70
     1
102
RTVSPropertyOp27
 70
     1
102
RTVSPropertyOp28
 70
     1
102
RTVSPropertyOp29
 70
     1
102
RTVSPropertyOp30
 70
     1
102
RTVSPropertyOp31
 70
     1
102
RTVSPropertyOp32
 70
     1
102
RTVSPropertyOp33
 70
     1
102
RTVSPropertyOp34
 70
     1
102
RTVSPropertyOp35
 70
     1
102
RTVSPropertyOp36
 70
     1
102
RTVSPropertyOp37
 70
     1
102
RTVSPropertyOp38
 70
     1
102
RTVSPropertyOp39
 70
     1
102
RTVSPropertyOp40
 70
     1
102
RTVSPropertyOp41
 70
     1
102
RTVSPropertyOp42
 70
     1
102
RTVSPropertyOp43
 70
     1
102
RTVSPropertyOp44
 70
     1
102
RTVSPropertyOp45
 70
     1
102
RTVSPropertyOp46
 70
     1
102
RTVSPropertyOp47
 70
     1
102
RTVSPropertyOp48
 70
     1
102
RTVSPropertyOp49
 70
     1
102
RTVSPropertyOp50
 70
     1
102
RTVSPropertyOp51
 70
     0
102
RTVSPropertyOp52
 70
     0
102
RTVSPropertyOp53
 70
     1
102
RTVSPropertyOp54
 70
     1
102
RTVSPropertyOp55
 70
     1
102
RTVSPropertyOp56
 70
     1
102
RTVSPropertyOp57
 70
     1
102
RTVSPropertyOp58
 70
     1
102
RTVSPropertyOp59
 70
     1
102
RTVSPropertyOp60
 70
     1
102
RTVSPropertyOp61
 70
     1
102
RTVSPropertyOp62
 70
     1
  0
XRECORD
  5
447
102
{ACAD_REACTORS
330
446
102
}
330
446
100
AcDbXrecord
280
     1
102
RTVSPost2010Prop28
280
     0
102
RTVSPost2010PropOp28
 70
     1
102
RTVSPost2010Prop29
280
     1
102
RTVSPost2010PropOp29
 70
     1
102
RTVSPost2010Prop30
280
     1
102
RTVSPost2010PropOp30
 70
     1
102
RTVSPost2010Prop31
280
     0
102
RTVSPost2010PropOp31
 70
     1
102
RTVSPost2010Prop32
280
     0
102
RTVSPost2010PropOp32
 70
     1
102
RTVSPost2010Prop33
280
     0
102
RTVSPost2010PropOp33
 70
     1
102
RTVSPost2010Prop34
280
     0
102
RTVSPost2010PropOp34
 70
     1
102
RTVSPost2010Prop35
280
     0
102
RTVSPost2010PropOp35
 70
     1
102
RTVSPost2010Prop36
280
     0
102
RTVSPost2010PropOp36
 70
     1
102
RTVSPost2010Prop37
 90
       50
102
RTVSPost2010PropOp37
 70
     1
102
RTVSPost2010Prop38
140
0.0
102
RTVSPost2010PropOp38
 70
     1
102
RTVSPost2010Prop39
140
1.0
102
RTVSPost2010PropOp39
 70
     1
102
RTVSPost2010Prop40
 90
        0
102
RTVSPost2010PropOp40
 70
     1
102
RTVSPost2010Prop41ColorIndex
 90
       18
102
RTVSPost2010Prop41ColorRGB
 90
        0
102
RTVSPost2010PropOp41
 70
     1
102
RTVSPost2010Prop42
 90
       50
102
RTVSPost2010PropOp42
 70
     1
102
RTVSPost2010Prop43
 90
        3
102
RTVSPost2010PropOp43
 70
     1
102
RTVSPost2010Prop44ColorIndex
 90
        5
102
RTVSPost2010Prop44ColorRGB
 90
      255
102
RTVSPost2010PropOp44
 70
     1
102
RTVSPost2010Prop45
280
     0
102
RTVSPost2010PropOp45
 70
     1
102
RTVSPost2010Prop46
 90
       50
102
RTVSPost2010PropOp46
 70
     1
102
RTVSPost2010Prop47
 90
       50
102
RTVSPost2010PropOp47
 70
     1
102
RTVSPost2010Prop48
 90
       50
102
RTVSPost2010PropOp48
 70
     1
102
RTVSPost2010Prop49
280
     0
102
RTVSPost2010PropOp49
 70
     1
102
RTVSPost2010Prop50
 90
       50
102
RTVSPost2010PropOp50
 70
     1
102
RTVSPost2010Prop51ColorIndex
 90
      256
102
RTVSPost2010Prop51ColorRGB
 90
-16777216
102
RTVSPost2010PropOp51
 70
     0
102
RTVSPost2010Prop52
140
1.0
102
RTVSPost2010PropOp52
 70
     0
102
RTVSPost2010Prop53
 90
        2
102
RTVSPost2010PropOp53
 70
     1
102
RTVSPost2010Prop54
  1
strokes_ogs.tif
102
RTVSPost2010PropOp54
 70
     1
102
RTVSPost2010Prop55
280
     0
102
RTVSPost2010PropOp55
 70
     1
102
RTVSPost2010Prop56
140
1.0
102
RTVSPost2010PropOp56
 70
     1
102
RTVSPost2010Prop57
140
1.0
102
RTVSPost2010PropOp57
 70
     1
102
RTVSPropertyOp0
 70
     1
102
RTVSPropertyOp1
 70
     1
102
RTVSPropertyOp2
 70
     1
102
RTVSPropertyOp3
 70
     1
102
RTVSPropertyOp4
 70
     1
102
RTVSPropertyOp5
 70
     1
102
RTVSPropertyOp6
 70
     1
102
RTVSPropertyOp7
 70
     1
102
RTVSPropertyOp8
 70
     1
102
RTVSPropertyOp9
 70
     1
102
RTVSPropertyOp10
 70
     1
102
RTVSPropertyOp11
 70
     1
102
RTVSPropertyOp12
 70
     1
102
RTVSPropertyOp13
 70
     1
102
RTVSPropertyOp14
 70
     1
102
RTVSPropertyOp15
 70
     1
102
RTVSPropertyOp16
 70
     1
102
RTVSPropertyOp17
 70
     1
102
RTVSPropertyOp18
 70
     1
102
RTVSPropertyOp19
 70
     1
102
RTVSPropertyOp20
 70
     1
102
RTVSPropertyOp21
 70
     1
102
RTVSPropertyOp22
 70
     1
102
RTVSPropertyOp23
 70
     1
102
RTVSPropertyOp24
 70
     1
102
RTVSPropertyOp25
 70
     1
102
RTVSPropertyOp26
 70
     1
102
RTVSPropertyOp27
 70
     1
102
RTVSPropertyOp28
 70
     1
102
RTVSPropertyOp29
 70
     1
102
RTVSPropertyOp30
 70
     1
102
RTVSPropertyOp31
 70
     1
102
RTVSPropertyOp32
 70
     1
102
RTVSPropertyOp33
 70
     1
102
RTVSPropertyOp34
 70
     1
102
RTVSPropertyOp35
 70
     1
102
RTVSPropertyOp36
 70
     1
102
RTVSPropertyOp37
 70
     1
102
RTVSPropertyOp38
 70
     1
102
RTVSPropertyOp39
 70
     1
102
RTVSPropertyOp40
 70
     1
102
RTVSPropertyOp41
 70
     1
102
RTVSPropertyOp42
 70
     1
102
RTVSPropertyOp43
 70
     1
102
RTVSPropertyOp44
 70
     1
102
RTVSPropertyOp45
 70
     1
102
RTVSPropertyOp46
 70
     1
102
RTVSPropertyOp47
 70
     1
102
RTVSPropertyOp48
 70
     1
102
RTVSPropertyOp49
 70
     1
102
RTVSPropertyOp50
 70
     1
102
RTVSPropertyOp51
 70
     0
102
RTVSPropertyOp52
 70
     0
102
RTVSPropertyOp53
 70
     1
102
RTVSPropertyOp54
 70
     1
102
RTVSPropertyOp55
 70
     1
102
RTVSPropertyOp56
 70
     1
102
RTVSPropertyOp57
 70
     1
102
RTVSPropertyOp58
 70
     1
102
RTVSPropertyOp59
 70
     1
102
RTVSPropertyOp60
 70
     1
102
RTVSPropertyOp61
 70
     1
102
RTVSPropertyOp62
 70
     1
  0
XRECORD
  5
449
102
{ACAD_REACTORS
330
448
102
}
330
448
100
AcDbXrecord
280
     1
102
RTVSPost2010Prop28
280
     0
102
RTVSPost2010PropOp28
 70
     1
102
RTVSPost2010Prop29
280
     1
102
RTVSPost2010PropOp29
 70
     1
102
RTVSPost2010Prop30
280
     1
102
RTVSPost2010PropOp30
 70
     1
102
RTVSPost2010Prop31
280
     0
102
RTVSPost2010PropOp31
 70
     1
102
RTVSPost2010Prop32
280
     0
102
RTVSPost2010PropOp32
 70
     1
102
RTVSPost2010Prop33
280
     0
102
RTVSPost2010PropOp33
 70
     1
102
RTVSPost2010Prop34
280
     0
102
RTVSPost2010PropOp34
 70
     1
102
RTVSPost2010Prop35
280
     0
102
RTVSPost2010PropOp35
 70
     1
102
RTVSPost2010Prop36
280
     0
102
RTVSPost2010PropOp36
 70
     1
102
RTVSPost2010Prop37
 90
       50
102
RTVSPost2010PropOp37
 70
     1
102
RTVSPost2010Prop38
140
0.0
102
RTVSPost2010PropOp38
 70
     1
102
RTVSPost2010Prop39
140
1.0
102
RTVSPost2010PropOp39
 70
     1
102
RTVSPost2010Prop40
 90
        0
102
RTVSPost2010PropOp40
 70
     1
102
RTVSPost2010Prop41ColorIndex
 90
       18
102
RTVSPost2010Prop41ColorRGB
 90
        0
102
RTVSPost2010PropOp41
 70
     1
102
RTVSPost2010Prop42
 90
       50
102
RTVSPost2010PropOp42
 70
     1
102
RTVSPost2010Prop43
 90
        3
102
RTVSPost2010PropOp43
 70
     1
102
RTVSPost2010Prop44ColorIndex
 90
        5
102
RTVSPost2010Prop44ColorRGB
 90
      255
102
RTVSPost2010PropOp44
 70
     1
102
RTVSPost2010Prop45
280
     0
102
RTVSPost2010PropOp45
 70
     1
102
RTVSPost2010Prop46
 90
       50
102
RTVSPost2010PropOp46
 70
     1
102
RTVSPost2010Prop47
 90
       50
102
RTVSPost2010PropOp47
 70
     1
102
RTVSPost2010Prop48
 90
       50
102
RTVSPost2010PropOp48
 70
     1
102
RTVSPost2010Prop49
280
     0
102
RTVSPost2010PropOp49
 70
     1
102
RTVSPost2010Prop50
 90
       50
102
RTVSPost2010PropOp50
 70
     1
102
RTVSPost2010Prop51ColorIndex
 90
      256
102
RTVSPost2010Prop51ColorRGB
 90
-16777216
102
RTVSPost2010PropOp51
 70
     0
102
RTVSPost2010Prop52
140
1.0
102
RTVSPost2010PropOp52
 70
     0
102
RTVSPost2010Prop53
 90
        2
102
RTVSPost2010PropOp53
 70
     1
102
RTVSPost2010Prop54
  1
strokes_ogs.tif
102
RTVSPost2010PropOp54
 70
     1
102
RTVSPost2010Prop55
280
     0
102
RTVSPost2010PropOp55
 70
     1
102
RTVSPost2010Prop56
140
1.0
102
RTVSPost2010PropOp56
 70
     1
102
RTVSPost2010Prop57
140
1.0
102
RTVSPost2010PropOp57
 70
     1
102
RTVSPropertyOp0
 70
     1
102
RTVSPropertyOp1
 70
     1
102
RTVSPropertyOp2
 70
     1
102
RTVSPropertyOp3
 70
     1
102
RTVSPropertyOp4
 70
     1
102
RTVSPropertyOp5
 70
     1
102
RTVSPropertyOp6
 70
     1
102
RTVSPropertyOp7
 70
     1
102
RTVSPropertyOp8
 70
     1
102
RTVSPropertyOp9
 70
     1
102
RTVSPropertyOp10
 70
     1
102
RTVSPropertyOp11
 70
     1
102
RTVSPropertyOp12
 70
     1
102
RTVSPropertyOp13
 70
     1
102
RTVSPropertyOp14
 70
     1
102
RTVSPropertyOp15
 70
     1
102
RTVSPropertyOp16
 70
     1
102
RTVSPropertyOp17
 70
     1
102
RTVSPropertyOp18
 70
     1
102
RTVSPropertyOp19
 70
     1
102
RTVSPropertyOp20
 70
     1
102
RTVSPropertyOp21
 70
     1
102
RTVSPropertyOp22
 70
     1
102
RTVSPropertyOp23
 70
     1
102
RTVSPropertyOp24
 70
     1
102
RTVSPropertyOp25
 70
     1
102
RTVSPropertyOp26
 70
     1
102
RTVSPropertyOp27
 70
     1
102
RTVSPropertyOp28
 70
     1
102
RTVSPropertyOp29
 70
     1
102
RTVSPropertyOp30
 70
     1
102
RTVSPropertyOp31
 70
     1
102
RTVSPropertyOp32
 70
     1
102
RTVSPropertyOp33
 70
     1
102
RTVSPropertyOp34
 70
     1
102
RTVSPropertyOp35
 70
     1
102
RTVSPropertyOp36
 70
     1
102
RTVSPropertyOp37
 70
     1
102
RTVSPropertyOp38
 70
     1
102
RTVSPropertyOp39
 70
     1
102
RTVSPropertyOp40
 70
     1
102
RTVSPropertyOp41
 70
     1
102
RTVSPropertyOp42
 70
     1
102
RTVSPropertyOp43
 70
     1
102
RTVSPropertyOp44
 70
     1
102
RTVSPropertyOp45
 70
     1
102
RTVSPropertyOp46
 70
     1
102
RTVSPropertyOp47
 70
     1
102
RTVSPropertyOp48
 70
     1
102
RTVSPropertyOp49
 70
     1
102
RTVSPropertyOp50
 70
     1
102
RTVSPropertyOp51
 70
     0
102
RTVSPropertyOp52
 70
     0
102
RTVSPropertyOp53
 70
     1
102
RTVSPropertyOp54
 70
     1
102
RTVSPropertyOp55
 70
     1
102
RTVSPropertyOp56
 70
     1
102
RTVSPropertyOp57
 70
     1
102
RTVSPropertyOp58
 70
     1
102
RTVSPropertyOp59
 70
     1
102
RTVSPropertyOp60
 70
     1
102
RTVSPropertyOp61
 70
     1
102
RTVSPropertyOp62
 70
     1
  0
XRECORD
  5
44B
102
{ACAD_REACTORS
330
44A
102
}
330
44A
100
AcDbXrecord
280
     1
102
RTVSPost2010Prop28
280
     0
102
RTVSPost2010PropOp28
 70
     1
102
RTVSPost2010Prop29
280
     1
102
RTVSPost2010PropOp29
 70
     1
102
RTVSPost2010Prop30
280
     1
102
RTVSPost2010PropOp30
 70
     1
102
RTVSPost2010Prop31
280
     0
102
RTVSPost2010PropOp31
 70
     1
102
RTVSPost2010Prop32
280
     0
102
RTVSPost2010PropOp32
 70
     1
102
RTVSPost2010Prop33
280
     0
102
RTVSPost2010PropOp33
 70
     1
102
RTVSPost2010Prop34
280
     0
102
RTVSPost2010PropOp34
 70
     1
102
RTVSPost2010Prop35
280
     0
102
RTVSPost2010PropOp35
 70
     1
102
RTVSPost2010Prop36
280
     0
102
RTVSPost2010PropOp36
 70
     1
102
RTVSPost2010Prop37
 90
       50
102
RTVSPost2010PropOp37
 70
     1
102
RTVSPost2010Prop38
140
0.0
102
RTVSPost2010PropOp38
 70
     1
102
RTVSPost2010Prop39
140
1.0
102
RTVSPost2010PropOp39
 70
     1
102
RTVSPost2010Prop40
 90
        0
102
RTVSPost2010PropOp40
 70
     1
102
RTVSPost2010Prop41ColorIndex
 90
       18
102
RTVSPost2010Prop41ColorRGB
 90
        0
102
RTVSPost2010PropOp41
 70
     1
102
RTVSPost2010Prop42
 90
       50
102
RTVSPost2010PropOp42
 70
     1
102
RTVSPost2010Prop43
 90
        3
102
RTVSPost2010PropOp43
 70
     1
102
RTVSPost2010Prop44ColorIndex
 90
        5
102
RTVSPost2010Prop44ColorRGB
 90
      255
102
RTVSPost2010PropOp44
 70
     1
102
RTVSPost2010Prop45
280
     0
102
RTVSPost2010PropOp45
 70
     1
102
RTVSPost2010Prop46
 90
       50
102
RTVSPost2010PropOp46
 70
     1
102
RTVSPost2010Prop47
 90
       50
102
RTVSPost2010PropOp47
 70
     1
102
RTVSPost2010Prop48
 90
       50
102
RTVSPost2010PropOp48
 70
     1
102
RTVSPost2010Prop49
280
     0
102
RTVSPost2010PropOp49
 70
     1
102
RTVSPost2010Prop50
 90
       50
102
RTVSPost2010PropOp50
 70
     1
102
RTVSPost2010Prop51ColorIndex
 90
      256
102
RTVSPost2010Prop51ColorRGB
 90
-16777216
102
RTVSPost2010PropOp51
 70
     0
102
RTVSPost2010Prop52
140
1.0
102
RTVSPost2010PropOp52
 70
     0
102
RTVSPost2010Prop53
 90
        2
102
RTVSPost2010PropOp53
 70
     1
102
RTVSPost2010Prop54
  1
strokes_ogs.tif
102
RTVSPost2010PropOp54
 70
     1
102
RTVSPost2010Prop55
280
     0
102
RTVSPost2010PropOp55
 70
     1
102
RTVSPost2010Prop56
140
1.0
102
RTVSPost2010PropOp56
 70
     1
102
RTVSPost2010Prop57
140
1.0
102
RTVSPost2010PropOp57
 70
     1
102
RTVSPropertyOp0
 70
     1
102
RTVSPropertyOp1
 70
     1
102
RTVSPropertyOp2
 70
     1
102
RTVSPropertyOp3
 70
     1
102
RTVSPropertyOp4
 70
     1
102
RTVSPropertyOp5
 70
     1
102
RTVSPropertyOp6
 70
     1
102
RTVSPropertyOp7
 70
     1
102
RTVSPropertyOp8
 70
     1
102
RTVSPropertyOp9
 70
     1
102
RTVSPropertyOp10
 70
     1
102
RTVSPropertyOp11
 70
     1
102
RTVSPropertyOp12
 70
     1
102
RTVSPropertyOp13
 70
     1
102
RTVSPropertyOp14
 70
     1
102
RTVSPropertyOp15
 70
     1
102
RTVSPropertyOp16
 70
     1
102
RTVSPropertyOp17
 70
     1
102
RTVSPropertyOp18
 70
     1
102
RTVSPropertyOp19
 70
     1
102
RTVSPropertyOp20
 70
     1
102
RTVSPropertyOp21
 70
     1
102
RTVSPropertyOp22
 70
     1
102
RTVSPropertyOp23
 70
     1
102
RTVSPropertyOp24
 70
     1
102
RTVSPropertyOp25
 70
     1
102
RTVSPropertyOp26
 70
     1
102
RTVSPropertyOp27
 70
     1
102
RTVSPropertyOp28
 70
     1
102
RTVSPropertyOp29
 70
     1
102
RTVSPropertyOp30
 70
     1
102
RTVSPropertyOp31
 70
     1
102
RTVSPropertyOp32
 70
     1
102
RTVSPropertyOp33
 70
     1
102
RTVSPropertyOp34
 70
     1
102
RTVSPropertyOp35
 70
     1
102
RTVSPropertyOp36
 70
     1
102
RTVSPropertyOp37
 70
     1
102
RTVSPropertyOp38
 70
     1
102
RTVSPropertyOp39
 70
     1
102
RTVSPropertyOp40
 70
     1
102
RTVSPropertyOp41
 70
     1
102
RTVSPropertyOp42
 70
     1
102
RTVSPropertyOp43
 70
     1
102
RTVSPropertyOp44
 70
     1
102
RTVSPropertyOp45
 70
     1
102
RTVSPropertyOp46
 70
     1
102
RTVSPropertyOp47
 70
     1
102
RTVSPropertyOp48
 70
     1
102
RTVSPropertyOp49
 70
     1
102
RTVSPropertyOp50
 70
     1
102
RTVSPropertyOp51
 70
     0
102
RTVSPropertyOp52
 70
     0
102
RTVSPropertyOp53
 70
     1
102
RTVSPropertyOp54
 70
     1
102
RTVSPropertyOp55
 70
     1
102
RTVSPropertyOp56
 70
     1
102
RTVSPropertyOp57
 70
     1
102
RTVSPropertyOp58
 70
     1
102
RTVSPropertyOp59
 70
     1
102
RTVSPropertyOp60
 70
     1
102
RTVSPropertyOp61
 70
     1
102
RTVSPropertyOp62
 70
     1
  0
XRECORD
  5
44D
102
{ACAD_REACTORS
330
44C
102
}
330
44C
100
AcDbXrecord
280
     1
102
RTVSPost2010Prop28
280
     0
102
RTVSPost2010PropOp28
 70
     1
102
RTVSPost2010Prop29
280
     1
102
RTVSPost2010PropOp29
 70
     1
102
RTVSPost2010Prop30
280
     1
102
RTVSPost2010PropOp30
 70
     1
102
RTVSPost2010Prop31
280
     0
102
RTVSPost2010PropOp31
 70
     1
102
RTVSPost2010Prop32
280
     0
102
RTVSPost2010PropOp32
 70
     1
102
RTVSPost2010Prop33
280
     0
102
RTVSPost2010PropOp33
 70
     1
102
RTVSPost2010Prop34
280
     0
102
RTVSPost2010PropOp34
 70
     1
102
RTVSPost2010Prop35
280
     0
102
RTVSPost2010PropOp35
 70
     1
102
RTVSPost2010Prop36
280
     0
102
RTVSPost2010PropOp36
 70
     1
102
RTVSPost2010Prop37
 90
       50
102
RTVSPost2010PropOp37
 70
     1
102
RTVSPost2010Prop38
140
0.0
102
RTVSPost2010PropOp38
 70
     1
102
RTVSPost2010Prop39
140
1.0
102
RTVSPost2010PropOp39
 70
     1
102
RTVSPost2010Prop40
 90
        0
102
RTVSPost2010PropOp40
 70
     1
102
RTVSPost2010Prop41ColorIndex
 90
       18
102
RTVSPost2010Prop41ColorRGB
 90
        0
102
RTVSPost2010PropOp41
 70
     1
102
RTVSPost2010Prop42
 90
       50
102
RTVSPost2010PropOp42
 70
     1
102
RTVSPost2010Prop43
 90
        3
102
RTVSPost2010PropOp43
 70
     1
102
RTVSPost2010Prop44ColorIndex
 90
        5
102
RTVSPost2010Prop44ColorRGB
 90
      255
102
RTVSPost2010PropOp44
 70
     1
102
RTVSPost2010Prop45
280
     0
102
RTVSPost2010PropOp45
 70
     1
102
RTVSPost2010Prop46
 90
       50
102
RTVSPost2010PropOp46
 70
     1
102
RTVSPost2010Prop47
 90
       50
102
RTVSPost2010PropOp47
 70
     1
102
RTVSPost2010Prop48
 90
       50
102
RTVSPost2010PropOp48
 70
     1
102
RTVSPost2010Prop49
280
     0
102
RTVSPost2010PropOp49
 70
     1
102
RTVSPost2010Prop50
 90
       50
102
RTVSPost2010PropOp50
 70
     1
102
RTVSPost2010Prop51ColorIndex
 90
      256
102
RTVSPost2010Prop51ColorRGB
 90
-16777216
102
RTVSPost2010PropOp51
 70
     0
102
RTVSPost2010Prop52
140
1.0
102
RTVSPost2010PropOp52
 70
     0
102
RTVSPost2010Prop53
 90
        2
102
RTVSPost2010PropOp53
 70
     1
102
RTVSPost2010Prop54
  1
strokes_ogs.tif
102
RTVSPost2010PropOp54
 70
     1
102
RTVSPost2010Prop55
280
     0
102
RTVSPost2010PropOp55
 70
     1
102
RTVSPost2010Prop56
140
1.0
102
RTVSPost2010PropOp56
 70
     1
102
RTVSPost2010Prop57
140
1.0
102
RTVSPost2010PropOp57
 70
     1
102
RTVSPropertyOp0
 70
     1
102
RTVSPropertyOp1
 70
     1
102
RTVSPropertyOp2
 70
     1
102
RTVSPropertyOp3
 70
     1
102
RTVSPropertyOp4
 70
     1
102
RTVSPropertyOp5
 70
     1
102
RTVSPropertyOp6
 70
     1
102
RTVSPropertyOp7
 70
     1
102
RTVSPropertyOp8
 70
     1
102
RTVSPropertyOp9
 70
     1
102
RTVSPropertyOp10
 70
     1
102
RTVSPropertyOp11
 70
     1
102
RTVSPropertyOp12
 70
     1
102
RTVSPropertyOp13
 70
     1
102
RTVSPropertyOp14
 70
     1
102
RTVSPropertyOp15
 70
     1
102
RTVSPropertyOp16
 70
     1
102
RTVSPropertyOp17
 70
     1
102
RTVSPropertyOp18
 70
     1
102
RTVSPropertyOp19
 70
     1
102
RTVSPropertyOp20
 70
     1
102
RTVSPropertyOp21
 70
     1
102
RTVSPropertyOp22
 70
     1
102
RTVSPropertyOp23
 70
     1
102
RTVSPropertyOp24
 70
     1
102
RTVSPropertyOp25
 70
     1
102
RTVSPropertyOp26
 70
     1
102
RTVSPropertyOp27
 70
     1
102
RTVSPropertyOp28
 70
     1
102
RTVSPropertyOp29
 70
     1
102
RTVSPropertyOp30
 70
     1
102
RTVSPropertyOp31
 70
     1
102
RTVSPropertyOp32
 70
     1
102
RTVSPropertyOp33
 70
     1
102
RTVSPropertyOp34
 70
     1
102
RTVSPropertyOp35
 70
     1
102
RTVSPropertyOp36
 70
     1
102
RTVSPropertyOp37
 70
     1
102
RTVSPropertyOp38
 70
     1
102
RTVSPropertyOp39
 70
     1
102
RTVSPropertyOp40
 70
     1
102
RTVSPropertyOp41
 70
     1
102
RTVSPropertyOp42
 70
     1
102
RTVSPropertyOp43
 70
     1
102
RTVSPropertyOp44
 70
     1
102
RTVSPropertyOp45
 70
     1
102
RTVSPropertyOp46
 70
     1
102
RTVSPropertyOp47
 70
     1
102
RTVSPropertyOp48
 70
     1
102
RTVSPropertyOp49
 70
     1
102
RTVSPropertyOp50
 70
     1
102
RTVSPropertyOp51
 70
     0
102
RTVSPropertyOp52
 70
     0
102
RTVSPropertyOp53
 70
     1
102
RTVSPropertyOp54
 70
     1
102
RTVSPropertyOp55
 70
     1
102
RTVSPropertyOp56
 70
     1
102
RTVSPropertyOp57
 70
     1
102
RTVSPropertyOp58
 70
     1
102
RTVSPropertyOp59
 70
     1
102
RTVSPropertyOp60
 70
     1
102
RTVSPropertyOp61
 70
     1
102
RTVSPropertyOp62
 70
     1
  0
XRECORD
  5
455
102
{ACAD_REACTORS
330
454
102
}
330
454
100
AcDbXrecord
280
     1
102
RTVSPost2010Prop28
280
     0
102
RTVSPost2010PropOp28
 70
     1
102
RTVSPost2010Prop29
280
     1
102
RTVSPost2010PropOp29
 70
     1
102
RTVSPost2010Prop30
280
     1
102
RTVSPost2010PropOp30
 70
     1
102
RTVSPost2010Prop31
280
     0
102
RTVSPost2010PropOp31
 70
     1
102
RTVSPost2010Prop32
280
     0
102
RTVSPost2010PropOp32
 70
     1
102
RTVSPost2010Prop33
280
     0
102
RTVSPost2010PropOp33
 70
     1
102
RTVSPost2010Prop34
280
     0
102
RTVSPost2010PropOp34
 70
     1
102
RTVSPost2010Prop35
280
     0
102
RTVSPost2010PropOp35
 70
     1
102
RTVSPost2010Prop36
280
     0
102
RTVSPost2010PropOp36
 70
     1
102
RTVSPost2010Prop37
 90
       50
102
RTVSPost2010PropOp37
 70
     1
102
RTVSPost2010Prop38
140
0.0
102
RTVSPost2010PropOp38
 70
     1
102
RTVSPost2010Prop39
140
1.0
102
RTVSPost2010PropOp39
 70
     1
102
RTVSPost2010Prop40
 90
        0
102
RTVSPost2010PropOp40
 70
     1
102
RTVSPost2010Prop41ColorIndex
 90
       18
102
RTVSPost2010Prop41ColorRGB
 90
        0
102
RTVSPost2010PropOp41
 70
     1
102
RTVSPost2010Prop42
 90
       50
102
RTVSPost2010PropOp42
 70
     1
102
RTVSPost2010Prop43
 90
        3
102
RTVSPost2010PropOp43
 70
     1
102
RTVSPost2010Prop44ColorIndex
 90
        5
102
RTVSPost2010Prop44ColorRGB
 90
      255
102
RTVSPost2010PropOp44
 70
     1
102
RTVSPost2010Prop45
280
     0
102
RTVSPost2010PropOp45
 70
     1
102
RTVSPost2010Prop46
 90
       50
102
RTVSPost2010PropOp46
 70
     1
102
RTVSPost2010Prop47
 90
       50
102
RTVSPost2010PropOp47
 70
     1
102
RTVSPost2010Prop48
 90
       50
102
RTVSPost2010PropOp48
 70
     1
102
RTVSPost2010Prop49
280
     0
102
RTVSPost2010PropOp49
 70
     1
102
RTVSPost2010Prop50
 90
       50
102
RTVSPost2010PropOp50
 70
     1
102
RTVSPost2010Prop51ColorIndex
 90
      256
102
RTVSPost2010Prop51ColorRGB
 90
-16777216
102
RTVSPost2010PropOp51
 70
     0
102
RTVSPost2010Prop52
140
1.0
102
RTVSPost2010PropOp52
 70
     0
102
RTVSPost2010Prop53
 90
        2
102
RTVSPost2010PropOp53
 70
     1
102
RTVSPost2010Prop54
  1
strokes_ogs.tif
102
RTVSPost2010PropOp54
 70
     1
102
RTVSPost2010Prop55
280
     0
102
RTVSPost2010PropOp55
 70
     1
102
RTVSPost2010Prop56
140
1.0
102
RTVSPost2010PropOp56
 70
     1
102
RTVSPost2010Prop57
140
1.0
102
RTVSPost2010PropOp57
 70
     1
102
RTVSPropertyOp0
 70
     1
102
RTVSPropertyOp1
 70
     1
102
RTVSPropertyOp2
 70
     1
102
RTVSPropertyOp3
 70
     1
102
RTVSPropertyOp4
 70
     1
102
RTVSPropertyOp5
 70
     1
102
RTVSPropertyOp6
 70
     1
102
RTVSPropertyOp7
 70
     1
102
RTVSPropertyOp8
 70
     1
102
RTVSPropertyOp9
 70
     1
102
RTVSPropertyOp10
 70
     1
102
RTVSPropertyOp11
 70
     1
102
RTVSPropertyOp12
 70
     1
102
RTVSPropertyOp13
 70
     1
102
RTVSPropertyOp14
 70
     1
102
RTVSPropertyOp15
 70
     1
102
RTVSPropertyOp16
 70
     1
102
RTVSPropertyOp17
 70
     1
102
RTVSPropertyOp18
 70
     1
102
RTVSPropertyOp19
 70
     1
102
RTVSPropertyOp20
 70
     1
102
RTVSPropertyOp21
 70
     1
102
RTVSPropertyOp22
 70
     1
102
RTVSPropertyOp23
 70
     1
102
RTVSPropertyOp24
 70
     1
102
RTVSPropertyOp25
 70
     1
102
RTVSPropertyOp26
 70
     1
102
RTVSPropertyOp27
 70
     1
102
RTVSPropertyOp28
 70
     1
102
RTVSPropertyOp29
 70
     1
102
RTVSPropertyOp30
 70
     1
102
RTVSPropertyOp31
 70
     1
102
RTVSPropertyOp32
 70
     1
102
RTVSPropertyOp33
 70
     1
102
RTVSPropertyOp34
 70
     1
102
RTVSPropertyOp35
 70
     1
102
RTVSPropertyOp36
 70
     1
102
RTVSPropertyOp37
 70
     1
102
RTVSPropertyOp38
 70
     1
102
RTVSPropertyOp39
 70
     1
102
RTVSPropertyOp40
 70
     1
102
RTVSPropertyOp41
 70
     1
102
RTVSPropertyOp42
 70
     1
102
RTVSPropertyOp43
 70
     1
102
RTVSPropertyOp44
 70
     1
102
RTVSPropertyOp45
 70
     1
102
RTVSPropertyOp46
 70
     1
102
RTVSPropertyOp47
 70
     1
102
RTVSPropertyOp48
 70
     1
102
RTVSPropertyOp49
 70
     1
102
RTVSPropertyOp50
 70
     1
102
RTVSPropertyOp51
 70
     0
102
RTVSPropertyOp52
 70
     0
102
RTVSPropertyOp53
 70
     1
102
RTVSPropertyOp54
 70
     1
102
RTVSPropertyOp55
 70
     1
102
RTVSPropertyOp56
 70
     1
102
RTVSPropertyOp57
 70
     1
102
RTVSPropertyOp58
 70
     1
102
RTVSPropertyOp59
 70
     1
102
RTVSPropertyOp60
 70
     1
102
RTVSPropertyOp61
 70
     1
102
RTVSPropertyOp62
 70
     1
  0
XRECORD
  5
471
102
{ACAD_REACTORS
330
470
102
}
330
470
100
AcDbXrecord
280
     1
102
RTVSPost2010Prop28
280
     0
102
RTVSPost2010PropOp28
 70
     1
102
RTVSPost2010Prop29
280
     1
102
RTVSPost2010PropOp29
 70
     1
102
RTVSPost2010Prop30
280
     1
102
RTVSPost2010PropOp30
 70
     1
102
RTVSPost2010Prop31
280
     0
102
RTVSPost2010PropOp31
 70
     1
102
RTVSPost2010Prop32
280
     0
102
RTVSPost2010PropOp32
 70
     1
102
RTVSPost2010Prop33
280
     0
102
RTVSPost2010PropOp33
 70
     1
102
RTVSPost2010Prop34
280
     0
102
RTVSPost2010PropOp34
 70
     1
102
RTVSPost2010Prop35
280
     0
102
RTVSPost2010PropOp35
 70
     1
102
RTVSPost2010Prop36
280
     0
102
RTVSPost2010PropOp36
 70
     1
102
RTVSPost2010Prop37
 90
       50
102
RTVSPost2010PropOp37
 70
     0
102
RTVSPost2010Prop38
140
0.0
102
RTVSPost2010PropOp38
 70
     0
102
RTVSPost2010Prop39
140
1.0
102
RTVSPost2010PropOp39
 70
     0
102
RTVSPost2010Prop40
 90
        0
102
RTVSPost2010PropOp40
 70
     0
102
RTVSPost2010Prop41ColorIndex
 90
       18
102
RTVSPost2010Prop41ColorRGB
 90
        0
102
RTVSPost2010PropOp41
 70
     0
102
RTVSPost2010Prop42
 90
       50
102
RTVSPost2010PropOp42
 70
     0
102
RTVSPost2010Prop43
 90
        3
102
RTVSPost2010PropOp43
 70
     0
102
RTVSPost2010Prop44ColorIndex
 90
        5
102
RTVSPost2010Prop44ColorRGB
 90
      255
102
RTVSPost2010PropOp44
 70
     0
102
RTVSPost2010Prop45
280
     0
102
RTVSPost2010PropOp45
 70
     1
102
RTVSPost2010Prop46
 90
       50
102
RTVSPost2010PropOp46
 70
     0
102
RTVSPost2010Prop47
 90
       50
102
RTVSPost2010PropOp47
 70
     0
102
RTVSPost2010Prop48
 90
       50
102
RTVSPost2010PropOp48
 70
     0
102
RTVSPost2010Prop49
280
     0
102
RTVSPost2010PropOp49
 70
     1
102
RTVSPost2010Prop50
 90
       50
102
RTVSPost2010PropOp50
 70
     0
102
RTVSPost2010Prop51ColorIndex
 90
      256
102
RTVSPost2010Prop51ColorRGB
 90
-16777216
102
RTVSPost2010PropOp51
 70
     0
102
RTVSPost2010Prop52
140
1.0
102
RTVSPost2010PropOp52
 70
     0
102
RTVSPost2010Prop53
 90
        2
102
RTVSPost2010PropOp53
 70
     0
102
RTVSPost2010Prop54
  1
strokes_ogs.tif
102
RTVSPost2010PropOp54
 70
     0
102
RTVSPost2010Prop55
280
     0
102
RTVSPost2010PropOp55
 70
     1
102
RTVSPost2010Prop56
140
1.0
102
RTVSPost2010PropOp56
 70
     0
102
RTVSPost2010Prop57
140
1.0
102
RTVSPost2010PropOp57
 70
     0
102
RTVSPropertyOp0
 70
     0
102
RTVSPropertyOp1
 70
     0
102
RTVSPropertyOp2
 70
     0
102
RTVSPropertyOp3
 70
     0
102
RTVSPropertyOp4
 70
     0
102
RTVSPropertyOp5
 70
     0
102
RTVSPropertyOp6
 70
     0
102
RTVSPropertyOp7
 70
     0
102
RTVSPropertyOp8
 70
     0
102
RTVSPropertyOp9
 70
     0
102
RTVSPropertyOp10
 70
     0
102
RTVSPropertyOp11
 70
     0
102
RTVSPropertyOp12
 70
     0
102
RTVSPropertyOp13
 70
     0
102
RTVSPropertyOp14
 70
     2
102
RTVSPropertyOp15
 70
     0
102
RTVSPropertyOp16
 70
     0
102
RTVSPropertyOp17
 70
     0
102
RTVSPropertyOp18
 70
     0
102
RTVSPropertyOp19
 70
     0
102
RTVSPropertyOp20
 70
     0
102
RTVSPropertyOp21
 70
     0
102
RTVSPropertyOp22
 70
     0
102
RTVSPropertyOp23
 70
     0
102
RTVSPropertyOp24
 70
     0
102
RTVSPropertyOp25
 70
     0
102
RTVSPropertyOp26
 70
     0
102
RTVSPropertyOp27
 70
     0
102
RTVSPropertyOp28
 70
     1
102
RTVSPropertyOp29
 70
     1
102
RTVSPropertyOp30
 70
     1
102
RTVSPropertyOp31
 70
     1
102
RTVSPropertyOp32
 70
     1
102
RTVSPropertyOp33
 70
     1
102
RTVSPropertyOp34
 70
     1
102
RTVSPropertyOp35
 70
     1
102
RTVSPropertyOp36
 70
     1
102
RTVSPropertyOp37
 70
     0
102
RTVSPropertyOp38
 70
     0
102
RTVSPropertyOp39
 70
     0
102
RTVSPropertyOp40
 70
     0
102
RTVSPropertyOp41
 70
     0
102
RTVSPropertyOp42
 70
     0
102
RTVSPropertyOp43
 70
     0
102
RTVSPropertyOp44
 70
     0
102
RTVSPropertyOp45
 70
     1
102
RTVSPropertyOp46
 70
     0
102
RTVSPropertyOp47
 70
     0
102
RTVSPropertyOp48
 70
     0
102
RTVSPropertyOp49
 70
     1
102
RTVSPropertyOp50
 70
     0
102
RTVSPropertyOp51
 70
     0
102
RTVSPropertyOp52
 70
     0
102
RTVSPropertyOp53
 70
     0
102
RTVSPropertyOp54
 70
     0
102
RTVSPropertyOp55
 70
     1
102
RTVSPropertyOp56
 70
     0
102
RTVSPropertyOp57
 70
     0
102
RTVSPropertyOp58
 70
     0
102
RTVSPropertyOp59
 70
     0
102
RTVSPropertyOp60
 70
     0
102
RTVSPropertyOp61
 70
     0
102
RTVSPropertyOp62
 70
     0
  0
XRECORD
  5
461
102
{ACAD_REACTORS
330
460
102
}
330
460
100
AcDbXrecord
280
     1
102
RTVSPost2010Prop28
280
     0
102
RTVSPost2010PropOp28
 70
     1
102
RTVSPost2010Prop29
280
     1
102
RTVSPost2010PropOp29
 70
     1
102
RTVSPost2010Prop30
280
     1
102
RTVSPost2010PropOp30
 70
     1
102
RTVSPost2010Prop31
280
     0
102
RTVSPost2010PropOp31
 70
     1
102
RTVSPost2010Prop32
280
     0
102
RTVSPost2010PropOp32
 70
     1
102
RTVSPost2010Prop33
280
     0
102
RTVSPost2010PropOp33
 70
     1
102
RTVSPost2010Prop34
280
     0
102
RTVSPost2010PropOp34
 70
     1
102
RTVSPost2010Prop35
280
     0
102
RTVSPost2010PropOp35
 70
     1
102
RTVSPost2010Prop36
280
     0
102
RTVSPost2010PropOp36
 70
     1
102
RTVSPost2010Prop37
 90
       50
102
RTVSPost2010PropOp37
 70
     1
102
RTVSPost2010Prop38
140
0.0
102
RTVSPost2010PropOp38
 70
     1
102
RTVSPost2010Prop39
140
1.0
102
RTVSPost2010PropOp39
 70
     1
102
RTVSPost2010Prop40
 90
        0
102
RTVSPost2010PropOp40
 70
     1
102
RTVSPost2010Prop41ColorIndex
 90
       18
102
RTVSPost2010Prop41ColorRGB
 90
        0
102
RTVSPost2010PropOp41
 70
     1
102
RTVSPost2010Prop42
 90
       50
102
RTVSPost2010PropOp42
 70
     1
102
RTVSPost2010Prop43
 90
        3
102
RTVSPost2010PropOp43
 70
     1
102
RTVSPost2010Prop44ColorIndex
 90
        5
102
RTVSPost2010Prop44ColorRGB
 90
      255
102
RTVSPost2010PropOp44
 70
     1
102
RTVSPost2010Prop45
280
     0
102
RTVSPost2010PropOp45
 70
     1
102
RTVSPost2010Prop46
 90
       50
102
RTVSPost2010PropOp46
 70
     1
102
RTVSPost2010Prop47
 90
       50
102
RTVSPost2010PropOp47
 70
     1
102
RTVSPost2010Prop48
 90
       50
102
RTVSPost2010PropOp48
 70
     1
102
RTVSPost2010Prop49
280
     0
102
RTVSPost2010PropOp49
 70
     1
102
RTVSPost2010Prop50
 90
       50
102
RTVSPost2010PropOp50
 70
     1
102
RTVSPost2010Prop51ColorIndex
 90
      256
102
RTVSPost2010Prop51ColorRGB
 90
-16777216
102
RTVSPost2010PropOp51
 70
     0
102
RTVSPost2010Prop52
140
1.0
102
RTVSPost2010PropOp52
 70
     0
102
RTVSPost2010Prop53
 90
        2
102
RTVSPost2010PropOp53
 70
     1
102
RTVSPost2010Prop54
  1
strokes_ogs.tif
102
RTVSPost2010PropOp54
 70
     1
102
RTVSPost2010Prop55
280
     0
102
RTVSPost2010PropOp55
 70
     1
102
RTVSPost2010Prop56
140
1.0
102
RTVSPost2010PropOp56
 70
     1
102
RTVSPost2010Prop57
140
1.0
102
RTVSPost2010PropOp57
 70
     1
102
RTVSPropertyOp0
 70
     1
102
RTVSPropertyOp1
 70
     1
102
RTVSPropertyOp2
 70
     1
102
RTVSPropertyOp3
 70
     1
102
RTVSPropertyOp4
 70
     1
102
RTVSPropertyOp5
 70
     1
102
RTVSPropertyOp6
 70
     1
102
RTVSPropertyOp7
 70
     1
102
RTVSPropertyOp8
 70
     1
102
RTVSPropertyOp9
 70
     1
102
RTVSPropertyOp10
 70
     1
102
RTVSPropertyOp11
 70
     1
102
RTVSPropertyOp12
 70
     1
102
RTVSPropertyOp13
 70
     1
102
RTVSPropertyOp14
 70
     1
102
RTVSPropertyOp15
 70
     1
102
RTVSPropertyOp16
 70
     1
102
RTVSPropertyOp17
 70
     1
102
RTVSPropertyOp18
 70
     1
102
RTVSPropertyOp19
 70
     1
102
RTVSPropertyOp20
 70
     1
102
RTVSPropertyOp21
 70
     1
102
RTVSPropertyOp22
 70
     1
102
RTVSPropertyOp23
 70
     1
102
RTVSPropertyOp24
 70
     1
102
RTVSPropertyOp25
 70
     1
102
RTVSPropertyOp26
 70
     1
102
RTVSPropertyOp27
 70
     1
102
RTVSPropertyOp28
 70
     1
102
RTVSPropertyOp29
 70
     1
102
RTVSPropertyOp30
 70
     1
102
RTVSPropertyOp31
 70
     1
102
RTVSPropertyOp32
 70
     1
102
RTVSPropertyOp33
 70
     1
102
RTVSPropertyOp34
 70
     1
102
RTVSPropertyOp35
 70
     1
102
RTVSPropertyOp36
 70
     1
102
RTVSPropertyOp37
 70
     1
102
RTVSPropertyOp38
 70
     1
102
RTVSPropertyOp39
 70
     1
102
RTVSPropertyOp40
 70
     1
102
RTVSPropertyOp41
 70
     1
102
RTVSPropertyOp42
 70
     1
102
RTVSPropertyOp43
 70
     1
102
RTVSPropertyOp44
 70
     1
102
RTVSPropertyOp45
 70
     1
102
RTVSPropertyOp46
 70
     1
102
RTVSPropertyOp47
 70
     1
102
RTVSPropertyOp48
 70
     1
102
RTVSPropertyOp49
 70
     1
102
RTVSPropertyOp50
 70
     1
102
RTVSPropertyOp51
 70
     0
102
RTVSPropertyOp52
 70
     0
102
RTVSPropertyOp53
 70
     1
102
RTVSPropertyOp54
 70
     1
102
RTVSPropertyOp55
 70
     1
102
RTVSPropertyOp56
 70
     1
102
RTVSPropertyOp57
 70
     1
102
RTVSPropertyOp58
 70
     1
102
RTVSPropertyOp59
 70
     1
102
RTVSPropertyOp60
 70
     1
102
RTVSPropertyOp61
 70
     1
102
RTVSPropertyOp62
 70
     1
  0
XRECORD
  5
473
102
{ACAD_REACTORS
330
472
102
}
330
472
100
AcDbXrecord
280
     1
102
RTVSPost2010Prop28
280
     0
102
RTVSPost2010PropOp28
 70
     1
102
RTVSPost2010Prop29
280
     1
102
RTVSPost2010PropOp29
 70
     1
102
RTVSPost2010Prop30
280
     1
102
RTVSPost2010PropOp30
 70
     1
102
RTVSPost2010Prop31
280
     0
102
RTVSPost2010PropOp31
 70
     1
102
RTVSPost2010Prop32
280
     0
102
RTVSPost2010PropOp32
 70
     1
102
RTVSPost2010Prop33
280
     0
102
RTVSPost2010PropOp33
 70
     1
102
RTVSPost2010Prop34
280
     0
102
RTVSPost2010PropOp34
 70
     1
102
RTVSPost2010Prop35
280
     0
102
RTVSPost2010PropOp35
 70
     1
102
RTVSPost2010Prop36
280
     0
102
RTVSPost2010PropOp36
 70
     1
102
RTVSPost2010Prop37
 90
       50
102
RTVSPost2010PropOp37
 70
     0
102
RTVSPost2010Prop38
140
0.0
102
RTVSPost2010PropOp38
 70
     0
102
RTVSPost2010Prop39
140
1.0
102
RTVSPost2010PropOp39
 70
     0
102
RTVSPost2010Prop40
 90
        0
102
RTVSPost2010PropOp40
 70
     0
102
RTVSPost2010Prop41ColorIndex
 90
       18
102
RTVSPost2010Prop41ColorRGB
 90
        0
102
RTVSPost2010PropOp41
 70
     0
102
RTVSPost2010Prop42
 90
       50
102
RTVSPost2010PropOp42
 70
     0
102
RTVSPost2010Prop43
 90
        3
102
RTVSPost2010PropOp43
 70
     0
102
RTVSPost2010Prop44ColorIndex
 90
        5
102
RTVSPost2010Prop44ColorRGB
 90
      255
102
RTVSPost2010PropOp44
 70
     0
102
RTVSPost2010Prop45
280
     0
102
RTVSPost2010PropOp45
 70
     1
102
RTVSPost2010Prop46
 90
       50
102
RTVSPost2010PropOp46
 70
     0
102
RTVSPost2010Prop47
 90
       50
102
RTVSPost2010PropOp47
 70
     0
102
RTVSPost2010Prop48
 90
       50
102
RTVSPost2010PropOp48
 70
     0
102
RTVSPost2010Prop49
280
     0
102
RTVSPost2010PropOp49
 70
     1
102
RTVSPost2010Prop50
 90
       50
102
RTVSPost2010PropOp50
 70
     0
102
RTVSPost2010Prop51ColorIndex
 90
      256
102
RTVSPost2010Prop51ColorRGB
 90
-16777216
102
RTVSPost2010PropOp51
 70
     0
102
RTVSPost2010Prop52
140
1.0
102
RTVSPost2010PropOp52
 70
     0
102
RTVSPost2010Prop53
 90
        2
102
RTVSPost2010PropOp53
 70
     0
102
RTVSPost2010Prop54
  1
strokes_ogs.tif
102
RTVSPost2010PropOp54
 70
     0
102
RTVSPost2010Prop55
280
     0
102
RTVSPost2010PropOp55
 70
     1
102
RTVSPost2010Prop56
140
1.0
102
RTVSPost2010PropOp56
 70
     0
102
RTVSPost2010Prop57
140
1.0
102
RTVSPost2010PropOp57
 70
     0
102
RTVSPropertyOp0
 70
     0
102
RTVSPropertyOp1
 70
     0
102
RTVSPropertyOp2
 70
     0
102
RTVSPropertyOp3
 70
     0
102
RTVSPropertyOp4
 70
     0
102
RTVSPropertyOp5
 70
     0
102
RTVSPropertyOp6
 70
     0
102
RTVSPropertyOp7
 70
     0
102
RTVSPropertyOp8
 70
     0
102
RTVSPropertyOp9
 70
     0
102
RTVSPropertyOp10
 70
     0
102
RTVSPropertyOp11
 70
     0
102
RTVSPropertyOp12
 70
     0
102
RTVSPropertyOp13
 70
     0
102
RTVSPropertyOp14
 70
     2
102
RTVSPropertyOp15
 70
     0
102
RTVSPropertyOp16
 70
     0
102
RTVSPropertyOp17
 70
     0
102
RTVSPropertyOp18
 70
     0
102
RTVSPropertyOp19
 70
     0
102
RTVSPropertyOp20
 70
     0
102
RTVSPropertyOp21
 70
     0
102
RTVSPropertyOp22
 70
     0
102
RTVSPropertyOp23
 70
     0
102
RTVSPropertyOp24
 70
     0
102
RTVSPropertyOp25
 70
     0
102
RTVSPropertyOp26
 70
     0
102
RTVSPropertyOp27
 70
     0
102
RTVSPropertyOp28
 70
     1
102
RTVSPropertyOp29
 70
     1
102
RTVSPropertyOp30
 70
     1
102
RTVSPropertyOp31
 70
     1
102
RTVSPropertyOp32
 70
     1
102
RTVSPropertyOp33
 70
     1
102
RTVSPropertyOp34
 70
     1
102
RTVSPropertyOp35
 70
     1
102
RTVSPropertyOp36
 70
     1
102
RTVSPropertyOp37
 70
     0
102
RTVSPropertyOp38
 70
     0
102
RTVSPropertyOp39
 70
     0
102
RTVSPropertyOp40
 70
     0
102
RTVSPropertyOp41
 70
     0
102
RTVSPropertyOp42
 70
     0
102
RTVSPropertyOp43
 70
     0
102
RTVSPropertyOp44
 70
     0
102
RTVSPropertyOp45
 70
     1
102
RTVSPropertyOp46
 70
     0
102
RTVSPropertyOp47
 70
     0
102
RTVSPropertyOp48
 70
     0
102
RTVSPropertyOp49
 70
     1
102
RTVSPropertyOp50
 70
     0
102
RTVSPropertyOp51
 70
     0
102
RTVSPropertyOp52
 70
     0
102
RTVSPropertyOp53
 70
     0
102
RTVSPropertyOp54
 70
     0
102
RTVSPropertyOp55
 70
     1
102
RTVSPropertyOp56
 70
     0
102
RTVSPropertyOp57
 70
     0
102
RTVSPropertyOp58
 70
     0
102
RTVSPropertyOp59
 70
     0
102
RTVSPropertyOp60
 70
     0
102
RTVSPropertyOp61
 70
     0
102
RTVSPropertyOp62
 70
     0
  0
XRECORD
  5
459
102
{ACAD_REACTORS
330
458
102
}
330
458
100
AcDbXrecord
280
     1
102
RTVSPost2010Prop28
280
     0
102
RTVSPost2010PropOp28
 70
     1
102
RTVSPost2010Prop29
280
     1
102
RTVSPost2010PropOp29
 70
     1
102
RTVSPost2010Prop30
280
     1
102
RTVSPost2010PropOp30
 70
     1
102
RTVSPost2010Prop31
280
     0
102
RTVSPost2010PropOp31
 70
     1
102
RTVSPost2010Prop32
280
     0
102
RTVSPost2010PropOp32
 70
     1
102
RTVSPost2010Prop33
280
     0
102
RTVSPost2010PropOp33
 70
     1
102
RTVSPost2010Prop34
280
     0
102
RTVSPost2010PropOp34
 70
     1
102
RTVSPost2010Prop35
280
     0
102
RTVSPost2010PropOp35
 70
     1
102
RTVSPost2010Prop36
280
     0
102
RTVSPost2010PropOp36
 70
     1
102
RTVSPost2010Prop37
 90
       50
102
RTVSPost2010PropOp37
 70
     1
102
RTVSPost2010Prop38
140
0.0
102
RTVSPost2010PropOp38
 70
     1
102
RTVSPost2010Prop39
140
1.0
102
RTVSPost2010PropOp39
 70
     1
102
RTVSPost2010Prop40
 90
        0
102
RTVSPost2010PropOp40
 70
     1
102
RTVSPost2010Prop41ColorIndex
 90
       18
102
RTVSPost2010Prop41ColorRGB
 90
        0
102
RTVSPost2010PropOp41
 70
     1
102
RTVSPost2010Prop42
 90
       50
102
RTVSPost2010PropOp42
 70
     1
102
RTVSPost2010Prop43
 90
        3
102
RTVSPost2010PropOp43
 70
     1
102
RTVSPost2010Prop44ColorIndex
 90
        5
102
RTVSPost2010Prop44ColorRGB
 90
      255
102
RTVSPost2010PropOp44
 70
     1
102
RTVSPost2010Prop45
280
     0
102
RTVSPost2010PropOp45
 70
     1
102
RTVSPost2010Prop46
 90
       50
102
RTVSPost2010PropOp46
 70
     1
102
RTVSPost2010Prop47
 90
       50
102
RTVSPost2010PropOp47
 70
     1
102
RTVSPost2010Prop48
 90
       50
102
RTVSPost2010PropOp48
 70
     1
102
RTVSPost2010Prop49
280
     0
102
RTVSPost2010PropOp49
 70
     1
102
RTVSPost2010Prop50
 90
       50
102
RTVSPost2010PropOp50
 70
     1
102
RTVSPost2010Prop51ColorIndex
 90
      256
102
RTVSPost2010Prop51ColorRGB
 90
-16777216
102
RTVSPost2010PropOp51
 70
     0
102
RTVSPost2010Prop52
140
1.0
102
RTVSPost2010PropOp52
 70
     0
102
RTVSPost2010Prop53
 90
        2
102
RTVSPost2010PropOp53
 70
     1
102
RTVSPost2010Prop54
  1
strokes_ogs.tif
102
RTVSPost2010PropOp54
 70
     1
102
RTVSPost2010Prop55
280
     0
102
RTVSPost2010PropOp55
 70
     1
102
RTVSPost2010Prop56
140
1.0
102
RTVSPost2010PropOp56
 70
     1
102
RTVSPost2010Prop57
140
1.0
102
RTVSPost2010PropOp57
 70
     1
102
RTVSPropertyOp0
 70
     1
102
RTVSPropertyOp1
 70
     1
102
RTVSPropertyOp2
 70
     1
102
RTVSPropertyOp3
 70
     1
102
RTVSPropertyOp4
 70
     1
102
RTVSPropertyOp5
 70
     1
102
RTVSPropertyOp6
 70
     1
102
RTVSPropertyOp7
 70
     1
102
RTVSPropertyOp8
 70
     1
102
RTVSPropertyOp9
 70
     1
102
RTVSPropertyOp10
 70
     1
102
RTVSPropertyOp11
 70
     1
102
RTVSPropertyOp12
 70
     1
102
RTVSPropertyOp13
 70
     1
102
RTVSPropertyOp14
 70
     1
102
RTVSPropertyOp15
 70
     1
102
RTVSPropertyOp16
 70
     1
102
RTVSPropertyOp17
 70
     1
102
RTVSPropertyOp18
 70
     1
102
RTVSPropertyOp19
 70
     1
102
RTVSPropertyOp20
 70
     1
102
RTVSPropertyOp21
 70
     1
102
RTVSPropertyOp22
 70
     1
102
RTVSPropertyOp23
 70
     1
102
RTVSPropertyOp24
 70
     1
102
RTVSPropertyOp25
 70
     1
102
RTVSPropertyOp26
 70
     1
102
RTVSPropertyOp27
 70
     1
102
RTVSPropertyOp28
 70
     1
102
RTVSPropertyOp29
 70
     1
102
RTVSPropertyOp30
 70
     1
102
RTVSPropertyOp31
 70
     1
102
RTVSPropertyOp32
 70
     1
102
RTVSPropertyOp33
 70
     1
102
RTVSPropertyOp34
 70
     1
102
RTVSPropertyOp35
 70
     1
102
RTVSPropertyOp36
 70
     1
102
RTVSPropertyOp37
 70
     1
102
RTVSPropertyOp38
 70
     1
102
RTVSPropertyOp39
 70
     1
102
RTVSPropertyOp40
 70
     1
102
RTVSPropertyOp41
 70
     1
102
RTVSPropertyOp42
 70
     1
102
RTVSPropertyOp43
 70
     1
102
RTVSPropertyOp44
 70
     1
102
RTVSPropertyOp45
 70
     1
102
RTVSPropertyOp46
 70
     1
102
RTVSPropertyOp47
 70
     1
102
RTVSPropertyOp48
 70
     1
102
RTVSPropertyOp49
 70
     1
102
RTVSPropertyOp50
 70
     1
102
RTVSPropertyOp51
 70
     0
102
RTVSPropertyOp52
 70
     0
102
RTVSPropertyOp53
 70
     1
102
RTVSPropertyOp54
 70
     1
102
RTVSPropertyOp55
 70
     1
102
RTVSPropertyOp56
 70
     1
102
RTVSPropertyOp57
 70
     1
102
RTVSPropertyOp58
 70
     1
102
RTVSPropertyOp59
 70
     1
102
RTVSPropertyOp60
 70
     1
102
RTVSPropertyOp61
 70
     1
102
RTVSPropertyOp62
 70
     1
  0
XRECORD
  5
46F
102
{ACAD_REACTORS
330
46E
102
}
330
46E
100
AcDbXrecord
280
     1
102
RTVSPost2010Prop28
280
     0
102
RTVSPost2010PropOp28
 70
     1
102
RTVSPost2010Prop29
280
     1
102
RTVSPost2010PropOp29
 70
     1
102
RTVSPost2010Prop30
280
     1
102
RTVSPost2010PropOp30
 70
     1
102
RTVSPost2010Prop31
280
     0
102
RTVSPost2010PropOp31
 70
     1
102
RTVSPost2010Prop32
280
     0
102
RTVSPost2010PropOp32
 70
     1
102
RTVSPost2010Prop33
280
     0
102
RTVSPost2010PropOp33
 70
     1
102
RTVSPost2010Prop34
280
     0
102
RTVSPost2010PropOp34
 70
     1
102
RTVSPost2010Prop35
280
     0
102
RTVSPost2010PropOp35
 70
     1
102
RTVSPost2010Prop36
280
     0
102
RTVSPost2010PropOp36
 70
     1
102
RTVSPost2010Prop37
 90
       50
102
RTVSPost2010PropOp37
 70
     1
102
RTVSPost2010Prop38
140
0.0
102
RTVSPost2010PropOp38
 70
     1
102
RTVSPost2010Prop39
140
1.0
102
RTVSPost2010PropOp39
 70
     1
102
RTVSPost2010Prop40
 90
        0
102
RTVSPost2010PropOp40
 70
     1
102
RTVSPost2010Prop41ColorIndex
 90
       18
102
RTVSPost2010Prop41ColorRGB
 90
        0
102
RTVSPost2010PropOp41
 70
     1
102
RTVSPost2010Prop42
 90
       50
102
RTVSPost2010PropOp42
 70
     1
102
RTVSPost2010Prop43
 90
        3
102
RTVSPost2010PropOp43
 70
     1
102
RTVSPost2010Prop44ColorIndex
 90
        5
102
RTVSPost2010Prop44ColorRGB
 90
      255
102
RTVSPost2010PropOp44
 70
     1
102
RTVSPost2010Prop45
280
     0
102
RTVSPost2010PropOp45
 70
     1
102
RTVSPost2010Prop46
 90
       50
102
RTVSPost2010PropOp46
 70
     1
102
RTVSPost2010Prop47
 90
       50
102
RTVSPost2010PropOp47
 70
     1
102
RTVSPost2010Prop48
 90
       50
102
RTVSPost2010PropOp48
 70
     1
102
RTVSPost2010Prop49
280
     0
102
RTVSPost2010PropOp49
 70
     1
102
RTVSPost2010Prop50
 90
       50
102
RTVSPost2010PropOp50
 70
     1
102
RTVSPost2010Prop51ColorIndex
 90
      256
102
RTVSPost2010Prop51ColorRGB
 90
-16777216
102
RTVSPost2010PropOp51
 70
     0
102
RTVSPost2010Prop52
140
1.0
102
RTVSPost2010PropOp52
 70
     0
102
RTVSPost2010Prop53
 90
        2
102
RTVSPost2010PropOp53
 70
     1
102
RTVSPost2010Prop54
  1
strokes_ogs.tif
102
RTVSPost2010PropOp54
 70
     1
102
RTVSPost2010Prop55
280
     0
102
RTVSPost2010PropOp55
 70
     1
102
RTVSPost2010Prop56
140
1.0
102
RTVSPost2010PropOp56
 70
     1
102
RTVSPost2010Prop57
140
1.0
102
RTVSPost2010PropOp57
 70
     1
102
RTVSPropertyOp0
 70
     1
102
RTVSPropertyOp1
 70
     1
102
RTVSPropertyOp2
 70
     1
102
RTVSPropertyOp3
 70
     1
102
RTVSPropertyOp4
 70
     1
102
RTVSPropertyOp5
 70
     1
102
RTVSPropertyOp6
 70
     1
102
RTVSPropertyOp7
 70
     1
102
RTVSPropertyOp8
 70
     1
102
RTVSPropertyOp9
 70
     1
102
RTVSPropertyOp10
 70
     1
102
RTVSPropertyOp11
 70
     1
102
RTVSPropertyOp12
 70
     1
102
RTVSPropertyOp13
 70
     1
102
RTVSPropertyOp14
 70
     1
102
RTVSPropertyOp15
 70
     1
102
RTVSPropertyOp16
 70
     1
102
RTVSPropertyOp17
 70
     1
102
RTVSPropertyOp18
 70
     1
102
RTVSPropertyOp19
 70
     1
102
RTVSPropertyOp20
 70
     1
102
RTVSPropertyOp21
 70
     1
102
RTVSPropertyOp22
 70
     1
102
RTVSPropertyOp23
 70
     1
102
RTVSPropertyOp24
 70
     1
102
RTVSPropertyOp25
 70
     1
102
RTVSPropertyOp26
 70
     1
102
RTVSPropertyOp27
 70
     1
102
RTVSPropertyOp28
 70
     1
102
RTVSPropertyOp29
 70
     1
102
RTVSPropertyOp30
 70
     1
102
RTVSPropertyOp31
 70
     1
102
RTVSPropertyOp32
 70
     1
102
RTVSPropertyOp33
 70
     1
102
RTVSPropertyOp34
 70
     1
102
RTVSPropertyOp35
 70
     1
102
RTVSPropertyOp36
 70
     1
102
RTVSPropertyOp37
 70
     1
102
RTVSPropertyOp38
 70
     1
102
RTVSPropertyOp39
 70
     1
102
RTVSPropertyOp40
 70
     1
102
RTVSPropertyOp41
 70
     1
102
RTVSPropertyOp42
 70
     1
102
RTVSPropertyOp43
 70
     1
102
RTVSPropertyOp44
 70
     1
102
RTVSPropertyOp45
 70
     1
102
RTVSPropertyOp46
 70
     1
102
RTVSPropertyOp47
 70
     1
102
RTVSPropertyOp48
 70
     1
102
RTVSPropertyOp49
 70
     1
102
RTVSPropertyOp50
 70
     1
102
RTVSPropertyOp51
 70
     0
102
RTVSPropertyOp52
 70
     0
102
RTVSPropertyOp53
 70
     1
102
RTVSPropertyOp54
 70
     1
102
RTVSPropertyOp55
 70
     1
102
RTVSPropertyOp56
 70
     1
102
RTVSPropertyOp57
 70
     1
102
RTVSPropertyOp58
 70
     1
102
RTVSPropertyOp59
 70
     1
102
RTVSPropertyOp60
 70
     1
102
RTVSPropertyOp61
 70
     1
102
RTVSPropertyOp62
 70
     1
  0
XRECORD
  5
46D
102
{ACAD_REACTORS
330
46C
102
}
330
46C
100
AcDbXrecord
280
     1
102
RTVSPost2010Prop28
280
     0
102
RTVSPost2010PropOp28
 70
     1
102
RTVSPost2010Prop29
280
     1
102
RTVSPost2010PropOp29
 70
     1
102
RTVSPost2010Prop30
280
     1
102
RTVSPost2010PropOp30
 70
     1
102
RTVSPost2010Prop31
280
     0
102
RTVSPost2010PropOp31
 70
     1
102
RTVSPost2010Prop32
280
     0
102
RTVSPost2010PropOp32
 70
     1
102
RTVSPost2010Prop33
280
     0
102
RTVSPost2010PropOp33
 70
     1
102
RTVSPost2010Prop34
280
     0
102
RTVSPost2010PropOp34
 70
     1
102
RTVSPost2010Prop35
280
     0
102
RTVSPost2010PropOp35
 70
     1
102
RTVSPost2010Prop36
280
     0
102
RTVSPost2010PropOp36
 70
     1
102
RTVSPost2010Prop37
 90
       50
102
RTVSPost2010PropOp37
 70
     1
102
RTVSPost2010Prop38
140
0.0
102
RTVSPost2010PropOp38
 70
     1
102
RTVSPost2010Prop39
140
1.0
102
RTVSPost2010PropOp39
 70
     1
102
RTVSPost2010Prop40
 90
        0
102
RTVSPost2010PropOp40
 70
     1
102
RTVSPost2010Prop41ColorIndex
 90
       18
102
RTVSPost2010Prop41ColorRGB
 90
        0
102
RTVSPost2010PropOp41
 70
     1
102
RTVSPost2010Prop42
 90
       50
102
RTVSPost2010PropOp42
 70
     1
102
RTVSPost2010Prop43
 90
        3
102
RTVSPost2010PropOp43
 70
     1
102
RTVSPost2010Prop44ColorIndex
 90
        5
102
RTVSPost2010Prop44ColorRGB
 90
      255
102
RTVSPost2010PropOp44
 70
     1
102
RTVSPost2010Prop45
280
     0
102
RTVSPost2010PropOp45
 70
     1
102
RTVSPost2010Prop46
 90
       50
102
RTVSPost2010PropOp46
 70
     1
102
RTVSPost2010Prop47
 90
       50
102
RTVSPost2010PropOp47
 70
     1
102
RTVSPost2010Prop48
 90
       50
102
RTVSPost2010PropOp48
 70
     1
102
RTVSPost2010Prop49
280
     0
102
RTVSPost2010PropOp49
 70
     1
102
RTVSPost2010Prop50
 90
       50
102
RTVSPost2010PropOp50
 70
     1
102
RTVSPost2010Prop51ColorIndex
 90
      256
102
RTVSPost2010Prop51ColorRGB
 90
-16777216
102
RTVSPost2010PropOp51
 70
     0
102
RTVSPost2010Prop52
140
1.0
102
RTVSPost2010PropOp52
 70
     0
102
RTVSPost2010Prop53
 90
        2
102
RTVSPost2010PropOp53
 70
     1
102
RTVSPost2010Prop54
  1
strokes_ogs.tif
102
RTVSPost2010PropOp54
 70
     1
102
RTVSPost2010Prop55
280
     0
102
RTVSPost2010PropOp55
 70
     1
102
RTVSPost2010Prop56
140
1.0
102
RTVSPost2010PropOp56
 70
     1
102
RTVSPost2010Prop57
140
1.0
102
RTVSPost2010PropOp57
 70
     1
102
RTVSPropertyOp0
 70
     1
102
RTVSPropertyOp1
 70
     1
102
RTVSPropertyOp2
 70
     1
102
RTVSPropertyOp3
 70
     1
102
RTVSPropertyOp4
 70
     1
102
RTVSPropertyOp5
 70
     1
102
RTVSPropertyOp6
 70
     1
102
RTVSPropertyOp7
 70
     1
102
RTVSPropertyOp8
 70
     1
102
RTVSPropertyOp9
 70
     1
102
RTVSPropertyOp10
 70
     1
102
RTVSPropertyOp11
 70
     1
102
RTVSPropertyOp12
 70
     1
102
RTVSPropertyOp13
 70
     1
102
RTVSPropertyOp14
 70
     1
102
RTVSPropertyOp15
 70
     1
102
RTVSPropertyOp16
 70
     1
102
RTVSPropertyOp17
 70
     1
102
RTVSPropertyOp18
 70
     1
102
RTVSPropertyOp19
 70
     1
102
RTVSPropertyOp20
 70
     1
102
RTVSPropertyOp21
 70
     1
102
RTVSPropertyOp22
 70
     1
102
RTVSPropertyOp23
 70
     1
102
RTVSPropertyOp24
 70
     1
102
RTVSPropertyOp25
 70
     1
102
RTVSPropertyOp26
 70
     1
102
RTVSPropertyOp27
 70
     1
102
RTVSPropertyOp28
 70
     1
102
RTVSPropertyOp29
 70
     1
102
RTVSPropertyOp30
 70
     1
102
RTVSPropertyOp31
 70
     1
102
RTVSPropertyOp32
 70
     1
102
RTVSPropertyOp33
 70
     1
102
RTVSPropertyOp34
 70
     1
102
RTVSPropertyOp35
 70
     1
102
RTVSPropertyOp36
 70
     1
102
RTVSPropertyOp37
 70
     1
102
RTVSPropertyOp38
 70
     1
102
RTVSPropertyOp39
 70
     1
102
RTVSPropertyOp40
 70
     1
102
RTVSPropertyOp41
 70
     1
102
RTVSPropertyOp42
 70
     1
102
RTVSPropertyOp43
 70
     1
102
RTVSPropertyOp44
 70
     1
102
RTVSPropertyOp45
 70
     1
102
RTVSPropertyOp46
 70
     1
102
RTVSPropertyOp47
 70
     1
102
RTVSPropertyOp48
 70
     1
102
RTVSPropertyOp49
 70
     1
102
RTVSPropertyOp50
 70
     1
102
RTVSPropertyOp51
 70
     0
102
RTVSPropertyOp52
 70
     0
102
RTVSPropertyOp53
 70
     1
102
RTVSPropertyOp54
 70
     1
102
RTVSPropertyOp55
 70
     1
102
RTVSPropertyOp56
 70
     1
102
RTVSPropertyOp57
 70
     1
102
RTVSPropertyOp58
 70
     1
102
RTVSPropertyOp59
 70
     1
102
RTVSPropertyOp60
 70
     1
102
RTVSPropertyOp61
 70
     1
102
RTVSPropertyOp62
 70
     1
  0
XRECORD
  5
467
102
{ACAD_REACTORS
330
466
102
}
330
466
100
AcDbXrecord
280
     1
102
RTVSPost2010Prop28
280
     0
102
RTVSPost2010PropOp28
 70
     1
102
RTVSPost2010Prop29
280
     1
102
RTVSPost2010PropOp29
 70
     1
102
RTVSPost2010Prop30
280
     1
102
RTVSPost2010PropOp30
 70
     1
102
RTVSPost2010Prop31
280
     0
102
RTVSPost2010PropOp31
 70
     1
102
RTVSPost2010Prop32
280
     0
102
RTVSPost2010PropOp32
 70
     1
102
RTVSPost2010Prop33
280
     0
102
RTVSPost2010PropOp33
 70
     1
102
RTVSPost2010Prop34
280
     0
102
RTVSPost2010PropOp34
 70
     1
102
RTVSPost2010Prop35
280
     0
102
RTVSPost2010PropOp35
 70
     1
102
RTVSPost2010Prop36
280
     0
102
RTVSPost2010PropOp36
 70
     1
102
RTVSPost2010Prop37
 90
       50
102
RTVSPost2010PropOp37
 70
     1
102
RTVSPost2010Prop38
140
0.0
102
RTVSPost2010PropOp38
 70
     1
102
RTVSPost2010Prop39
140
1.0
102
RTVSPost2010PropOp39
 70
     1
102
RTVSPost2010Prop40
 90
        0
102
RTVSPost2010PropOp40
 70
     1
102
RTVSPost2010Prop41ColorIndex
 90
       18
102
RTVSPost2010Prop41ColorRGB
 90
        0
102
RTVSPost2010PropOp41
 70
     1
102
RTVSPost2010Prop42
 90
       50
102
RTVSPost2010PropOp42
 70
     1
102
RTVSPost2010Prop43
 90
        3
102
RTVSPost2010PropOp43
 70
     1
102
RTVSPost2010Prop44ColorIndex
 90
        5
102
RTVSPost2010Prop44ColorRGB
 90
      255
102
RTVSPost2010PropOp44
 70
     1
102
RTVSPost2010Prop45
280
     0
102
RTVSPost2010PropOp45
 70
     1
102
RTVSPost2010Prop46
 90
       50
102
RTVSPost2010PropOp46
 70
     1
102
RTVSPost2010Prop47
 90
       50
102
RTVSPost2010PropOp47
 70
     1
102
RTVSPost2010Prop48
 90
       50
102
RTVSPost2010PropOp48
 70
     1
102
RTVSPost2010Prop49
280
     0
102
RTVSPost2010PropOp49
 70
     1
102
RTVSPost2010Prop50
 90
       50
102
RTVSPost2010PropOp50
 70
     1
102
RTVSPost2010Prop51ColorIndex
 90
      256
102
RTVSPost2010Prop51ColorRGB
 90
-16777216
102
RTVSPost2010PropOp51
 70
     0
102
RTVSPost2010Prop52
140
1.0
102
RTVSPost2010PropOp52
 70
     0
102
RTVSPost2010Prop53
 90
        2
102
RTVSPost2010PropOp53
 70
     1
102
RTVSPost2010Prop54
  1
strokes_ogs.tif
102
RTVSPost2010PropOp54
 70
     1
102
RTVSPost2010Prop55
280
     0
102
RTVSPost2010PropOp55
 70
     1
102
RTVSPost2010Prop56
140
1.0
102
RTVSPost2010PropOp56
 70
     1
102
RTVSPost2010Prop57
140
1.0
102
RTVSPost2010PropOp57
 70
     1
102
RTVSPropertyOp0
 70
     1
102
RTVSPropertyOp1
 70
     1
102
RTVSPropertyOp2
 70
     1
102
RTVSPropertyOp3
 70
     1
102
RTVSPropertyOp4
 70
     1
102
RTVSPropertyOp5
 70
     1
102
RTVSPropertyOp6
 70
     1
102
RTVSPropertyOp7
 70
     1
102
RTVSPropertyOp8
 70
     1
102
RTVSPropertyOp9
 70
     1
102
RTVSPropertyOp10
 70
     1
102
RTVSPropertyOp11
 70
     1
102
RTVSPropertyOp12
 70
     1
102
RTVSPropertyOp13
 70
     1
102
RTVSPropertyOp14
 70
     1
102
RTVSPropertyOp15
 70
     1
102
RTVSPropertyOp16
 70
     1
102
RTVSPropertyOp17
 70
     1
102
RTVSPropertyOp18
 70
     1
102
RTVSPropertyOp19
 70
     1
102
RTVSPropertyOp20
 70
     1
102
RTVSPropertyOp21
 70
     1
102
RTVSPropertyOp22
 70
     1
102
RTVSPropertyOp23
 70
     1
102
RTVSPropertyOp24
 70
     1
102
RTVSPropertyOp25
 70
     1
102
RTVSPropertyOp26
 70
     1
102
RTVSPropertyOp27
 70
     1
102
RTVSPropertyOp28
 70
     1
102
RTVSPropertyOp29
 70
     1
102
RTVSPropertyOp30
 70
     1
102
RTVSPropertyOp31
 70
     1
102
RTVSPropertyOp32
 70
     1
102
RTVSPropertyOp33
 70
     1
102
RTVSPropertyOp34
 70
     1
102
RTVSPropertyOp35
 70
     1
102
RTVSPropertyOp36
 70
     1
102
RTVSPropertyOp37
 70
     1
102
RTVSPropertyOp38
 70
     1
102
RTVSPropertyOp39
 70
     1
102
RTVSPropertyOp40
 70
     1
102
RTVSPropertyOp41
 70
     1
102
RTVSPropertyOp42
 70
     1
102
RTVSPropertyOp43
 70
     1
102
RTVSPropertyOp44
 70
     1
102
RTVSPropertyOp45
 70
     1
102
RTVSPropertyOp46
 70
     1
102
RTVSPropertyOp47
 70
     1
102
RTVSPropertyOp48
 70
     1
102
RTVSPropertyOp49
 70
     1
102
RTVSPropertyOp50
 70
     1
102
RTVSPropertyOp51
 70
     0
102
RTVSPropertyOp52
 70
     0
102
RTVSPropertyOp53
 70
     1
102
RTVSPropertyOp54
 70
     1
102
RTVSPropertyOp55
 70
     1
102
RTVSPropertyOp56
 70
     1
102
RTVSPropertyOp57
 70
     1
102
RTVSPropertyOp58
 70
     1
102
RTVSPropertyOp59
 70
     1
102
RTVSPropertyOp60
 70
     1
102
RTVSPropertyOp61
 70
     1
102
RTVSPropertyOp62
 70
     1
  0
XRECORD
  5
469
102
{ACAD_REACTORS
330
468
102
}
330
468
100
AcDbXrecord
280
     1
102
RTVSPost2010Prop28
280
     0
102
RTVSPost2010PropOp28
 70
     1
102
RTVSPost2010Prop29
280
     1
102
RTVSPost2010PropOp29
 70
     1
102
RTVSPost2010Prop30
280
     1
102
RTVSPost2010PropOp30
 70
     1
102
RTVSPost2010Prop31
280
     0
102
RTVSPost2010PropOp31
 70
     1
102
RTVSPost2010Prop32
280
     0
102
RTVSPost2010PropOp32
 70
     1
102
RTVSPost2010Prop33
280
     0
102
RTVSPost2010PropOp33
 70
     1
102
RTVSPost2010Prop34
280
     0
102
RTVSPost2010PropOp34
 70
     1
102
RTVSPost2010Prop35
280
     0
102
RTVSPost2010PropOp35
 70
     1
102
RTVSPost2010Prop36
280
     0
102
RTVSPost2010PropOp36
 70
     1
102
RTVSPost2010Prop37
 90
       50
102
RTVSPost2010PropOp37
 70
     1
102
RTVSPost2010Prop38
140
0.0
102
RTVSPost2010PropOp38
 70
     1
102
RTVSPost2010Prop39
140
1.0
102
RTVSPost2010PropOp39
 70
     1
102
RTVSPost2010Prop40
 90
        0
102
RTVSPost2010PropOp40
 70
     1
102
RTVSPost2010Prop41ColorIndex
 90
       18
102
RTVSPost2010Prop41ColorRGB
 90
        0
102
RTVSPost2010PropOp41
 70
     1
102
RTVSPost2010Prop42
 90
       50
102
RTVSPost2010PropOp42
 70
     1
102
RTVSPost2010Prop43
 90
        3
102
RTVSPost2010PropOp43
 70
     1
102
RTVSPost2010Prop44ColorIndex
 90
        5
102
RTVSPost2010Prop44ColorRGB
 90
      255
102
RTVSPost2010PropOp44
 70
     1
102
RTVSPost2010Prop45
280
     0
102
RTVSPost2010PropOp45
 70
     1
102
RTVSPost2010Prop46
 90
       50
102
RTVSPost2010PropOp46
 70
     1
102
RTVSPost2010Prop47
 90
       50
102
RTVSPost2010PropOp47
 70
     1
102
RTVSPost2010Prop48
 90
       50
102
RTVSPost2010PropOp48
 70
     1
102
RTVSPost2010Prop49
280
     0
102
RTVSPost2010PropOp49
 70
     1
102
RTVSPost2010Prop50
 90
       50
102
RTVSPost2010PropOp50
 70
     1
102
RTVSPost2010Prop51ColorIndex
 90
      256
102
RTVSPost2010Prop51ColorRGB
 90
-16777216
102
RTVSPost2010PropOp51
 70
     0
102
RTVSPost2010Prop52
140
1.0
102
RTVSPost2010PropOp52
 70
     0
102
RTVSPost2010Prop53
 90
        2
102
RTVSPost2010PropOp53
 70
     1
102
RTVSPost2010Prop54
  1
strokes_ogs.tif
102
RTVSPost2010PropOp54
 70
     1
102
RTVSPost2010Prop55
280
     0
102
RTVSPost2010PropOp55
 70
     1
102
RTVSPost2010Prop56
140
1.0
102
RTVSPost2010PropOp56
 70
     1
102
RTVSPost2010Prop57
140
1.0
102
RTVSPost2010PropOp57
 70
     1
102
RTVSPropertyOp0
 70
     1
102
RTVSPropertyOp1
 70
     1
102
RTVSPropertyOp2
 70
     1
102
RTVSPropertyOp3
 70
     1
102
RTVSPropertyOp4
 70
     1
102
RTVSPropertyOp5
 70
     1
102
RTVSPropertyOp6
 70
     1
102
RTVSPropertyOp7
 70
     1
102
RTVSPropertyOp8
 70
     1
102
RTVSPropertyOp9
 70
     1
102
RTVSPropertyOp10
 70
     1
102
RTVSPropertyOp11
 70
     1
102
RTVSPropertyOp12
 70
     1
102
RTVSPropertyOp13
 70
     1
102
RTVSPropertyOp14
 70
     1
102
RTVSPropertyOp15
 70
     1
102
RTVSPropertyOp16
 70
     1
102
RTVSPropertyOp17
 70
     1
102
RTVSPropertyOp18
 70
     1
102
RTVSPropertyOp19
 70
     1
102
RTVSPropertyOp20
 70
     1
102
RTVSPropertyOp21
 70
     1
102
RTVSPropertyOp22
 70
     1
102
RTVSPropertyOp23
 70
     1
102
RTVSPropertyOp24
 70
     1
102
RTVSPropertyOp25
 70
     1
102
RTVSPropertyOp26
 70
     1
102
RTVSPropertyOp27
 70
     1
102
RTVSPropertyOp28
 70
     1
102
RTVSPropertyOp29
 70
     1
102
RTVSPropertyOp30
 70
     1
102
RTVSPropertyOp31
 70
     1
102
RTVSPropertyOp32
 70
     1
102
RTVSPropertyOp33
 70
     1
102
RTVSPropertyOp34
 70
     1
102
RTVSPropertyOp35
 70
     1
102
RTVSPropertyOp36
 70
     1
102
RTVSPropertyOp37
 70
     1
102
RTVSPropertyOp38
 70
     1
102
RTVSPropertyOp39
 70
     1
102
RTVSPropertyOp40
 70
     1
102
RTVSPropertyOp41
 70
     1
102
RTVSPropertyOp42
 70
     1
102
RTVSPropertyOp43
 70
     1
102
RTVSPropertyOp44
 70
     1
102
RTVSPropertyOp45
 70
     1
102
RTVSPropertyOp46
 70
     1
102
RTVSPropertyOp47
 70
     1
102
RTVSPropertyOp48
 70
     1
102
RTVSPropertyOp49
 70
     1
102
RTVSPropertyOp50
 70
     1
102
RTVSPropertyOp51
 70
     0
102
RTVSPropertyOp52
 70
     0
102
RTVSPropertyOp53
 70
     1
102
RTVSPropertyOp54
 70
     1
102
RTVSPropertyOp55
 70
     1
102
RTVSPropertyOp56
 70
     1
102
RTVSPropertyOp57
 70
     1
102
RTVSPropertyOp58
 70
     1
102
RTVSPropertyOp59
 70
     1
102
RTVSPropertyOp60
 70
     1
102
RTVSPropertyOp61
 70
     1
102
RTVSPropertyOp62
 70
     1
  0
XRECORD
  5
45F
102
{ACAD_REACTORS
330
45E
102
}
330
45E
100
AcDbXrecord
280
     1
102
RTVSPost2010Prop28
280
     0
102
RTVSPost2010PropOp28
 70
     1
102
RTVSPost2010Prop29
280
     1
102
RTVSPost2010PropOp29
 70
     1
102
RTVSPost2010Prop30
280
     1
102
RTVSPost2010PropOp30
 70
     1
102
RTVSPost2010Prop31
280
     0
102
RTVSPost2010PropOp31
 70
     1
102
RTVSPost2010Prop32
280
     0
102
RTVSPost2010PropOp32
 70
     1
102
RTVSPost2010Prop33
280
     0
102
RTVSPost2010PropOp33
 70
     1
102
RTVSPost2010Prop34
280
     0
102
RTVSPost2010PropOp34
 70
     1
102
RTVSPost2010Prop35
280
     0
102
RTVSPost2010PropOp35
 70
     1
102
RTVSPost2010Prop36
280
     0
102
RTVSPost2010PropOp36
 70
     1
102
RTVSPost2010Prop37
 90
       50
102
RTVSPost2010PropOp37
 70
     1
102
RTVSPost2010Prop38
140
0.0
102
RTVSPost2010PropOp38
 70
     1
102
RTVSPost2010Prop39
140
1.0
102
RTVSPost2010PropOp39
 70
     1
102
RTVSPost2010Prop40
 90
        0
102
RTVSPost2010PropOp40
 70
     1
102
RTVSPost2010Prop41ColorIndex
 90
       18
102
RTVSPost2010Prop41ColorRGB
 90
        0
102
RTVSPost2010PropOp41
 70
     1
102
RTVSPost2010Prop42
 90
       50
102
RTVSPost2010PropOp42
 70
     1
102
RTVSPost2010Prop43
 90
        3
102
RTVSPost2010PropOp43
 70
     1
102
RTVSPost2010Prop44ColorIndex
 90
        5
102
RTVSPost2010Prop44ColorRGB
 90
      255
102
RTVSPost2010PropOp44
 70
     1
102
RTVSPost2010Prop45
280
     0
102
RTVSPost2010PropOp45
 70
     1
102
RTVSPost2010Prop46
 90
       50
102
RTVSPost2010PropOp46
 70
     1
102
RTVSPost2010Prop47
 90
       50
102
RTVSPost2010PropOp47
 70
     1
102
RTVSPost2010Prop48
 90
       50
102
RTVSPost2010PropOp48
 70
     1
102
RTVSPost2010Prop49
280
     0
102
RTVSPost2010PropOp49
 70
     1
102
RTVSPost2010Prop50
 90
       50
102
RTVSPost2010PropOp50
 70
     1
102
RTVSPost2010Prop51ColorIndex
 90
      256
102
RTVSPost2010Prop51ColorRGB
 90
-16777216
102
RTVSPost2010PropOp51
 70
     0
102
RTVSPost2010Prop52
140
1.0
102
RTVSPost2010PropOp52
 70
     0
102
RTVSPost2010Prop53
 90
        2
102
RTVSPost2010PropOp53
 70
     1
102
RTVSPost2010Prop54
  1
strokes_ogs.tif
102
RTVSPost2010PropOp54
 70
     1
102
RTVSPost2010Prop55
280
     0
102
RTVSPost2010PropOp55
 70
     1
102
RTVSPost2010Prop56
140
1.0
102
RTVSPost2010PropOp56
 70
     1
102
RTVSPost2010Prop57
140
1.0
102
RTVSPost2010PropOp57
 70
     1
102
RTVSPropertyOp0
 70
     1
102
RTVSPropertyOp1
 70
     1
102
RTVSPropertyOp2
 70
     1
102
RTVSPropertyOp3
 70
     1
102
RTVSPropertyOp4
 70
     1
102
RTVSPropertyOp5
 70
     1
102
RTVSPropertyOp6
 70
     1
102
RTVSPropertyOp7
 70
     1
102
RTVSPropertyOp8
 70
     1
102
RTVSPropertyOp9
 70
     1
102
RTVSPropertyOp10
 70
     1
102
RTVSPropertyOp11
 70
     1
102
RTVSPropertyOp12
 70
     1
102
RTVSPropertyOp13
 70
     1
102
RTVSPropertyOp14
 70
     1
102
RTVSPropertyOp15
 70
     1
102
RTVSPropertyOp16
 70
     1
102
RTVSPropertyOp17
 70
     1
102
RTVSPropertyOp18
 70
     1
102
RTVSPropertyOp19
 70
     1
102
RTVSPropertyOp20
 70
     1
102
RTVSPropertyOp21
 70
     1
102
RTVSPropertyOp22
 70
     1
102
RTVSPropertyOp23
 70
     1
102
RTVSPropertyOp24
 70
     1
102
RTVSPropertyOp25
 70
     1
102
RTVSPropertyOp26
 70
     1
102
RTVSPropertyOp27
 70
     1
102
RTVSPropertyOp28
 70
     1
102
RTVSPropertyOp29
 70
     1
102
RTVSPropertyOp30
 70
     1
102
RTVSPropertyOp31
 70
     1
102
RTVSPropertyOp32
 70
     1
102
RTVSPropertyOp33
 70
     1
102
RTVSPropertyOp34
 70
     1
102
RTVSPropertyOp35
 70
     1
102
RTVSPropertyOp36
 70
     1
102
RTVSPropertyOp37
 70
     1
102
RTVSPropertyOp38
 70
     1
102
RTVSPropertyOp39
 70
     1
102
RTVSPropertyOp40
 70
     1
102
RTVSPropertyOp41
 70
     1
102
RTVSPropertyOp42
 70
     1
102
RTVSPropertyOp43
 70
     1
102
RTVSPropertyOp44
 70
     1
102
RTVSPropertyOp45
 70
     1
102
RTVSPropertyOp46
 70
     1
102
RTVSPropertyOp47
 70
     1
102
RTVSPropertyOp48
 70
     1
102
RTVSPropertyOp49
 70
     1
102
RTVSPropertyOp50
 70
     1
102
RTVSPropertyOp51
 70
     0
102
RTVSPropertyOp52
 70
     0
102
RTVSPropertyOp53
 70
     1
102
RTVSPropertyOp54
 70
     1
102
RTVSPropertyOp55
 70
     1
102
RTVSPropertyOp56
 70
     1
102
RTVSPropertyOp57
 70
     1
102
RTVSPropertyOp58
 70
     1
102
RTVSPropertyOp59
 70
     1
102
RTVSPropertyOp60
 70
     1
102
RTVSPropertyOp61
 70
     1
102
RTVSPropertyOp62
 70
     1
  0
XRECORD
  5
453
102
{ACAD_REACTORS
330
452
102
}
330
452
100
AcDbXrecord
280
     1
102
RTVSPost2010Prop28
280
     0
102
RTVSPost2010PropOp28
 70
     1
102
RTVSPost2010Prop29
280
     1
102
RTVSPost2010PropOp29
 70
     1
102
RTVSPost2010Prop30
280
     1
102
RTVSPost2010PropOp30
 70
     1
102
RTVSPost2010Prop31
280
     0
102
RTVSPost2010PropOp31
 70
     1
102
RTVSPost2010Prop32
280
     0
102
RTVSPost2010PropOp32
 70
     1
102
RTVSPost2010Prop33
280
     0
102
RTVSPost2010PropOp33
 70
     1
102
RTVSPost2010Prop34
280
     0
102
RTVSPost2010PropOp34
 70
     1
102
RTVSPost2010Prop35
280
     0
102
RTVSPost2010PropOp35
 70
     1
102
RTVSPost2010Prop36
280
     0
102
RTVSPost2010PropOp36
 70
     1
102
RTVSPost2010Prop37
 90
       50
102
RTVSPost2010PropOp37
 70
     1
102
RTVSPost2010Prop38
140
0.0
102
RTVSPost2010PropOp38
 70
     1
102
RTVSPost2010Prop39
140
1.0
102
RTVSPost2010PropOp39
 70
     1
102
RTVSPost2010Prop40
 90
        0
102
RTVSPost2010PropOp40
 70
     1
102
RTVSPost2010Prop41ColorIndex
 90
       18
102
RTVSPost2010Prop41ColorRGB
 90
        0
102
RTVSPost2010PropOp41
 70
     1
102
RTVSPost2010Prop42
 90
       50
102
RTVSPost2010PropOp42
 70
     1
102
RTVSPost2010Prop43
 90
        3
102
RTVSPost2010PropOp43
 70
     1
102
RTVSPost2010Prop44ColorIndex
 90
        5
102
RTVSPost2010Prop44ColorRGB
 90
      255
102
RTVSPost2010PropOp44
 70
     1
102
RTVSPost2010Prop45
280
     0
102
RTVSPost2010PropOp45
 70
     1
102
RTVSPost2010Prop46
 90
       50
102
RTVSPost2010PropOp46
 70
     1
102
RTVSPost2010Prop47
 90
       50
102
RTVSPost2010PropOp47
 70
     1
102
RTVSPost2010Prop48
 90
       50
102
RTVSPost2010PropOp48
 70
     1
102
RTVSPost2010Prop49
280
     0
102
RTVSPost2010PropOp49
 70
     1
102
RTVSPost2010Prop50
 90
       50
102
RTVSPost2010PropOp50
 70
     1
102
RTVSPost2010Prop51ColorIndex
 90
      256
102
RTVSPost2010Prop51ColorRGB
 90
-16777216
102
RTVSPost2010PropOp51
 70
     0
102
RTVSPost2010Prop52
140
1.0
102
RTVSPost2010PropOp52
 70
     0
102
RTVSPost2010Prop53
 90
        2
102
RTVSPost2010PropOp53
 70
     1
102
RTVSPost2010Prop54
  1
strokes_ogs.tif
102
RTVSPost2010PropOp54
 70
     1
102
RTVSPost2010Prop55
280
     0
102
RTVSPost2010PropOp55
 70
     1
102
RTVSPost2010Prop56
140
1.0
102
RTVSPost2010PropOp56
 70
     1
102
RTVSPost2010Prop57
140
1.0
102
RTVSPost2010PropOp57
 70
     1
102
RTVSPropertyOp0
 70
     1
102
RTVSPropertyOp1
 70
     1
102
RTVSPropertyOp2
 70
     1
102
RTVSPropertyOp3
 70
     1
102
RTVSPropertyOp4
 70
     1
102
RTVSPropertyOp5
 70
     1
102
RTVSPropertyOp6
 70
     1
102
RTVSPropertyOp7
 70
     1
102
RTVSPropertyOp8
 70
     1
102
RTVSPropertyOp9
 70
     1
102
RTVSPropertyOp10
 70
     1
102
RTVSPropertyOp11
 70
     1
102
RTVSPropertyOp12
 70
     1
102
RTVSPropertyOp13
 70
     1
102
RTVSPropertyOp14
 70
     1
102
RTVSPropertyOp15
 70
     1
102
RTVSPropertyOp16
 70
     1
102
RTVSPropertyOp17
 70
     1
102
RTVSPropertyOp18
 70
     1
102
RTVSPropertyOp19
 70
     1
102
RTVSPropertyOp20
 70
     1
102
RTVSPropertyOp21
 70
     1
102
RTVSPropertyOp22
 70
     1
102
RTVSPropertyOp23
 70
     1
102
RTVSPropertyOp24
 70
     1
102
RTVSPropertyOp25
 70
     1
102
RTVSPropertyOp26
 70
     1
102
RTVSPropertyOp27
 70
     1
102
RTVSPropertyOp28
 70
     1
102
RTVSPropertyOp29
 70
     1
102
RTVSPropertyOp30
 70
     1
102
RTVSPropertyOp31
 70
     1
102
RTVSPropertyOp32
 70
     1
102
RTVSPropertyOp33
 70
     1
102
RTVSPropertyOp34
 70
     1
102
RTVSPropertyOp35
 70
     1
102
RTVSPropertyOp36
 70
     1
102
RTVSPropertyOp37
 70
     1
102
RTVSPropertyOp38
 70
     1
102
RTVSPropertyOp39
 70
     1
102
RTVSPropertyOp40
 70
     1
102
RTVSPropertyOp41
 70
     1
102
RTVSPropertyOp42
 70
     1
102
RTVSPropertyOp43
 70
     1
102
RTVSPropertyOp44
 70
     1
102
RTVSPropertyOp45
 70
     1
102
RTVSPropertyOp46
 70
     1
102
RTVSPropertyOp47
 70
     1
102
RTVSPropertyOp48
 70
     1
102
RTVSPropertyOp49
 70
     1
102
RTVSPropertyOp50
 70
     1
102
RTVSPropertyOp51
 70
     0
102
RTVSPropertyOp52
 70
     0
102
RTVSPropertyOp53
 70
     1
102
RTVSPropertyOp54
 70
     1
102
RTVSPropertyOp55
 70
     1
102
RTVSPropertyOp56
 70
     1
102
RTVSPropertyOp57
 70
     1
102
RTVSPropertyOp58
 70
     1
102
RTVSPropertyOp59
 70
     1
102
RTVSPropertyOp60
 70
     1
102
RTVSPropertyOp61
 70
     1
102
RTVSPropertyOp62
 70
     1
  0
XRECORD
  5
46B
102
{ACAD_REACTORS
330
46A
102
}
330
46A
100
AcDbXrecord
280
     1
102
RTVSPost2010Prop28
280
     0
102
RTVSPost2010PropOp28
 70
     1
102
RTVSPost2010Prop29
280
     1
102
RTVSPost2010PropOp29
 70
     1
102
RTVSPost2010Prop30
280
     1
102
RTVSPost2010PropOp30
 70
     1
102
RTVSPost2010Prop31
280
     0
102
RTVSPost2010PropOp31
 70
     1
102
RTVSPost2010Prop32
280
     0
102
RTVSPost2010PropOp32
 70
     1
102
RTVSPost2010Prop33
280
     0
102
RTVSPost2010PropOp33
 70
     1
102
RTVSPost2010Prop34
280
     0
102
RTVSPost2010PropOp34
 70
     1
102
RTVSPost2010Prop35
280
     0
102
RTVSPost2010PropOp35
 70
     1
102
RTVSPost2010Prop36
280
     0
102
RTVSPost2010PropOp36
 70
     1
102
RTVSPost2010Prop37
 90
       50
102
RTVSPost2010PropOp37
 70
     1
102
RTVSPost2010Prop38
140
0.0
102
RTVSPost2010PropOp38
 70
     1
102
RTVSPost2010Prop39
140
1.0
102
RTVSPost2010PropOp39
 70
     1
102
RTVSPost2010Prop40
 90
        0
102
RTVSPost2010PropOp40
 70
     1
102
RTVSPost2010Prop41ColorIndex
 90
       18
102
RTVSPost2010Prop41ColorRGB
 90
        0
102
RTVSPost2010PropOp41
 70
     1
102
RTVSPost2010Prop42
 90
       50
102
RTVSPost2010PropOp42
 70
     1
102
RTVSPost2010Prop43
 90
        3
102
RTVSPost2010PropOp43
 70
     1
102
RTVSPost2010Prop44ColorIndex
 90
        5
102
RTVSPost2010Prop44ColorRGB
 90
      255
102
RTVSPost2010PropOp44
 70
     1
102
RTVSPost2010Prop45
280
     0
102
RTVSPost2010PropOp45
 70
     1
102
RTVSPost2010Prop46
 90
       50
102
RTVSPost2010PropOp46
 70
     1
102
RTVSPost2010Prop47
 90
       50
102
RTVSPost2010PropOp47
 70
     1
102
RTVSPost2010Prop48
 90
       50
102
RTVSPost2010PropOp48
 70
     1
102
RTVSPost2010Prop49
280
     0
102
RTVSPost2010PropOp49
 70
     1
102
RTVSPost2010Prop50
 90
       50
102
RTVSPost2010PropOp50
 70
     1
102
RTVSPost2010Prop51ColorIndex
 90
      256
102
RTVSPost2010Prop51ColorRGB
 90
-16777216
102
RTVSPost2010PropOp51
 70
     0
102
RTVSPost2010Prop52
140
1.0
102
RTVSPost2010PropOp52
 70
     0
102
RTVSPost2010Prop53
 90
        2
102
RTVSPost2010PropOp53
 70
     1
102
RTVSPost2010Prop54
  1
strokes_ogs.tif
102
RTVSPost2010PropOp54
 70
     1
102
RTVSPost2010Prop55
280
     0
102
RTVSPost2010PropOp55
 70
     1
102
RTVSPost2010Prop56
140
1.0
102
RTVSPost2010PropOp56
 70
     1
102
RTVSPost2010Prop57
140
1.0
102
RTVSPost2010PropOp57
 70
     1
102
RTVSPropertyOp0
 70
     1
102
RTVSPropertyOp1
 70
     1
102
RTVSPropertyOp2
 70
     1
102
RTVSPropertyOp3
 70
     1
102
RTVSPropertyOp4
 70
     1
102
RTVSPropertyOp5
 70
     1
102
RTVSPropertyOp6
 70
     1
102
RTVSPropertyOp7
 70
     1
102
RTVSPropertyOp8
 70
     1
102
RTVSPropertyOp9
 70
     1
102
RTVSPropertyOp10
 70
     1
102
RTVSPropertyOp11
 70
     1
102
RTVSPropertyOp12
 70
     1
102
RTVSPropertyOp13
 70
     1
102
RTVSPropertyOp14
 70
     1
102
RTVSPropertyOp15
 70
     1
102
RTVSPropertyOp16
 70
     1
102
RTVSPropertyOp17
 70
     1
102
RTVSPropertyOp18
 70
     1
102
RTVSPropertyOp19
 70
     1
102
RTVSPropertyOp20
 70
     1
102
RTVSPropertyOp21
 70
     1
102
RTVSPropertyOp22
 70
     1
102
RTVSPropertyOp23
 70
     1
102
RTVSPropertyOp24
 70
     1
102
RTVSPropertyOp25
 70
     1
102
RTVSPropertyOp26
 70
     1
102
RTVSPropertyOp27
 70
     1
102
RTVSPropertyOp28
 70
     1
102
RTVSPropertyOp29
 70
     1
102
RTVSPropertyOp30
 70
     1
102
RTVSPropertyOp31
 70
     1
102
RTVSPropertyOp32
 70
     1
102
RTVSPropertyOp33
 70
     1
102
RTVSPropertyOp34
 70
     1
102
RTVSPropertyOp35
 70
     1
102
RTVSPropertyOp36
 70
     1
102
RTVSPropertyOp37
 70
     1
102
RTVSPropertyOp38
 70
     1
102
RTVSPropertyOp39
 70
     1
102
RTVSPropertyOp40
 70
     1
102
RTVSPropertyOp41
 70
     1
102
RTVSPropertyOp42
 70
     1
102
RTVSPropertyOp43
 70
     1
102
RTVSPropertyOp44
 70
     1
102
RTVSPropertyOp45
 70
     1
102
RTVSPropertyOp46
 70
     1
102
RTVSPropertyOp47
 70
     1
102
RTVSPropertyOp48
 70
     1
102
RTVSPropertyOp49
 70
     1
102
RTVSPropertyOp50
 70
     1
102
RTVSPropertyOp51
 70
     0
102
RTVSPropertyOp52
 70
     0
102
RTVSPropertyOp53
 70
     1
102
RTVSPropertyOp54
 70
     1
102
RTVSPropertyOp55
 70
     1
102
RTVSPropertyOp56
 70
     1
102
RTVSPropertyOp57
 70
     1
102
RTVSPropertyOp58
 70
     1
102
RTVSPropertyOp59
 70
     1
102
RTVSPropertyOp60
 70
     1
102
RTVSPropertyOp61
 70
     1
102
RTVSPropertyOp62
 70
     1
  0
ENDSEC
  0
EOF
