  0
SECTION
  2
HEADER
  9
$ACADVER
  1
AC1015
  9
$ACADMAINTVER
 70
    20
  9
$DWGCODEPAGE
  3
ANSI_932
  9
$INSBASE
 10
0.0
 20
0.0
 30
0.0
  9
$EXTMIN
 10
-1734.677785408612
 20
-706.7318236798874
 30
0.0
  9
$EXTMAX
 10
1646.428777166376
 20
793.6144772535024
 30
0.0
  9
$LIMMIN
 10
-4267.152221060483
 20
-2696.083210198413
  9
$LIMMAX
 10
7190.717422586465
 20
5141.155363923066
  9
$ORTHOMODE
 70
     0
  9
$REGENMODE
 70
     1
  9
$FILLMODE
 70
     1
  9
$QTEXTMODE
 70
     0
  9
$MIRRTEXT
 70
     0
  9
$LTSCALE
 40
20.0
  9
$ATTMODE
 70
     1
  9
$TEXTSIZE
 40
53.0
  9
$TRACEWID
 40
0.05
  9
$TEXTSTYLE
  7
KAIGAI_STANDARD_1
  9
$CLAYER
  8
NOTE
  9
$CELTYPE
  6
CONTINUOUS
  9
$CECOLOR
 62
     7
  9
$CELTSCALE
 40
1.0
  9
$DISPSILH
 70
     0
  9
$DIMSCALE
 40
1.0
  9
$DIMASZ
 40
30.0
  9
$DIMEXO
 40
20.0
  9
$DIMDLI
 40
80.0
  9
$DIMRND
 40
0.0
  9
$DIMDLE
 40
0.0
  9
$DIMEXE
 40
20.0
  9
$DIMTP
 40
0.0
  9
$DIMTM
 40
0.0
  9
$DIMTXT
 40
40.0
  9
$DIMCEN
 40
0.09
  9
$DIMTSZ
 40
0.0
  9
$DIMTOL
 70
     0
  9
$DIMLIM
 70
     0
  9
$DIMTIH
 70
     0
  9
$DIMTOH
 70
     0
  9
$DIMSE1
 70
     0
  9
$DIMSE2
 70
     0
  9
$DIMTAD
 70
     1
  9
$DIMZIN
 70
     8
  9
$DIMBLK
  1

  9
$DIMASO
 70
     1
  9
$DIMSHO
 70
     0
  9
$DIMPOST
  1

  9
$DIMAPOST
  1

  9
$DIMALT
 70
     0
  9
$DIMALTD
 70
     2
  9
$DIMALTF
 40
25.4
  9
$DIMLFAC
 40
1.0
  9
$DIMTOFL
 70
     1
  9
$DIMTVP
 40
0.0
  9
$DIMTIX
 70
     0
  9
$DIMSOXD
 70
     0
  9
$DIMSAH
 70
     0
  9
$DIMBLK1
  1

  9
$DIMBLK2
  1

  9
$DIMSTYLE
  2
Standard
  9
$DIMCLRD
 70
     0
  9
$DIMCLRE
 70
     0
  9
$DIMCLRT
 70
     0
  9
$DIMTFAC
 40
1.0
  9
$DIMGAP
 40
0.09
  9
$DIMJUST
 70
     0
  9
$DIMSD1
 70
     0
  9
$DIMSD2
 70
     0
  9
$DIMTOLJ
 70
     1
  9
$DIMTZIN
 70
     0
  9
$DIMALTZ
 70
     0
  9
$DIMALTTZ
 70
     0
  9
$DIMUPT
 70
     0
  9
$DIMDEC
 70
     4
  9
$DIMTDEC
 70
     4
  9
$DIMALTU
 70
     2
  9
$DIMALTTD
 70
     2
  9
$DIMTXSTY
  7
STANDARD
  9
$DIMAUNIT
 70
     0
  9
$DIMADEC
 70
     0
  9
$DIMALTRND
 40
0.0
  9
$DIMAZIN
 70
     0
  9
$DIMDSEP
 70
    46
  9
$DIMATFIT
 70
     3
  9
$DIMFRAC
 70
     0
  9
$DIMLDRBLK
  1

  9
$DIMLUNIT
 70
     2
  9
$DIMLWD
 70
    -2
  9
$DIMLWE
 70
    -2
  9
$DIMTMOVE
 70
     0
  9
$LUNITS
 70
     2
  9
$LUPREC
 70
     4
  9
$SKETCHINC
 40
0.1
  9
$FILLETRAD
 40
0.0
  9
$AUNITS
 70
     1
  9
$AUPREC
 70
     3
  9
$MENU
  1
ACAD
  9
$ELEVATION
 40
0.0
  9
$PELEVATION
 40
0.0
  9
$THICKNESS
 40
0.0
  9
$LIMCHECK
 70
     0
  9
$CHAMFERA
 40
0.0
  9
$CHAMFERB
 40
0.0
  9
$CHAMFERC
 40
0.0
  9
$CHAMFERD
 40
0.0
  9
$SKPOLY
 70
     0
  9
$TDCREATE
 40
2455902.607164352
  9
$TDUCREATE
 40
2455902.232164352
  9
$TDUPDATE
 40
2459096.673113426
  9
$TDUUPDATE
 40
2459096.298113426
  9
$TDINDWG
 40
1.6511002546
  9
$TDUSRTIMER
 40
1.6510966435
  9
$USRTIMER
 70
     1
  9
$ANGBASE
 50
0.0
  9
$ANGDIR
 70
     0
  9
$PDMODE
 70
     3
  9
$PDSIZE
 40
-2.0
  9
$PLINEWID
 40
0.0
  9
$SPLFRAME
 70
     0
  9
$SPLINETYPE
 70
     6
  9
$SPLINESEGS
 70
     8
  9
$HANDSEED
  5
988
  9
$SURFTAB1
 70
     6
  9
$SURFTAB2
 70
     6
  9
$SURFTYPE
 70
     6
  9
$SURFU
 70
     6
  9
$SURFV
 70
     6
  9
$UCSBASE
  2

  9
$UCSNAME
  2

  9
$UCSORG
 10
0.0
 20
0.0
 30
0.0
  9
$UCSXDIR
 10
1.0
 20
0.0
 30
0.0
  9
$UCSYDIR
 10
0.0
 20
1.0
 30
0.0
  9
$UCSORTHOREF
  2

  9
$UCSORTHOVIEW
 70
     0
  9
$UCSORGTOP
 10
0.0
 20
0.0
 30
0.0
  9
$UCSORGBOTTOM
 10
0.0
 20
0.0
 30
0.0
  9
$UCSORGLEFT
 10
0.0
 20
0.0
 30
0.0
  9
$UCSORGRIGHT
 10
0.0
 20
0.0
 30
0.0
  9
$UCSORGFRONT
 10
0.0
 20
0.0
 30
0.0
  9
$UCSORGBACK
 10
0.0
 20
0.0
 30
0.0
  9
$PUCSBASE
  2

  9
$PUCSNAME
  2

  9
$PUCSORG
 10
0.0
 20
0.0
 30
0.0
  9
$PUCSXDIR
 10
1.0
 20
0.0
 30
0.0
  9
$PUCSYDIR
 10
0.0
 20
1.0
 30
0.0
  9
$PUCSORTHOREF
  2

  9
$PUCSORTHOVIEW
 70
     0
  9
$PUCSORGTOP
 10
0.0
 20
0.0
 30
0.0
  9
$PUCSORGBOTTOM
 10
0.0
 20
0.0
 30
0.0
  9
$PUCSORGLEFT
 10
0.0
 20
0.0
 30
0.0
  9
$PUCSORGRIGHT
 10
0.0
 20
0.0
 30
0.0
  9
$PUCSORGFRONT
 10
0.0
 20
0.0
 30
0.0
  9
$PUCSORGBACK
 10
0.0
 20
0.0
 30
0.0
  9
$USERI1
 70
     0
  9
$USERI2
 70
     0
  9
$USERI3
 70
     0
  9
$USERI4
 70
     0
  9
$USERI5
 70
     0
  9
$USERR1
 40
20.0
  9
$USERR2
 40
0.0
  9
$USERR3
 40
0.0
  9
$USERR4
 40
0.0
  9
$USERR5
 40
0.0
  9
$WORLDVIEW
 70
     1
  9
$SHADEDGE
 70
     3
  9
$SHADEDIF
 70
    70
  9
$TILEMODE
 70
     1
  9
$MAXACTVP
 70
    64
  9
$PINSBASE
 10
0.0
 20
0.0
 30
0.0
  9
$PLIMCHECK
 70
     0
  9
$PEXTMIN
 10
1.000000000000000E+20
 20
1.000000000000000E+20
 30
1.000000000000000E+20
  9
$PEXTMAX
 10
-1.000000000000000E+20
 20
-1.000000000000000E+20
 30
-1.000000000000000E+20
  9
$PLIMMIN
 10
0.0
 20
0.0
  9
$PLIMMAX
 10
12.0
 20
9.0
  9
$UNITMODE
 70
     0
  9
$VISRETAIN
 70
     1
  9
$PLINEGEN
 70
     0
  9
$PSLTSCALE
 70
     1
  9
$TREEDEPTH
 70
  3020
  9
$CMLSTYLE
  2
Standard
  9
$CMLJUST
 70
     0
  9
$CMLSCALE
 40
1.0
  9
$PROXYGRAPHICS
 70
     1
  9
$MEASUREMENT
 70
     0
  9
$CELWEIGHT
370
    -1
  9
$ENDCAPS
280
     0
  9
$JOINSTYLE
280
     0
  9
$LWDISPLAY
290
     0
  9
$INSUNITS
 70
     0
  9
$HYPERLINKBASE
  1

  9
$STYLESHEET
  1

  9
$XEDIT
290
     1
  9
$CEPSNTYPE
380
     0
  9
$PSTYLEMODE
290
     1
  9
$FINGERPRINTGUID
  2
{C212866A-48C0-EA4F-BB11-4D2BAD329AAB}
  9
$VERSIONGUID
  2
{3A6C959F-B616-4D45-9FB8-B425D1A153BC}
  9
$EXTNAMES
290
     1
  9
$PSVPSCALE
 40
0.0
  9
$OLESTARTUP
290
     0
  0
ENDSEC
  0
SECTION
  2
CLASSES
  0
CLASS
  1
ACDBDICTIONARYWDFLT
  2
AcDbDictionaryWithDefault
  3
ObjectDBX Classes
 90
        0
280
     0
281
     0
  0
CLASS
  1
MATERIAL
  2
AcDbMaterial
  3
ObjectDBX Classes
 90
     1153
280
     0
281
     0
  0
CLASS
  1
VISUALSTYLE
  2
AcDbVisualStyle
  3
ObjectDBX Classes
 90
     4095
280
     0
281
     0
  0
CLASS
  1
SCALE
  2
AcDbScale
  3
ObjectDBX Classes
 90
     1153
280
     0
281
     0
  0
CLASS
  1
TABLESTYLE
  2
AcDbTableStyle
  3
ObjectDBX Classes
 90
     4095
280
     0
281
     0
  0
CLASS
  1
MLEADERSTYLE
  2
AcDbMLeaderStyle
  3
ACDB_MLEADERSTYLE_CLASS
 90
     4095
280
     0
281
     0
  0
CLASS
  1
ACDBSECTIONVIEWSTYLE
  2
AcDbSectionViewStyle
  3
ObjectDBX Classes
 90
     1025
280
     0
281
     0
  0
CLASS
  1
ACDBDETAILVIEWSTYLE
  2
AcDbDetailViewStyle
  3
ObjectDBX Classes
 90
     1025
280
     0
281
     0
  0
CLASS
  1
DICTIONARYVAR
  2
AcDbDictionaryVar
  3
ObjectDBX Classes
 90
        0
280
     0
281
     0
  0
CLASS
  1
CELLSTYLEMAP
  2
AcDbCellStyleMap
  3
ObjectDBX Classes
 90
     1152
280
     0
281
     0
  0
CLASS
  1
ACDBPLACEHOLDER
  2
AcDbPlaceHolder
  3
ObjectDBX Classes
 90
        0
280
     0
281
     0
  0
CLASS
  1
LAYOUT
  2
AcDbLayout
  3
ObjectDBX Classes
 90
        0
280
     0
281
     0
  0
ENDSEC
  0
SECTION
  2
TABLES
  0
TABLE
  2
VPORT
  5
8
330
0
100
AcDbSymbolTable
 70
     1
  0
VPORT
  5
81
330
8
100
AcDbSymbolTableRecord
100
AcDbViewportTableRecord
  2
*ACTIVE
 70
     0
 10
0.0
 20
0.0
 11
1.0
 21
1.0
 12
-43.96844709553966
 22
293.6609755597506
 13
0.0
 23
0.0
 14
50.0
 24
50.0
 15
100.0
 25
100.0
 16
0.0
 26
0.0
 36
1.0
 17
0.0
 27
0.0
 37
0.0
 40
1126.841779768385
 41
2.656378600823045
 42
50.0
 43
0.0
 44
0.0
 50
0.0
 51
0.0
 71
     0
 72
  1000
 73
     1
 74
     0
 75
     0
 76
     0
 77
     0
 78
     0
281
     0
 65
     1
110
0.0
120
0.0
130
0.0
111
1.0
121
0.0
131
0.0
112
0.0
122
1.0
132
0.0
 79
     0
146
0.0
1001
ACAD_NAV_VCDISPLAY
1070
     3
  0
ENDTAB
  0
TABLE
  2
LTYPE
  5
5
330
0
100
AcDbSymbolTable
 70
     3
  0
LTYPE
  5
5A
330
5
100
AcDbSymbolTableRecord
100
AcDbLinetypeTableRecord
  2
ByBlock
 70
     0
  3

 72
    65
 73
     0
 40
0.0
  0
LTYPE
  5
5B
330
5
100
AcDbSymbolTableRecord
100
AcDbLinetypeTableRecord
  2
ByLayer
 70
     0
  3

 72
    65
 73
     0
 40
0.0
  0
LTYPE
  5
5C
330
5
100
AcDbSymbolTableRecord
100
AcDbLinetypeTableRecord
  2
CONTINUOUS
 70
     0
  3
実線
 72
    65
 73
     0
 40
0.0
  0
LTYPE
  5
75
330
5
100
AcDbSymbolTableRecord
100
AcDbLinetypeTableRecord
  2
DASHDOT
 70
     0
  3
____ _ ____ _ ____ _ ____ _ ____ _ ____ _ ____
 72
    65
 73
     4
 40
5.5
 49
4.0
 74
     0
 49
-0.6
 74
     0
 49
0.3
 74
     0
 49
-0.6
 74
     0
  0
ENDTAB
  0
TABLE
  2
LAYER
  5
2
330
0
100
AcDbSymbolTable
 70
    12
  0
LAYER
  5
54
102
{ACAD_XDICTIONARY
360
8E2
102
}
330
2
100
AcDbSymbolTableRecord
100
AcDbLayerTableRecord
  2
0
 70
     0
 62
     7
  6
CONTINUOUS
370
    -3
390
F
  0
LAYER
  5
73
102
{ACAD_XDICTIONARY
360
8E4
102
}
330
2
100
AcDbSymbolTableRecord
100
AcDbLayerTableRecord
  2
NOTE
 70
     0
 62
     4
  6
CONTINUOUS
370
    -3
390
F
  0
LAYER
  5
76
102
{ACAD_XDICTIONARY
360
8E6
102
}
330
2
100
AcDbSymbolTableRecord
100
AcDbLayerTableRecord
  2
OUTLINE
 70
     0
 62
     3
  6
CONTINUOUS
370
    -3
390
F
  0
LAYER
  5
77
102
{ACAD_XDICTIONARY
360
8E8
102
}
330
2
100
AcDbSymbolTableRecord
100
AcDbLayerTableRecord
  2
DETAIL
 70
     0
 62
     5
  6
CONTINUOUS
370
    -3
390
F
  0
LAYER
  5
78
102
{ACAD_XDICTIONARY
360
8EA
102
}
330
2
100
AcDbSymbolTableRecord
100
AcDbLayerTableRecord
  2
BASIS
 70
     0
 62
     6
  6
DASHDOT
370
    -3
390
F
  0
LAYER
  5
79
102
{ACAD_XDICTIONARY
360
8EC
102
}
330
2
100
AcDbSymbolTableRecord
100
AcDbLayerTableRecord
  2
SIZE
 70
     0
 62
    30
  6
CONTINUOUS
370
    -3
390
F
  0
LAYER
  5
7A
102
{ACAD_XDICTIONARY
360
8EE
102
}
330
2
100
AcDbSymbolTableRecord
100
AcDbLayerTableRecord
  2
ARRANGE
 70
     0
 62
     1
  6
CONTINUOUS
370
    -3
390
F
  0
LAYER
  5
7B
102
{ACAD_XDICTIONARY
360
8F0
102
}
330
2
100
AcDbSymbolTableRecord
100
AcDbLayerTableRecord
  2
FIX
 70
     0
 62
    11
  6
CONTINUOUS
370
    -3
390
F
  0
LAYER
  5
7C
102
{ACAD_XDICTIONARY
360
8F2
102
}
330
2
100
AcDbSymbolTableRecord
100
AcDbLayerTableRecord
  2
SERVICESPACE
 70
     0
 62
     2
  6
DASHDOT
370
    -3
390
F
  0
LAYER
  5
7D
102
{ACAD_XDICTIONARY
360
8F4
102
}
330
2
100
AcDbSymbolTableRecord
100
AcDbLayerTableRecord
  2
ETC
 70
     0
 62
    61
  6
CONTINUOUS
370
    -3
390
F
  0
LAYER
  5
7E
102
{ACAD_XDICTIONARY
360
8F6
102
}
330
2
100
AcDbSymbolTableRecord
100
AcDbLayerTableRecord
  2
SYMBOLLINE
 70
     0
 62
    15
  6
CONTINUOUS
370
    -3
390
F
  0
LAYER
  5
7F
330
2
100
AcDbSymbolTableRecord
100
AcDbLayerTableRecord
  2
DEFPOINTS
 70
     0
 62
     7
  6
CONTINUOUS
290
     0
370
    -3
390
F
  0
ENDTAB
  0
TABLE
  2
STYLE
  5
3
330
0
100
AcDbSymbolTable
 70
     3
  0
STYLE
  5
55
330
3
100
AcDbSymbolTableRecord
100
AcDbTextStyleTableRecord
  2
STANDARD
 70
     0
 40
0.0
 41
0.9
 50
0.0
 71
     0
 42
64.0
  3
SIMPLEX
  4
BIGFONT
  0
STYLE
  5
59
330
3
100
AcDbSymbolTableRecord
100
AcDbTextStyleTableRecord
  2
Annotative
 70
     0
 40
0.0
 41
1.0
 50
0.0
 71
     0
 42
0.2
  3
txt
  4

1001
AcadAnnotative
1000
AnnotativeData
1002
{
1070
     1
1070
     1
1002
}
  0
STYLE
  5
74
330
3
100
AcDbSymbolTableRecord
100
AcDbTextStyleTableRecord
  2
KAIGAI_STANDARD_1
 70
     0
 40
53.0
 41
0.51
 50
0.0
 71
     0
 42
53.0
  3
MONOTXT.shx
  4
BIGFONT.shx
  0
ENDTAB
  0
TABLE
  2
VIEW
  5
6
330
0
100
AcDbSymbolTable
 70
     1
  0
VIEW
  5
80
330
6
100
AcDbSymbolTableRecord
100
AcDbViewTableRecord
  2
ALL
 70
     0
 40
9000.0
 10
241.506647
 20
0.0
 41
12483.01
 11
0.0
 21
0.0
 31
1.0
 12
0.0
 22
0.0
 32
0.0
 42
50.0
 43
0.0
 44
0.0
 50
0.0
 71
     0
281
     0
 72
     0
  0
ENDTAB
  0
TABLE
  2
UCS
  5
7
330
0
100
AcDbSymbolTable
 70
     0
  0
ENDTAB
  0
TABLE
  2
APPID
  5
9
330
0
100
AcDbSymbolTable
 70
     5
  0
APPID
  5
56
330
9
100
AcDbSymbolTableRecord
100
AcDbRegAppTableRecord
  2
ACAD
 70
     0
  0
APPID
  5
5D
330
9
100
AcDbSymbolTableRecord
100
AcDbRegAppTableRecord
  2
AcadAnnotative
 70
     0
  0
APPID
  5
8E0
330
9
100
AcDbSymbolTableRecord
100
AcDbRegAppTableRecord
  2
ACAD_EXEMPT_FROM_CAD_STANDARDS
 70
     0
  0
APPID
  5
902
330
9
100
AcDbSymbolTableRecord
100
AcDbRegAppTableRecord
  2
ACAD_NAV_VCDISPLAY
 70
     0
  0
APPID
  5
93B
330
9
100
AcDbSymbolTableRecord
100
AcDbRegAppTableRecord
  2
ACAD_MLEADERVER
 70
     0
  0
ENDTAB
  0
TABLE
  2
DIMSTYLE
  5
A
330
0
100
AcDbSymbolTable
 70
     2
100
AcDbDimStyleTable
 71
     0
  0
DIMSTYLE
105
57
330
A
100
AcDbSymbolTableRecord
100
AcDbDimStyleTableRecord
  2
Standard
 70
     0
340
55
  0
DIMSTYLE
105
58
330
A
100
AcDbSymbolTableRecord
100
AcDbDimStyleTableRecord
  2
Annotative
 70
     0
340
55
1001
AcadAnnotative
1000
AnnotativeData
1002
{
1070
     1
1070
     1
1002
}
  0
ENDTAB
  0
TABLE
  2
BLOCK_RECORD
  5
1
330
0
100
AcDbSymbolTable
 70
     0
  0
BLOCK_RECORD
  5
6F
330
1
100
AcDbSymbolTableRecord
100
AcDbBlockTableRecord
  2
*Model_Space
340
72
  0
BLOCK_RECORD
  5
6B
330
1
100
AcDbSymbolTableRecord
100
AcDbBlockTableRecord
  2
*Paper_Space
340
6E
  0
ENDTAB
  0
ENDSEC
  0
SECTION
  2
BLOCKS
  0
BLOCK
  5
70
330
6F
100
AcDbEntity
  8
0
100
AcDbBlockBegin
  2
*Model_Space
 70
     0
 10
0.0
 20
0.0
 30
0.0
  3
*Model_Space
  1

  0
ENDBLK
  5
71
330
6F
100
AcDbEntity
  8
0
100
AcDbBlockEnd
  0
BLOCK
  5
6C
330
6B
100
AcDbEntity
 67
     1
  8
0
100
AcDbBlockBegin
  2
*Paper_Space
 70
     0
 10
0.0
 20
0.0
 30
0.0
  3
*Paper_Space
  1

  0
ENDBLK
  5
6D
330
6B
100
AcDbEntity
 67
     1
  8
0
100
AcDbBlockEnd
  0
ENDSEC
  0
SECTION
  2
ENTITIES
  0
LINE
  5
86
330
6F
100
AcDbEntity
  8
SIZE
  6
Continuous
 62
    30
100
AcDbLine
 10
-700.0
 20
20.0
 30
0.0
 11
-700.0
 21
210.9890570364614
 31
0.0
  0
LINE
  5
87
330
6F
100
AcDbEntity
  8
SIZE
  6
Continuous
 62
    30
100
AcDbLine
 10
700.0
 20
20.0
 30
0.0
 11
700.0
 21
210.9890570364614
 31
0.0
  0
LINE
  5
88
330
6F
100
AcDbEntity
  8
SIZE
  6
Continuous
 62
    30
100
AcDbLine
 10
-700.0
 20
190.9890570364613
 30
0.0
 11
700.0
 21
190.9890570364613
 31
0.0
  0
CIRCLE
  5
89
330
6F
100
AcDbEntity
  8
SIZE
  6
Continuous
 62
    30
100
AcDbCircle
 10
-700.0
 20
190.9890570364613
 30
0.0
 40
7.5
  0
CIRCLE
  5
8A
330
6F
100
AcDbEntity
  8
SIZE
  6
Continuous
 62
    30
100
AcDbCircle
 10
700.0
 20
190.9890570364613
 30
0.0
 40
7.5
  0
TEXT
  5
8B
330
6F
100
AcDbEntity
  8
SIZE
  6
Continuous
 62
    30
100
AcDbText
 10
-60.0
 20
210.9890570364614
 30
0.0
 40
40.0
  1
1400
 41
0.9
 72
     1
 11
0.0
 21
210.9890570364614
 31
0.0
100
AcDbText
  0
POINT
  5
8C
330
6F
100
AcDbEntity
  8
DEFPOINTS
  6
Continuous
 62
    30
100
AcDbPoint
 10
-700.0
 20
0.0
 30
0.0
  0
POINT
  5
8D
330
6F
100
AcDbEntity
  8
DEFPOINTS
  6
Continuous
 62
    30
100
AcDbPoint
 10
700.0
 20
0.0
 30
0.0
  0
POINT
  5
8E
330
6F
100
AcDbEntity
  8
DEFPOINTS
  6
Continuous
 62
    30
100
AcDbPoint
 10
700.0
 20
190.9890570364613
 30
0.0
  0
LINE
  5
8F
330
6F
100
AcDbEntity
  8
SIZE
  6
Continuous
 62
    30
100
AcDbLine
 10
479.9500000000008
 20
28.46968523904525
 30
0.0
 11
479.9500000000008
 21
125.315159029501
 31
0.0
  0
LINE
  5
90
330
6F
100
AcDbEntity
  8
SIZE
  6
Continuous
 62
    30
100
AcDbLine
 10
700.0
 20
20.0
 30
0.0
 11
700.0
 21
125.315159029501
 31
0.0
  0
LINE
  5
91
330
6F
100
AcDbEntity
  8
SIZE
  6
Continuous
 62
    30
100
AcDbLine
 10
479.9500000000008
 20
105.315159029501
 30
0.0
 11
700.0
 21
105.315159029501
 31
0.0
  0
CIRCLE
  5
92
330
6F
100
AcDbEntity
  8
SIZE
  6
Continuous
 62
    30
100
AcDbCircle
 10
479.9500000000008
 20
105.315159029501
 30
0.0
 40
7.5
  0
CIRCLE
  5
93
330
6F
100
AcDbEntity
  8
SIZE
  6
Continuous
 62
    30
100
AcDbCircle
 10
700.0
 20
105.315159029501
 30
0.0
 40
7.5
  0
TEXT
  5
94
330
6F
100
AcDbEntity
  8
SIZE
  6
Continuous
 62
    30
100
AcDbText
 10
543.6892857142859
 20
125.315159029501
 30
0.0
 40
40.0
  1
220
 41
0.9
 72
     1
 11
589.9750000000002
 21
125.315159029501
 31
0.0
100
AcDbText
  0
POINT
  5
95
330
6F
100
AcDbEntity
  8
DEFPOINTS
  6
Continuous
 62
    30
100
AcDbPoint
 10
479.9500000000008
 20
8.469685239045245
 30
0.0
  0
POINT
  5
96
330
6F
100
AcDbEntity
  8
DEFPOINTS
  6
Continuous
 62
    30
100
AcDbPoint
 10
700.0
 20
0.0
 30
0.0
  0
POINT
  5
97
330
6F
100
AcDbEntity
  8
DEFPOINTS
  6
Continuous
 62
    30
100
AcDbPoint
 10
700.0
 20
105.315159029501
 30
0.0
  0
LINE
  5
98
330
6F
100
AcDbEntity
  8
SIZE
  6
Continuous
 62
    30
100
AcDbLine
 10
479.9500000000008
 20
28.46968523904525
 30
0.0
 11
479.9500000000008
 21
125.315159029501
 31
0.0
  0
LINE
  5
99
330
6F
100
AcDbEntity
  8
SIZE
  6
Continuous
 62
    30
100
AcDbLine
 10
159.9499999999989
 20
28.46968523904525
 30
0.0
 11
159.9499999999989
 21
125.315159029501
 31
0.0
  0
LINE
  5
9A
330
6F
100
AcDbEntity
  8
SIZE
  6
Continuous
 62
    30
100
AcDbLine
 10
479.9500000000008
 20
105.315159029501
 30
0.0
 11
159.9499999999989
 21
105.315159029501
 31
0.0
  0
CIRCLE
  5
9B
330
6F
100
AcDbEntity
  8
SIZE
  6
Continuous
 62
    30
100
AcDbCircle
 10
479.9500000000008
 20
105.315159029501
 30
0.0
 40
7.5
  0
CIRCLE
  5
9C
330
6F
100
AcDbEntity
  8
SIZE
  6
Continuous
 62
    30
100
AcDbCircle
 10
159.9499999999989
 20
105.315159029501
 30
0.0
 40
7.5
  0
TEXT
  5
9D
330
6F
100
AcDbEntity
  8
SIZE
  6
Continuous
 62
    30
100
AcDbText
 10
273.6642857142856
 20
125.315159029501
 30
0.0
 40
40.0
  1
320
 41
0.9
 72
     1
 11
319.9499999999998
 21
125.315159029501
 31
0.0
100
AcDbText
  0
POINT
  5
9E
330
6F
100
AcDbEntity
  8
DEFPOINTS
  6
Continuous
 62
    30
100
AcDbPoint
 10
479.9500000000008
 20
8.469685239045245
 30
0.0
  0
POINT
  5
9F
330
6F
100
AcDbEntity
  8
DEFPOINTS
  6
Continuous
 62
    30
100
AcDbPoint
 10
159.9499999999989
 20
8.469685239045245
 30
0.0
  0
POINT
  5
A0
330
6F
100
AcDbEntity
  8
DEFPOINTS
  6
Continuous
 62
    30
100
AcDbPoint
 10
159.9499999999989
 20
105.315159029501
 30
0.0
  0
LINE
  5
A1
330
6F
100
AcDbEntity
  8
NOTE
  6
Continuous
 62
     4
100
AcDbLine
 10
32.98031476095275
 20
-118.5
 30
0.0
 11
159.9499999999971
 21
-118.5
 31
0.0
  0
LINE
  5
A2
330
6F
100
AcDbEntity
  8
NOTE
  6
Continuous
 62
     4
100
AcDbLine
 10
159.9499999999971
 20
-245.4696852390453
 30
0.0
 11
159.9499999999971
 21
-118.5
 31
0.0
  0
LINE
  5
A3
330
6F
100
AcDbEntity
  8
NOTE
  6
Continuous
 62
     4
100
AcDbLine
 10
286.9196852390432
 20
-118.5
 30
0.0
 11
159.9499999999989
 21
-118.5
 31
0.0
  0
LINE
  5
A4
330
6F
100
AcDbEntity
  8
NOTE
  6
Continuous
 62
     4
100
AcDbLine
 10
159.9499999999989
 20
8.469685239045245
 30
0.0
 11
159.9499999999971
 21
-118.5
 31
0.0
  0
LINE
  5
A5
330
6F
100
AcDbEntity
  8
NOTE
  6
Continuous
 62
     4
100
AcDbLine
 10
352.9803147609546
 20
-118.5
 30
0.0
 11
479.9499999999987
 21
-118.5
 31
0.0
  0
LINE
  5
A6
330
6F
100
AcDbEntity
  8
NOTE
  6
Continuous
 62
     4
100
AcDbLine
 10
479.9499999999987
 20
-245.4696852390453
 30
0.0
 11
479.9499999999987
 21
-118.5
 31
0.0
  0
LINE
  5
A7
330
6F
100
AcDbEntity
  8
NOTE
  6
Continuous
 62
     4
100
AcDbLine
 10
606.919685239045
 20
-118.5
 30
0.0
 11
479.9500000000008
 21
-118.5
 31
0.0
  0
LINE
  5
A8
330
6F
100
AcDbEntity
  8
NOTE
  6
Continuous
 62
     4
100
AcDbLine
 10
479.9500000000008
 20
8.469685239045245
 30
0.0
 11
479.9499999999987
 21
-118.5
 31
0.0
  0
LINE
  5
A9
330
6F
100
AcDbEntity
  8
SIZE
  6
Continuous
 62
    30
100
AcDbLine
 10
-750.0
 20
-0.6999999999998181
 30
0.0
 11
-750.0
 21
423.8524051159838
 31
0.0
  0
LINE
  5
AA
330
6F
100
AcDbEntity
  8
SIZE
  6
Continuous
 62
    30
100
AcDbLine
 10
750.0
 20
-0.6999999999998181
 30
0.0
 11
750.0
 21
423.8524051159838
 31
0.0
  0
LINE
  5
AB
330
6F
100
AcDbEntity
  8
SIZE
  6
Continuous
 62
    30
100
AcDbLine
 10
-750.0
 20
403.8524051159837
 30
0.0
 11
750.0
 21
403.8524051159837
 31
0.0
  0
CIRCLE
  5
AC
330
6F
100
AcDbEntity
  8
SIZE
  6
Continuous
 62
    30
100
AcDbCircle
 10
-750.0
 20
403.8524051159837
 30
0.0
 40
7.5
  0
CIRCLE
  5
AD
330
6F
100
AcDbEntity
  8
SIZE
  6
Continuous
 62
    30
100
AcDbCircle
 10
750.0
 20
403.8524051159837
 30
0.0
 40
7.5
  0
TEXT
  5
AE
330
6F
100
AcDbEntity
  8
SIZE
  6
Continuous
 62
    30
100
AcDbText
 10
-60.0
 20
423.8524051159838
 30
0.0
 40
40.0
  1
1500
 41
0.9
 72
     1
 11
0.0
 21
423.8524051159838
 31
0.0
100
AcDbText
  0
POINT
  5
AF
330
6F
100
AcDbEntity
  8
DEFPOINTS
  6
Continuous
 62
    30
100
AcDbPoint
 10
-750.0
 20
-20.69999999999982
 30
0.0
  0
POINT
  5
B0
330
6F
100
AcDbEntity
  8
DEFPOINTS
  6
Continuous
 62
    30
100
AcDbPoint
 10
750.0
 20
-20.69999999999982
 30
0.0
  0
POINT
  5
B1
330
6F
100
AcDbEntity
  8
DEFPOINTS
  6
Continuous
 62
    30
100
AcDbPoint
 10
750.0
 20
403.8524051159837
 30
0.0
  0
LINE
  5
B2
330
6F
100
AcDbEntity
  8
SIZE
  6
Continuous
 62
    30
100
AcDbLine
 10
714.5
 20
-3.000000000000003
 30
0.0
 11
1005.488546674436
 21
-3.000000000000087
 31
0.0
  0
LINE
  5
B3
330
6F
100
AcDbEntity
  8
SIZE
  6
Continuous
 62
    30
100
AcDbLine
 10
616.9196852390451
 20
-118.5
 30
0.0
 11
1005.488546674436
 21
-118.5000000000001
 31
0.0
  0
LINE
  5
B4
330
6F
100
AcDbEntity
  8
SIZE
  6
Continuous
 62
    30
100
AcDbLine
 10
985.4885466744363
 20
-3.000000000000082
 30
0.0
 11
985.4885466744363
 21
-118.5000000000001
 31
0.0
  0
CIRCLE
  5
B5
330
6F
100
AcDbEntity
  8
SIZE
  6
Continuous
 62
    30
100
AcDbCircle
 10
985.4885466744363
 20
-3.000000000000082
 30
0.0
 40
7.5
  0
CIRCLE
  5
B6
330
6F
100
AcDbEntity
  8
SIZE
  6
Continuous
 62
    30
100
AcDbCircle
 10
985.4885466744363
 20
-118.5000000000001
 30
0.0
 40
7.5
  0
TEXT
  5
B7
330
6F
100
AcDbEntity
  8
SIZE
  6
Continuous
 62
    30
100
AcDbText
 10
965.4885466744362
 20
-89.12192806717724
 30
0.0
 40
40.0
  1
116
 50
90.0
 41
0.9
 72
     1
 11
965.4885466744362
 21
-50.55049949574868
 31
0.0
100
AcDbText
  0
POINT
  5
B8
330
6F
100
AcDbEntity
  8
DEFPOINTS
  6
Continuous
 62
    30
100
AcDbPoint
 10
694.5
 20
-3.0
 30
0.0
  0
POINT
  5
B9
330
6F
100
AcDbEntity
  8
DEFPOINTS
  6
Continuous
 62
    30
100
AcDbPoint
 10
596.919685239045
 20
-118.5
 30
0.0
  0
POINT
  5
BA
330
6F
100
AcDbEntity
  8
DEFPOINTS
  6
Continuous
 62
    30
100
AcDbPoint
 10
985.4885466744363
 20
-118.5000000000001
 30
0.0
  0
LINE
  5
BB
330
6F
100
AcDbEntity
  8
SIZE
  6
Continuous
 62
    30
100
AcDbLine
 10
-720.0
 20
-1.999999999999993
 30
0.0
 11
-1052.484484519565
 21
-1.999999999999899
 31
0.0
  0
LINE
  5
BC
330
6F
100
AcDbEntity
  8
SIZE
  6
Continuous
 62
    30
100
AcDbLine
 10
-720.0
 20
-251.9499999999997
 30
0.0
 11
-1052.484484519565
 21
-251.9499999999997
 31
0.0
  0
LINE
  5
BD
330
6F
100
AcDbEntity
  8
SIZE
  6
Continuous
 62
    30
100
AcDbLine
 10
-1032.484484519565
 20
-1.999999999999904
 30
0.0
 11
-1032.484484519565
 21
-251.9499999999997
 31
0.0
  0
CIRCLE
  5
BE
330
6F
100
AcDbEntity
  8
SIZE
  6
Continuous
 62
    30
100
AcDbCircle
 10
-1032.484484519565
 20
-1.999999999999904
 30
0.0
 40
7.5
  0
CIRCLE
  5
BF
330
6F
100
AcDbEntity
  8
SIZE
  6
Continuous
 62
    30
100
AcDbCircle
 10
-1032.484484519565
 20
-251.9499999999997
 30
0.0
 40
7.5
  0
TEXT
  5
C0
330
6F
100
AcDbEntity
  8
SIZE
  6
Continuous
 62
    30
100
AcDbText
 10
-1052.484484519566
 20
-173.2607142857141
 30
0.0
 40
40.0
  1
250
 50
90.0
 41
0.9
 72
     1
 11
-1052.484484519566
 21
-126.9749999999998
 31
0.0
100
AcDbText
  0
POINT
  5
C1
330
6F
100
AcDbEntity
  8
DEFPOINTS
  6
Continuous
 62
    30
100
AcDbPoint
 10
-700.0
 20
-2.0
 30
0.0
  0
POINT
  5
C2
330
6F
100
AcDbEntity
  8
DEFPOINTS
  6
Continuous
 62
    30
100
AcDbPoint
 10
-700.0
 20
-251.9499999999997
 30
0.0
  0
POINT
  5
C3
330
6F
100
AcDbEntity
  8
DEFPOINTS
  6
Continuous
 62
    30
100
AcDbPoint
 10
-1032.484484519565
 20
-251.9499999999997
 30
0.0
  0
LINE
  5
C4
330
6F
100
AcDbEntity
  8
SIZE
  6
Continuous
 62
    30
100
AcDbLine
 10
-771.0001234834834
 20
-404.9603951084545
 30
0.0
 11
-1052.484484519578
 21
-404.9603951084545
 31
0.0
  0
LINE
  5
C5
330
6F
100
AcDbEntity
  8
SIZE
  6
Continuous
 62
    30
100
AcDbLine
 10
-720.0
 20
-251.9499999999997
 30
0.0
 11
-1052.484484519578
 21
-251.9499999999997
 31
0.0
  0
LINE
  5
C6
330
6F
100
AcDbEntity
  8
SIZE
  6
Continuous
 62
    30
100
AcDbLine
 10
-1032.484484519578
 20
-251.9499999999997
 30
0.0
 11
-1032.484484519578
 21
-404.9603951084545
 31
0.0
  0
LINE
  5
C7
330
6F
100
AcDbEntity
  8
SIZE
  6
Continuous
 62
    30
100
AcDbLine
 10
-1032.484484519578
 20
-404.9603951084545
 30
0.0
 11
-1032.484484519579
 21
-706.7318236798874
 31
0.0
  0
CIRCLE
  5
C8
330
6F
100
AcDbEntity
  8
SIZE
  6
Continuous
 62
    30
100
AcDbCircle
 10
-1032.484484519578
 20
-251.9499999999997
 30
0.0
 40
7.5
  0
CIRCLE
  5
C9
330
6F
100
AcDbEntity
  8
SIZE
  6
Continuous
 62
    30
100
AcDbCircle
 10
-1032.484484519578
 20
-404.9603951084545
 30
0.0
 40
7.5
  0
TEXT
  5
CA
330
6F
100
AcDbEntity
  8
SIZE
  6
Continuous
 62
    30
100
AcDbText
 10
-1052.484484519578
 20
-686.7318236798874
 30
0.0
 40
40.0
  1
150～300
 50
90.0
 41
0.9
 72
     1
 11
-1052.484484519578
 21
-570.8461093941732
 31
0.0
100
AcDbText
  0
POINT
  5
CB
330
6F
100
AcDbEntity
  8
DEFPOINTS
  6
Continuous
 62
    30
100
AcDbPoint
 10
-751.0001234834834
 20
-404.9603951084545
 30
0.0
  0
POINT
  5
CC
330
6F
100
AcDbEntity
  8
DEFPOINTS
  6
Continuous
 62
    30
100
AcDbPoint
 10
-700.0
 20
-251.9499999999997
 30
0.0
  0
POINT
  5
CD
330
6F
100
AcDbEntity
  8
DEFPOINTS
  6
Continuous
 62
    30
100
AcDbPoint
 10
-1032.484484519578
 20
-251.9499999999997
 30
0.0
  0
LINE
  5
CE
330
6F
100
AcDbEntity
  8
NOTE
  6
Continuous
 62
     4
100
AcDbLine
 10
756.5
 20
-145.4693543253205
 30
0.0
 11
756.5
 21
-104.930645674679
 31
0.0
  0
LINE
  5
CF
330
6F
100
AcDbEntity
  8
NOTE
  6
Continuous
 62
     4
100
AcDbLine
 10
774.7271194249548
 20
-125.1999999999998
 30
0.0
 11
738.2728805750446
 21
-125.1999999999998
 31
0.0
  0
LINE
  5
D0
330
6F
100
AcDbEntity
  8
NOTE
  6
Continuous
 62
     4
100
AcDbLine
 10
777.5
 20
-178.4693543253206
 30
0.0
 11
777.5
 21
-137.930645674679
 31
0.0
  0
LINE
  5
D1
330
6F
100
AcDbEntity
  8
NOTE
  6
Continuous
 62
     4
100
AcDbLine
 10
795.7271194249548
 20
-158.1999999999998
 30
0.0
 11
759.2728805750446
 21
-158.1999999999998
 31
0.0
  0
LINE
  5
D2
330
6F
100
AcDbEntity
  8
SIZE
  6
Continuous
 62
    30
100
AcDbLine
 10
714.5
 20
-3.000000000000003
 30
0.0
 11
1101.303100055482
 21
-3.000000000000115
 31
0.0
  0
LINE
  5
D3
330
6F
100
AcDbEntity
  8
SIZE
  6
Continuous
 62
    30
100
AcDbLine
 10
794.7271194249548
 20
-125.1999999999998
 30
0.0
 11
1101.303100055482
 21
-125.1999999999999
 31
0.0
  0
LINE
  5
D4
330
6F
100
AcDbEntity
  8
SIZE
  6
Continuous
 62
    30
100
AcDbLine
 10
1081.303100055482
 20
-3.000000000000107
 30
0.0
 11
1081.303100055482
 21
-125.1999999999999
 31
0.0
  0
CIRCLE
  5
D5
330
6F
100
AcDbEntity
  8
SIZE
  6
Continuous
 62
    30
100
AcDbCircle
 10
1081.303100055482
 20
-3.000000000000107
 30
0.0
 40
7.5
  0
CIRCLE
  5
D6
330
6F
100
AcDbEntity
  8
SIZE
  6
Continuous
 62
    30
100
AcDbCircle
 10
1081.303100055482
 20
-125.1999999999999
 30
0.0
 40
7.5
  0
TEXT
  5
D7
330
6F
100
AcDbEntity
  8
SIZE
  6
Continuous
 62
    30
100
AcDbText
 10
1061.303100055482
 20
-99.7634826427663
 30
0.0
 40
40.0
  1
122
 50
90.0
 41
0.9
 72
     1
 11
1061.303100055482
 21
-56.90633978562345
 31
0.0
100
AcDbText
  0
POINT
  5
D8
330
6F
100
AcDbEntity
  8
DEFPOINTS
  6
Continuous
 62
    30
100
AcDbPoint
 10
694.5
 20
-3.0
 30
0.0
  0
POINT
  5
D9
330
6F
100
AcDbEntity
  8
DEFPOINTS
  6
Continuous
 62
    30
100
AcDbPoint
 10
774.7271194249548
 20
-125.1999999999998
 30
0.0
  0
POINT
  5
DA
330
6F
100
AcDbEntity
  8
DEFPOINTS
  6
Continuous
 62
    30
100
AcDbPoint
 10
1081.303100055482
 20
-125.1999999999999
 30
0.0
  0
LINE
  5
DB
330
6F
100
AcDbEntity
  8
SIZE
  6
Continuous
 62
    30
100
AcDbLine
 10
815.7271194249547
 20
-158.1999999999998
 30
0.0
 11
1101.303100055482
 21
-158.1999999999999
 31
0.0
  0
LINE
  5
DC
330
6F
100
AcDbEntity
  8
SIZE
  6
Continuous
 62
    30
100
AcDbLine
 10
794.7271194249548
 20
-125.1999999999998
 30
0.0
 11
1101.303100055482
 21
-125.1999999999999
 31
0.0
  0
LINE
  5
DD
330
6F
100
AcDbEntity
  8
SIZE
  6
Continuous
 62
    30
100
AcDbLine
 10
1081.303100055482
 20
-125.1999999999999
 30
0.0
 11
1081.303100055482
 21
-95.1999999999999
 31
0.0
  0
LINE
  5
DE
330
6F
100
AcDbEntity
  8
SIZE
  6
Continuous
 62
    30
100
AcDbLine
 10
1081.303100055482
 20
-158.1999999999999
 30
0.0
 11
1081.303100055482
 21
-323.899460875427
 31
0.0
  0
LINE
  5
DF
330
6F
100
AcDbEntity
  8
SIZE
  6
Continuous
 62
    30
100
AcDbLine
 10
1081.303100055482
 20
-125.1999999999999
 30
0.0
 11
1081.303100055482
 21
-158.1999999999999
 31
0.0
  0
CIRCLE
  5
E0
330
6F
100
AcDbEntity
  8
SIZE
  6
Continuous
 62
    30
100
AcDbCircle
 10
1081.303100055482
 20
-125.1999999999999
 30
0.0
 40
7.5
  0
CIRCLE
  5
E1
330
6F
100
AcDbEntity
  8
SIZE
  6
Continuous
 62
    30
100
AcDbCircle
 10
1081.303100055482
 20
-158.1999999999999
 30
0.0
 40
7.5
  0
TEXT
  5
E2
330
6F
100
AcDbEntity
  8
SIZE
  6
Continuous
 62
    30
100
AcDbText
 10
1061.303100055482
 20
-303.8994608754268
 30
0.0
 40
40.0
  1
33
 50
90.0
 41
0.9
 72
     1
 11
1061.303100055482
 21
-274.7566037325696
 31
0.0
100
AcDbText
  0
POINT
  5
E3
330
6F
100
AcDbEntity
  8
DEFPOINTS
  6
Continuous
 62
    30
100
AcDbPoint
 10
795.7271194249548
 20
-158.1999999999998
 30
0.0
  0
POINT
  5
E4
330
6F
100
AcDbEntity
  8
DEFPOINTS
  6
Continuous
 62
    30
100
AcDbPoint
 10
774.7271194249548
 20
-125.1999999999998
 30
0.0
  0
POINT
  5
E5
330
6F
100
AcDbEntity
  8
DEFPOINTS
  6
Continuous
 62
    30
100
AcDbPoint
 10
1081.303100055482
 20
-125.1999999999999
 30
0.0
  0
LINE
  5
E6
330
6F
100
AcDbEntity
  8
SIZE
  6
Continuous
 62
    30
100
AcDbLine
 10
700.0
 20
20.0
 30
0.0
 11
700.0
 21
210.9890570364614
 31
0.0
  0
LINE
  5
E7
330
6F
100
AcDbEntity
  8
SIZE
  6
Continuous
 62
    30
100
AcDbLine
 10
750.0
 20
-0.6999999999998181
 30
0.0
 11
750.0
 21
210.9890570364614
 31
0.0
  0
LINE
  5
E8
330
6F
100
AcDbEntity
  8
SIZE
  6
Continuous
 62
    30
100
AcDbLine
 10
700.0
 20
190.9890570364613
 30
0.0
 11
750.0
 21
190.9890570364613
 31
0.0
  0
LINE
  5
E9
330
6F
100
AcDbEntity
  8
SIZE
  6
Continuous
 62
    30
100
AcDbLine
 10
750.0
 20
190.9890570364613
 30
0.0
 11
878.2857142857142
 21
190.9890570364613
 31
0.0
  0
CIRCLE
  5
EA
330
6F
100
AcDbEntity
  8
SIZE
  6
Continuous
 62
    30
100
AcDbCircle
 10
700.0
 20
190.9890570364613
 30
0.0
 40
7.5
  0
CIRCLE
  5
EB
330
6F
100
AcDbEntity
  8
SIZE
  6
Continuous
 62
    30
100
AcDbCircle
 10
750.0
 20
190.9890570364613
 30
0.0
 40
7.5
  0
TEXT
  5
EC
330
6F
100
AcDbEntity
  8
SIZE
  6
Continuous
 62
    30
100
AcDbText
 10
800.0
 20
210.9890570364614
 30
0.0
 40
40.0
  1
50
 41
0.9
 72
     1
 11
829.1428571428571
 21
210.9890570364614
 31
0.0
100
AcDbText
  0
POINT
  5
ED
330
6F
100
AcDbEntity
  8
DEFPOINTS
  6
Continuous
 62
    30
100
AcDbPoint
 10
700.0
 20
0.0
 30
0.0
  0
POINT
  5
EE
330
6F
100
AcDbEntity
  8
DEFPOINTS
  6
Continuous
 62
    30
100
AcDbPoint
 10
750.0
 20
-20.69999999999982
 30
0.0
  0
POINT
  5
EF
330
6F
100
AcDbEntity
  8
DEFPOINTS
  6
Continuous
 62
    30
100
AcDbPoint
 10
750.0
 20
190.9890570364613
 30
0.0
  0
LINE
  5
F0
330
6F
100
AcDbEntity
  8
SIZE
  6
Continuous
 62
    30
100
AcDbLine
 10
700.0
 20
-20.0
 30
0.0
 11
700.0
 21
-514.560101581771
 31
0.0
  0
LINE
  5
F1
330
6F
100
AcDbEntity
  8
SIZE
  6
Continuous
 62
    30
100
AcDbLine
 10
756.5
 20
-124.930645674679
 30
0.0
 11
756.5
 21
-514.560101581771
 31
0.0
  0
LINE
  5
F2
330
6F
100
AcDbEntity
  8
SIZE
  6
Continuous
 62
    30
100
AcDbLine
 10
700.0
 20
-494.5601015817708
 30
0.0
 11
756.5
 21
-494.5601015817708
 31
0.0
  0
LINE
  5
F3
330
6F
100
AcDbEntity
  8
SIZE
  6
Continuous
 62
    30
100
AcDbLine
 10
756.5
 20
-494.5601015817708
 30
0.0
 11
884.7857142857142
 21
-494.5601015817708
 31
0.0
  0
CIRCLE
  5
F4
330
6F
100
AcDbEntity
  8
SIZE
  6
Continuous
 62
    30
100
AcDbCircle
 10
700.0
 20
-494.5601015817708
 30
0.0
 40
7.5
  0
CIRCLE
  5
F5
330
6F
100
AcDbEntity
  8
SIZE
  6
Continuous
 62
    30
100
AcDbCircle
 10
756.5
 20
-494.5601015817708
 30
0.0
 40
7.5
  0
TEXT
  5
F6
330
6F
100
AcDbEntity
  8
SIZE
  6
Continuous
 62
    30
100
AcDbText
 10
806.4999999999999
 20
-474.5601015817708
 30
0.0
 40
40.0
  1
57
 41
0.9
 72
     1
 11
835.6428571428571
 21
-474.5601015817708
 31
0.0
100
AcDbText
  0
POINT
  5
F7
330
6F
100
AcDbEntity
  8
DEFPOINTS
  6
Continuous
 62
    30
100
AcDbPoint
 10
700.0
 20
0.0
 30
0.0
  0
POINT
  5
F8
330
6F
100
AcDbEntity
  8
DEFPOINTS
  6
Continuous
 62
    30
100
AcDbPoint
 10
756.5
 20
-104.930645674679
 30
0.0
  0
POINT
  5
F9
330
6F
100
AcDbEntity
  8
DEFPOINTS
  6
Continuous
 62
    30
100
AcDbPoint
 10
756.5
 20
-494.5601015817708
 30
0.0
  0
LINE
  5
FA
330
6F
100
AcDbEntity
  8
SIZE
  6
Continuous
 62
    30
100
AcDbLine
 10
700.0
 20
-22.8033781437016
 30
0.0
 11
700.0
 21
-602.1413713442825
 31
0.0
  0
LINE
  5
FB
330
6F
100
AcDbEntity
  8
SIZE
  6
Continuous
 62
    30
100
AcDbLine
 10
777.5
 20
-157.930645674679
 30
0.0
 11
777.5
 21
-602.1413713442825
 31
0.0
  0
LINE
  5
FC
330
6F
100
AcDbEntity
  8
SIZE
  6
Continuous
 62
    30
100
AcDbLine
 10
700.0
 20
-582.1413713442825
 30
0.0
 11
777.5
 21
-582.1413713442825
 31
0.0
  0
LINE
  5
FD
330
6F
100
AcDbEntity
  8
SIZE
  6
Continuous
 62
    30
100
AcDbLine
 10
777.5
 20
-582.1413713442825
 30
0.0
 11
905.7857142857145
 21
-582.1413713442825
 31
0.0
  0
CIRCLE
  5
FE
330
6F
100
AcDbEntity
  8
SIZE
  6
Continuous
 62
    30
100
AcDbCircle
 10
700.0
 20
-582.1413713442825
 30
0.0
 40
7.5
  0
CIRCLE
  5
FF
330
6F
100
AcDbEntity
  8
SIZE
  6
Continuous
 62
    30
100
AcDbCircle
 10
777.5
 20
-582.1413713442825
 30
0.0
 40
7.5
  0
TEXT
  5
100
330
6F
100
AcDbEntity
  8
SIZE
  6
Continuous
 62
    30
100
AcDbText
 10
827.5000000000002
 20
-562.1413713442826
 30
0.0
 40
40.0
  1
78
 41
0.9
 72
     1
 11
856.6428571428572
 21
-562.1413713442826
 31
0.0
100
AcDbText
  0
POINT
  5
101
330
6F
100
AcDbEntity
  8
DEFPOINTS
  6
Continuous
 62
    30
100
AcDbPoint
 10
700.0
 20
-2.803378143701591
 30
0.0
  0
POINT
  5
102
330
6F
100
AcDbEntity
  8
DEFPOINTS
  6
Continuous
 62
    30
100
AcDbPoint
 10
777.5
 20
-137.930645674679
 30
0.0
  0
POINT
  5
103
330
6F
100
AcDbEntity
  8
DEFPOINTS
  6
Continuous
 62
    30
100
AcDbPoint
 10
777.5
 20
-582.1413713442825
 30
0.0
  0
LINE
  5
104
330
6F
100
AcDbEntity
  8
NOTE
  6
Continuous
 62
     4
100
AcDbLine
 10
804.9455752710365
 20
-172.738139138879
 30
0.0
 11
777.5
 21
-158.1999999999998
 31
0.0
  0
LINE
  5
105
330
6F
100
AcDbEntity
  8
NOTE
  6
Continuous
 62
     4
100
AcDbLine
 10
777.5
 20
-158.1999999999998
 30
0.0
 11
808.5376349807718
 21
-157.0676103233076
 31
0.0
  0
LINE
  5
106
330
6F
100
AcDbEntity
  8
NOTE
  6
Continuous
 62
     4
100
AcDbLine
 10
777.5
 20
-158.1999999999998
 30
0.0
 11
806.7416051259041
 21
-164.9028747310933
 31
0.0
  0
LINE
  5
107
330
6F
100
AcDbEntity
  8
NOTE
  6
Continuous
 62
     4
100
AcDbLine
 10
806.7416051259041
 20
-164.9028747310933
 30
0.0
 11
1131.986270375168
 21
-239.4567249296606
 31
0.0
  0
LINE
  5
108
330
6F
100
AcDbEntity
  8
NOTE
  6
Continuous
 62
     4
100
AcDbLine
 10
1131.986270375168
 20
-239.4567249296606
 30
0.0
 11
1646.428777166376
 21
-239.4567249296606
 31
0.0
  0
LINE
  5
109
330
6F
100
AcDbEntity
  8
NOTE
  6
Continuous
 62
     4
100
AcDbLine
 10
784.9908791473587
 20
-112.5659015612715
 30
0.0
 11
756.5
 21
-124.930645674679
 31
0.0
  0
LINE
  5
10A
330
6F
100
AcDbEntity
  8
NOTE
  6
Continuous
 62
     4
100
AcDbLine
 10
756.5
 20
-124.930645674679
 30
0.0
 11
774.9914531742652
 21
-99.97702367138144
 31
0.0
  0
LINE
  5
10B
330
6F
100
AcDbEntity
  8
NOTE
  6
Continuous
 62
     4
100
AcDbLine
 10
756.5
 20
-124.930645674679
 30
0.0
 11
779.9911661608127
 21
-106.2714626163265
 31
0.0
  0
LINE
  5
10C
330
6F
100
AcDbEntity
  8
NOTE
  6
Continuous
 62
     4
100
AcDbLine
 10
779.9911661608127
 20
-106.2714626163264
 30
0.0
 11
1042.073094854544
 21
101.9018843476178
 31
0.0
  0
LINE
  5
10D
330
6F
100
AcDbEntity
  8
NOTE
  6
Continuous
 62
     4
100
AcDbLine
 10
1042.073094854544
 20
101.9018843476178
 30
0.0
 11
1487.628947636242
 21
101.9018843476178
 31
0.0
  0
TEXT
  5
10E
330
6F
100
AcDbEntity
  8
NOTE
  6
Continuous
 62
     4
100
AcDbText
 10
1156.111246298895
 20
-210.4024573150282
 30
0.0
 40
64.0
  1
RG %%c15.88
100
AcDbText
  0
TEXT
  5
10F
330
6F
100
AcDbEntity
  8
NOTE
  6
Continuous
 62
     4
100
AcDbText
 10
1060.490070826138
 20
131.8761946659933
 30
0.0
 40
64.0
  1
RL %%c9.52
100
AcDbText
  0
LINE
  5
110
330
6F
100
AcDbEntity
  8
NOTE
  6
Continuous
 62
     4
100
AcDbLine
 10
-727.0
 20
-56.0
 30
0.0
 11
-727.0
 21
20.0
 31
0.0
  0
LINE
  5
111
330
6F
100
AcDbEntity
  8
NOTE
  6
Continuous
 62
     4
100
AcDbLine
 10
-696.0876330378198
 20
-18.0
 30
0.0
 11
-757.9123669621782
 21
-18.0
 31
0.0
  0
CIRCLE
  5
112
330
6F
100
AcDbEntity
  8
FIX
  6
Continuous
 62
    11
100
AcDbCircle
 10
-727.0
 20
-18.0
 30
0.0
 40
12.0
  0
LINE
  5
113
330
6F
100
AcDbEntity
  8
NOTE
  6
Continuous
 62
     4
100
AcDbLine
 10
727.0
 20
-56.0
 30
0.0
 11
727.0
 21
20.0
 31
0.0
  0
LINE
  5
114
330
6F
100
AcDbEntity
  8
NOTE
  6
Continuous
 62
     4
100
AcDbLine
 10
757.9123669621805
 20
-18.0
 30
0.0
 11
696.0876330378198
 21
-18.0
 31
0.0
  0
CIRCLE
  5
115
330
6F
100
AcDbEntity
  8
FIX
  6
Continuous
 62
    11
100
AcDbCircle
 10
727.0
 20
-18.0
 30
0.0
 40
12.0
  0
TEXT
  5
116
330
6F
100
AcDbEntity
  8
ETC
  6
Continuous
 62
    61
100
AcDbText
 10
-772.7784485125177
 20
607.5575407560436
 30
0.0
 40
64.0
  1
加湿器＋後吸込用フィルターボックス組込
 41
0.9
100
AcDbText
  0
LWPOLYLINE
  5
117
330
6F
100
AcDbEntity
  8
DETAIL
  6
Continuous
 62
     5
100
AcDbPolyline
 90
        7
 70
     0
 43
0.0
 10
515.2370776912012
 20
-45.85691856480025
 10
514.9074023664998
 20
-45.92876469309977
 10
514.5960422459011
 20
-46.01994655010003
 10
514.3101136866007
 20
-46.1285642117
 10
514.0548158760991
 20
-46.25234196290011
 10
513.8308291804004
 20
-46.39094139940016
 10
513.6427599471991
 20
-46.5418964534001
  0
LWPOLYLINE
  5
120
330
6F
100
AcDbEntity
  8
DETAIL
  6
Continuous
 62
     5
100
AcDbPolyline
 90
        5
 70
     0
 43
0.0
 10
514.9074023664998
 20
-45.22906892740002
 10
515.2370776912012
 20
-45.15722279910003
 10
515.5827042494002
 20
-45.10505781649999
 10
515.9396138636001
 20
-45.07340504039984
 10
516.3000000000009
 20
-45.06287253980008
  0
LWPOLYLINE
  5
127
330
6F
100
AcDbEntity
  8
DETAIL
  6
Continuous
 62
     5
100
AcDbPolyline
 90
       18
 70
     0
 43
0.0
 10
679.216665031099
 20
-218.7587796450998
 10
680.1390297542001
 20
-218.7158634847001
 10
681.0535282299987
 20
-218.5880428970004
 10
681.9523613326
 20
-218.3764080089004
 10
682.8278634741999
 20
-218.0827636825002
 10
683.6725680855995
 20
-217.7096142291002
 10
684.4792712332001
 20
-217.2601419903003
 10
685.2410930782006
 20
-216.7381802198002
 10
685.9515365432997
 20
-216.1481803853003
 10
686.6045427238002
 20
-215.4951742066
 10
687.1945425599005
 20
-214.7847307430002
 10
687.7165043312997
 20
-214.0229088989999
 10
688.1659765706992
 20
-213.2162057518999
 10
688.5391260240013
 20
-212.3715011404001
 10
688.8327703507001
 20
-211.4959989992003
 10
689.0444052363
 20
-210.5971658939998
 10
689.1722258270001
 20
-209.6826674211998
 10
689.2151419827005
 20
-208.7603026935003
  0
LWPOLYLINE
  5
13B
330
6F
100
AcDbEntity
  8
DETAIL
  6
Continuous
 62
     5
100
AcDbPolyline
 90
        8
 70
     0
 43
0.0
 10
520.0
 20
-177.3883802024001
 10
520.3263154805007
 20
-177.3780111686001
 10
520.6470476126996
 20
-177.3470814843003
 10
520.9567085809011
 20
-177.2961203650002
 10
521.25
 20
-177.2259997696001
 10
521.5219035725001
 20
-177.1379194808
 10
521.7677669529003
 20
-177.0333865768998
 10
521.9833833507
 20
-176.9141896448
  0
LWPOLYLINE
  5
145
330
6F
100
AcDbEntity
  8
DETAIL
  6
Continuous
 62
     5
100
AcDbPolyline
 90
        8
 70
     0
 43
0.0
 10
520.0
 20
-176.6886844365999
 10
520.3263154805007
 20
-176.6783154028999
 10
520.6470476126996
 20
-176.6473857186
 10
520.9567085809011
 20
-176.5964245993
 10
521.25
 20
-176.5263040038999
 10
521.5219035725001
 20
-176.4382237151003
 10
521.7677669529003
 20
-176.3336908112001
 10
521.9833833507
 20
-176.2144938790998
  0
LWPOLYLINE
  5
14F
330
6F
100
AcDbEntity
  8
DETAIL
  6
Continuous
 62
     5
100
AcDbPolyline
 90
       10
 70
     0
 43
0.0
 10
518.0
 20
-174.9643321010999
 10
517.6736845194008
 20
-174.9747011349
 10
517.3529523872002
 20
-175.0056308191996
 10
517.0432914191003
 20
-175.0565919384998
 10
516.75
 20
-175.1267125339
 10
516.4780964274013
 20
-175.2147928227
 10
516.2322330469995
 20
-175.3193257266002
 10
516.0166166491999
 20
-175.4385226587001
 10
515.8349364904989
 20
-175.5703441263999
 10
515.6903011687009
 20
-175.7125346278999
  0
LINE
  5
15B
330
6F
100
AcDbEntity
  8
DETAIL
  6
Continuous
 62
     5
100
AcDbLine
 10
700.0
 20
-245.4000000000001
 30
0.0
 11
700.0500000000011
 21
-245.4000000000001
 31
0.0
  0
LINE
  5
15C
330
6F
100
AcDbEntity
  8
DETAIL
  6
Continuous
 62
     5
100
AcDbLine
 10
700.0
 20
-240.3000000000002
 30
0.0
 11
700.0500000000011
 21
-240.3000000000002
 31
0.0
  0
LINE
  5
15D
330
6F
100
AcDbEntity
  8
DETAIL
  6
Continuous
 62
     5
100
AcDbLine
 10
702.050000000001
 20
-240.3000000000002
 30
0.0
 11
740.0
 21
-240.3000000000002
 31
0.0
  0
LINE
  5
15E
330
6F
100
AcDbEntity
  8
DETAIL
  6
Continuous
 62
     5
100
AcDbLine
 10
702.050000000001
 20
-240.0285398164001
 30
0.0
 11
700.0500000000011
 21
-240.0285398164001
 31
0.0
  0
LINE
  5
15F
330
6F
100
AcDbEntity
  8
DETAIL
  6
Continuous
 62
     5
100
AcDbLine
 10
704.0
 20
-240.0285398163001
 30
0.0
 11
-700.0
 21
-240.0285398163001
 31
0.0
  0
LINE
  5
160
330
6F
100
AcDbEntity
  8
DETAIL
  6
Continuous
 62
     5
100
AcDbLine
 10
-699.0
 20
-240.0
 30
0.0
 11
704.0
 21
-240.0
 31
0.0
  0
LINE
  5
161
330
6F
100
AcDbEntity
  8
DETAIL
  6
Continuous
 62
     5
100
AcDbLine
 10
699.3999999999997
 20
-240.0
 30
0.0
 11
700.0
 21
-240.0
 31
0.0
  0
LINE
  5
162
330
6F
100
AcDbEntity
  8
DETAIL
  6
Continuous
 62
     5
100
AcDbLine
 10
699.0
 20
-240.0
 30
0.0
 11
704.0
 21
-240.0
 31
0.0
  0
LINE
  5
163
330
6F
100
AcDbEntity
  8
DETAIL
  6
Continuous
 62
     5
100
AcDbLine
 10
694.5
 20
-234.0
 30
0.0
 11
-694.5
 21
-234.0
 31
0.0
  0
LINE
  5
164
330
6F
100
AcDbEntity
  8
DETAIL
  6
Continuous
 62
     5
100
AcDbLine
 10
317.6499999999996
 20
-226.5
 30
0.0
 11
318.4499999999989
 21
-226.5
 31
0.0
  0
LINE
  5
165
330
6F
100
AcDbEntity
  8
DETAIL
  6
Continuous
 62
     5
100
AcDbLine
 10
662.6499999999996
 20
-226.5
 30
0.0
 11
663.4499999999989
 21
-226.5
 31
0.0
  0
LINE
  5
166
330
6F
100
AcDbEntity
  8
DETAIL
  6
Continuous
 62
     5
100
AcDbLine
 10
667.3500000000004
 20
-226.5
 30
0.0
 11
666.5500000000008
 21
-226.5
 31
0.0
  0
LINE
  5
167
330
6F
100
AcDbEntity
  8
DETAIL
  6
Continuous
 62
     5
100
AcDbLine
 10
322.3500000000004
 20
-226.5
 30
0.0
 11
321.5500000000011
 21
-226.5
 31
0.0
  0
LINE
  5
168
330
6F
100
AcDbEntity
  8
DETAIL
  6
Continuous
 62
     5
100
AcDbLine
 10
-679.0166650312004
 20
-224.1245319446998
 30
0.0
 11
679.0166650311001
 21
-224.1245319446998
 31
0.0
  0
LINE
  5
169
330
6F
100
AcDbEntity
  8
DETAIL
  6
Continuous
 62
     5
100
AcDbLine
 10
679.0166650311001
 20
-218.7587796450998
 30
0.0
 11
679.216665031099
 21
-218.7587796450998
 31
0.0
  0
LINE
  5
16A
330
6F
100
AcDbEntity
  8
DETAIL
  6
Continuous
 62
     5
100
AcDbLine
 10
679.0166650311001
 20
-208.8008105293002
 30
0.0
 11
533.5310000163333
 21
-208.8008105294281
 31
0.0
  0
LINE
  5
16B
330
6F
100
AcDbEntity
  8
DETAIL
  6
Continuous
 62
     5
100
AcDbLine
 10
411.3689999834003
 20
-208.8008105293002
 30
0.0
 11
248.5310000165064
 21
-208.8008105293265
 31
0.0
  0
LINE
  5
16C
330
6F
100
AcDbEntity
  8
DETAIL
  6
Continuous
 62
     5
100
AcDbLine
 10
679.0166650310984
 20
-208.8008105293002
 30
0.0
 11
593.531000016601
 21
-208.8008105293002
 31
0.0
  0
LINE
  5
16D
330
6F
100
AcDbEntity
  8
DETAIL
  6
Continuous
 62
     5
100
AcDbLine
 10
426.3689999836423
 20
-208.8008105294148
 30
0.0
 11
213.5310000166156
 21
-208.8008105292603
 31
0.0
  0
LINE
  5
16E
330
6F
100
AcDbEntity
  8
DETAIL
  6
Continuous
 62
     5
100
AcDbLine
 10
106.3689999832513
 20
-208.8008105291824
 30
0.0
 11
-106.4689999829916
 21
-208.8008105290279
 31
0.0
  0
LINE
  5
16F
330
6F
100
AcDbEntity
  8
DETAIL
  6
Continuous
 62
     5
100
AcDbLine
 10
-213.6310000165504
 20
-208.8008105293002
 30
0.0
 11
-426.4689999834518
 21
-208.8008105293002
 31
0.0
  0
LINE
  5
170
330
6F
100
AcDbEntity
  8
DETAIL
  6
Continuous
 62
     5
100
AcDbLine
 10
-533.6310000165504
 20
-208.8008105293002
 30
0.0
 11
-679.0166650312004
 21
-208.8008105293002
 31
0.0
  0
LINE
  5
171
330
6F
100
AcDbEntity
  8
DETAIL
  6
Continuous
 62
     5
100
AcDbLine
 10
700.0
 20
-207.0
 30
0.0
 11
699.5
 21
-207.0
 31
0.0
  0
LINE
  5
172
330
6F
100
AcDbEntity
  8
DETAIL
  6
Continuous
 62
     5
100
AcDbLine
 10
704.0
 20
-200.3000000000002
 30
0.0
 11
740.0
 21
-200.3000000000002
 31
0.0
  0
LINE
  5
173
330
6F
100
AcDbEntity
  8
DETAIL
  6
Continuous
 62
     5
100
AcDbLine
 10
109.8262371867004
 20
-184.0
 30
0.0
 11
210.0737628131992
 21
-184.0
 31
0.0
  0
LINE
  5
174
330
6F
100
AcDbEntity
  8
DETAIL
  6
Continuous
 62
     5
100
AcDbLine
 10
429.8262371867004
 20
-184.0
 30
0.0
 11
530.0737628131992
 21
-184.0
 31
0.0
  0
LINE
  5
175
330
6F
100
AcDbEntity
  8
DETAIL
  6
Continuous
 62
     5
100
AcDbLine
 10
518.0
 20
-177.3883802024001
 30
0.0
 11
520.0
 21
-177.3883802024001
 31
0.0
  0
LINE
  5
176
330
6F
100
AcDbEntity
  8
DETAIL
  6
Continuous
 62
     5
100
AcDbLine
 10
704.0
 20
-177.1999999999998
 30
0.0
 11
730.0
 21
-177.1999999999998
 31
0.0
  0
LINE
  5
177
330
6F
100
AcDbEntity
  8
DETAIL
  6
Continuous
 62
     5
100
AcDbLine
 10
518.0
 20
-176.6886844365999
 30
0.0
 11
520.0
 21
-176.6886844365999
 31
0.0
  0
LINE
  5
178
330
6F
100
AcDbEntity
  8
DETAIL
  6
Continuous
 62
     5
100
AcDbLine
 10
522.1847952727001
 20
-176.0632741808003
 30
0.0
 11
522.0
 21
-176.0632741808003
 31
0.0
  0
LINE
  5
179
330
6F
100
AcDbEntity
  8
DETAIL
  6
Continuous
 62
     5
100
AcDbLine
 10
520.0
 20
-174.9643321010999
 30
0.0
 11
518.0
 21
-174.9643321010999
 31
0.0
  0
LINE
  5
17A
330
6F
100
AcDbEntity
  8
DETAIL
  6
Continuous
 62
     5
100
AcDbLine
 10
771.4999999999998
 20
-174.9499999999998
 30
0.0
 11
753.5
 21
-174.9499999999998
 31
0.0
  0
LINE
  5
17B
330
6F
100
AcDbEntity
  8
DETAIL
  6
Continuous
 62
     5
100
AcDbLine
 10
730.0
 20
-171.4790561914
 30
0.0
 11
745.220943808601
 21
-171.4790561914
 31
0.0
  0
LINE
  5
17C
330
6F
100
AcDbEntity
  8
DETAIL
  6
Continuous
 62
     5
100
AcDbLine
 10
747.0
 20
-169.3000000000002
 30
0.0
 11
751.5
 21
-169.3000000000002
 31
0.0
  0
LINE
  5
17D
330
6F
100
AcDbEntity
  8
DETAIL
  6
Continuous
 62
     5
100
AcDbLine
 10
771.4999999999998
 20
-166.5749999999998
 30
0.0
 11
753.5
 21
-166.5749999999998
 31
0.0
  0
LINE
  5
17E
330
6F
100
AcDbEntity
  8
DETAIL
  6
Continuous
 62
     5
100
AcDbLine
 10
730.0
 20
-164.8395280957002
 30
0.0
 11
745.220943808601
 21
-164.8395280957002
 31
0.0
  0
LINE
  5
17F
330
6F
100
AcDbEntity
  8
DETAIL
  6
Continuous
 62
     5
100
AcDbLine
 10
730.0
 20
-151.5604719043003
 30
0.0
 11
745.220943808601
 21
-151.5604719043003
 31
0.0
  0
LINE
  5
180
330
6F
100
AcDbEntity
  8
DETAIL
  6
Continuous
 62
     5
100
AcDbLine
 10
771.4999999999998
 20
-149.8249999999998
 30
0.0
 11
753.5
 21
-149.8249999999998
 31
0.0
  0
LINE
  5
181
330
6F
100
AcDbEntity
  8
DETAIL
  6
Continuous
 62
     5
100
AcDbLine
 10
747.0
 20
-147.1000000000003
 30
0.0
 11
751.5
 21
-147.1000000000003
 31
0.0
  0
LINE
  5
182
330
6F
100
AcDbEntity
  8
DETAIL
  6
Continuous
 62
     5
100
AcDbLine
 10
730.0
 20
-144.9209438086
 30
0.0
 11
745.220943808601
 21
-144.9209438086
 31
0.0
  0
LINE
  5
183
330
6F
100
AcDbEntity
  8
DETAIL
  6
Continuous
 62
     5
100
AcDbLine
 10
704.0
 20
-141.6999999999998
 30
0.0
 11
723.0
 21
-141.6999999999998
 31
0.0
  0
LINE
  5
184
330
6F
100
AcDbEntity
  8
DETAIL
  6
Continuous
 62
     5
100
AcDbLine
 10
771.4999999999998
 20
-141.4499999999998
 30
0.0
 11
753.5
 21
-141.4499999999998
 31
0.0
  0
LINE
  5
185
330
6F
100
AcDbEntity
  8
DETAIL
  6
Continuous
 62
     5
100
AcDbLine
 10
723.0
 20
-139.1999999999998
 30
0.0
 11
730.0
 21
-139.1999999999998
 31
0.0
  0
LINE
  5
186
330
6F
100
AcDbEntity
  8
DETAIL
  6
Continuous
 62
     5
100
AcDbLine
 10
754.7982940777998
 20
-137.9017059222001
 30
0.0
 11
740.2017059220995
 21
-137.9017059222001
 31
0.0
  0
LINE
  5
187
330
6F
100
AcDbEntity
  8
DETAIL
  6
Continuous
 62
     5
100
AcDbLine
 10
723.0
 20
-135.0149545762001
 30
0.0
 11
735.685045423701
 21
-135.0149545762001
 31
0.0
  0
LINE
  5
188
330
6F
100
AcDbEntity
  8
DETAIL
  6
Continuous
 62
     5
100
AcDbLine
 10
737.0
 20
-133.1400000000003
 30
0.0
 11
738.4999999999998
 21
-133.1400000000003
 31
0.0
  0
LINE
  5
189
330
6F
100
AcDbEntity
  8
DETAIL
  6
Continuous
 62
     5
100
AcDbLine
 10
754.7982940777998
 20
-131.5508529610997
 30
0.0
 11
740.2017059220995
 21
-131.5508529610997
 31
0.0
  0
LINE
  5
18A
330
6F
100
AcDbEntity
  8
DETAIL
  6
Continuous
 62
     5
100
AcDbLine
 10
723.0
 20
-130.1074772881002
 30
0.0
 11
735.685045423701
 21
-130.1074772881002
 31
0.0
  0
LINE
  5
18B
330
6F
100
AcDbEntity
  8
DETAIL
  6
Continuous
 62
     5
100
AcDbLine
 10
103.6648880398988
 20
-178.8054097013
 30
0.0
 11
214.6644480033992
 21
-180.2031819377998
 31
0.0
  0
LINE
  5
18C
330
6F
100
AcDbEntity
  8
DETAIL
  6
Continuous
 62
     5
100
AcDbLine
 10
428.4287735234011
 20
-182.8950289999001
 30
0.0
 11
516.1764705881997
 21
-184.0
 31
0.0
  0
LWPOLYLINE
  5
18D
330
6F
100
AcDbEntity
  8
DETAIL
  6
Continuous
 62
     5
100
AcDbPolyline
 90
        8
 70
     0
 43
0.0
 10
520.0
 20
-78.48721767210007
 10
520.3263154805007
 20
-78.4768486383
 10
520.6470476126996
 20
-78.44591895410029
 10
520.9567085809011
 20
-78.39495783480014
 10
521.25
 20
-78.32483723929998
 10
521.5219035725001
 20
-78.23675695060001
 10
521.7677669529003
 20
-78.13222404659973
 10
521.9833833507
 20
-78.01302711449989
  0
LWPOLYLINE
  5
197
330
6F
100
AcDbEntity
  8
DETAIL
  6
Continuous
 62
     5
100
AcDbPolyline
 90
        8
 70
     0
 43
0.0
 10
520.0
 20
-77.78752190639988
 10
520.3263154805007
 20
-77.77715287259979
 10
520.6470476126996
 20
-77.74622318830006
 10
520.9567085809011
 20
-77.69526206899993
 10
521.25
 20
-77.62514147359979
 10
521.5219035725001
 20
-77.53706118480021
 10
521.7677669529003
 20
-77.43252828089999
 10
521.9833833507
 20
-77.31333134880012
  0
LWPOLYLINE
  5
1A1
330
6F
100
AcDbEntity
  8
DETAIL
  6
Continuous
 62
     5
100
AcDbPolyline
 90
       10
 70
     0
 43
0.0
 10
518.0
 20
-76.06316957089984
 10
517.6736845194008
 20
-76.07353860459989
 10
517.3529523872002
 20
-76.10446828890008
 10
517.0432914191003
 20
-76.15542940819977
 10
516.75
 20
-76.22555000369994
 10
516.4780964274013
 20
-76.31363029240038
 10
516.2322330469995
 20
-76.41816319630014
 10
516.0166166491999
 20
-76.53736012839998
 10
515.8349364904989
 20
-76.66918159620036
 10
515.6903011687009
 20
-76.81137209769985
  0
LWPOLYLINE
  5
1AD
330
6F
100
AcDbEntity
  8
DETAIL
  6
Continuous
 62
     5
100
AcDbPolyline
 90
        4
 70
     0
 43
0.0
 10
516.3000000000009
 20
-45.76256830550028
 10
515.9396138636001
 20
-45.77310080610003
 10
515.5827042494002
 20
-45.80475358219971
 10
515.2370776912012
 20
-45.85691856480025
  0
LINE
  5
1B3
330
6F
100
AcDbEntity
  8
DETAIL
  6
Continuous
 62
     5
100
AcDbLine
 10
703.9825475935012
 20
-60.75650151579974
 30
0.0
 11
733.0
 21
-60.25
 31
0.0
  0
LINE
  5
1B4
330
6F
100
AcDbEntity
  8
DETAIL
  6
Continuous
 62
     5
100
AcDbLine
 10
723.0
 20
-120.2925227119003
 30
0.0
 11
735.685045423701
 21
-120.2925227119003
 31
0.0
  0
LINE
  5
1B5
330
6F
100
AcDbEntity
  8
DETAIL
  6
Continuous
 62
     5
100
AcDbLine
 10
754.7982940777998
 20
-118.8491470388999
 30
0.0
 11
740.2017059220995
 21
-118.8491470388999
 31
0.0
  0
LINE
  5
1B6
330
6F
100
AcDbEntity
  8
DETAIL
  6
Continuous
 62
     5
100
AcDbLine
 10
737.0
 20
-117.2600000000002
 30
0.0
 11
738.4999999999998
 21
-117.2600000000002
 31
0.0
  0
LINE
  5
1B7
330
6F
100
AcDbEntity
  8
DETAIL
  6
Continuous
 62
     5
100
AcDbLine
 10
723.0
 20
-115.3850454237999
 30
0.0
 11
735.685045423701
 21
-115.3850454237999
 31
0.0
  0
LINE
  5
1B8
330
6F
100
AcDbEntity
  8
DETAIL
  6
Continuous
 62
     5
100
AcDbLine
 10
754.7982940777998
 20
-112.4982940778
 30
0.0
 11
740.2017059220995
 21
-112.4982940778
 31
0.0
  0
LINE
  5
1B9
330
6F
100
AcDbEntity
  8
DETAIL
  6
Continuous
 62
     5
100
AcDbLine
 10
704.0
 20
-108.6999999999998
 30
0.0
 11
723.0
 21
-108.6999999999998
 31
0.0
  0
LINE
  5
1BA
330
6F
100
AcDbEntity
  8
DETAIL
  6
Continuous
 62
     5
100
AcDbLine
 10
561.3769037774
 20
-105.3862952848003
 30
0.0
 11
526.0
 21
-105.3862952848003
 31
0.0
  0
LINE
  5
1BB
330
6F
100
AcDbEntity
  8
DETAIL
  6
Continuous
 62
     5
100
AcDbLine
 10
525.0
 20
-104.4858912404997
 30
0.0
 11
525.8000000000008
 21
-104.4858912404997
 31
0.0
  0
LINE
  5
1BC
330
6F
100
AcDbEntity
  8
DETAIL
  6
Continuous
 62
     5
100
AcDbLine
 10
526.0
 20
-99.22246040959999
 30
0.0
 11
525.8000000000008
 21
-99.22246040959999
 31
0.0
  0
LINE
  5
1BD
330
6F
100
AcDbEntity
  8
DETAIL
  6
Continuous
 62
     5
100
AcDbLine
 10
526.0
 20
-96.94234415660005
 30
0.0
 11
525.8000000000008
 21
-96.94234415660005
 31
0.0
  0
LINE
  5
1BE
330
6F
100
AcDbEntity
  8
DETAIL
  6
Continuous
 62
     5
100
AcDbLine
 10
704.0
 20
-93.0
 30
0.0
 11
700.0
 21
-93.0
 31
0.0
  0
LINE
  5
1BF
330
6F
100
AcDbEntity
  8
DETAIL
  6
Continuous
 62
     5
100
AcDbLine
 10
526.0
 20
-89.3323441565999
 30
0.0
 11
525.8000000000008
 21
-89.3323441565999
 31
0.0
  0
LINE
  5
1C0
330
6F
100
AcDbEntity
  8
DETAIL
  6
Continuous
 62
     5
100
AcDbLine
 10
526.0
 20
-87.05222790360037
 30
0.0
 11
525.8000000000008
 21
-87.05222790360037
 31
0.0
  0
LINE
  5
1C1
330
6F
100
AcDbEntity
  8
DETAIL
  6
Continuous
 62
     5
100
AcDbLine
 10
526.0
 20
-79.44222790359981
 30
0.0
 11
525.8000000000008
 21
-79.44222790359981
 31
0.0
  0
LINE
  5
1C2
330
6F
100
AcDbEntity
  8
DETAIL
  6
Continuous
 62
     5
100
AcDbLine
 10
518.0
 20
-78.48721767210007
 30
0.0
 11
520.0
 21
-78.48721767210007
 31
0.0
  0
LINE
  5
1C3
330
6F
100
AcDbEntity
  8
DETAIL
  6
Continuous
 62
     5
100
AcDbLine
 10
701.5
 20
-78.0
 30
0.0
 11
700.0
 21
-78.0
 31
0.0
  0
LINE
  5
1C4
330
6F
100
AcDbEntity
  8
DETAIL
  6
Continuous
 62
     5
100
AcDbLine
 10
518.0
 20
-77.78752190639988
 30
0.0
 11
520.0
 21
-77.78752190639988
 31
0.0
  0
LINE
  5
1C5
330
6F
100
AcDbEntity
  8
DETAIL
  6
Continuous
 62
     5
100
AcDbLine
 10
526.0
 20
-77.16211165050026
 30
0.0
 11
525.8000000000008
 21
-77.16211165050026
 31
0.0
  0
LINE
  5
1C6
330
6F
100
AcDbEntity
  8
DETAIL
  6
Continuous
 62
     5
100
AcDbLine
 10
522.1847952727001
 20
-77.16211165050026
 30
0.0
 11
522.0
 21
-77.16211165050026
 31
0.0
  0
LINE
  5
1C7
330
6F
100
AcDbEntity
  8
DETAIL
  6
Continuous
 62
     5
100
AcDbLine
 10
520.0
 20
-76.06316957089984
 30
0.0
 11
518.0
 21
-76.06316957089984
 31
0.0
  0
LINE
  5
1C8
330
6F
100
AcDbEntity
  8
DETAIL
  6
Continuous
 62
     5
100
AcDbLine
 10
703.0
 20
-71.5
 30
0.0
 11
701.5
 21
-71.5
 31
0.0
  0
LINE
  5
1C9
330
6F
100
AcDbEntity
  8
DETAIL
  6
Continuous
 62
     5
100
AcDbLine
 10
526.0
 20
-69.55211165050013
 30
0.0
 11
525.8000000000008
 21
-69.55211165050013
 31
0.0
  0
LINE
  5
1CA
330
6F
100
AcDbEntity
  8
DETAIL
  6
Continuous
 62
     5
100
AcDbLine
 10
526.0
 20
-67.27199539750015
 30
0.0
 11
525.8000000000008
 21
-67.27199539750015
 31
0.0
  0
LINE
  5
1CB
330
6F
100
AcDbEntity
  8
DETAIL
  6
Continuous
 62
     5
100
AcDbLine
 10
733.0
 20
-60.0
 30
0.0
 11
757.5
 21
-60.0
 31
0.0
  0
LINE
  5
1CC
330
6F
100
AcDbEntity
  8
DETAIL
  6
Continuous
 62
     5
100
AcDbLine
 10
526.0
 20
-59.66199539750005
 30
0.0
 11
525.8000000000008
 21
-59.66199539750005
 31
0.0
  0
LINE
  5
1CD
330
6F
100
AcDbEntity
  8
DETAIL
  6
Continuous
 62
     5
100
AcDbLine
 10
703.0
 20
-58.59198596450005
 30
0.0
 11
701.5
 21
-58.59198596450005
 31
0.0
  0
LINE
  5
1CE
330
6F
100
AcDbEntity
  8
DETAIL
  6
Continuous
 62
     5
100
AcDbLine
 10
526.0
 20
-57.38187914450008
 30
0.0
 11
525.8000000000008
 21
-57.38187914450008
 31
0.0
  0
LINE
  5
1CF
330
6F
100
AcDbEntity
  8
DETAIL
  6
Continuous
 62
     5
100
AcDbLine
 10
703.0
 20
-56.59198596450004
 30
0.0
 11
701.5
 21
-56.59198596450004
 31
0.0
  0
LINE
  5
1D0
330
6F
100
AcDbEntity
  8
DETAIL
  6
Continuous
 62
     5
100
AcDbLine
 10
516.3000000000009
 20
-45.76256830550028
 30
0.0
 11
518.8125363826002
 21
-45.76256830550028
 31
0.0
  0
LINE
  5
1D1
330
6F
100
AcDbEntity
  8
DETAIL
  6
Continuous
 62
     5
100
AcDbLine
 10
516.3000000000009
 20
-45.06287253980008
 30
0.0
 11
517.5148694914005
 21
-45.06287253980008
 31
0.0
  0
LINE
  5
1D2
330
6F
100
AcDbEntity
  8
DETAIL
  6
Continuous
 62
     5
100
AcDbLine
 10
516.0
 20
-44.57806291950009
 30
0.0
 11
516.5592450248005
 21
-44.57806291950009
 31
0.0
  0
LINE
  5
1D3
330
6F
100
AcDbEntity
  8
DETAIL
  6
Continuous
 62
     5
100
AcDbLine
 10
515.4935932698008
 20
-44.08114134520017
 30
0.0
 11
515.0
 21
-44.08114134520017
 31
0.0
  0
LINE
  5
1D4
330
6F
100
AcDbEntity
  8
DETAIL
  6
Continuous
 62
     5
100
AcDbLine
 10
510.3075461767001
 20
-41.82301084200026
 30
0.0
 11
449.5924538232009
 21
-41.82301084200026
 31
0.0
  0
LINE
  5
1D5
330
6F
100
AcDbEntity
  8
DETAIL
  6
Continuous
 62
     5
100
AcDbLine
 10
190.3075461767001
 20
-41.82301084200026
 30
0.0
 11
129.5924538232011
 21
-41.82301084200026
 31
0.0
  0
LINE
  5
1D6
330
6F
100
AcDbEntity
  8
DETAIL
  6
Continuous
 62
     5
100
AcDbLine
 10
502.1857517531006
 20
-39.08114134520019
 30
0.0
 11
457.7142482467987
 21
-39.08114134520019
 31
0.0
  0
LINE
  5
1D7
330
6F
100
AcDbEntity
  8
DETAIL
  6
Continuous
 62
     5
100
AcDbLine
 10
182.1857517531007
 20
-39.08114134520019
 30
0.0
 11
137.7142482467989
 21
-39.08114134520019
 31
0.0
  0
LINE
  5
1D8
330
6F
100
AcDbEntity
  8
DETAIL
  6
Continuous
 62
     5
100
AcDbLine
 10
747.5
 20
-30.0
 30
0.0
 11
750.0
 21
-30.0
 31
0.0
  0
LINE
  5
1D9
330
6F
100
AcDbEntity
  8
DETAIL
  6
Continuous
 62
     5
100
AcDbLine
 10
733.0
 20
-28.0
 30
0.0
 11
747.5
 21
-28.0
 31
0.0
  0
LINE
  5
1DA
330
6F
100
AcDbEntity
  8
DETAIL
  6
Continuous
 62
     5
100
AcDbLine
 10
750.0
 20
-28.0
 30
0.0
 11
757.5
 21
-28.0
 31
0.0
  0
LINE
  5
1DB
330
6F
100
AcDbEntity
  8
DETAIL
  6
Continuous
 62
     5
100
AcDbLine
 10
679.0166650311001
 20
-27.83998285069993
 30
0.0
 11
532.9209470887489
 21
-27.83998285052609
 31
0.0
  0
LINE
  5
1DC
330
6F
100
AcDbEntity
  8
DETAIL
  6
Continuous
 62
     5
100
AcDbLine
 10
411.9790529108993
 20
-27.83998285069993
 30
0.0
 11
247.920947089242
 21
-27.83998285081362
 31
0.0
  0
LINE
  5
1DD
330
6F
100
AcDbEntity
  8
DETAIL
  6
Continuous
 62
     5
100
AcDbLine
 10
679.0166650310984
 20
-27.83998285069993
 30
0.0
 11
592.920947089
 21
-27.83998285069993
 31
0.0
  0
LINE
  5
1DE
330
6F
100
AcDbEntity
  8
DETAIL
  6
Continuous
 62
     5
100
AcDbLine
 10
426.9790529106649
 20
-27.83998285086665
 30
0.0
 11
212.9209470889491
 21
-27.83998285064234
 31
0.0
  0
LINE
  5
1DF
330
6F
100
AcDbEntity
  8
DETAIL
  6
Continuous
 62
     5
100
AcDbLine
 10
106.9790529112397
 20
-27.83998285053133
 30
0.0
 11
-107.0790529116257
 21
-27.83998285030703
 31
0.0
  0
LINE
  5
1E0
330
6F
100
AcDbEntity
  8
DETAIL
  6
Continuous
 62
     5
100
AcDbLine
 10
-213.0209470891095
 20
-27.83998285073506
 30
0.0
 11
-427.0790529109198
 21
-27.83998285071891
 31
0.0
  0
LINE
  5
1E1
330
6F
100
AcDbEntity
  8
DETAIL
  6
Continuous
 62
     5
100
AcDbLine
 10
-533.0209470890677
 20
-27.8399828507109
 30
0.0
 11
-679.0166650312004
 21
-27.83998285069993
 31
0.0
  0
LINE
  5
1E2
330
6F
100
AcDbEntity
  8
DETAIL
  6
Continuous
 62
     5
100
AcDbLine
 10
699.5
 20
-27.0
 30
0.0
 11
700.0
 21
-27.0
 31
0.0
  0
LINE
  5
1E3
330
6F
100
AcDbEntity
  8
DETAIL
  6
Continuous
 62
     5
100
AcDbLine
 10
700.0
 20
-26.40000000000009
 30
0.0
 11
699.5
 21
-26.40000000000009
 31
0.0
  0
LINE
  5
1E4
330
6F
100
AcDbEntity
  8
DETAIL
  6
Continuous
 62
     5
100
AcDbLine
 10
701.6999999999987
 20
-20.5
 30
0.0
 11
747.3000000000011
 21
-20.5
 31
0.0
  0
LINE
  5
1E5
330
6F
100
AcDbEntity
  8
DETAIL
  6
Continuous
 62
     5
100
AcDbLine
 10
679.216665031099
 20
-18.24122035500022
 30
0.0
 11
679.0166650311001
 21
-18.24122035500022
 31
0.0
  0
LINE
  5
1E6
330
6F
100
AcDbEntity
  8
DETAIL
  6
Continuous
 62
     5
100
AcDbLine
 10
701.6999999999987
 20
-18.0
 30
0.0
 11
747.3000000000011
 21
-18.0
 31
0.0
  0
LINE
  5
1E7
330
6F
100
AcDbEntity
  8
DETAIL
  6
Continuous
 62
     5
100
AcDbLine
 10
703.0
 20
-16.5
 30
0.0
 11
700.0
 21
-16.5
 31
0.0
  0
LINE
  5
1E8
330
6F
100
AcDbEntity
  8
DETAIL
  6
Continuous
 62
     5
100
AcDbLine
 10
679.0166650311001
 20
-12.44083232310004
 30
0.0
 11
-679.0166650312004
 21
-12.44083232310004
 31
0.0
  0
LINE
  5
1E9
330
6F
100
AcDbEntity
  8
DETAIL
  6
Continuous
 62
     5
100
AcDbLine
 10
-694.5
 20
-3.0
 30
0.0
 11
694.5
 21
-3.0
 31
0.0
  0
LINE
  5
1EA
330
6F
100
AcDbEntity
  8
DETAIL
  6
Continuous
 62
     5
100
AcDbLine
 10
-700.0
 20
0.0
 30
0.0
 11
700.0
 21
0.0
 31
0.0
  0
LINE
  5
1EB
330
6F
100
AcDbEntity
  8
DETAIL
  6
Continuous
 62
     5
100
AcDbLine
 10
703.9825475935012
 20
-27.24349848420025
 30
0.0
 11
733.0
 21
-27.75
 31
0.0
  0
LINE
  5
1EC
330
6F
100
AcDbEntity
  8
DETAIL
  6
Continuous
 62
     5
100
AcDbLine
 10
515.7776887780999
 20
-44.55617622069985
 30
0.0
 11
516.0
 21
-44.57806291950009
 31
0.0
  0
LWPOLYLINE
  5
1ED
330
6F
100
AcDbEntity
  8
DETAIL
  6
Continuous
 62
     5
100
AcDbPolyline
 90
       23
 70
     0
 43
0.0
 10
106.3689999834005
 20
-208.8008105293002
 10
109.2537639257007
 20
-210.1714822135
 10
112.4218413346007
 20
-211.5382168676001
 10
115.9334712317995
 20
-212.8694528792002
 10
119.8477386541999
 20
-214.1269369491001
 10
124.2234271971992
 20
-215.2652310599001
 10
129.1283550888
 20
-216.2440252278001
 10
134.6148008319014
 20
-217.0296104065001
 10
140.6098429460998
 20
-217.5980807815004
 10
146.9278996658013
 20
-217.9586161921998
 10
153.4089602403001
 20
-218.1499066293
 10
159.9499999999989
 20
-218.2088645076001
 10
166.4910397596013
 20
-218.1499066293
 10
172.9721003341001
 20
-217.9586161921998
 10
179.2901570537997
 20
-217.5980807815004
 10
185.2851991681
 20
-217.0296104065001
 10
190.7716449111012
 20
-216.2440252278001
 10
195.6765728027002
 20
-215.2652310599001
 10
200.0522613457015
 20
-214.1269369491001
 10
203.9665287681
 20
-212.8694528792002
 10
207.4781586652989
 20
-211.5382168676001
 10
210.6462360741989
 20
-210.1714822135
 10
213.5310000166009
 20
-208.8008105293002
  0
LINE
  5
206
330
6F
100
AcDbEntity
  8
DETAIL
  6
Continuous
 62
     5
100
AcDbLine
 10
518.0130255876011
 20
-76.06316957089984
 30
0.0
 11
517.9746951672004
 21
-76.07842020919997
 31
0.0
  0
LINE
  5
207
330
6F
100
AcDbEntity
  8
DETAIL
  6
Continuous
 62
     5
100
AcDbLine
 10
686.3605285841003
 20
-10.93564555329976
 30
0.0
 11
682.1482317183997
 21
-12.50949535890004
 31
0.0
  0
LWPOLYLINE
  5
208
330
6F
100
AcDbEntity
  8
DETAIL
  6
Continuous
 62
     5
100
AcDbPolyline
 90
        4
 70
     0
 43
0.0
 10
682.1482317183997
 20
-12.50949535890004
 10
681.7855317451995
 20
-12.64446978750038
 10
681.4084314943011
 20
-12.78378157669976
 10
681.0141405826997
 20
-12.92859046959984
  0
LWPOLYLINE
  5
20E
330
6F
100
AcDbEntity
  8
DETAIL
  6
Continuous
 62
     5
100
AcDbPolyline
 90
        3
 70
     0
 43
0.0
 10
679.7117450987989
 20
-13.40463028720023
 10
679.2405040729991
 20
-13.57758700199974
 10
679.0166650311001
 20
-13.66025524169981
  0
LINE
  5
213
330
6F
100
AcDbEntity
  8
DETAIL
  6
Continuous
 62
     5
100
AcDbLine
 10
681.0141405826997
 20
-12.92859046959984
 30
0.0
 11
679.7117450987989
 21
-13.40463028720023
 31
0.0
  0
LWPOLYLINE
  5
214
330
6F
100
AcDbEntity
  8
DETAIL
  6
Continuous
 62
     5
100
AcDbPolyline
 90
        5
 70
     0
 43
0.0
 10
679.713553211599
 20
-223.5960341773997
 10
681.0146427187993
 20
-224.0715923648004
 10
681.4090017994001
 20
-224.2164284850001
 10
681.7860419279004
 20
-224.3557187749002
 10
682.1482312659009
 20
-224.4905044968
  0
LWPOLYLINE
  5
21B
330
6F
100
AcDbEntity
  8
DETAIL
  6
Continuous
 62
     5
100
AcDbPolyline
 90
        3
 70
     0
 43
0.0
 10
679.0166650311001
 20
-223.3397444243001
 10
679.2422763033989
 20
-223.4230636471002
 10
679.713553211599
 20
-223.5960341773997
  0
LINE
  5
220
330
6F
100
AcDbEntity
  8
DETAIL
  6
Continuous
 62
     5
100
AcDbLine
 10
682.1482312659009
 20
-224.4905044968
 30
0.0
 11
686.3605285841003
 21
-226.0643544467002
 31
0.0
  0
LINE
  5
221
330
6F
100
AcDbEntity
  8
DETAIL
  6
Continuous
 62
     5
100
AcDbLine
 10
520.025304832701
 20
-174.9795827394
 30
0.0
 11
519.9869744123007
 21
-174.9643321010999
 31
0.0
  0
LWPOLYLINE
  5
222
330
6F
100
AcDbEntity
  8
DETAIL
  6
Continuous
 62
     5
100
AcDbPolyline
 90
       23
 70
     0
 43
0.0
 10
426.3689999834005
 20
-208.8008105293002
 10
429.2537639257004
 20
-210.1714822135
 10
432.4218413346007
 20
-211.5382168676001
 10
435.9334712317994
 20
-212.8694528792002
 10
439.8477386541999
 20
-214.1269369491001
 10
444.223427197199
 20
-215.2652310599001
 10
449.1283550888002
 20
-216.2440252278001
 10
454.6148008319014
 20
-217.0296104065001
 10
460.6098429460997
 20
-217.5980807815004
 10
466.9278996658011
 20
-217.9586161921998
 10
473.4089602403001
 20
-218.1499066293
 10
479.9499999999987
 20
-218.2088645076001
 10
486.4910397596013
 20
-218.1499066293
 10
492.9721003341
 20
-217.9586161921998
 10
499.2901570537996
 20
-217.5980807815004
 10
505.2851991680999
 20
-217.0296104065001
 10
510.7716449111011
 20
-216.2440252278001
 10
515.6765728027003
 20
-215.2652310599001
 10
520.0522613457015
 20
-214.1269369491001
 10
523.9665287680999
 20
-212.8694528792002
 10
527.4781586652988
 20
-211.5382168676001
 10
530.6462360741988
 20
-210.1714822135
 10
533.531000016601
 20
-208.8008105293002
  0
LWPOLYLINE
  5
23B
330
6F
100
AcDbEntity
  8
DETAIL
  6
Continuous
 62
     5
100
AcDbPolyline
 90
       30
 70
     0
 43
0.0
 10
106.3689999834005
 20
-208.8008105293002
 10
108.6051940312991
 20
-210.4095783002003
 10
110.9986564213013
 20
-212.0143322112999
 10
113.5735503385003
 20
-213.5940361155999
 10
116.3560636868988
 20
-215.1245069019001
 10
119.3717247631994
 20
-216.5794112996
 10
122.6429021488002
 20
-217.9267759507002
 10
126.1950806392997
 20
-219.1404107197
 10
130.052394925
 20
-220.1956107061
 10
134.2221004969997
 20
-221.0736913250002
 10
138.657300536799
 20
-221.7610883205998
 10
143.2740282545001
 20
-222.2624415713999
 10
147.9931414668008
 20
-222.6008104315001
 10
152.7632681898994
 20
-222.8056011453
 10
157.5534136352999
 20
-222.9012643311999
 10
162.3465863645997
 20
-222.9012643311999
 10
167.1367318101002
 20
-222.8056011453
 10
171.9068585330988
 20
-222.6008104315001
 10
176.6259717455014
 20
-222.2624415713999
 10
181.2426994632004
 20
-221.7610883205998
 10
185.6778995028998
 20
-221.0736913250002
 10
189.8476050750014
 20
-220.1956107061
 10
193.7049193605998
 20
-219.1404107197
 10
197.2570978511994
 20
-217.9267759507002
 10
200.5282752367002
 20
-216.5794112996
 10
203.5439363130008
 20
-215.1245069019001
 10
206.3264496614011
 20
-213.5940361155999
 10
208.9013435786001
 20
-212.0143322112999
 10
211.2948059687005
 20
-210.4095783002003
 10
213.5310000166009
 20
-208.8008105293002
  0
LINE
  5
25B
330
6F
100
AcDbEntity
  8
DETAIL
  6
Continuous
 62
     5
100
AcDbLine
 10
517.9746951672004
 20
-76.07842020919997
 30
0.0
 11
517.7943690621011
 21
-76.1849464549
 31
0.0
  0
LINE
  5
25C
330
6F
100
AcDbEntity
  8
DETAIL
  6
Continuous
 62
     5
100
AcDbLine
 10
518.0130255876011
 20
-174.9643321010999
 30
0.0
 11
517.9746951672004
 21
-174.9795827394
 31
0.0
  0
LINE
  5
25D
330
6F
100
AcDbEntity
  8
DETAIL
  6
Continuous
 62
     5
100
AcDbLine
 10
520.025304832701
 20
-76.07842020919997
 30
0.0
 11
519.9869744123007
 21
-76.06316957089984
 31
0.0
  0
LINE
  5
25E
330
6F
100
AcDbEntity
  8
DETAIL
  6
Continuous
 62
     5
100
AcDbLine
 10
526.0
 20
-105.8315239701
 30
0.0
 11
525.8263518223011
 21
-105.7532908298999
 31
0.0
  0
LWPOLYLINE
  5
25F
330
6F
100
AcDbEntity
  8
DETAIL
  6
Continuous
 62
     5
100
AcDbPolyline
 90
       23
 70
     0
 43
0.0
 10
212.920947089
 20
-27.83998285069993
 10
210.0405804755992
 20
-26.49229740359988
 10
206.8781052538998
 20
-25.14830192609998
 10
203.3750130887002
 20
-23.83864644070036
 10
199.4742617979009
 20
-22.60043706000033
 10
195.1206922518013
 20
-21.47773815179971
 10
190.2521727391995
 20
-20.50975007689976
 10
184.8258488049014
 20
-19.72943460340001
 10
178.9211921983005
 20
-19.16048772969998
 10
172.7167220149004
 20
-18.79523709390014
 10
166.3612355021996
 20
-18.59873446900019
 10
159.9499999999989
 20
-18.53758870399997
 10
153.5387644976999
 20
-18.59873446900019
 10
147.1832779849992
 20
-18.79523709390014
 10
140.978807801699
 20
-19.16048772969998
 10
135.074151195
 20
-19.72943460340001
 10
129.6478272607
 20
-20.50975007689976
 10
124.7793077481
 20
-21.47773815179971
 10
120.4257382020005
 20
-22.60043706000033
 10
116.5249869113013
 20
-23.83864644070036
 10
113.0218947460998
 20
-25.14830192609998
 10
109.8594195243004
 20
-26.49229740359988
 10
106.9790529108995
 20
-27.83998285069993
  0
LWPOLYLINE
  5
278
330
6F
100
AcDbEntity
  8
DETAIL
  6
Continuous
 62
     5
100
AcDbPolyline
 90
       30
 70
     0
 43
0.0
 10
212.920947089
 20
-27.83998285069993
 10
210.6889427248989
 20
-26.25875875869997
 10
208.3002541492988
 20
-24.68130461130022
 10
205.7312566246001
 20
-23.12799814289975
 10
202.9567003267002
 20
-21.62228729740036
 10
199.9520314095989
 20
-20.18977718800034
 10
196.6965933166011
 20
-18.86148752129975
 10
193.1671487461989
 20
-17.66295074690015
 10
189.3428258410003
 20
-16.61814709579994
 10
185.2206469264001
 20
-15.74553170800027
 10
180.8497358223994
 20
-15.05851559730035
 10
176.3110347093989
 20
-14.55320115960012
 10
171.6782315378004
 20
-14.20854493360002
 10
166.9985608750994
 20
-13.99774296240002
 10
162.3004554515009
 20
-13.8984948809002
 10
157.5995445484004
 20
-13.8984948809002
 10
152.9014391248001
 20
-13.99774296240002
 10
148.2217684621992
 20
-14.20854493360002
 10
143.5889652905007
 20
-14.55320115960012
 10
139.0502641775001
 20
-15.05851559730035
 10
134.6793530736013
 20
-15.74553170800027
 10
130.5571741588992
 20
-16.61814709579994
 10
126.7328512537005
 20
-17.66295074690015
 10
123.2034066834003
 20
-18.86148752129975
 10
119.9479685903006
 20
-20.18977718800034
 10
116.9432996732994
 20
-21.62228729740036
 10
114.1687433753013
 20
-23.12799814289975
 10
111.5997458506008
 20
-24.68130461130022
 10
109.2110572750007
 20
-26.25875875869997
 10
106.9790529108995
 20
-27.83998285069993
  0
LWPOLYLINE
  5
298
330
6F
100
AcDbEntity
  8
DETAIL
  6
Continuous
 62
     5
100
AcDbPolyline
 90
       30
 70
     0
 43
0.0
 10
426.3689999834005
 20
-208.8008105293002
 10
428.6051940312991
 20
-210.4095783002003
 10
430.9986564213011
 20
-212.0143322112999
 10
433.5735503385002
 20
-213.5940361155999
 10
436.3560636868988
 20
-215.1245069019001
 10
439.3717247631991
 20
-216.5794112996
 10
442.6429021488002
 20
-217.9267759507002
 10
446.1950806392997
 20
-219.1404107197
 10
450.0523949249998
 20
-220.1956107061
 10
454.2221004969995
 20
-221.0736913250002
 10
458.657300536799
 20
-221.7610883205998
 10
463.2740282544999
 20
-222.2624415713999
 10
467.9931414668009
 20
-222.6008104315001
 10
472.7632681898993
 20
-222.8056011453
 10
477.5534136353998
 20
-222.9012643311999
 10
482.3465863645997
 20
-222.9012643311999
 10
487.1367318100999
 20
-222.8056011453
 10
491.9068585330988
 20
-222.6008104315001
 10
496.6259717455011
 20
-222.2624415713999
 10
501.2426994632005
 20
-221.7610883205998
 10
505.6778995028998
 20
-221.0736913250002
 10
509.8476050750013
 20
-220.1956107061
 10
513.7049193605998
 20
-219.1404107197
 10
517.2570978511993
 20
-217.9267759507002
 10
520.5282752367001
 20
-216.5794112996
 10
523.5439363130008
 20
-215.1245069019001
 10
526.3264496614009
 20
-213.5940361155999
 10
528.9013435786
 20
-212.0143322112999
 10
531.2948059687005
 20
-210.4095783002003
 10
533.531000016601
 20
-208.8008105293002
  0
LWPOLYLINE
  5
2B8
330
6F
100
AcDbEntity
  8
DETAIL
  6
Continuous
 62
     5
100
AcDbPolyline
 90
        4
 70
     0
 43
0.0
 10
517.7943690621011
 20
-76.1849464549
 10
517.6603746777999
 20
-76.30648137200022
 10
517.5778613433992
 20
-76.43835444160004
 10
517.5500000000011
 20
-76.57549785579977
  0
LWPOLYLINE
  5
2BE
330
6F
100
AcDbEntity
  8
DETAIL
  6
Continuous
 62
     5
100
AcDbPolyline
 90
        4
 70
     0
 43
0.0
 10
706.8597939494992
 20
-20.55857878680035
 10
706.8974099355
 20
-20.52904862630021
 10
706.9473934278993
 20
-20.50737848740027
 10
707.0012142086999
 20
-20.5000006831001
  0
LWPOLYLINE
  5
2C4
330
6F
100
AcDbEntity
  8
DETAIL
  6
Continuous
 62
     5
100
AcDbPolyline
 90
        4
 70
     0
 43
0.0
 10
521.9833833507
 20
-77.31333134880012
 10
522.1650635093991
 20
-77.18150988110029
 10
522.3096988312009
 20
-77.03931937959987
 10
522.389500956
 20
-76.92534573860029
  0
LWPOLYLINE
  5
2CA
330
6F
100
AcDbEntity
  8
DETAIL
  6
Continuous
 62
     5
100
AcDbPolyline
 90
        6
 70
     0
 43
0.0
 10
521.9833833507
 20
-78.01302711449989
 10
522.1650635093991
 20
-77.88120564680001
 10
522.3096988312009
 20
-77.73901514530006
 10
522.4148145656998
 20
-77.58888852890001
 10
522.4786121533997
 20
-77.43339450570009
 10
522.5
 20
-77.27519362149997
  0
LWPOLYLINE
  5
2D2
330
6F
100
AcDbEntity
  8
DETAIL
  6
Continuous
 62
     5
100
AcDbPolyline
 90
        4
 70
     0
 43
0.0
 10
521.9833833507
 20
-176.2144938790998
 10
522.1650635093991
 20
-176.0826724113003
 10
522.3096988312009
 20
-175.9404819097999
 10
522.389500956
 20
-175.8265082689004
  0
LWPOLYLINE
  5
2D8
330
6F
100
AcDbEntity
  8
DETAIL
  6
Continuous
 62
     5
100
AcDbPolyline
 90
        6
 70
     0
 43
0.0
 10
521.9833833507
 20
-176.9141896448
 10
522.1650635093991
 20
-176.7823681770001
 10
522.3096988312009
 20
-176.6401776755001
 10
522.4148145656998
 20
-176.4900510592001
 10
522.4786121533997
 20
-176.3345570359001
 10
522.5
 20
-176.1763561517
  0
LINE
  5
2E0
330
6F
100
AcDbEntity
  8
DETAIL
  6
Continuous
 62
     5
100
AcDbLine
 10
517.9746951672004
 20
-174.9795827394
 30
0.0
 11
517.7943690621011
 21
-175.0861089852
 31
0.0
  0
LWPOLYLINE
  5
2E1
330
6F
100
AcDbEntity
  8
DETAIL
  6
Continuous
 62
     5
100
AcDbPolyline
 90
        6
 70
     0
 43
0.0
 10
777.5
 20
-165.1558976590004
 10
778.3339009919
 20
-164.7053295634
 10
779.4962908768011
 20
-163.5748623054
 10
780.3298823676994
 20
-162.1155966534997
 10
780.8320169279014
 20
-160.3248740709
 10
781.0
 20
-158.1999999999998
  0
LWPOLYLINE
  5
2E9
330
6F
100
AcDbEntity
  8
DETAIL
  6
Continuous
 62
     5
100
AcDbPolyline
 90
       23
 70
     0
 43
0.0
 10
532.920947089
 20
-27.83998285069993
 10
530.0405804755992
 20
-26.49229740359988
 10
526.8781052538996
 20
-25.14830192609998
 10
523.3750130887001
 20
-23.83864644070036
 10
519.4742617979008
 20
-22.60043706000033
 10
515.1206922518013
 20
-21.47773815179971
 10
510.2521727391994
 20
-20.50975007689976
 10
504.8258488049013
 20
-19.72943460340001
 10
498.9211921983005
 20
-19.16048772969998
 10
492.7167220149001
 20
-18.79523709390014
 10
486.3612355021996
 20
-18.59873446900019
 10
479.9499999999987
 20
-18.53758870399997
 10
473.5387644977
 20
-18.59873446900019
 10
467.1832779849991
 20
-18.79523709390014
 10
460.9788078016991
 20
-19.16048772969998
 10
455.074151195
 20
-19.72943460340001
 10
449.6478272606998
 20
-20.50975007689976
 10
444.7793077481001
 20
-21.47773815179971
 10
440.4257382020005
 20
-22.60043706000033
 10
436.5249869113013
 20
-23.83864644070036
 10
433.0218947460998
 20
-25.14830192609998
 10
429.8594195243004
 20
-26.49229740359988
 10
426.9790529108995
 20
-27.83998285069993
  0
LWPOLYLINE
  5
302
330
6F
100
AcDbEntity
  8
DETAIL
  6
Continuous
 62
     5
100
AcDbPolyline
 90
        6
 70
     0
 43
0.0
 10
777.5
 20
-151.2441023410001
 10
778.3339009919
 20
-151.6946704366
 10
779.4962908768011
 20
-152.8251376946
 10
780.3298823676994
 20
-154.2844033465999
 10
780.8320169279014
 20
-156.0751259292001
 10
781.0
 20
-158.1999999999998
  0
LWPOLYLINE
  5
30A
330
6F
100
AcDbEntity
  8
DETAIL
  6
Continuous
 62
     5
100
AcDbPolyline
 90
        9
 70
     0
 43
0.0
 10
525.8263518223011
 20
-105.7532908298999
 10
525.6579798565999
 20
-105.6528206523999
 10
525.4999999999999
 20
-105.5311321407998
 10
525.3572123903012
 20
-105.3898887067998
 10
525.2339555568015
 20
-105.2313479284002
 10
525.1339745962011
 20
-105.0582929545999
 10
525.060307379199
 20
-104.8739479411001
 10
525.0151922470013
 20
-104.6818800855999
 10
525.0
 20
-104.4858912404997
  0
LWPOLYLINE
  5
315
330
6F
100
AcDbEntity
  8
DETAIL
  6
Continuous
 62
     5
100
AcDbPolyline
 90
        9
 70
     0
 43
0.0
 10
522.1650635093991
 20
-175.5703441263999
 10
521.9833833507
 20
-175.4385226587001
 10
521.7677669529003
 20
-175.3193257266002
 10
521.5219035725001
 20
-175.2147928227
 10
521.25
 20
-175.1267125339
 10
520.9567085809011
 20
-175.0565919384998
 10
520.6470476126996
 20
-175.0056308191996
 10
520.3263154805007
 20
-174.9747011349
 10
520.0
 20
-174.9643321010999
  0
LWPOLYLINE
  5
320
330
6F
100
AcDbEntity
  8
DETAIL
  6
Continuous
 62
     5
100
AcDbPolyline
 90
        5
 70
     0
 43
0.0
 10
513.6427599471991
 20
-46.5418964534001
 10
513.4945523459991
 20
-46.70175983520038
 10
513.3869934351005
 20
-46.86928599030034
 10
513.3217268977005
 20
-47.04227099309991
 10
513.3000000000008
 20
-47.21699716620014
  0
LINE
  5
327
330
6F
100
AcDbEntity
  8
DETAIL
  6
Continuous
 62
     5
100
AcDbLine
 10
706.8591869263
 20
-20.55918969210006
 30
0.0
 11
701.5590649935001
 21
-25.85931162480028
 31
0.0
  0
LWPOLYLINE
  5
328
330
6F
100
AcDbEntity
  8
DETAIL
  6
Continuous
 62
     5
100
AcDbPolyline
 90
        4
 70
     0
 43
0.0
 10
517.7943690621011
 20
-175.0861089852
 10
517.6603746777999
 20
-175.2076439022003
 10
517.5778613433992
 20
-175.3395169719001
 10
517.5500000000011
 20
-175.4766603859998
  0
LWPOLYLINE
  5
32E
330
6F
100
AcDbEntity
  8
DETAIL
  6
Continuous
 62
     5
100
AcDbPolyline
 90
        5
 70
     0
 43
0.0
 10
756.5
 20
-129.3439573789
 10
757.2728904619999
 20
-128.8243623245998
 10
757.9776490777001
 20
-127.8957876069998
 10
758.4048089793013
 20
-126.6896141752004
 10
758.5485281374002
 20
-125.1999999999998
  0
LWPOLYLINE
  5
335
330
6F
100
AcDbEntity
  8
DETAIL
  6
Continuous
 62
     5
100
AcDbPolyline
 90
        5
 70
     0
 43
0.0
 10
756.5
 20
-121.0560426211
 10
757.2728904619999
 20
-121.5756376753998
 10
757.9776490777001
 20
-122.5042123929997
 10
758.4048089793013
 20
-123.7103858248001
 10
758.5485281374002
 20
-125.1999999999998
  0
LWPOLYLINE
  5
33C
330
6F
100
AcDbEntity
  8
DETAIL
  6
Continuous
 62
     5
100
AcDbPolyline
 90
       30
 70
     0
 43
0.0
 10
532.920947089
 20
-27.83998285069993
 10
530.6889427248989
 20
-26.25875875869997
 10
528.3002541492987
 20
-24.68130461130022
 10
525.7312566245998
 20
-23.12799814289975
 10
522.9567003267002
 20
-21.62228729740036
 10
519.9520314095988
 20
-20.18977718800034
 10
516.6965933166011
 20
-18.86148752129975
 10
513.167148746199
 20
-17.66295074690015
 10
509.3428258410003
 20
-16.61814709579994
 10
505.2206469264
 20
-15.74553170800027
 10
500.8497358223992
 20
-15.05851559730035
 10
496.3110347095006
 20
-14.55320115960012
 10
491.6782315378005
 20
-14.20854493360002
 10
486.9985608750994
 20
-13.99774296240002
 10
482.3004554515008
 20
-13.8984948809002
 10
477.5995445484003
 20
-13.8984948809002
 10
472.9014391248
 20
-13.99774296240002
 10
468.2217684621991
 20
-14.20854493360002
 10
463.5889652905007
 20
-14.55320115960012
 10
459.0502641775001
 20
-15.05851559730035
 10
454.6793530736011
 20
-15.74553170800027
 10
450.5571741588991
 20
-16.61814709579994
 10
446.7328512537005
 20
-17.66295074690015
 10
443.2034066834003
 20
-18.86148752129975
 10
439.9479685903005
 20
-20.18977718800034
 10
436.9432996732994
 20
-21.62228729740036
 10
434.1687433753013
 20
-23.12799814289975
 10
431.5997458506008
 20
-24.68130461130022
 10
429.2110572750007
 20
-26.25875875869997
 10
426.9790529108995
 20
-27.83998285069993
  0
LWPOLYLINE
  5
35C
330
6F
100
AcDbEntity
  8
DETAIL
  6
Continuous
 62
     5
100
AcDbPolyline
 90
        9
 70
     0
 43
0.0
 10
522.1650635093991
 20
-76.66918159620036
 10
521.9833833507
 20
-76.53736012839998
 10
521.7677669529003
 20
-76.41816319630014
 10
521.5219035725001
 20
-76.31363029240038
 10
521.25
 20
-76.22555000369994
 10
520.9567085809011
 20
-76.15542940819977
 10
520.6470476126996
 20
-76.10446828890008
 10
520.3263154805007
 20
-76.07353860459989
 10
520.0
 20
-76.06316957089984
  0
LWPOLYLINE
  5
367
330
6F
100
AcDbEntity
  8
DETAIL
  6
Continuous
 62
     5
100
AcDbPolyline
 90
       13
 70
     0
 43
0.0
 10
517.7494927173992
 20
-175.1268125032002
 10
517.7943690621011
 20
-175.1675160211998
 10
517.9746951672004
 20
-175.2740422669003
 10
518.1944231621002
 20
-175.3614660973999
 10
518.4451090230013
 20
-175.4264278640003
 10
518.7171190329991
 20
-175.4664311223
 10
519.0
 20
-175.4799385697001
 10
519.282880966899
 20
-175.4664311223
 10
519.5548909769004
 20
-175.4264278640003
 10
519.8055768377996
 20
-175.3614660973999
 10
520.025304832701
 20
-175.2740422669003
 10
520.2056309378003
 20
-175.1675160211998
 10
520.2505072824988
 20
-175.1268125032002
  0
LWPOLYLINE
  5
376
330
6F
100
AcDbEntity
  8
DETAIL
  6
Continuous
 62
     5
100
AcDbPolyline
 90
        3
 70
     0
 43
0.0
 10
520.3396253220999
 20
-175.2076439022003
 10
520.2056309378003
 20
-175.0861089852
 10
520.025304832701
 20
-174.9795827394
  0
LWPOLYLINE
  5
37B
330
6F
100
AcDbEntity
  8
DETAIL
  6
Continuous
 62
     5
100
AcDbPolyline
 90
       13
 70
     0
 43
0.0
 10
517.7494927173992
 20
-76.2256499729001
 10
517.7943690621011
 20
-76.26635349089973
 10
517.9746951672004
 20
-76.37287973660019
 10
518.1944231621002
 20
-76.46030356719984
 10
518.4451090230013
 20
-76.52526533380022
 10
518.7171190329991
 20
-76.56526859209998
 10
519.0
 20
-76.57877603940004
 10
519.282880966899
 20
-76.56526859209998
 10
519.5548909769004
 20
-76.52526533380022
 10
519.8055768377996
 20
-76.46030356719984
 10
520.025304832701
 20
-76.37287973660019
 10
520.2056309378003
 20
-76.26635349089973
 10
520.2505072824988
 20
-76.2256499729001
  0
LWPOLYLINE
  5
38A
330
6F
100
AcDbEntity
  8
DETAIL
  6
Continuous
 62
     5
100
AcDbPolyline
 90
        3
 70
     0
 43
0.0
 10
520.3396253220999
 20
-76.30648137200022
 10
520.2056309378003
 20
-76.1849464549
 10
520.025304832701
 20
-76.07842020919997
  0
LWPOLYLINE
  5
38F
330
6F
100
AcDbEntity
  8
DETAIL
  6
Continuous
 62
     5
100
AcDbPolyline
 90
        4
 70
     0
 43
0.0
 10
515.6903011687009
 20
-76.81137209769985
 10
515.5851854341998
 20
-76.96149871410034
 10
515.5213878465001
 20
-77.1169927373003
 10
515.5
 20
-77.27519362149997
  0
LWPOLYLINE
  5
395
330
6F
100
AcDbEntity
  8
DETAIL
  6
Continuous
 62
     5
100
AcDbPolyline
 90
        4
 70
     0
 43
0.0
 10
515.6903011687009
 20
-175.7125346278999
 10
515.5851854341998
 20
-175.8626612443004
 10
515.5213878465001
 20
-176.0181552675003
 10
515.5
 20
-176.1763561517
  0
LWPOLYLINE
  5
39B
330
6F
100
AcDbEntity
  8
DETAIL
  6
Continuous
 62
     5
100
AcDbPolyline
 90
        5
 70
     0
 43
0.0
 10
740.2017059220995
 20
-112.4982940778
 10
739.4446509003993
 20
-113.3459165967997
 10
738.9161367735014
 20
-114.1466171867
 10
738.6036586077008
 20
-114.9168793468998
 10
738.4999999843
 20
-115.6737204440001
  0
LINE
  5
3A2
330
6F
100
AcDbEntity
  8
DETAIL
  6
Continuous
 62
     5
100
AcDbLine
 10
738.4999999999998
 20
-114.1999999999998
 30
0.0
 11
740.2017059220995
 21
-112.4982940778
 31
0.0
  0
LINE
  5
3A3
330
6F
100
AcDbEntity
  8
DETAIL
  6
Continuous
 62
     5
100
AcDbLine
 10
735.685045423701
 20
-135.0149545762001
 30
0.0
 11
737.0
 21
-133.6999999999998
 31
0.0
  0
LINE
  5
3A4
330
6F
100
AcDbEntity
  8
DETAIL
  6
Continuous
 62
     5
100
AcDbLine
 10
754.7982940777998
 20
-137.9017059222001
 30
0.0
 11
756.5
 21
-136.1999999999998
 31
0.0
  0
LINE
  5
3A5
330
6F
100
AcDbEntity
  8
DETAIL
  6
Continuous
 62
     5
100
AcDbLine
 10
751.5
 20
-143.4499999999998
 30
0.0
 11
753.5
 21
-141.4499999999998
 31
0.0
  0
LINE
  5
3A6
330
6F
100
AcDbEntity
  8
DETAIL
  6
Continuous
 62
     5
100
AcDbLine
 10
745.220943808601
 20
-171.4790561914
 30
0.0
 11
747.0
 21
-169.6999999999998
 31
0.0
  0
LINE
  5
3A7
330
6F
100
AcDbEntity
  8
DETAIL
  6
Continuous
 62
     5
100
AcDbLine
 10
773.5
 20
-172.9499999999998
 30
0.0
 11
777.5
 21
-169.6999999999998
 31
0.0
  0
LINE
  5
3A8
330
6F
100
AcDbEntity
  8
DETAIL
  6
Continuous
 62
     5
100
AcDbLine
 10
773.5
 20
-143.4499999999998
 30
0.0
 11
777.5
 21
-146.6999999999998
 31
0.0
  0
LINE
  5
3A9
330
6F
100
AcDbEntity
  8
DETAIL
  6
Continuous
 62
     5
100
AcDbLine
 10
751.5
 20
-172.9499999999998
 30
0.0
 11
753.5
 21
-174.9499999999998
 31
0.0
  0
LINE
  5
3AA
330
6F
100
AcDbEntity
  8
DETAIL
  6
Continuous
 62
     5
100
AcDbLine
 10
745.220943808601
 20
-144.9209438086
 30
0.0
 11
747.0
 21
-146.6999999999998
 31
0.0
  0
LINE
  5
3AB
330
6F
100
AcDbEntity
  8
DETAIL
  6
Continuous
 62
     5
100
AcDbLine
 10
738.4999999999998
 20
-136.1999999999998
 30
0.0
 11
740.2017059220995
 21
-137.9017059222001
 31
0.0
  0
LINE
  5
3AC
330
6F
100
AcDbEntity
  8
DETAIL
  6
Continuous
 62
     5
100
AcDbLine
 10
735.685045423701
 20
-115.3850454237999
 30
0.0
 11
737.0
 21
-116.6999999999998
 31
0.0
  0
LINE
  5
3AD
330
6F
100
AcDbEntity
  8
DETAIL
  6
Continuous
 62
     5
100
AcDbLine
 10
771.4999999999998
 20
-141.4499999999998
 30
0.0
 11
773.5
 21
-143.4499999999998
 31
0.0
  0
LINE
  5
3AE
330
6F
100
AcDbEntity
  8
DETAIL
  6
Continuous
 62
     5
100
AcDbLine
 10
754.7982940777998
 20
-112.4982940778
 30
0.0
 11
756.5
 21
-114.1999999999998
 31
0.0
  0
LWPOLYLINE
  5
3AF
330
6F
100
AcDbEntity
  8
DETAIL
  6
Continuous
 62
     5
100
AcDbPolyline
 90
        6
 70
     0
 43
0.0
 10
745.220943808601
 20
-164.8395280957002
 10
745.8831797003004
 20
-165.5643858603998
 10
746.3793907371997
 20
-166.2449274381001
 10
746.7254353279002
 20
-166.8953327674998
 10
746.9314086932006
 20
-167.5303436516001
 10
747.0
 20
-168.1592921435003
  0
LWPOLYLINE
  5
3B7
330
6F
100
AcDbEntity
  8
DETAIL
  6
Continuous
 62
     5
100
AcDbPolyline
 90
        5
 70
     0
 43
0.0
 10
515.0992600285991
 20
-44.0833419153
 10
515.2178349557998
 20
-44.24839364939996
 10
515.376928701
 20
-44.38754017429983
 10
515.5656412726001
 20
-44.49124814229981
 10
515.7776887780999
 20
-44.55617622069985
  0
LWPOLYLINE
  5
3BE
330
6F
100
AcDbEntity
  8
DETAIL
  6
Continuous
 62
     5
100
AcDbPolyline
 90
       11
 70
     0
 43
0.0
 10
515.6104990438998
 20
-175.8265082689004
 10
515.6903011687009
 20
-175.9404819097999
 10
515.8349364904989
 20
-176.0826724113003
 10
516.0166166491999
 20
-176.2144938790998
 10
516.2322330469995
 20
-176.3336908112001
 10
516.4780964274013
 20
-176.4382237151003
 10
516.75
 20
-176.5263040038999
 10
517.0432914191003
 20
-176.5964245993
 10
517.3529523872002
 20
-176.6473857186
 10
517.6736845194008
 20
-176.6783154028999
 10
518.0
 20
-176.6886844365999
  0
LWPOLYLINE
  5
3CB
330
6F
100
AcDbEntity
  8
DETAIL
  6
Continuous
 62
     5
100
AcDbPolyline
 90
        3
 70
     0
 43
0.0
 10
522.4148145656998
 20
-175.8626612443004
 10
522.3096988312009
 20
-175.7125346278999
 10
522.1650635093991
 20
-175.5703441263999
  0
LWPOLYLINE
  5
3D0
330
6F
100
AcDbEntity
  8
DETAIL
  6
Continuous
 62
     5
100
AcDbPolyline
 90
       11
 70
     0
 43
0.0
 10
515.6104990438998
 20
-76.92534573860029
 10
515.6903011687009
 20
-77.03931937959987
 10
515.8349364904989
 20
-77.18150988110029
 10
516.0166166491999
 20
-77.31333134880012
 10
516.2322330469995
 20
-77.43252828089999
 10
516.4780964274013
 20
-77.53706118480021
 10
516.75
 20
-77.62514147359979
 10
517.0432914191003
 20
-77.69526206899993
 10
517.3529523872002
 20
-77.74622318830006
 10
517.6736845194008
 20
-77.77715287259979
 10
518.0
 20
-77.78752190639988
  0
LWPOLYLINE
  5
3DD
330
6F
100
AcDbEntity
  8
DETAIL
  6
Continuous
 62
     5
100
AcDbPolyline
 90
        3
 70
     0
 43
0.0
 10
522.4148145656998
 20
-76.96149871410034
 10
522.3096988312009
 20
-76.81137209769985
 10
522.1650635093991
 20
-76.66918159620036
  0
LINE
  5
3E2
330
6F
100
AcDbEntity
  8
DETAIL
  6
Continuous
 62
     5
100
AcDbLine
 10
513.3000000000008
 20
-183.9637777777998
 30
0.0
 11
513.3000000000008
 21
-46.5173014005004
 31
0.0
  0
LINE
  5
3E3
330
6F
100
AcDbEntity
  8
DETAIL
  6
Continuous
 62
     5
100
AcDbLine
 10
515.0
 20
-44.08114134520017
 30
0.0
 11
515.0
 21
-45.20888912939972
 31
0.0
  0
LINE
  5
3E4
330
6F
100
AcDbEntity
  8
DETAIL
  6
Continuous
 62
     5
100
AcDbLine
 10
522.0
 20
-76.54941665190019
 30
0.0
 11
522.0
 21
-77.30127482540002
 31
0.0
  0
LINE
  5
3E5
330
6F
100
AcDbEntity
  8
DETAIL
  6
Continuous
 62
     5
100
AcDbLine
 10
522.0
 20
-175.4505791821001
 30
0.0
 11
522.0
 21
-176.2024373556
 31
0.0
  0
LINE
  5
3E6
330
6F
100
AcDbEntity
  8
DETAIL
  6
Continuous
 62
     5
100
AcDbLine
 10
525.0
 20
-184.0
 30
0.0
 11
525.0
 21
-49.39364870220014
 31
0.0
  0
LINE
  5
3E7
330
6F
100
AcDbEntity
  8
DETAIL
  6
Continuous
 62
     5
100
AcDbLine
 10
525.8000000000008
 20
-49.92996652469993
 30
0.0
 11
525.8000000000008
 21
-104.4858912404997
 31
0.0
  0
LINE
  5
3E8
330
6F
100
AcDbEntity
  8
DETAIL
  6
Continuous
 62
     5
100
AcDbLine
 10
526.0
 20
-184.0
 30
0.0
 11
526.0
 21
-106.1294401103
 31
0.0
  0
LINE
  5
3E9
330
6F
100
AcDbEntity
  8
DETAIL
  6
Continuous
 62
     5
100
AcDbLine
 10
526.0
 20
-106.1294401103
 30
0.0
 11
526.0
 21
-105.8315239701
 31
0.0
  0
LINE
  5
3EA
330
6F
100
AcDbEntity
  8
DETAIL
  6
Continuous
 62
     5
100
AcDbLine
 10
526.0
 20
-105.7151619315
 30
0.0
 11
526.0
 21
-50.07000803239996
 31
0.0
  0
LWPOLYLINE
  5
3EB
330
6F
100
AcDbEntity
  8
DETAIL
  6
Continuous
 62
     5
100
AcDbPolyline
 90
       10
 70
     0
 43
0.0
 10
513.3000000000008
 20
-46.5173014005004
 10
513.3217268977005
 20
-46.34257522739972
 10
513.3869934351005
 20
-46.16959022460014
 10
513.4945523459991
 20
-46.00206406950017
 10
513.6427599471991
 20
-45.84220068769989
 10
513.8308291804004
 20
-45.69124563370041
 10
514.0548158760991
 20
-45.55264619720037
 10
514.3101136866007
 20
-45.42886844599978
 10
514.5960422459011
 20
-45.32025078439982
 10
514.9074023664998
 20
-45.22906892740002
  0
LWPOLYLINE
  5
3F7
330
6F
100
AcDbEntity
  8
DETAIL
  6
Continuous
 62
     5
100
AcDbPolyline
 90
        5
 70
     0
 43
0.0
 10
740.2017059220995
 20
-131.5508529610997
 10
739.4446508759988
 20
-132.3984755113997
 10
738.9161367417999
 20
-133.1991761292002
 10
738.6036585841992
 20
-133.9694383165
 10
738.4999999999998
 20
-134.7262794416001
  0
LWPOLYLINE
  5
3FE
330
6F
100
AcDbEntity
  8
DETAIL
  6
Continuous
 62
     5
100
AcDbPolyline
 90
        4
 70
     0
 43
0.0
 10
753.5
 20
-141.4499999999998
 10
752.5947087037001
 20
-142.4503022140998
 10
751.9348696733011
 20
-143.3925951024002
 10
751.5
 20
-144.3014026046003
  0
LWPOLYLINE
  5
404
330
6F
100
AcDbEntity
  8
DETAIL
  6
Continuous
 62
     5
100
AcDbPolyline
 90
        4
 70
     0
 43
0.0
 10
753.5
 20
-166.5749999999998
 10
752.5947087037001
 20
-167.5753022140998
 10
751.9348696733011
 20
-168.5175951024002
 10
751.5
 20
-169.4264026046003
  0
LINE
  5
40A
330
6F
100
AcDbEntity
  8
DETAIL
  6
Continuous
 62
     5
100
AcDbLine
 10
771.4999999999998
 20
-174.9499999999998
 30
0.0
 11
773.5
 21
-172.9499999999998
 31
0.0
  0
LWPOLYLINE
  5
40B
330
6F
100
AcDbEntity
  8
DETAIL
  6
Continuous
 62
     5
100
AcDbPolyline
 90
        6
 70
     0
 43
0.0
 10
745.220943808601
 20
-144.9209438086
 10
745.8803832811992
 20
-145.6424042691001
 10
746.3766404608992
 20
-146.3219943218
 10
746.7241646534004
 20
-146.9737924971999
 10
746.9311087916012
 20
-147.6103817919002
 10
747.0
 20
-148.2407078565002
  0
LWPOLYLINE
  5
413
330
6F
100
AcDbEntity
  8
DETAIL
  6
Continuous
 62
     5
100
AcDbPolyline
 90
        4
 70
     0
 43
0.0
 10
771.4999999999998
 20
-166.5749999999998
 10
772.4052912961996
 20
-167.5753022140998
 10
773.0651303266001
 20
-168.5175951024002
 10
773.5
 20
-169.4264026046003
  0
LWPOLYLINE
  5
419
330
6F
100
AcDbEntity
  8
DETAIL
  6
Continuous
 62
     5
100
AcDbPolyline
 90
        4
 70
     0
 43
0.0
 10
771.4999999999998
 20
-141.4499999999998
 10
772.4052912961996
 20
-142.4503022140998
 10
773.0651303266001
 20
-143.3925951024002
 10
773.5
 20
-144.3014026046003
  0
LWPOLYLINE
  5
41F
330
6F
100
AcDbEntity
  8
DETAIL
  6
Continuous
 62
     5
100
AcDbPolyline
 90
        5
 70
     0
 43
0.0
 10
754.7982940777998
 20
-131.5508529610997
 10
755.5553491238989
 20
-132.3984755113997
 10
756.0838632581999
 20
-133.1991761292002
 10
756.3963414156987
 20
-133.9694383165
 10
756.5
 20
-134.7262794416001
  0
LWPOLYLINE
  5
426
330
6F
100
AcDbEntity
  8
DETAIL
  6
Continuous
 62
     5
100
AcDbPolyline
 90
        5
 70
     0
 43
0.0
 10
754.7982940777998
 20
-112.4982940778
 10
755.5553491238989
 20
-113.3459166281
 10
756.0838632581999
 20
-114.146617246
 10
756.3963414156987
 20
-114.9168794331999
 10
756.5
 20
-115.6737205584004
  0
LWPOLYLINE
  5
42D
330
6F
100
AcDbEntity
  8
DETAIL
  6
Continuous
 62
     5
100
AcDbPolyline
 90
        5
 70
     0
 43
0.0
 10
735.685045423701
 20
-130.1074772881002
 10
736.2730518713997
 20
-130.7663223583004
 10
736.6802707945004
 20
-131.3846081748997
 10
736.9203542015001
 20
-131.9780517127001
 10
737.0
 20
-132.5612159321999
  0
LWPOLYLINE
  5
434
330
6F
100
AcDbEntity
  8
DETAIL
  6
Continuous
 62
     5
100
AcDbPolyline
 90
        4
 70
     0
 43
0.0
 10
735.685045423701
 20
-115.3850454237999
 10
736.2721148809015
 20
-116.0426866476
 10
736.6795120180012
 20
-116.6607551802999
 10
736.9201447545001
 20
-117.2548499892
  0
LWPOLYLINE
  5
43A
330
6F
100
AcDbEntity
  8
DETAIL
  6
Continuous
 62
     5
100
AcDbPolyline
 90
        9
 70
     0
 43
0.0
 10
513.2471851074003
 20
-43.03362401580034
 10
513.3166321324987
 20
-43.16108237280013
 10
513.4880830511008
 20
-43.39038049060035
 10
513.6902530696987
 20
-43.59261843029979
 10
513.9188647003011
 20
-43.76374244589988
 10
514.1702728621003
 20
-43.90090860420015
 10
514.4378855554005
 20
-44.00052336850012
 10
514.7162712634999
 20
-44.0609135554
 10
515.0
 20
-44.08114134520017
  0
LWPOLYLINE
  5
445
330
6F
100
AcDbEntity
  8
DETAIL
  6
Continuous
 62
     5
100
AcDbPolyline
 90
       10
 70
     0
 43
0.0
 10
526.0
 20
-105.2370081097001
 10
525.9652703644007
 20
-105.1678070013004
 10
525.9315959713002
 20
-105.0941584854999
 10
525.8999999999997
 20
-105.0162663028
 10
525.8714424779991
 20
-104.9344631355998
 10
525.8467911113001
 20
-104.8492004995
 10
525.8267949191995
 20
-104.7610350244003
 10
525.8120614757991
 20
-104.6706115413998
 10
525.8030384493995
 20
-104.5786434899
 10
525.8000000000008
 20
-104.4858912404997
  0
LWPOLYLINE
  5
451
330
6F
100
AcDbEntity
  8
DETAIL
  6
Continuous
 62
     5
100
AcDbPolyline
 90
       17
 70
     0
 43
0.0
 10
517.5500000000011
 20
-175.4766603859998
 10
517.5778613433992
 20
-175.6138038002
 10
517.6603746777999
 20
-175.7456768698002
 10
517.7943690621011
 20
-175.8672117869
 10
517.9746951672004
 20
-175.9737380326001
 10
518.1944231621002
 20
-176.0611618632001
 10
518.4451090230013
 20
-176.1261236297
 10
518.7171190329991
 20
-176.1661268880998
 10
519.0
 20
-176.1796343353999
 10
519.282880966899
 20
-176.1661268880998
 10
519.5548909769004
 20
-176.1261236297
 10
519.8055768377996
 20
-176.0611618632001
 10
520.025304832701
 20
-175.9737380326001
 10
520.2056309378003
 20
-175.8672117869
 10
520.3396253220999
 20
-175.7456768698002
 10
520.4221386565003
 20
-175.6138038002
 10
520.4499999999987
 20
-175.4766603859998
  0
LWPOLYLINE
  5
464
330
6F
100
AcDbEntity
  8
DETAIL
  6
Continuous
 62
     5
100
AcDbPolyline
 90
        3
 70
     0
 43
0.0
 10
520.4499999999987
 20
-175.4766603859998
 10
520.4221386565003
 20
-175.3395169719001
 10
520.3396253220999
 20
-175.2076439022003
  0
LWPOLYLINE
  5
469
330
6F
100
AcDbEntity
  8
DETAIL
  6
Continuous
 62
     5
100
AcDbPolyline
 90
       17
 70
     0
 43
0.0
 10
517.5500000000011
 20
-76.57549785579977
 10
517.5778613433992
 20
-76.7126412698999
 10
517.6603746777999
 20
-76.8445143396002
 10
517.7943690621011
 20
-76.96604925659994
 10
517.9746951672004
 20
-77.07257550240001
 10
518.1944231621002
 20
-77.15999933290003
 10
518.4451090230013
 20
-77.22496109949997
 10
518.7171190329991
 20
-77.2649643577997
 10
519.0
 20
-77.27847180509979
 10
519.282880966899
 20
-77.2649643577997
 10
519.5548909769004
 20
-77.22496109949997
 10
519.8055768377996
 20
-77.15999933290003
 10
520.025304832701
 20
-77.07257550240001
 10
520.2056309378003
 20
-76.96604925659994
 10
520.3396253220999
 20
-76.8445143396002
 10
520.4221386565003
 20
-76.7126412698999
 10
520.4499999999987
 20
-76.57549785579977
  0
LWPOLYLINE
  5
47C
330
6F
100
AcDbEntity
  8
DETAIL
  6
Continuous
 62
     5
100
AcDbPolyline
 90
        3
 70
     0
 43
0.0
 10
520.4499999999987
 20
-76.57549785579977
 10
520.4221386565003
 20
-76.43835444160004
 10
520.3396253220999
 20
-76.30648137200022
  0
LWPOLYLINE
  5
481
330
6F
100
AcDbEntity
  8
DETAIL
  6
Continuous
 62
     5
100
AcDbPolyline
 90
       13
 70
     0
 43
0.0
 10
515.5
 20
-176.1763561517
 10
515.5213878465001
 20
-176.3345570359001
 10
515.5851854341998
 20
-176.4900510592001
 10
515.6903011687009
 20
-176.6401776755001
 10
515.8349364904989
 20
-176.7823681770001
 10
516.0166166491999
 20
-176.9141896448
 10
516.2322330469995
 20
-177.0333865768998
 10
516.4780964274013
 20
-177.1379194808
 10
516.75
 20
-177.2259997696001
 10
517.0432914191003
 20
-177.2961203650002
 10
517.3529523872002
 20
-177.3470814843003
 10
517.6736845194008
 20
-177.3780111686001
 10
518.0
 20
-177.3883802024001
  0
LWPOLYLINE
  5
490
330
6F
100
AcDbEntity
  8
DETAIL
  6
Continuous
 62
     5
100
AcDbPolyline
 90
        3
 70
     0
 43
0.0
 10
522.5
 20
-176.1763561517
 10
522.4786121533997
 20
-176.0181552675003
 10
522.4148145656998
 20
-175.8626612443004
  0
LWPOLYLINE
  5
495
330
6F
100
AcDbEntity
  8
DETAIL
  6
Continuous
 62
     5
100
AcDbPolyline
 90
       13
 70
     0
 43
0.0
 10
515.5
 20
-77.27519362149997
 10
515.5213878465001
 20
-77.43339450570009
 10
515.5851854341998
 20
-77.58888852890001
 10
515.6903011687009
 20
-77.73901514530006
 10
515.8349364904989
 20
-77.88120564680001
 10
516.0166166491999
 20
-78.01302711449989
 10
516.2322330469995
 20
-78.13222404659973
 10
516.4780964274013
 20
-78.23675695060001
 10
516.75
 20
-78.32483723929998
 10
517.0432914191003
 20
-78.39495783480014
 10
517.3529523872002
 20
-78.44591895410029
 10
517.6736845194008
 20
-78.4768486383
 10
518.0
 20
-78.48721767210007
  0
LWPOLYLINE
  5
4A4
330
6F
100
AcDbEntity
  8
DETAIL
  6
Continuous
 62
     5
100
AcDbPolyline
 90
        3
 70
     0
 43
0.0
 10
522.5
 20
-77.27519362149997
 10
522.4786121533997
 20
-77.1169927373003
 10
522.4148145656998
 20
-76.96149871410034
  0
LWPOLYLINE
  5
4A9
330
6F
100
AcDbEntity
  8
DETAIL
  6
Continuous
 62
     5
100
AcDbPolyline
 90
        4
 70
     0
 43
0.0
 10
694.1551227108012
 20
-25.76683961859999
 10
694.3161247619009
 20
-25.32651488080001
 10
694.4695318255997
 20
-24.90992855560036
 10
694.6170926936992
 20
-24.51296443499996
  0
LWPOLYLINE
  5
4AF
330
6F
100
AcDbEntity
  8
DETAIL
  6
Continuous
 62
     5
100
AcDbPolyline
 90
        4
 70
     0
 43
0.0
 10
693.3825059952996
 20
-27.87394166300011
 10
693.6005807800011
 20
-27.28582626050002
 10
693.8005033146001
 20
-26.74034285010022
 10
694.1551227108012
 20
-25.76683961859999
  0
LWPOLYLINE
  5
4B5
330
6F
100
AcDbEntity
  8
DETAIL
  6
Continuous
 62
     5
100
AcDbPolyline
 90
        3
 70
     0
 43
0.0
 10
693.2414164486999
 20
-28.25149516110014
 10
693.3111751370994
 20
-28.0640207956003
 10
693.3825059952996
 20
-27.87394166300011
  0
LINE
  5
4BA
330
6F
100
AcDbEntity
  8
DETAIL
  6
Continuous
 62
     5
100
AcDbLine
 10
694.6170926936992
 20
-24.51296443499996
 30
0.0
 11
696.0643544467001
 21
-20.63947141590006
 31
0.0
  0
LWPOLYLINE
  5
4BB
330
6F
100
AcDbEntity
  8
DETAIL
  6
Continuous
 62
     5
100
AcDbPolyline
 90
        4
 70
     0
 43
0.0
 10
736.9202311842999
 20
-133.1448324436001
 10
736.6799781866011
 20
-133.7383719103
 10
736.2728678485
 20
-134.3563459930001
 10
735.685045423701
 20
-135.0149545762001
  0
LWPOLYLINE
  5
4C1
330
6F
100
AcDbEntity
  8
DETAIL
  6
Continuous
 62
     5
100
AcDbPolyline
 90
        5
 70
     0
 43
0.0
 10
740.2017059220995
 20
-118.8491470388999
 10
739.4446508954988
 20
-120.5443920895
 10
738.9161367671004
 20
-122.1457932805001
 10
738.6036586030002
 20
-123.6863176119
 10
738.4999999874996
 20
-125.1999998175001
  0
LWPOLYLINE
  5
4C8
330
6F
100
AcDbEntity
  8
DETAIL
  6
Continuous
 62
     5
100
AcDbPolyline
 90
        4
 70
     0
 43
0.0
 10
753.5
 20
-149.8249999999998
 10
752.5947087037001
 20
-151.8256044281996
 10
751.9348696733011
 20
-153.7101902047998
 10
751.5
 20
-155.5278052091998
  0
LWPOLYLINE
  5
4CE
330
6F
100
AcDbEntity
  8
DETAIL
  6
Continuous
 62
     5
100
AcDbPolyline
 90
        4
 70
     0
 43
0.0
 10
773.5
 20
-146.9735973954002
 10
773.0621361628999
 20
-147.8874629404999
 10
772.4016468702992
 20
-148.8292245308002
 10
771.4999999999998
 20
-149.8249999999998
  0
LWPOLYLINE
  5
4D4
330
6F
100
AcDbEntity
  8
DETAIL
  6
Continuous
 62
     5
100
AcDbPolyline
 90
        4
 70
     0
 43
0.0
 10
773.5
 20
-172.0985973954002
 10
773.0621361628999
 20
-173.0124629404999
 10
772.4016468702992
 20
-173.9542245308001
 10
771.4999999999998
 20
-174.9499999999998
  0
LWPOLYLINE
  5
4DA
330
6F
100
AcDbEntity
  8
DETAIL
  6
Continuous
 62
     5
100
AcDbPolyline
 90
        4
 70
     0
 43
0.0
 10
751.5
 20
-172.0985973954002
 10
751.9378638370999
 20
-173.0124629404999
 10
752.5983531295985
 20
-173.9542245308001
 10
753.5
 20
-174.9499999999998
  0
LWPOLYLINE
  5
4E0
330
6F
100
AcDbEntity
  8
DETAIL
  6
Continuous
 62
     5
100
AcDbPolyline
 90
        4
 70
     0
 43
0.0
 10
751.5
 20
-146.9735973954002
 10
751.9378638370999
 20
-147.8874629404999
 10
752.5983531295985
 20
-148.8292245308002
 10
753.5
 20
-149.8249999999998
  0
LWPOLYLINE
  5
4E6
330
6F
100
AcDbEntity
  8
DETAIL
  6
Continuous
 62
     5
100
AcDbPolyline
 90
        4
 70
     0
 43
0.0
 10
771.4999999999998
 20
-149.8249999999998
 10
772.4052912961996
 20
-151.8256044281996
 10
773.0651303266001
 20
-153.7101902047998
 10
773.5
 20
-155.5278052091998
  0
LWPOLYLINE
  5
4EC
330
6F
100
AcDbEntity
  8
DETAIL
  6
Continuous
 62
     5
100
AcDbPolyline
 90
        5
 70
     0
 43
0.0
 10
754.7982940777998
 20
-118.8491470388999
 10
755.5553491238989
 20
-120.5443921393998
 10
756.0838632581999
 20
-122.1457933751999
 10
756.3963414156987
 20
-123.6863177496998
 10
756.5
 20
-125.1999999999998
  0
LWPOLYLINE
  5
4F3
330
6F
100
AcDbEntity
  8
DETAIL
  6
Continuous
 62
     5
100
AcDbPolyline
 90
        5
 70
     0
 43
0.0
 10
735.685045423701
 20
-120.2925227119003
 10
736.2729106833011
 20
-121.6098499671998
 10
736.6803581652002
 20
-122.8471119675
 10
736.9203056596996
 20
-124.0333145355998
 10
737.0
 20
-125.1999999999998
  0
LWPOLYLINE
  5
4FA
330
6F
100
AcDbEntity
  8
DETAIL
  6
Continuous
 62
     5
100
AcDbPolyline
 90
        5
 70
     0
 43
0.0
 10
745.220943808601
 20
-151.5604719043003
 10
746.0206365106004
 20
-153.3539177577004
 10
746.569417167
 20
-155.0237117994002
 10
746.8926479126003
 20
-156.6250008001998
 10
747.0
 20
-158.1999999999998
  0
LWPOLYLINE
  5
501
330
6F
100
AcDbEntity
  8
DETAIL
  6
Continuous
 62
     5
100
AcDbPolyline
 90
        3
 70
     0
 43
0.0
 10
693.3825004410993
 20
-209.1260354268998
 10
693.3110895994014
 20
-208.9359649949001
 10
693.2415673091
 20
-208.7484479297
  0
LINE
  5
506
330
6F
100
AcDbEntity
  8
DETAIL
  6
Continuous
 62
     5
100
AcDbLine
 10
696.0643544467001
 20
-216.3605285841004
 30
0.0
 11
694.6170927471013
 21
-212.4870354741001
 31
0.0
  0
LWPOLYLINE
  5
507
330
6F
100
AcDbEntity
  8
DETAIL
  6
Continuous
 62
     5
100
AcDbPolyline
 90
        4
 70
     0
 43
0.0
 10
694.6170927471013
 20
-212.4870354741001
 10
694.4900707344002
 20
-212.1455656806002
 10
694.3571897919009
 20
-211.7853291872997
 10
694.2183778578002
 20
-211.4064539915997
  0
LWPOLYLINE
  5
50D
330
6F
100
AcDbEntity
  8
DETAIL
  6
Continuous
 62
     5
100
AcDbPolyline
 90
        3
 70
     0
 43
0.0
 10
693.7572277062009
 20
-210.1412624051
 10
693.5798885652002
 20
-209.6578460696
 10
693.3825004410993
 20
-209.1260354268998
  0
LINE
  5
512
330
6F
100
AcDbEntity
  8
DETAIL
  6
Continuous
 62
     5
100
AcDbLine
 10
694.2183778578002
 20
-211.4064539915997
 30
0.0
 11
693.7572277062009
 21
-210.1412624051
 31
0.0
  0
LWPOLYLINE
  5
513
330
6F
100
AcDbEntity
  8
DETAIL
  6
Continuous
 62
     5
100
AcDbPolyline
 90
       23
 70
     0
 43
0.0
 10
693.2415673091
 20
-208.7484479297
 10
693.0800588867002
 20
-208.2965364987003
 10
692.9255100083992
 20
-207.8308561670001
 10
692.7775931603007
 20
-207.349713608
 10
692.6364262986007
 20
-206.8514351849999
 10
692.5021079359994
 20
-206.3343907998001
 10
692.3748919316002
 20
-205.7969594760998
 10
692.2551699275008
 20
-205.2378344466001
 10
692.1435226630002
 20
-204.6564434699003
 10
692.0403230051997
 20
-204.0510916717003
 10
691.9452872853999
 20
-203.4149727685999
 10
691.8582588198005
 20
-202.7385877411998
 10
691.7797798959
 20
-202.0133591878003
 10
691.7113294495011
 20
-201.2369159568998
 10
691.654731848901
 20
-200.4151310883999
 10
691.6110354146002
 20
-199.5554492544997
 10
691.5806703032012
 20
-198.6775269931004
 10
691.5626806453001
 20
-197.8101443154
 10
691.554634018199
 20
-196.9761661213997
 10
691.5536041903012
 20
-196.1807539306001
 10
691.557040625301
 20
-195.4259780643
 10
691.5628921277003
 20
-194.7098613236003
 10
691.5761168369008
 20
-193.3627583355001
  0
LWPOLYLINE
  5
52C
330
6F
100
AcDbEntity
  8
DETAIL
  6
Continuous
 62
     5
100
AcDbPolyline
 90
        5
 70
     0
 43
0.0
 10
738.4999999874996
 20
-125.1999998175001
 10
738.6036162899999
 20
-126.7133719691001
 10
738.9157918340989
 20
-128.2529171625001
 10
739.4440215353006
 20
-129.8539929562003
 10
740.2017059220995
 20
-131.5508529610997
  0
LWPOLYLINE
  5
533
330
6F
100
AcDbEntity
  8
DETAIL
  6
Continuous
 62
     5
100
AcDbPolyline
 90
       18
 70
     0
 43
0.0
 10
689.2151419827005
 20
-28.23969730650015
 10
689.1722258223999
 20
-27.31733258350005
 10
689.0444052346008
 20
-26.40283410770007
 10
688.8327703465001
 20
-25.50400100499974
 10
688.5391260201012
 20
-24.62849886349977
 10
688.1659765667009
 20
-23.78379425210005
 10
687.7165043279001
 20
-22.97709110439973
 10
687.1945425573994
 20
-22.21526925939997
 10
686.6045427229002
 20
-21.5048257942999
 10
685.9515365442002
 20
-20.85181961380022
 10
685.2410930807
 20
-20.26181977780016
 10
684.4792712365996
 20
-19.73985800629997
 10
683.6725680894994
 20
-19.29038576699986
 10
682.8278634779999
 20
-18.91723631370041
 10
681.9523613368001
 20
-18.62359198700005
 10
681.0535282317013
 20
-18.41195710129978
 10
680.1390297588002
 20
-18.28413651070014
 10
679.216665031099
 20
-18.24122035500022
  0
LWPOLYLINE
  5
547
330
6F
100
AcDbEntity
  8
DETAIL
  6
Continuous
 62
     5
100
AcDbPolyline
 90
       23
 70
     0
 43
0.0
 10
691.5677553678996
 20
-43.70210608120031
 10
691.5491518973011
 20
-42.32571252209981
 10
691.5408476266001
 20
-41.59135575229992
 10
691.5353249368997
 20
-40.82344061850017
 10
691.5346824286987
 20
-40.02084550240033
 10
691.5414744208992
 20
-39.18325479170017
 10
691.5586490180992
 20
-38.31402272920013
 10
691.5885752459999
 20
-37.43740050910036
 10
691.6318959354008
 20
-36.58480415210033
 10
691.6878281523004
 20
-35.77548695889981
 10
691.7554475409996
 20
-35.01152051910003
 10
691.8334943431
 20
-34.29332321350012
 10
691.9207441048
 20
-33.61868661600011
 10
692.0162946639991
 20
-32.98310608680004
 10
692.1195001997001
 20
-32.38179549750021
 10
692.2299825257995
 20
-31.81000570939977
 10
692.3476443328999
 20
-31.26310813940018
 10
692.4727069532
 20
-30.73649820209995
 10
692.6057452309013
 20
-30.22558198160004
 10
692.7476691112986
 20
-29.72586813330008
 10
692.8997748618001
 20
-29.23306735589995
 10
693.0636094562994
 20
-28.7430257015003
 10
693.2414164486999
 20
-28.25149516110014
  0
LWPOLYLINE
  5
560
330
6F
100
AcDbEntity
  8
DETAIL
  6
Continuous
 62
     5
100
AcDbPolyline
 90
        4
 70
     0
 43
0.0
 10
691.5848938449999
 20
-45.56920795590031
 10
691.5816461066987
 20
-44.97011059240003
 10
691.5756986311007
 20
-44.34854565529985
 10
691.5677553678996
 20
-43.70210608120031
  0
LINE
  5
566
330
6F
100
AcDbEntity
  8
DETAIL
  6
Continuous
 62
     5
100
AcDbLine
 10
679.0166650311001
 20
-224.1245319446998
 30
0.0
 11
679.0166650311001
 21
-12.44083232310004
 31
0.0
  0
LINE
  5
567
330
6F
100
AcDbEntity
  8
DETAIL
  6
Continuous
 62
     5
100
AcDbLine
 10
689.2151419827005
 20
-208.7603026935003
 30
0.0
 11
689.2151419827005
 21
-28.23969730650015
 31
0.0
  0
LINE
  5
568
330
6F
100
AcDbEntity
  8
DETAIL
  6
Continuous
 62
     5
100
AcDbLine
 10
691.5850389175991
 20
-47.66694149130034
 30
0.0
 11
691.5848938449999
 21
-45.56920795590031
 31
0.0
  0
LINE
  5
569
330
6F
100
AcDbEntity
  8
DETAIL
  6
Continuous
 62
     5
100
AcDbLine
 10
699.0
 20
-240.0
 30
0.0
 11
699.0
 21
-231.1781838678999
 31
0.0
  0
LINE
  5
56A
330
6F
100
AcDbEntity
  8
DETAIL
  6
Continuous
 62
     5
100
AcDbLine
 10
699.3999999999997
 20
-240.0285398163001
 30
0.0
 11
699.3999999999997
 21
-240.0
 31
0.0
  0
LINE
  5
56B
330
6F
100
AcDbEntity
  8
DETAIL
  6
Continuous
 62
     5
100
AcDbLine
 10
699.5
 20
-8.0
 30
0.0
 11
699.5
 21
-229.0
 31
0.0
  0
LINE
  5
56C
330
6F
100
AcDbEntity
  8
DETAIL
  6
Continuous
 62
     5
100
AcDbLine
 10
700.0
 20
0.0
 30
0.0
 11
700.0
 21
-26.40000000000009
 31
0.0
  0
LINE
  5
56D
330
6F
100
AcDbEntity
  8
DETAIL
  6
Continuous
 62
     5
100
AcDbLine
 10
700.0
 20
-27.0
 30
0.0
 11
700.0
 21
-207.0
 31
0.0
  0
LINE
  5
56E
330
6F
100
AcDbEntity
  8
DETAIL
  6
Continuous
 62
     5
100
AcDbLine
 10
700.0
 20
-240.0
 30
0.0
 11
700.0
 21
-252.0
 31
0.0
  0
LINE
  5
56F
330
6F
100
AcDbEntity
  8
DETAIL
  6
Continuous
 62
     5
100
AcDbLine
 10
700.0500000000011
 20
-240.0285398164001
 30
0.0
 11
700.0500000000011
 21
-249.9499999999997
 31
0.0
  0
LINE
  5
570
330
6F
100
AcDbEntity
  8
DETAIL
  6
Continuous
 62
     5
100
AcDbLine
 10
700.800000000001
 20
-93.0
 30
0.0
 11
700.800000000001
 21
-78.0
 31
0.0
  0
LINE
  5
571
330
6F
100
AcDbEntity
  8
DETAIL
  6
Continuous
 62
     5
100
AcDbLine
 10
701.5
 20
-78.0
 30
0.0
 11
701.5
 21
-20.69999999999982
 31
0.0
  0
LINE
  5
572
330
6F
100
AcDbEntity
  8
DETAIL
  6
Continuous
 62
     5
100
AcDbLine
 10
702.050000000001
 20
-240.0285398164001
 30
0.0
 11
702.050000000001
 21
-249.9499999999997
 31
0.0
  0
LINE
  5
573
330
6F
100
AcDbEntity
  8
DETAIL
  6
Continuous
 62
     5
100
AcDbLine
 10
702.6000000000002
 20
-93.0
 30
0.0
 11
702.6000000000002
 21
-71.5
 31
0.0
  0
LINE
  5
574
330
6F
100
AcDbEntity
  8
DETAIL
  6
Continuous
 62
     5
100
AcDbLine
 10
703.0
 20
-16.5
 30
0.0
 11
703.0
 21
-18.0
 31
0.0
  0
LINE
  5
575
330
6F
100
AcDbEntity
  8
DETAIL
  6
Continuous
 62
     5
100
AcDbLine
 10
703.0
 20
-24.41837661840009
 30
0.0
 11
703.0
 21
-71.5
 31
0.0
  0
LINE
  5
576
330
6F
100
AcDbEntity
  8
DETAIL
  6
Continuous
 62
     5
100
AcDbLine
 10
704.0
 20
-240.0285398163001
 30
0.0
 11
704.0
 21
-93.0
 31
0.0
  0
LINE
  5
577
330
6F
100
AcDbEntity
  8
DETAIL
  6
Continuous
 62
     5
100
AcDbLine
 10
723.0
 20
-108.7007413821002
 30
0.0
 11
723.0
 21
-141.6992586179003
 31
0.0
  0
LINE
  5
578
330
6F
100
AcDbEntity
  8
DETAIL
  6
Continuous
 62
     5
100
AcDbLine
 10
730.0
 20
-139.1999999999998
 30
0.0
 11
730.0
 21
-177.1999999999998
 31
0.0
  0
LINE
  5
579
330
6F
100
AcDbEntity
  8
DETAIL
  6
Continuous
 62
     5
100
AcDbLine
 10
733.0
 20
-27.75
 30
0.0
 11
733.0
 21
-60.25
 31
0.0
  0
LINE
  5
57A
330
6F
100
AcDbEntity
  8
DETAIL
  6
Continuous
 62
     5
100
AcDbLine
 10
737.0
 20
-133.6996305151001
 30
0.0
 11
737.0
 21
-116.700369485
 31
0.0
  0
LINE
  5
57B
330
6F
100
AcDbEntity
  8
DETAIL
  6
Continuous
 62
     5
100
AcDbLine
 10
738.4999999999998
 20
-136.1995072181998
 30
0.0
 11
738.4999999999998
 21
-114.2004927817998
 31
0.0
  0
LINE
  5
57C
330
6F
100
AcDbEntity
  8
DETAIL
  6
Continuous
 62
     5
100
AcDbLine
 10
740.0
 20
-200.3000000000002
 30
0.0
 11
740.0
 21
-240.3000000000002
 31
0.0
  0
LINE
  5
57D
330
6F
100
AcDbEntity
  8
DETAIL
  6
Continuous
 62
     5
100
AcDbLine
 10
747.0
 20
-169.6999999999998
 30
0.0
 11
747.0
 21
-146.6999999999998
 31
0.0
  0
LINE
  5
57E
330
6F
100
AcDbEntity
  8
DETAIL
  6
Continuous
 62
     5
100
AcDbLine
 10
747.5
 20
-30.0
 30
0.0
 11
747.5
 21
-20.69999999999982
 31
0.0
  0
LINE
  5
57F
330
6F
100
AcDbEntity
  8
DETAIL
  6
Continuous
 62
     5
100
AcDbLine
 10
750.0
 20
-20.69999999999982
 30
0.0
 11
750.0
 21
-30.0
 31
0.0
  0
LINE
  5
580
330
6F
100
AcDbEntity
  8
DETAIL
  6
Continuous
 62
     5
100
AcDbLine
 10
751.5
 20
-172.9499999999998
 30
0.0
 11
751.5
 21
-143.4499999999998
 31
0.0
  0
LINE
  5
581
330
6F
100
AcDbEntity
  8
DETAIL
  6
Continuous
 62
     5
100
AcDbLine
 10
756.5
 20
-114.2004927817998
 30
0.0
 11
756.5
 21
-136.1995072181998
 31
0.0
  0
LINE
  5
582
330
6F
100
AcDbEntity
  8
DETAIL
  6
Continuous
 62
     5
100
AcDbLine
 10
757.5
 20
-28.0
 30
0.0
 11
757.5
 21
-60.0
 31
0.0
  0
LINE
  5
583
330
6F
100
AcDbEntity
  8
DETAIL
  6
Continuous
 62
     5
100
AcDbLine
 10
758.0
 20
-28.5
 30
0.0
 11
758.0
 21
-59.5
 31
0.0
  0
LINE
  5
584
330
6F
100
AcDbEntity
  8
DETAIL
  6
Continuous
 62
     5
100
AcDbLine
 10
773.5
 20
-143.4499999999998
 30
0.0
 11
773.5
 21
-144.3014026046003
 31
0.0
  0
LINE
  5
585
330
6F
100
AcDbEntity
  8
DETAIL
  6
Continuous
 62
     5
100
AcDbLine
 10
773.5
 20
-146.9735973954002
 30
0.0
 11
773.5
 21
-155.5278052091998
 31
0.0
  0
LINE
  5
586
330
6F
100
AcDbEntity
  8
DETAIL
  6
Continuous
 62
     5
100
AcDbLine
 10
773.5
 20
-160.8721947907997
 30
0.0
 11
773.5
 21
-169.4264026046003
 31
0.0
  0
LINE
  5
587
330
6F
100
AcDbEntity
  8
DETAIL
  6
Continuous
 62
     5
100
AcDbLine
 10
773.5
 20
-172.0985973954002
 30
0.0
 11
773.5
 21
-172.9499999999998
 31
0.0
  0
LINE
  5
588
330
6F
100
AcDbEntity
  8
DETAIL
  6
Continuous
 62
     5
100
AcDbLine
 10
777.5
 20
-146.6999999999998
 30
0.0
 11
777.5
 21
-169.6999999999998
 31
0.0
  0
LWPOLYLINE
  5
589
330
6F
100
AcDbEntity
  8
DETAIL
  6
Continuous
 62
     5
100
AcDbPolyline
 90
        4
 70
     0
 43
0.0
 10
691.5761168369008
 20
-193.3627583355001
 10
691.5813944378004
 20
-192.7153876195998
 10
691.5847192220008
 20
-192.0743832052002
 10
691.5850389175991
 20
-47.66694149130034
  0
LWPOLYLINE
  5
58F
330
6F
100
AcDbEntity
  8
DETAIL
  6
Continuous
 62
     5
100
AcDbPolyline
 90
        5
 70
     0
 43
0.0
 10
747.0
 20
-158.1999999999998
 10
746.8925998182002
 20
-159.7753536047003
 10
746.5695585178999
 20
-161.3757572258
 10
746.0213021639011
 20
-163.0443678313004
 10
745.220943808601
 20
-164.8395280957002
  0
LWPOLYLINE
  5
596
330
6F
100
AcDbEntity
  8
DETAIL
  6
Continuous
 62
     5
100
AcDbPolyline
 90
        5
 70
     0
 43
0.0
 10
737.0
 20
-125.1999999999998
 10
736.9202700487004
 20
-126.3669473152003
 10
736.6802888176005
 20
-127.5531479641004
 10
736.2728207474993
 20
-128.7903811716001
 10
735.685045423701
 20
-130.1074772881002
  0
LWPOLYLINE
  5
59D
330
6F
100
AcDbEntity
  8
DETAIL
  6
Continuous
 62
     5
100
AcDbPolyline
 90
        5
 70
     0
 43
0.0
 10
756.5
 20
-125.1999999999998
 10
756.3963837269001
 20
-126.7133718443001
 10
756.0842081887001
 20
-128.2529170768002
 10
755.5559784822998
 20
-129.8539929109001
 10
754.7982940777998
 20
-131.5508529610997
  0
LWPOLYLINE
  5
5A4
330
6F
100
AcDbEntity
  8
DETAIL
  6
Continuous
 62
     5
100
AcDbPolyline
 90
        6
 70
     0
 43
0.0
 10
747.0
 20
-168.1592921435003
 10
746.9312648655992
 20
-168.7889016671997
 10
746.7247694053004
 20
-169.4248014834002
 10
746.3777319111994
 20
-170.0762809030002
 10
745.8814768432004
 20
-170.7562676275001
 10
745.220943808601
 20
-171.4790561914
  0
LWPOLYLINE
  5
5AC
330
6F
100
AcDbEntity
  8
DETAIL
  6
Continuous
 62
     5
100
AcDbPolyline
 90
        6
 70
     0
 43
0.0
 10
747.0
 20
-148.2407078565002
 10
746.9311869500998
 20
-148.8706751934
 10
746.724676366999
 20
-149.5064336028999
 10
746.3784431440997
 20
-150.1565719312002
 10
745.8825838420999
 20
-150.8363383434998
 10
745.220943808601
 20
-151.5604719043003
  0
LWPOLYLINE
  5
5B4
330
6F
100
AcDbEntity
  8
DETAIL
  6
Continuous
 62
     5
100
AcDbPolyline
 90
        5
 70
     0
 43
0.0
 10
737.0
 20
-117.8387840678001
 10
736.9202158493006
 20
-118.4224569369999
 10
736.6799418344998
 20
-119.0160081376998
 10
736.2727497719006
 20
-119.6340658543004
 10
735.685045423701
 20
-120.2925227119003
  0
LINE
  5
5BB
330
6F
100
AcDbEntity
  8
DETAIL
  6
Continuous
 62
     5
100
AcDbLine
 10
737.0
 20
-132.5612159321999
 30
0.0
 11
736.9202311842999
 21
-133.1448324436001
 31
0.0
  0
LWPOLYLINE
  5
5BC
330
6F
100
AcDbEntity
  8
DETAIL
  6
Continuous
 62
     5
100
AcDbPolyline
 90
        5
 70
     0
 43
0.0
 10
756.5
 20
-115.6737205584004
 10
756.3963837269001
 20
-116.4304064805001
 10
756.0842081887001
 20
-117.2001790967997
 10
755.5559784822998
 20
-118.0007170138001
 10
754.7982940777998
 20
-118.8491470388999
  0
LWPOLYLINE
  5
5C3
330
6F
100
AcDbEntity
  8
DETAIL
  6
Continuous
 62
     5
100
AcDbPolyline
 90
        5
 70
     0
 43
0.0
 10
756.5
 20
-134.7262794416001
 10
756.3963837269001
 20
-135.4829653637998
 10
756.0842081887001
 20
-136.2527379800003
 10
755.5559784822998
 20
-137.0532758971002
 10
754.7982940777998
 20
-137.9017059222001
  0
LWPOLYLINE
  5
5CA
330
6F
100
AcDbEntity
  8
DETAIL
  6
Continuous
 62
     5
100
AcDbPolyline
 90
        4
 70
     0
 43
0.0
 10
773.5
 20
-160.8721947907997
 10
773.0621361628999
 20
-162.6999258810001
 10
772.4016468702992
 20
-164.5834490615998
 10
771.4999999999998
 20
-166.5749999999998
  0
LWPOLYLINE
  5
5D0
330
6F
100
AcDbEntity
  8
DETAIL
  6
Continuous
 62
     5
100
AcDbPolyline
 90
        4
 70
     0
 43
0.0
 10
773.5
 20
-169.4264026046003
 10
773.767239614599
 20
-170.3202410620997
 10
773.7672238502998
 20
-171.2048641491001
 10
773.5
 20
-172.0985973954002
  0
LWPOLYLINE
  5
5D6
330
6F
100
AcDbEntity
  8
DETAIL
  6
Continuous
 62
     5
100
AcDbPolyline
 90
        4
 70
     0
 43
0.0
 10
773.5
 20
-144.3014026046003
 10
773.767239614599
 20
-145.1952410620997
 10
773.7672238502998
 20
-146.0798641491001
 10
773.5
 20
-146.9735973954002
  0
LWPOLYLINE
  5
5DC
330
6F
100
AcDbEntity
  8
DETAIL
  6
Continuous
 62
     5
100
AcDbPolyline
 90
        4
 70
     0
 43
0.0
 10
751.5
 20
-160.8721947907997
 10
751.9378638370999
 20
-162.6999258810001
 10
752.5983531295985
 20
-164.5834490615998
 10
753.5
 20
-166.5749999999998
  0
LWPOLYLINE
  5
5E2
330
6F
100
AcDbEntity
  8
DETAIL
  6
Continuous
 62
     5
100
AcDbPolyline
 90
        4
 70
     0
 43
0.0
 10
773.5
 20
-155.5278052091998
 10
773.767239614599
 20
-157.3154821243001
 10
773.7672238502998
 20
-159.0847282981003
 10
773.5
 20
-160.8721947907997
  0
LWPOLYLINE
  5
5E8
330
6F
100
AcDbEntity
  8
DETAIL
  6
Continuous
 62
     5
100
AcDbPolyline
 90
        5
 70
     0
 43
0.0
 10
738.4999999999998
 20
-134.7262794416001
 10
738.6036162729996
 20
-135.4829653637998
 10
738.9157918112013
 20
-136.2527379800003
 10
739.4440215177001
 20
-137.0532758971002
 10
740.2017059220995
 20
-137.9017059222001
  0
LWPOLYLINE
  5
5EF
330
6F
100
AcDbEntity
  8
DETAIL
  6
Continuous
 62
     5
100
AcDbPolyline
 90
        5
 70
     0
 43
0.0
 10
738.4999999843
 20
-115.6737204440001
 10
738.6036162729996
 20
-116.4304064805001
 10
738.9157918112013
 20
-117.2001790967997
 10
739.4440215177001
 20
-118.0007170138001
 10
740.2017059220995
 20
-118.8491470388999
  0
LINE
  5
5F6
330
6F
100
AcDbEntity
  8
DETAIL
  6
Continuous
 62
     5
100
AcDbLine
 10
736.9201447545001
 20
-117.2548499892
 30
0.0
 11
737.0
 21
-117.8387840678001
 31
0.0
  0
ARC
  5
5F7
330
6F
100
AcDbEntity
  8
DETAIL
  6
Continuous
 62
     5
100
AcDbCircle
 10
159.9499999999989
 20
-118.5
 30
0.0
 40
105.0007616402
100
AcDbArc
 50
120.2969426106867
 51
239.3167491915151
  0
ARC
  5
5F8
330
6F
100
AcDbEntity
  8
DETAIL
  6
Continuous
 62
     5
100
AcDbCircle
 10
159.9499999999989
 20
-118.5
 30
0.0
 40
105.0007616402
100
AcDbArc
 50
300.6832508084849
 51
59.70305738931325
  0
CIRCLE
  5
5F9
330
6F
100
AcDbEntity
  8
DETAIL
  6
Continuous
 62
     5
100
AcDbCircle
 10
159.9499999999989
 20
-118.5
 30
0.0
 40
100.0
  0
CIRCLE
  5
5FA
330
6F
100
AcDbEntity
  8
DETAIL
  6
Continuous
 62
     5
100
AcDbCircle
 10
159.9499999999989
 20
-118.5
 30
0.0
 40
94.9847543461
  0
CIRCLE
  5
5FB
330
6F
100
AcDbEntity
  8
DETAIL
  6
Continuous
 62
     5
100
AcDbCircle
 10
159.9499999999989
 20
-118.5
 30
0.0
 40
94.9847543461
  0
CIRCLE
  5
5FC
330
6F
100
AcDbEntity
  8
DETAIL
  6
Continuous
 62
     5
100
AcDbCircle
 10
159.9499999999989
 20
-118.5
 30
0.0
 40
82.50266545079998
  0
ARC
  5
5FD
330
6F
100
AcDbEntity
  8
DETAIL
  6
Continuous
 62
     5
100
AcDbCircle
 10
320.0
 20
-226.5
 30
0.0
 40
2.5
100
AcDbArc
 50
107.8829712887839
 51
72.11702871121605
  0
CIRCLE
  5
5FE
330
6F
100
AcDbEntity
  8
DETAIL
  6
Continuous
 62
     5
100
AcDbCircle
 10
320.0
 20
-226.5
 30
0.0
 40
1.55
  0
ARC
  5
5FF
330
6F
100
AcDbEntity
  8
DETAIL
  6
Continuous
 62
     5
100
AcDbCircle
 10
479.9499999999987
 20
-118.5
 30
0.0
 40
105.0007616402
100
AcDbArc
 50
300.6832508084849
 51
59.70305738931325
  0
ARC
  5
600
330
6F
100
AcDbEntity
  8
DETAIL
  6
Continuous
 62
     5
100
AcDbCircle
 10
479.9499999999987
 20
-118.5
 30
0.0
 40
105.0007616402
100
AcDbArc
 50
120.2969426106867
 51
239.3167491915151
  0
CIRCLE
  5
601
330
6F
100
AcDbEntity
  8
DETAIL
  6
Continuous
 62
     5
100
AcDbCircle
 10
479.9499999999987
 20
-118.5
 30
0.0
 40
100.0
  0
CIRCLE
  5
602
330
6F
100
AcDbEntity
  8
DETAIL
  6
Continuous
 62
     5
100
AcDbCircle
 10
479.9499999999987
 20
-118.5
 30
0.0
 40
94.9847543461
  0
CIRCLE
  5
603
330
6F
100
AcDbEntity
  8
DETAIL
  6
Continuous
 62
     5
100
AcDbCircle
 10
479.9499999999987
 20
-118.5
 30
0.0
 40
94.9847543461
  0
CIRCLE
  5
604
330
6F
100
AcDbEntity
  8
DETAIL
  6
Continuous
 62
     5
100
AcDbCircle
 10
479.9499999999987
 20
-118.5
 30
0.0
 40
82.50266545079998
  0
ARC
  5
605
330
6F
100
AcDbEntity
  8
DETAIL
  6
Continuous
 62
     5
100
AcDbCircle
 10
320.0
 20
-10.5
 30
0.0
 40
2.5
100
AcDbArc
 50
308.9093032907241
 51
231.0906967092758
  0
CIRCLE
  5
606
330
6F
100
AcDbEntity
  8
DETAIL
  6
Continuous
 62
     5
100
AcDbCircle
 10
320.0
 20
-10.5
 30
0.0
 40
1.55
  0
ARC
  5
607
330
6F
100
AcDbEntity
  8
DETAIL
  6
Continuous
 62
     5
100
AcDbCircle
 10
689.0
 20
-219.0
 30
0.0
 40
7.5413468963
100
AcDbArc
 50
249.5126848852549
 51
20.4873151146818
  0
ARC
  5
608
330
6F
100
AcDbEntity
  8
DETAIL
  6
Continuous
 62
     5
100
AcDbCircle
 10
694.5
 20
-229.0
 30
0.0
 40
5.0
100
AcDbArc
 50
270.0
 51
0.0
  0
ARC
  5
609
330
6F
100
AcDbEntity
  8
DETAIL
  6
Continuous
 62
     5
100
AcDbCircle
 10
699.6000000000002
 20
-239.0
 30
0.0
 40
3.0
100
AcDbArc
 50
324.9109090761204
 51
334.204135979459
  0
ARC
  5
60A
330
6F
100
AcDbEntity
  8
DETAIL
  6
Continuous
 62
     5
100
AcDbCircle
 10
699.6000000000002
 20
-239.0
 30
0.0
 40
3.0
100
AcDbArc
 50
277.6887463431984
 51
278.6498396360657
  0
ARC
  5
60B
330
6F
100
AcDbEntity
  8
DETAIL
  6
Continuous
 62
     5
100
AcDbCircle
 10
665.0
 20
-226.5
 30
0.0
 40
2.5
100
AcDbArc
 50
107.8829712887839
 51
72.11702871121605
  0
CIRCLE
  5
60C
330
6F
100
AcDbEntity
  8
DETAIL
  6
Continuous
 62
     5
100
AcDbCircle
 10
665.0
 20
-226.5
 30
0.0
 40
1.55
  0
ARC
  5
60D
330
6F
100
AcDbEntity
  8
DETAIL
  6
Continuous
 62
     5
100
AcDbCircle
 10
698.1999999999989
 20
-241.0
 30
0.0
 40
1.0
100
AcDbArc
 50
77.01397992830663
 51
90.0
  0
ARC
  5
60E
330
6F
100
AcDbEntity
  8
DETAIL
  6
Continuous
 62
     5
100
AcDbCircle
 10
700.0
 20
-249.9499999999997
 30
0.0
 40
0.05
100
AcDbArc
 50
270.0
 51
0.0
  0
ARC
  5
60F
330
6F
100
AcDbEntity
  8
DETAIL
  6
Continuous
 62
     5
100
AcDbCircle
 10
689.0
 20
-18.0
 30
0.0
 40
7.5413468963
100
AcDbArc
 50
339.5126848853182
 51
110.487315114745
  0
ARC
  5
610
330
6F
100
AcDbEntity
  8
DETAIL
  6
Continuous
 62
     5
100
AcDbCircle
 10
694.5
 20
-8.0
 30
0.0
 40
5.0
100
AcDbArc
 50
0.0
 51
90.0
  0
ARC
  5
611
330
6F
100
AcDbEntity
  8
DETAIL
  6
Continuous
 62
     5
100
AcDbCircle
 10
747.3000000000011
 20
-20.69999999999982
 30
0.0
 40
2.7
100
AcDbArc
 50
0.0
 51
90.0
  0
ARC
  5
612
330
6F
100
AcDbEntity
  8
DETAIL
  6
Continuous
 62
     5
100
AcDbCircle
 10
701.6999999999987
 20
-20.69999999999982
 30
0.0
 40
2.7
100
AcDbArc
 50
90.0
 51
129.1536509391466
  0
ARC
  5
613
330
6F
100
AcDbEntity
  8
DETAIL
  6
Continuous
 62
     5
100
AcDbCircle
 10
665.0
 20
-10.5
 30
0.0
 40
2.5
100
AcDbArc
 50
308.9093032907241
 51
231.0906967092758
  0
CIRCLE
  5
614
330
6F
100
AcDbEntity
  8
DETAIL
  6
Continuous
 62
     5
100
AcDbCircle
 10
665.0
 20
-10.5
 30
0.0
 40
1.55
  0
ARC
  5
615
330
6F
100
AcDbEntity
  8
DETAIL
  6
Continuous
 62
     5
100
AcDbCircle
 10
704.0
 20
-26.24365078899973
 30
0.0
 40
1.0
100
AcDbArc
 50
180.0
 51
269.0000000000243
  0
ARC
  5
616
330
6F
100
AcDbEntity
  8
DETAIL
  6
Continuous
 62
     5
100
AcDbCircle
 10
704.0
 20
-61.75634921100026
 30
0.0
 40
1.0
100
AcDbArc
 50
90.99999999997569
 51
180.0
  0
ARC
  5
617
330
6F
100
AcDbEntity
  8
DETAIL
  6
Continuous
 62
     5
100
AcDbCircle
 10
757.5
 20
-28.5
 30
0.0
 40
0.5
100
AcDbArc
 50
0.0
 51
90.0
  0
ARC
  5
618
330
6F
100
AcDbEntity
  8
DETAIL
  6
Continuous
 62
     5
100
AcDbCircle
 10
757.5
 20
-59.5
 30
0.0
 40
0.5
100
AcDbArc
 50
270.0
 51
0.0
  0
ARC
  5
619
330
6F
100
AcDbEntity
  8
DETAIL
  6
Continuous
 62
     5
100
AcDbCircle
 10
701.6999999999987
 20
-20.69999999999982
 30
0.0
 40
0.2
100
AcDbArc
 50
90.0
 51
180.0
  0
ARC
  5
61A
330
6F
100
AcDbEntity
  8
DETAIL
  6
Continuous
 62
     5
100
AcDbCircle
 10
747.3000000000011
 20
-20.69999999999982
 30
0.0
 40
0.2
100
AcDbArc
 50
0.0
 51
90.0
  0
LINE
  5
61B
330
6F
100
AcDbEntity
  8
DETAIL
  6
Continuous
 62
     5
100
AcDbLine
 10
-739.0001234834834
 20
-399.9603951084546
 30
0.0
 11
1002.000000000009
 21
-399.9603951084541
 31
0.0
  0
LINE
  5
61C
330
6F
100
AcDbEntity
  8
DETAIL
  6
Continuous
 62
     5
100
AcDbLine
 10
1014.000000000009
 20
-402.9603951084539
 30
0.0
 11
1014.000000000009
 21
-404.9603951084539
 31
0.0
  0
LINE
  5
61D
330
6F
100
AcDbEntity
  8
DETAIL
  6
Continuous
 62
     5
100
AcDbLine
 10
-751.0001234834834
 20
-404.9603951084539
 30
0.0
 11
1014.000000000009
 21
-404.9603951084539
 31
0.0
  0
LINE
  5
61E
330
6F
100
AcDbEntity
  8
DETAIL
  6
Continuous
 62
     5
100
AcDbLine
 10
997.7000000000078
 20
-344.9603951084546
 30
0.0
 11
997.7000000000078
 21
-369.4603951084541
 31
0.0
  0
LINE
  5
61F
330
6F
100
AcDbEntity
  8
DETAIL
  6
Continuous
 62
     5
100
AcDbLine
 10
-751.0001234834834
 20
-402.9603951084539
 30
0.0
 11
1014.000000000009
 21
-402.9603951084539
 31
0.0
  0
LINE
  5
620
330
6F
100
AcDbEntity
  8
DETAIL
  6
Continuous
 62
     5
100
AcDbLine
 10
1002.000000000009
 20
-399.9603951084541
 30
0.0
 11
1002.000000000009
 21
-402.9603951084546
 31
0.0
  0
LINE
  5
621
330
6F
100
AcDbEntity
  8
DETAIL
  6
Continuous
 62
     5
100
AcDbLine
 10
-739.0001234834834
 20
-379.9603951084546
 30
0.0
 11
1002.000000000009
 21
-379.9603951084546
 31
0.0
  0
LINE
  5
622
330
6F
100
AcDbEntity
  8
DETAIL
  6
Continuous
 62
     5
100
AcDbLine
 10
-739.0001234834834
 20
-369.4603951084282
 30
0.0
 11
1002.000000000009
 21
-369.4603951084427
 31
0.0
  0
LINE
  5
623
330
6F
100
AcDbEntity
  8
DETAIL
  6
Continuous
 62
     5
100
AcDbLine
 10
1002.000000000009
 20
-379.9603951084546
 30
0.0
 11
1002.000000000009
 21
-369.4603951084427
 31
0.0
  0
LINE
  5
624
330
6F
100
AcDbEntity
  8
DETAIL
  6
Continuous
 62
     5
100
AcDbLine
 10
-734.7001234834822
 20
-344.9603951084541
 30
0.0
 11
997.7000000000078
 21
-344.9603951084546
 31
0.0
  0
LINE
  5
625
330
6F
100
AcDbEntity
  8
DETAIL
  6
Continuous
 62
     5
100
AcDbLine
 10
997.7000000000078
 20
-379.9603951084546
 30
0.0
 11
997.7000000000078
 21
-399.9603951084546
 31
0.0
  0
LINE
  5
626
330
6F
100
AcDbEntity
  8
DETAIL
  6
Continuous
 62
     5
100
AcDbLine
 10
-751.0001234834834
 20
-402.9603951084546
 30
0.0
 11
-751.0001234834834
 21
-404.9603951084545
 31
0.0
  0
LINE
  5
627
330
6F
100
AcDbEntity
  8
DETAIL
  6
Continuous
 62
     5
100
AcDbLine
 10
-739.0001234834834
 20
-399.9603951084546
 30
0.0
 11
-739.0001234834834
 21
-402.9603951084546
 31
0.0
  0
LINE
  5
628
330
6F
100
AcDbEntity
  8
DETAIL
  6
Continuous
 62
     5
100
AcDbLine
 10
-734.7001234834822
 20
-344.9603951084546
 30
0.0
 11
-734.7001234834822
 21
-369.4603951084541
 31
0.0
  0
LINE
  5
629
330
6F
100
AcDbEntity
  8
DETAIL
  6
Continuous
 62
     5
100
AcDbLine
 10
-734.7001234834822
 20
-379.9603951084546
 30
0.0
 11
-734.7001234834822
 21
-399.9603951084546
 31
0.0
  0
LINE
  5
62A
330
6F
100
AcDbEntity
  8
DETAIL
  6
Continuous
 62
     5
100
AcDbLine
 10
-739.0001234834834
 20
-379.9603951084546
 30
0.0
 11
-739.0001234834834
 21
-369.4603951084546
 31
0.0
  0
LINE
  5
62B
330
6F
100
AcDbEntity
  8
DETAIL
  6
Continuous
 62
     5
100
AcDbLine
 10
700.0
 20
-252.0
 30
0.0
 11
-700.0
 21
-252.0
 31
0.0
  0
ARC
  5
62C
330
6F
100
AcDbEntity
  8
DETAIL
  6
Continuous
 62
     5
100
AcDbCircle
 10
700.0
 20
-249.9499999999997
 30
0.0
 40
2.049999999999998
100
AcDbArc
 50
270.0
 51
0.0
  0
LINE
  5
62D
330
6F
100
AcDbEntity
  8
DETAIL
  6
Continuous
 62
     5
100
AcDbLine
 10
-149.9999999999982
 20
-259.9999999999964
 30
0.0
 11
-149.9999999999982
 21
-251.9999999999964
 31
0.0
  0
LINE
  5
62E
330
6F
100
AcDbEntity
  8
DETAIL
  6
Continuous
 62
     5
100
AcDbLine
 10
650.0000000000015
 20
-259.9999999999964
 30
0.0
 11
-149.9999999999982
 21
-259.9999999999964
 31
0.0
  0
LINE
  5
62F
330
6F
100
AcDbEntity
  8
DETAIL
  6
Continuous
 62
     5
100
AcDbLine
 10
650.0000000000015
 20
-259.9999999999964
 30
0.0
 11
650.0000000000015
 21
-251.9999999999964
 31
0.0
  0
LWPOLYLINE
  5
630
330
6F
100
AcDbEntity
  8
DETAIL
  6
Continuous
 62
     5
100
AcDbPolyline
 90
       18
 70
     0
 43
0.0
 10
-689.2151419827987
 20
-208.7603026935003
 10
-689.1722258270001
 20
-209.6826674211998
 10
-689.0444052364001
 20
-210.5971658939998
 10
-688.8327703508003
 20
-211.4959989992003
 10
-688.5391260239991
 20
-212.3715011404001
 10
-688.1659765706992
 20
-213.2162057518999
 10
-687.7165043313997
 20
-214.0229088989999
 10
-687.1945425600006
 20
-214.7847307430002
 10
-686.6045427238987
 20
-215.4951742066
 10
-685.9515365433999
 20
-216.1481803853003
 10
-685.2410930782991
 20
-216.7381802198002
 10
-684.4792712333001
 20
-217.2601419903003
 10
-683.6725680855995
 20
-217.7096142291002
 10
-682.8278634741999
 20
-218.0827636825002
 10
-681.9523613327
 20
-218.3764080089004
 10
-681.0535282299987
 20
-218.5880428970004
 10
-680.1390297543003
 20
-218.7158634847001
 10
-679.216665031201
 20
-218.7587796450998
  0
LWPOLYLINE
  5
644
330
6F
100
AcDbEntity
  8
DETAIL
  6
Continuous
 62
     5
100
AcDbPolyline
 90
       23
 70
     0
 43
0.0
 10
-691.5677565275999
 20
-193.0302603672999
 10
-691.5491550653004
 20
-194.4065504874997
 10
-691.5408512234007
 20
-195.1408641823
 10
-691.5353281775985
 20
-195.9087583330001
 10
-691.5346846894008
 20
-196.7113529496
 10
-691.5414753370987
 20
-197.5489514335004
 10
-691.5586482933995
 20
-198.4181914240998
 10
-691.5885727718995
 20
-199.2948238445001
 10
-691.6318919710009
 20
-200.1474343931
 10
-691.6878231368008
 20
-200.9567673756001
 10
-691.7554419144997
 20
-201.7207492633998
 10
-691.8334884568994
 20
-202.4389604889001
 10
-691.9207381805009
 20
-203.1136089034999
 10
-692.0162888986996
 20
-203.7491996651997
 10
-692.1194948344998
 20
-204.3505196164001
 10
-692.2299778559009
 20
-204.9223183922004
 10
-692.3476406180998
 20
-205.4692244907001
 10
-692.4727043685996
 20
-205.9958422504001
 10
-692.6057438478999
 20
-206.5067653476999
 10
-692.7476688464992
 20
-207.0064847983003
 10
-692.8997754044011
 20
-207.4992894278004
 10
-693.0636101809994
 20
-207.9893326927004
 10
-693.2414164486999
 20
-208.4808620675003
  0
LWPOLYLINE
  5
65D
330
6F
100
AcDbEntity
  8
DETAIL
  6
Continuous
 62
     5
100
AcDbPolyline
 90
        4
 70
     0
 43
0.0
 10
-691.5848939197984
 20
-191.1631492730001
 10
-691.5816462727997
 20
-191.7622909448
 10
-691.5756990573989
 20
-192.3838538575001
 10
-691.5677565275999
 20
-193.0302603672999
  0
LINE
  5
663
330
6F
100
AcDbEntity
  8
DETAIL
  6
Continuous
 62
     5
100
AcDbLine
 10
-691.5852523797004
 20
-190.1718455116002
 30
0.0
 11
-691.5848939197984
 21
-191.1631492730001
 31
0.0
  0
LINE
  5
664
330
6F
100
AcDbEntity
  8
DETAIL
  6
Continuous
 62
     5
100
AcDbLine
 10
-750.0
 20
-30.0
 30
0.0
 11
-750.0
 21
-20.69999999999982
 31
0.0
  0
LINE
  5
665
330
6F
100
AcDbEntity
  8
DETAIL
  6
Continuous
 62
     5
100
AcDbLine
 10
-747.5
 20
-20.69999999999982
 30
0.0
 11
-747.5
 21
-30.0
 31
0.0
  0
LINE
  5
666
330
6F
100
AcDbEntity
  8
DETAIL
  6
Continuous
 62
     5
100
AcDbLine
 10
-704.0
 20
-15.0
 30
0.0
 11
-704.0
 21
-18.0
 31
0.0
  0
LINE
  5
667
330
6F
100
AcDbEntity
  8
DETAIL
  6
Continuous
 62
     5
100
AcDbLine
 10
-704.0
 20
-23.41837661840009
 30
0.0
 11
-704.0
 21
-240.0
 31
0.0
  0
LINE
  5
668
330
6F
100
AcDbEntity
  8
DETAIL
  6
Continuous
 62
     5
100
AcDbLine
 10
-702.050000000001
 20
-240.0285398163001
 30
0.0
 11
-702.050000000001
 21
-249.9499999999997
 31
0.0
  0
LINE
  5
669
330
6F
100
AcDbEntity
  8
DETAIL
  6
Continuous
 62
     5
100
AcDbLine
 10
-701.5
 20
-78.0
 30
0.0
 11
-701.5
 21
-20.69999999999982
 31
0.0
  0
LINE
  5
66A
330
6F
100
AcDbEntity
  8
DETAIL
  6
Continuous
 62
     5
100
AcDbLine
 10
-700.0500000000011
 20
-240.0285398164001
 30
0.0
 11
-700.0499999999992
 21
-249.9499999999997
 31
0.0
  0
LINE
  5
66B
330
6F
100
AcDbEntity
  8
DETAIL
  6
Continuous
 62
     5
100
AcDbLine
 10
-700.0
 20
0.0
 30
0.0
 11
-700.0
 21
-26.40000000000009
 31
0.0
  0
LINE
  5
66C
330
6F
100
AcDbEntity
  8
DETAIL
  6
Continuous
 62
     5
100
AcDbLine
 10
-700.0
 20
-26.40000000000009
 30
0.0
 11
-700.0
 21
-204.0
 31
0.0
  0
LINE
  5
66D
330
6F
100
AcDbEntity
  8
DETAIL
  6
Continuous
 62
     5
100
AcDbLine
 10
-700.0
 20
-252.0
 30
0.0
 11
-700.0
 21
-240.0
 31
0.0
  0
LINE
  5
66E
330
6F
100
AcDbEntity
  8
DETAIL
  6
Continuous
 62
     5
100
AcDbLine
 10
-699.5
 20
-229.0
 30
0.0
 11
-699.5
 21
-8.0
 31
0.0
  0
LINE
  5
66F
330
6F
100
AcDbEntity
  8
DETAIL
  6
Continuous
 62
     5
100
AcDbLine
 10
-699.3999999999997
 20
-240.0
 30
0.0
 11
-699.3999999999997
 21
-240.0285398163001
 31
0.0
  0
LINE
  5
670
330
6F
100
AcDbEntity
  8
DETAIL
  6
Continuous
 62
     5
100
AcDbLine
 10
-699.0
 20
-231.1781838678999
 30
0.0
 11
-699.0
 21
-240.0
 31
0.0
  0
LINE
  5
671
330
6F
100
AcDbEntity
  8
DETAIL
  6
Continuous
 62
     5
100
AcDbLine
 10
-689.2151419827987
 20
-28.23969730650015
 30
0.0
 11
-689.2151419827987
 21
-208.7603026935003
 31
0.0
  0
LINE
  5
672
330
6F
100
AcDbEntity
  8
DETAIL
  6
Continuous
 62
     5
100
AcDbLine
 10
-679.0166650312004
 20
-224.1245319446998
 30
0.0
 11
-679.0166650312004
 21
-12.44083232310004
 31
0.0
  0
LWPOLYLINE
  5
673
330
6F
100
AcDbEntity
  8
DETAIL
  6
Continuous
 62
     5
100
AcDbPolyline
 90
        4
 70
     0
 43
0.0
 10
-691.5761179671006
 20
-43.90487512260006
 10
-691.5813951973996
 20
-44.55224534850002
 10
-691.5847196033992
 20
-45.19325240000035
 10
-691.5852523797004
 20
-190.1718455116002
  0
LWPOLYLINE
  5
679
330
6F
100
AcDbEntity
  8
DETAIL
  6
Continuous
 62
     5
100
AcDbPolyline
 90
        4
 70
     0
 43
0.0
 10
-694.1998616137007
 20
-211.0850291138004
 10
-694.3644633542008
 20
-211.5350926603
 10
-694.5211473243999
 20
-211.9605425166001
 10
-694.6717699450999
 20
-212.3657303997002
  0
LWPOLYLINE
  5
67F
330
6F
100
AcDbEntity
  8
DETAIL
  6
Continuous
 62
     5
100
AcDbPolyline
 90
        4
 70
     0
 43
0.0
 10
-693.4124672129001
 20
-208.9385899153003
 10
-693.6326477038001
 20
-209.5322032462
 10
-693.8373670419005
 20
-210.0903806278001
 10
-694.1998616137007
 20
-211.0850291138004
  0
LWPOLYLINE
  5
685
330
6F
100
AcDbEntity
  8
DETAIL
  6
Continuous
 62
     5
100
AcDbPolyline
 90
        3
 70
     0
 43
0.0
 10
-693.2414164486999
 20
-208.4808620675003
 10
-693.3259085639
 20
-208.7078104335001
 10
-693.4124672129001
 20
-208.9385899153003
  0
LINE
  5
68A
330
6F
100
AcDbEntity
  8
DETAIL
  6
Continuous
 62
     5
100
AcDbLine
 10
-694.6717699450999
 20
-212.3657303997002
 30
0.0
 11
-696.1643544468006
 21
-216.3605285841004
 31
0.0
  0
LINE
  5
68B
330
6F
100
AcDbEntity
  8
DETAIL
  6
Continuous
 62
     5
100
AcDbLine
 10
-700.0
 20
-243.4000000000001
 30
0.0
 11
-700.0500000000011
 21
-243.4000000000001
 31
0.0
  0
LINE
  5
68C
330
6F
100
AcDbEntity
  8
DETAIL
  6
Continuous
 62
     5
100
AcDbLine
 10
-702.050000000001
 20
-240.0285398163001
 30
0.0
 11
-700.0500000000011
 21
-240.0285398164001
 31
0.0
  0
LINE
  5
68D
330
6F
100
AcDbEntity
  8
DETAIL
  6
Continuous
 62
     5
100
AcDbLine
 10
-699.3999999999997
 20
-240.0
 30
0.0
 11
-700.0
 21
-240.0
 31
0.0
  0
LINE
  5
68E
330
6F
100
AcDbEntity
  8
DETAIL
  6
Continuous
 62
     5
100
AcDbLine
 10
-699.0
 20
-240.0
 30
0.0
 11
-704.0
 21
-240.0
 31
0.0
  0
LINE
  5
68F
330
6F
100
AcDbEntity
  8
DETAIL
  6
Continuous
 62
     5
100
AcDbLine
 10
-157.3500000000003
 20
-226.5
 30
0.0
 11
-156.5500000000011
 21
-226.5
 31
0.0
  0
LINE
  5
690
330
6F
100
AcDbEntity
  8
DETAIL
  6
Continuous
 62
     5
100
AcDbLine
 10
-152.6499999999996
 20
-226.5
 30
0.0
 11
-153.4499999999989
 21
-226.5
 31
0.0
  0
LINE
  5
691
330
6F
100
AcDbEntity
  8
DETAIL
  6
Continuous
 62
     5
100
AcDbLine
 10
-679.216665031201
 20
-218.7587796450998
 30
0.0
 11
-679.0166650312004
 21
-218.7587796450998
 31
0.0
  0
LINE
  5
692
330
6F
100
AcDbEntity
  8
DETAIL
  6
Continuous
 62
     5
100
AcDbLine
 10
-700.0
 20
-204.0
 30
0.0
 11
-699.5
 21
-204.0
 31
0.0
  0
LINE
  5
693
330
6F
100
AcDbEntity
  8
DETAIL
  6
Continuous
 62
     5
100
AcDbLine
 10
-706.8591869263998
 20
-20.55918969210006
 30
0.0
 11
-701.5590649936001
 21
-25.85931162480028
 31
0.0
  0
LWPOLYLINE
  5
694
330
6F
100
AcDbEntity
  8
DETAIL
  6
Continuous
 62
     5
100
AcDbPolyline
 90
        4
 70
     0
 43
0.0
 10
-701.5585786979007
 20
-25.85979644550025
 10
-701.5290886212006
 20
-25.8973463762004
 10
-701.5074031099992
 20
-25.94730696680017
 10
-701.5000002653996
 20
-26.0011635269002
  0
LWPOLYLINE
  5
69A
330
6F
100
AcDbEntity
  8
DETAIL
  6
Continuous
 62
     5
100
AcDbPolyline
 90
        3
 70
     0
 43
0.0
 10
-693.4124980085997
 20
-28.06128210469978
 10
-693.3257990959011
 20
-28.29214291690006
 10
-693.2415673804007
 20
-28.51919486850011
  0
LINE
  5
69F
330
6F
100
AcDbEntity
  8
DETAIL
  6
Continuous
 62
     5
100
AcDbLine
 10
-696.1643544468006
 20
-20.63947141590006
 30
0.0
 11
-694.6717697744007
 21
-24.63426623000032
 31
0.0
  0
LWPOLYLINE
  5
6A0
330
6F
100
AcDbEntity
  8
DETAIL
  6
Continuous
 62
     5
100
AcDbPolyline
 90
        5
 70
     0
 43
0.0
 10
-694.6717697744007
 20
-24.63426623000032
 10
-694.5224621967993
 20
-25.03590858389999
 10
-694.3657566165001
 20
-25.46134427490006
 10
-694.2011766644009
 20
-25.91136103010013
 10
-693.8413818563002
 20
-26.89858663030009
  0
LWPOLYLINE
  5
6A7
330
6F
100
AcDbEntity
  8
DETAIL
  6
Continuous
 62
     5
100
AcDbPolyline
 90
        3
 70
     0
 43
0.0
 10
-693.8413818563002
 20
-26.89858663030009
 10
-693.6381515657996
 20
-27.45292186020015
 10
-693.4124980085997
 20
-28.06128210469978
  0
LWPOLYLINE
  5
6AC
330
6F
100
AcDbEntity
  8
DETAIL
  6
Continuous
 62
     5
100
AcDbPolyline
 90
       23
 70
     0
 43
0.0
 10
-693.2415673804007
 20
-28.51919486850011
 10
-693.0800591940988
 20
-28.97110664310003
 10
-692.9255106534001
 20
-29.43678695500011
 10
-692.7775941993005
 20
-29.91792927720008
 10
-692.6364277225001
 20
-30.41620737840003
 10
-692.5021097002008
 20
-30.9332514976004
 10
-692.3748939534999
 20
-31.47068278739971
 10
-692.2551721034996
 20
-32.02980819460027
 10
-692.1435249416008
 20
-32.6111998112001
 10
-692.0403254145985
 20
-33.21655210520021
 10
-691.9452898344005
 20
-33.85267142049997
 10
-691.8582614745993
 20
-34.52905707540003
 10
-691.7797826076003
 20
-35.25428670640032
 10
-691.7113321962987
 20
-36.03073134819988
 10
-691.6547346465994
 20
-36.85251742289985
 10
-691.6110382745991
 20
-37.71219972860035
 10
-691.5806731906996
 20
-38.59012160359998
 10
-691.5626834823996
 20
-39.45750335200001
 10
-691.5546367194999
 20
-40.29148032720013
 10
-691.5536066793992
 20
-41.08689080860039
 10
-691.5570428343999
 20
-41.84166414839999
 10
-691.5628940016995
 20
-42.55777765870014
 10
-691.5761179671006
 20
-43.90487512260006
  0
LINE
  5
6C5
330
6F
100
AcDbEntity
  8
DETAIL
  6
Continuous
 62
     5
100
AcDbLine
 10
-686.460528584199
 20
-226.0643544467002
 30
0.0
 11
-682.198085653601
 21
-224.4717685833002
 31
0.0
  0
LWPOLYLINE
  5
6C6
330
6F
100
AcDbEntity
  8
DETAIL
  6
Continuous
 62
     5
100
AcDbPolyline
 90
        4
 70
     0
 43
0.0
 10
-682.198085653601
 20
-224.4717685833002
 10
-681.7945536243986
 20
-224.3216700023999
 10
-681.3725720341007
 20
-224.1659667807998
 10
-680.9283841329998
 20
-224.0030835510002
  0
LWPOLYLINE
  5
6CC
330
6F
100
AcDbEntity
  8
DETAIL
  6
Continuous
 62
     5
100
AcDbPolyline
 90
        4
 70
     0
 43
0.0
 10
-680.9283841329998
 20
-224.0030835510002
 10
-679.9636465550011
 20
-223.6506770765
 10
-679.4449036186997
 20
-223.4606513344997
 10
-679.0166650312004
 20
-223.3027397199003
  0
LWPOLYLINE
  5
6D2
330
6F
100
AcDbEntity
  8
DETAIL
  6
Continuous
 62
     5
100
AcDbPolyline
 90
       18
 70
     0
 43
0.0
 10
-679.216665031201
 20
-18.24122035500022
 10
-680.1390297543003
 20
-18.28413651529989
 10
-681.0535282299987
 20
-18.41195710300008
 10
-681.9523613327
 20
-18.6235919912001
 10
-682.8278634741999
 20
-18.91723631750028
 10
-683.6725680855995
 20
-19.29038577099981
 10
-684.4792712333001
 20
-19.73985800970013
 10
-685.2410930782991
 20
-20.26181978020031
 10
-685.9515365433999
 20
-20.85181961470016
 10
-686.6045427238987
 20
-21.50482579340041
 10
-687.1945425600006
 20
-22.21526925699983
 10
-687.7165043313997
 20
-22.97709110100004
 10
-688.1659765706992
 20
-23.7837942481001
 10
-688.5391260239991
 20
-24.62849885959986
 10
-688.8327703508003
 20
-25.50400100080015
 10
-689.0444052364001
 20
-26.40283410600023
 10
-689.1722258270001
 20
-27.31733257890028
 10
-689.2151419827987
 20
-28.23969730650015
  0
LINE
  5
6E6
330
6F
100
AcDbEntity
  8
DETAIL
  6
Continuous
 62
     5
100
AcDbLine
 10
-704.0
 20
-93.0
 30
0.0
 11
-700.0
 21
-93.0
 31
0.0
  0
LINE
  5
6E7
330
6F
100
AcDbEntity
  8
DETAIL
  6
Continuous
 62
     5
100
AcDbLine
 10
-701.5
 20
-78.0
 30
0.0
 11
-700.0
 21
-78.0
 31
0.0
  0
LINE
  5
6E8
330
6F
100
AcDbEntity
  8
DETAIL
  6
Continuous
 62
     5
100
AcDbLine
 10
-747.5
 20
-30.0
 30
0.0
 11
-750.0
 21
-30.0
 31
0.0
  0
LINE
  5
6E9
330
6F
100
AcDbEntity
  8
DETAIL
  6
Continuous
 62
     5
100
AcDbLine
 10
-699.5
 20
-26.40000000000009
 30
0.0
 11
-700.0
 21
-26.40000000000009
 31
0.0
  0
LINE
  5
6EA
330
6F
100
AcDbEntity
  8
DETAIL
  6
Continuous
 62
     5
100
AcDbLine
 10
-701.6999999999987
 20
-20.5
 30
0.0
 11
-747.3000000000011
 21
-20.5
 31
0.0
  0
LINE
  5
6EB
330
6F
100
AcDbEntity
  8
DETAIL
  6
Continuous
 62
     5
100
AcDbLine
 10
-679.0166650312004
 20
-18.24122035500022
 30
0.0
 11
-679.216665031201
 21
-18.24122035500022
 31
0.0
  0
LINE
  5
6EC
330
6F
100
AcDbEntity
  8
DETAIL
  6
Continuous
 62
     5
100
AcDbLine
 10
-701.6999999999987
 20
-18.0
 30
0.0
 11
-747.3000000000011
 21
-18.0
 31
0.0
  0
LINE
  5
6ED
330
6F
100
AcDbEntity
  8
DETAIL
  6
Continuous
 62
     5
100
AcDbLine
 10
-704.0
 20
-15.0
 30
0.0
 11
-700.0
 21
-15.0
 31
0.0
  0
LWPOLYLINE
  5
6EE
330
6F
100
AcDbEntity
  8
DETAIL
  6
Continuous
 62
     5
100
AcDbPolyline
 90
        8
 70
     0
 43
0.0
 10
-679.0166650312004
 20
-13.69725818640018
 10
-679.4463021934005
 20
-13.53883623399997
 10
-679.9647920351999
 20
-13.34890271960012
 10
-680.4594001557997
 20
-13.16825302389998
 10
-680.9286719723985
 20
-12.99681088170018
 10
-681.3729617966
 20
-12.83389026829991
 10
-681.7949655746997
 20
-12.67817771850014
 10
-682.1980859573995
 20
-12.52823132360026
  0
LINE
  5
6F8
330
6F
100
AcDbEntity
  8
DETAIL
  6
Continuous
 62
     5
100
AcDbLine
 10
-682.1980859573995
 20
-12.52823132360026
 30
0.0
 11
-686.460528584199
 21
-10.93564555329976
 31
0.0
  0
ARC
  5
6F9
330
6F
100
AcDbEntity
  8
DETAIL
  6
Continuous
 62
     5
100
AcDbCircle
 10
-698.1999999999989
 20
-241.0
 30
0.0
 40
1.0
100
AcDbArc
 50
90.0
 51
102.9860200716933
  0
ARC
  5
6FA
330
6F
100
AcDbEntity
  8
DETAIL
  6
Continuous
 62
     5
100
AcDbCircle
 10
-700.0
 20
-249.9499999999997
 30
0.0
 40
0.05
100
AcDbArc
 50
179.9999999998957
 51
270.0
  0
ARC
  5
6FB
330
6F
100
AcDbEntity
  8
DETAIL
  6
Continuous
 62
     5
100
AcDbCircle
 10
-689.1000000000002
 20
-219.0
 30
0.0
 40
7.5413468963
100
AcDbArc
 50
159.5126848852602
 51
290.4873151147451
  0
ARC
  5
6FC
330
6F
100
AcDbEntity
  8
DETAIL
  6
Continuous
 62
     5
100
AcDbCircle
 10
-694.5
 20
-229.0
 30
0.0
 40
5.0
100
AcDbArc
 50
180.0
 51
270.0
  0
ARC
  5
6FD
330
6F
100
AcDbEntity
  8
DETAIL
  6
Continuous
 62
     5
100
AcDbCircle
 10
-155.0
 20
-226.5
 30
0.0
 40
2.5
100
AcDbArc
 50
107.8829712887839
 51
72.11702871121605
  0
CIRCLE
  5
6FE
330
6F
100
AcDbEntity
  8
DETAIL
  6
Continuous
 62
     5
100
AcDbCircle
 10
-155.0
 20
-226.5
 30
0.0
 40
1.55
  0
ARC
  5
6FF
330
6F
100
AcDbEntity
  8
DETAIL
  6
Continuous
 62
     5
100
AcDbCircle
 10
-689.1000000000002
 20
-18.0
 30
0.0
 40
7.5413468963
100
AcDbArc
 50
69.51268488525491
 51
200.4873151146818
  0
ARC
  5
700
330
6F
100
AcDbEntity
  8
DETAIL
  6
Continuous
 62
     5
100
AcDbCircle
 10
-694.5
 20
-8.0
 30
0.0
 40
5.0
100
AcDbArc
 50
90.0
 51
180.0
  0
ARC
  5
701
330
6F
100
AcDbEntity
  8
DETAIL
  6
Continuous
 62
     5
100
AcDbCircle
 10
-747.3000000000011
 20
-20.69999999999982
 30
0.0
 40
2.7
100
AcDbArc
 50
90.0
 51
180.0
  0
ARC
  5
702
330
6F
100
AcDbEntity
  8
DETAIL
  6
Continuous
 62
     5
100
AcDbCircle
 10
-701.6999999999987
 20
-20.69999999999982
 30
0.0
 40
2.7
100
AcDbArc
 50
50.84634906085335
 51
90.0
  0
ARC
  5
703
330
6F
100
AcDbEntity
  8
DETAIL
  6
Continuous
 62
     5
100
AcDbCircle
 10
-747.3000000000011
 20
-20.69999999999982
 30
0.0
 40
0.2
100
AcDbArc
 50
90.0
 51
180.0
  0
ARC
  5
704
330
6F
100
AcDbEntity
  8
DETAIL
  6
Continuous
 62
     5
100
AcDbCircle
 10
-701.6999999999987
 20
-20.69999999999982
 30
0.0
 40
0.2
100
AcDbArc
 50
0.0
 51
90.0
  0
ARC
  5
705
330
6F
100
AcDbEntity
  8
DETAIL
  6
Continuous
 62
     5
100
AcDbCircle
 10
-155.0
 20
-10.5
 30
0.0
 40
2.5
100
AcDbArc
 50
308.9093032907241
 51
231.0906967092758
  0
CIRCLE
  5
706
330
6F
100
AcDbEntity
  8
DETAIL
  6
Continuous
 62
     5
100
AcDbCircle
 10
-155.0
 20
-10.5
 30
0.0
 40
1.55
  0
ARC
  5
707
330
6F
100
AcDbEntity
  8
DETAIL
  6
Continuous
 62
     5
100
AcDbCircle
 10
-700.0
 20
-249.9499999999997
 30
0.0
 40
2.049999999999998
100
AcDbArc
 50
179.9999999998957
 51
270.0
  0
LINE
  5
708
330
6F
100
AcDbEntity
  8
BASIS
  6
DASHDOT
 62
     6
100
AcDbLine
 10
0.0
 20
87.39948312614513
 30
0.0
 11
0.0
 21
-450.9860258596683
 31
0.0
  0
CIRCLE
  5
709
330
6F
100
AcDbEntity
  8
ARRANGE
  6
Continuous
 62
     1
100
AcDbCircle
 10
0.0
 20
0.0
 30
0.0
 40
40.0
  0
LINE
  5
70A
330
6F
100
AcDbEntity
  8
ARRANGE
  6
Continuous
 62
     1
100
AcDbLine
 10
-36.84543740734989
 20
-36.84543740734807
 30
0.0
 11
36.84543740734989
 21
36.84543740734989
 31
0.0
  0
LINE
  5
70B
330
6F
100
AcDbEntity
  8
ARRANGE
  6
Continuous
 62
     1
100
AcDbLine
 10
-36.84543740734989
 20
36.84543740734989
 30
0.0
 11
36.84543740734989
 21
-36.84543740734989
 31
0.0
  0
LINE
  5
70C
330
6F
100
AcDbEntity
  8
OUTLINE
  6
Continuous
 62
     3
100
AcDbLine
 10
-704.0
 20
-23.41837661844602
 30
0.0
 11
-706.9183766185012
 21
-20.5
 31
0.0
  0
LINE
  5
70D
330
6F
100
AcDbEntity
  8
OUTLINE
  6
Continuous
 62
     3
100
AcDbLine
 10
-706.9183766185012
 20
-20.5
 30
0.0
 11
-747.3000000000011
 21
-20.5
 31
0.0
  0
ARC
  5
70E
330
6F
100
AcDbEntity
  8
OUTLINE
  6
Continuous
 62
     3
100
AcDbCircle
 10
-747.2999999999989
 20
-20.69999999999982
 30
0.0
 40
0.2000000000000455
100
AcDbArc
 50
90.00000000010418
 51
180.0
  0
LINE
  5
70F
330
6F
100
AcDbEntity
  8
OUTLINE
  6
Continuous
 62
     3
100
AcDbLine
 10
-747.5
 20
-20.69999999999982
 30
0.0
 11
-747.5
 21
-30.0
 31
0.0
  0
LINE
  5
710
330
6F
100
AcDbEntity
  8
OUTLINE
  6
Continuous
 62
     3
100
AcDbLine
 10
-747.5
 20
-30.0
 30
0.0
 11
-750.0
 21
-30.0
 31
0.0
  0
LINE
  5
711
330
6F
100
AcDbEntity
  8
OUTLINE
  6
Continuous
 62
     3
100
AcDbLine
 10
-750.0
 20
-30.0
 30
0.0
 11
-750.0
 21
-20.69999999999982
 31
0.0
  0
ARC
  5
712
330
6F
100
AcDbEntity
  8
OUTLINE
  6
Continuous
 62
     3
100
AcDbCircle
 10
-747.3000000000011
 20
-20.69999999999982
 30
0.0
 40
2.700000000000044
100
AcDbArc
 50
90.0
 51
180.0
  0
LINE
  5
713
330
6F
100
AcDbEntity
  8
OUTLINE
  6
Continuous
 62
     3
100
AcDbLine
 10
-747.3000000000011
 20
-18.0
 30
0.0
 11
-704.0
 21
-18.0
 31
0.0
  0
LINE
  5
714
330
6F
100
AcDbEntity
  8
OUTLINE
  6
Continuous
 62
     3
100
AcDbLine
 10
-704.0
 20
-18.0
 30
0.0
 11
-704.0
 21
-15.0
 31
0.0
  0
LINE
  5
715
330
6F
100
AcDbEntity
  8
OUTLINE
  6
Continuous
 62
     3
100
AcDbLine
 10
-704.0
 20
-15.0
 30
0.0
 11
-700.0
 21
-15.0
 31
0.0
  0
LINE
  5
716
330
6F
100
AcDbEntity
  8
OUTLINE
  6
Continuous
 62
     3
100
AcDbLine
 10
-700.0
 20
-15.0
 30
0.0
 11
-700.0
 21
0.0
 31
0.0
  0
LINE
  5
717
330
6F
100
AcDbEntity
  8
OUTLINE
  6
Continuous
 62
     3
100
AcDbLine
 10
-700.0
 20
0.0
 30
0.0
 11
700.0
 21
0.0
 31
0.0
  0
LINE
  5
718
330
6F
100
AcDbEntity
  8
OUTLINE
  6
Continuous
 62
     3
100
AcDbLine
 10
700.0
 20
0.0
 30
0.0
 11
700.0
 21
-16.5
 31
0.0
  0
LINE
  5
719
330
6F
100
AcDbEntity
  8
OUTLINE
  6
Continuous
 62
     3
100
AcDbLine
 10
700.0
 20
-16.5
 30
0.0
 11
703.0
 21
-16.5
 31
0.0
  0
LINE
  5
71A
330
6F
100
AcDbEntity
  8
OUTLINE
  6
Continuous
 62
     3
100
AcDbLine
 10
703.0
 20
-16.5
 30
0.0
 11
703.0
 21
-18.0
 31
0.0
  0
LINE
  5
71B
330
6F
100
AcDbEntity
  8
OUTLINE
  6
Continuous
 62
     3
100
AcDbLine
 10
703.0
 20
-18.0
 30
0.0
 11
747.3000000000011
 21
-18.0
 31
0.0
  0
ARC
  5
71C
330
6F
100
AcDbEntity
  8
OUTLINE
  6
Continuous
 62
     3
100
AcDbCircle
 10
747.3000000000011
 20
-20.69999999999982
 30
0.0
 40
2.699999999999818
100
AcDbArc
 50
0.0
 51
90.0
  0
LINE
  5
71D
330
6F
100
AcDbEntity
  8
OUTLINE
  6
Continuous
 62
     3
100
AcDbLine
 10
750.0
 20
-20.69999999999982
 30
0.0
 11
750.0
 21
-28.0
 31
0.0
  0
LINE
  5
71E
330
6F
100
AcDbEntity
  8
OUTLINE
  6
Continuous
 62
     3
100
AcDbLine
 10
750.0
 20
-28.0
 30
0.0
 11
758.0
 21
-28.0
 31
0.0
  0
LINE
  5
71F
330
6F
100
AcDbEntity
  8
OUTLINE
  6
Continuous
 62
     3
100
AcDbLine
 10
758.0
 20
-28.0
 30
0.0
 11
758.0
 21
-60.0
 31
0.0
  0
LINE
  5
720
330
6F
100
AcDbEntity
  8
OUTLINE
  6
Continuous
 62
     3
100
AcDbLine
 10
758.0
 20
-60.0
 30
0.0
 11
733.0
 21
-60.0
 31
0.0
  0
LINE
  5
721
330
6F
100
AcDbEntity
  8
OUTLINE
  6
Continuous
 62
     3
100
AcDbLine
 10
733.0
 20
-60.0
 30
0.0
 11
733.0
 21
-60.25
 31
0.0
  0
LINE
  5
722
330
6F
100
AcDbEntity
  8
OUTLINE
  6
Continuous
 62
     3
100
AcDbLine
 10
733.0
 20
-60.25
 30
0.0
 11
703.9825475935632
 21
-60.75650151584341
 31
0.0
  0
ARC
  5
723
330
6F
100
AcDbEntity
  8
OUTLINE
  6
Continuous
 62
     3
100
AcDbCircle
 10
704.0
 20
-61.75634921100026
 30
0.0
 40
1.000000000000012
100
AcDbArc
 50
90.99999999997569
 51
180.0
  0
LINE
  5
724
330
6F
100
AcDbEntity
  8
OUTLINE
  6
Continuous
 62
     3
100
AcDbLine
 10
703.0
 20
-61.75634921100026
 30
0.0
 11
703.0
 21
-71.5
 31
0.0
  0
LINE
  5
725
330
6F
100
AcDbEntity
  8
OUTLINE
  6
Continuous
 62
     3
100
AcDbLine
 10
703.0
 20
-71.5
 30
0.0
 11
702.6000000000002
 21
-93.0
 31
0.0
  0
LINE
  5
726
330
6F
100
AcDbEntity
  8
OUTLINE
  6
Continuous
 62
     3
100
AcDbLine
 10
702.6000000000002
 20
-93.0
 30
0.0
 11
704.0
 21
-93.0
 31
0.0
  0
LINE
  5
727
330
6F
100
AcDbEntity
  8
OUTLINE
  6
Continuous
 62
     3
100
AcDbLine
 10
704.0
 20
-93.0
 30
0.0
 11
704.0
 21
-108.6999999999998
 31
0.0
  0
LINE
  5
728
330
6F
100
AcDbEntity
  8
OUTLINE
  6
Continuous
 62
     3
100
AcDbLine
 10
704.0
 20
-108.6999999999998
 30
0.0
 11
723.0
 21
-108.6999999999998
 31
0.0
  0
LINE
  5
729
330
6F
100
AcDbEntity
  8
OUTLINE
  6
Continuous
 62
     3
100
AcDbLine
 10
723.0
 20
-108.6999999999998
 30
0.0
 11
723.0
 21
-115.3850454237999
 31
0.0
  0
LINE
  5
72A
330
6F
100
AcDbEntity
  8
OUTLINE
  6
Continuous
 62
     3
100
AcDbLine
 10
723.0
 20
-115.3850454237999
 30
0.0
 11
735.685045423701
 21
-115.3850454237999
 31
0.0
  0
LINE
  5
72B
330
6F
100
AcDbEntity
  8
OUTLINE
  6
Continuous
 62
     3
100
AcDbLine
 10
735.685045423701
 20
-115.3850454237999
 30
0.0
 11
737.0
 21
-116.6999999999998
 31
0.0
  0
LINE
  5
72C
330
6F
100
AcDbEntity
  8
OUTLINE
  6
Continuous
 62
     3
100
AcDbLine
 10
737.0
 20
-116.6999999999998
 30
0.0
 11
737.0
 21
-117.2600000000002
 31
0.0
  0
LINE
  5
72D
330
6F
100
AcDbEntity
  8
OUTLINE
  6
Continuous
 62
     3
100
AcDbLine
 10
737.0
 20
-117.2600000000002
 30
0.0
 11
738.4999999999998
 21
-117.2600000000002
 31
0.0
  0
LINE
  5
72E
330
6F
100
AcDbEntity
  8
OUTLINE
  6
Continuous
 62
     3
100
AcDbLine
 10
738.4999999999998
 20
-117.2600000000002
 30
0.0
 11
738.4999999999998
 21
-115.6737205586546
 31
0.0
  0
LINE
  5
72F
330
6F
100
AcDbEntity
  8
OUTLINE
  6
Continuous
 62
     3
100
AcDbLine
 10
738.4999999999998
 20
-115.6737205586546
 30
0.0
 11
738.4486760139314
 21
-115.2989131672921
 31
0.0
  0
LINE
  5
730
330
6F
100
AcDbEntity
  8
OUTLINE
  6
Continuous
 62
     3
100
AcDbLine
 10
738.4486760139314
 20
-115.2989131672921
 30
0.0
 11
738.4999999999998
 21
-115.1723989698012
 31
0.0
  0
LINE
  5
731
330
6F
100
AcDbEntity
  8
OUTLINE
  6
Continuous
 62
     3
100
AcDbLine
 10
738.4999999999998
 20
-115.1723989698012
 30
0.0
 11
738.4999999999998
 21
-114.1999999999998
 31
0.0
  0
LINE
  5
732
330
6F
100
AcDbEntity
  8
OUTLINE
  6
Continuous
 62
     3
100
AcDbLine
 10
738.4999999999998
 20
-114.1999999999998
 30
0.0
 11
740.2017059220995
 21
-112.4982940778
 31
0.0
  0
LINE
  5
733
330
6F
100
AcDbEntity
  8
OUTLINE
  6
Continuous
 62
     3
100
AcDbLine
 10
740.2017059220995
 20
-112.4982940778
 30
0.0
 11
754.7982940777998
 21
-112.4982940778
 31
0.0
  0
LINE
  5
734
330
6F
100
AcDbEntity
  8
OUTLINE
  6
Continuous
 62
     3
100
AcDbLine
 10
754.7982940777998
 20
-112.4982940778
 30
0.0
 11
756.5
 21
-114.1999999999998
 31
0.0
  0
LINE
  5
735
330
6F
100
AcDbEntity
  8
OUTLINE
  6
Continuous
 62
     3
100
AcDbLine
 10
756.5
 20
-114.1999999999998
 30
0.0
 11
756.5
 21
-121.0560426211
 31
0.0
  0
LINE
  5
736
330
6F
100
AcDbEntity
  8
OUTLINE
  6
Continuous
 62
     3
100
AcDbLine
 10
756.5
 20
-121.0560426211
 30
0.0
 11
757.2728904619999
 21
-121.5756376753998
 31
0.0
  0
LINE
  5
737
330
6F
100
AcDbEntity
  8
OUTLINE
  6
Continuous
 62
     3
100
AcDbLine
 10
757.2728904619999
 20
-121.5756376753998
 30
0.0
 11
757.9776490777001
 21
-122.5042123929997
 31
0.0
  0
LINE
  5
738
330
6F
100
AcDbEntity
  8
OUTLINE
  6
Continuous
 62
     3
100
AcDbLine
 10
757.9776490777001
 20
-122.5042123929997
 30
0.0
 11
758.4048089793013
 21
-123.7103858248001
 31
0.0
  0
LINE
  5
739
330
6F
100
AcDbEntity
  8
OUTLINE
  6
Continuous
 62
     3
100
AcDbLine
 10
758.4048089793013
 20
-123.7103858248001
 30
0.0
 11
758.5485281374002
 21
-125.1999999999998
 31
0.0
  0
LINE
  5
73A
330
6F
100
AcDbEntity
  8
OUTLINE
  6
Continuous
 62
     3
100
AcDbLine
 10
758.5485281374002
 20
-125.1999999999998
 30
0.0
 11
758.4048089793013
 21
-126.6896141752004
 31
0.0
  0
LINE
  5
73B
330
6F
100
AcDbEntity
  8
OUTLINE
  6
Continuous
 62
     3
100
AcDbLine
 10
758.4048089793013
 20
-126.6896141752004
 30
0.0
 11
757.9776490777001
 21
-127.8957876070003
 31
0.0
  0
LINE
  5
73C
330
6F
100
AcDbEntity
  8
OUTLINE
  6
Continuous
 62
     3
100
AcDbLine
 10
757.9776490777001
 20
-127.8957876070003
 30
0.0
 11
757.2728904619999
 21
-128.8243623245998
 31
0.0
  0
LINE
  5
73D
330
6F
100
AcDbEntity
  8
OUTLINE
  6
Continuous
 62
     3
100
AcDbLine
 10
757.2728904619999
 20
-128.8243623245998
 30
0.0
 11
756.5
 21
-129.3439573789
 31
0.0
  0
LINE
  5
73E
330
6F
100
AcDbEntity
  8
OUTLINE
  6
Continuous
 62
     3
100
AcDbLine
 10
756.5
 20
-129.3439573789
 30
0.0
 11
756.5
 21
-136.2000000000002
 31
0.0
  0
LINE
  5
73F
330
6F
100
AcDbEntity
  8
OUTLINE
  6
Continuous
 62
     3
100
AcDbLine
 10
756.5
 20
-136.2000000000002
 30
0.0
 11
754.7982940777998
 21
-137.9017059222001
 31
0.0
  0
LINE
  5
740
330
6F
100
AcDbEntity
  8
OUTLINE
  6
Continuous
 62
     3
100
AcDbLine
 10
754.7982940777998
 20
-137.9017059222001
 30
0.0
 11
740.2017059220995
 21
-137.9017059222001
 31
0.0
  0
LINE
  5
741
330
6F
100
AcDbEntity
  8
OUTLINE
  6
Continuous
 62
     3
100
AcDbLine
 10
740.2017059220995
 20
-137.9017059222001
 30
0.0
 11
738.4999999999998
 21
-136.1999999999998
 31
0.0
  0
LINE
  5
742
330
6F
100
AcDbEntity
  8
OUTLINE
  6
Continuous
 62
     3
100
AcDbLine
 10
738.4999999999998
 20
-136.1999999999998
 30
0.0
 11
738.4999999999998
 21
-133.1400000000003
 31
0.0
  0
LINE
  5
743
330
6F
100
AcDbEntity
  8
OUTLINE
  6
Continuous
 62
     3
100
AcDbLine
 10
738.4999999999998
 20
-133.1400000000003
 30
0.0
 11
737.0
 21
-133.1400000000003
 31
0.0
  0
LINE
  5
744
330
6F
100
AcDbEntity
  8
OUTLINE
  6
Continuous
 62
     3
100
AcDbLine
 10
737.0
 20
-133.1400000000003
 30
0.0
 11
737.0
 21
-133.6999999999998
 31
0.0
  0
LINE
  5
745
330
6F
100
AcDbEntity
  8
OUTLINE
  6
Continuous
 62
     3
100
AcDbLine
 10
737.0
 20
-133.6999999999998
 30
0.0
 11
735.685045423701
 21
-135.0149545762001
 31
0.0
  0
LINE
  5
746
330
6F
100
AcDbEntity
  8
OUTLINE
  6
Continuous
 62
     3
100
AcDbLine
 10
735.685045423701
 20
-135.0149545762001
 30
0.0
 11
723.0
 21
-135.0149545762001
 31
0.0
  0
LINE
  5
747
330
6F
100
AcDbEntity
  8
OUTLINE
  6
Continuous
 62
     3
100
AcDbLine
 10
723.0
 20
-135.0149545762001
 30
0.0
 11
723.0
 21
-139.1999999999998
 31
0.0
  0
LINE
  5
748
330
6F
100
AcDbEntity
  8
OUTLINE
  6
Continuous
 62
     3
100
AcDbLine
 10
723.0
 20
-139.1999999999998
 30
0.0
 11
730.0
 21
-139.1999999999998
 31
0.0
  0
LINE
  5
749
330
6F
100
AcDbEntity
  8
OUTLINE
  6
Continuous
 62
     3
100
AcDbLine
 10
730.0
 20
-139.1999999999998
 30
0.0
 11
730.0
 21
-144.9209438086
 31
0.0
  0
LINE
  5
74A
330
6F
100
AcDbEntity
  8
OUTLINE
  6
Continuous
 62
     3
100
AcDbLine
 10
730.0
 20
-144.9209438086
 30
0.0
 11
745.220943808601
 21
-144.9209438086
 31
0.0
  0
LINE
  5
74B
330
6F
100
AcDbEntity
  8
OUTLINE
  6
Continuous
 62
     3
100
AcDbLine
 10
745.220943808601
 20
-144.9209438086
 30
0.0
 11
747.3999999999997
 21
-147.1000000000003
 31
0.0
  0
LINE
  5
74C
330
6F
100
AcDbEntity
  8
OUTLINE
  6
Continuous
 62
     3
100
AcDbLine
 10
747.3999999999997
 20
-147.1000000000003
 30
0.0
 11
751.5
 21
-147.1000000000003
 31
0.0
  0
LINE
  5
74D
330
6F
100
AcDbEntity
  8
OUTLINE
  6
Continuous
 62
     3
100
AcDbLine
 10
751.5
 20
-147.1000000000003
 30
0.0
 11
751.5
 21
-143.4499999999998
 31
0.0
  0
LINE
  5
74E
330
6F
100
AcDbEntity
  8
OUTLINE
  6
Continuous
 62
     3
100
AcDbLine
 10
751.5
 20
-143.4499999999998
 30
0.0
 11
753.5
 21
-141.4499999999998
 31
0.0
  0
LINE
  5
74F
330
6F
100
AcDbEntity
  8
OUTLINE
  6
Continuous
 62
     3
100
AcDbLine
 10
753.5
 20
-141.4499999999998
 30
0.0
 11
771.4999999999998
 21
-141.4499999999998
 31
0.0
  0
LINE
  5
750
330
6F
100
AcDbEntity
  8
OUTLINE
  6
Continuous
 62
     3
100
AcDbLine
 10
771.4999999999998
 20
-141.4499999999998
 30
0.0
 11
773.5
 21
-143.4499999999998
 31
0.0
  0
LINE
  5
751
330
6F
100
AcDbEntity
  8
OUTLINE
  6
Continuous
 62
     3
100
AcDbLine
 10
773.5
 20
-143.4499999999998
 30
0.0
 11
777.5
 21
-146.6999999999998
 31
0.0
  0
LINE
  5
752
330
6F
100
AcDbEntity
  8
OUTLINE
  6
Continuous
 62
     3
100
AcDbLine
 10
777.5
 20
-146.6999999999998
 30
0.0
 11
777.5
 21
-151.2441023410001
 31
0.0
  0
LINE
  5
753
330
6F
100
AcDbEntity
  8
OUTLINE
  6
Continuous
 62
     3
100
AcDbLine
 10
777.5
 20
-151.2441023410001
 30
0.0
 11
778.3339009919
 21
-151.6946704366
 31
0.0
  0
LINE
  5
754
330
6F
100
AcDbEntity
  8
OUTLINE
  6
Continuous
 62
     3
100
AcDbLine
 10
778.3339009919
 20
-151.6946704366
 30
0.0
 11
779.4962908768011
 21
-152.8251376946
 31
0.0
  0
LINE
  5
755
330
6F
100
AcDbEntity
  8
OUTLINE
  6
Continuous
 62
     3
100
AcDbLine
 10
779.4962908768011
 20
-152.8251376946
 30
0.0
 11
780.3298823676994
 21
-154.2844033465999
 31
0.0
  0
LINE
  5
756
330
6F
100
AcDbEntity
  8
OUTLINE
  6
Continuous
 62
     3
100
AcDbLine
 10
780.3298823676994
 20
-154.2844033465999
 30
0.0
 11
780.8320169279014
 21
-156.0751259291996
 31
0.0
  0
LINE
  5
757
330
6F
100
AcDbEntity
  8
OUTLINE
  6
Continuous
 62
     3
100
AcDbLine
 10
780.8320169279014
 20
-156.0751259291996
 30
0.0
 11
781.0
 21
-158.1999999999993
 31
0.0
  0
LINE
  5
758
330
6F
100
AcDbEntity
  8
OUTLINE
  6
Continuous
 62
     3
100
AcDbLine
 10
781.0
 20
-158.1999999999993
 30
0.0
 11
780.8320169279014
 21
-160.3248740708995
 31
0.0
  0
LINE
  5
759
330
6F
100
AcDbEntity
  8
OUTLINE
  6
Continuous
 62
     3
100
AcDbLine
 10
780.8320169279014
 20
-160.3248740708995
 30
0.0
 11
780.3298823676994
 21
-162.1155966534997
 31
0.0
  0
LINE
  5
75A
330
6F
100
AcDbEntity
  8
OUTLINE
  6
Continuous
 62
     3
100
AcDbLine
 10
780.3298823676994
 20
-162.1155966534997
 30
0.0
 11
779.4962908768011
 21
-163.5748623053996
 31
0.0
  0
LINE
  5
75B
330
6F
100
AcDbEntity
  8
OUTLINE
  6
Continuous
 62
     3
100
AcDbLine
 10
779.4962908768011
 20
-163.5748623053996
 30
0.0
 11
778.3339009919
 21
-164.7053295634
 31
0.0
  0
LINE
  5
75C
330
6F
100
AcDbEntity
  8
OUTLINE
  6
Continuous
 62
     3
100
AcDbLine
 10
778.3339009919
 20
-164.7053295634
 30
0.0
 11
777.5
 21
-165.1558976590004
 31
0.0
  0
LINE
  5
75D
330
6F
100
AcDbEntity
  8
OUTLINE
  6
Continuous
 62
     3
100
AcDbLine
 10
777.5
 20
-165.1558976590004
 30
0.0
 11
777.5
 21
-169.6999999999998
 31
0.0
  0
LINE
  5
75E
330
6F
100
AcDbEntity
  8
OUTLINE
  6
Continuous
 62
     3
100
AcDbLine
 10
777.5
 20
-169.6999999999998
 30
0.0
 11
773.5
 21
-172.9500000000007
 31
0.0
  0
LINE
  5
75F
330
6F
100
AcDbEntity
  8
OUTLINE
  6
Continuous
 62
     3
100
AcDbLine
 10
773.5
 20
-172.9500000000007
 30
0.0
 11
771.4999999999998
 21
-174.9499999999998
 31
0.0
  0
LINE
  5
760
330
6F
100
AcDbEntity
  8
OUTLINE
  6
Continuous
 62
     3
100
AcDbLine
 10
771.4999999999998
 20
-174.9499999999998
 30
0.0
 11
753.5
 21
-174.9499999999998
 31
0.0
  0
LINE
  5
761
330
6F
100
AcDbEntity
  8
OUTLINE
  6
Continuous
 62
     3
100
AcDbLine
 10
753.5
 20
-174.9499999999998
 30
0.0
 11
751.5
 21
-172.9499999999998
 31
0.0
  0
LINE
  5
762
330
6F
100
AcDbEntity
  8
OUTLINE
  6
Continuous
 62
     3
100
AcDbLine
 10
751.5
 20
-172.9499999999998
 30
0.0
 11
751.5
 21
-169.3000000000002
 31
0.0
  0
LINE
  5
763
330
6F
100
AcDbEntity
  8
OUTLINE
  6
Continuous
 62
     3
100
AcDbLine
 10
751.5
 20
-169.3000000000002
 30
0.0
 11
747.3999999999997
 21
-169.3000000000002
 31
0.0
  0
LINE
  5
764
330
6F
100
AcDbEntity
  8
OUTLINE
  6
Continuous
 62
     3
100
AcDbLine
 10
747.3999999999997
 20
-169.3000000000002
 30
0.0
 11
745.220943808601
 21
-171.4790561914
 31
0.0
  0
LINE
  5
765
330
6F
100
AcDbEntity
  8
OUTLINE
  6
Continuous
 62
     3
100
AcDbLine
 10
745.220943808601
 20
-171.4790561914
 30
0.0
 11
730.0
 21
-171.4790561914
 31
0.0
  0
LINE
  5
766
330
6F
100
AcDbEntity
  8
OUTLINE
  6
Continuous
 62
     3
100
AcDbLine
 10
730.0
 20
-171.4790561914
 30
0.0
 11
730.0
 21
-177.1999999999998
 31
0.0
  0
LINE
  5
767
330
6F
100
AcDbEntity
  8
OUTLINE
  6
Continuous
 62
     3
100
AcDbLine
 10
730.0
 20
-177.1999999999998
 30
0.0
 11
704.0
 21
-177.1999999999998
 31
0.0
  0
LINE
  5
768
330
6F
100
AcDbEntity
  8
OUTLINE
  6
Continuous
 62
     3
100
AcDbLine
 10
704.0
 20
-177.1999999999998
 30
0.0
 11
704.0
 21
-200.3000000000002
 31
0.0
  0
LINE
  5
769
330
6F
100
AcDbEntity
  8
OUTLINE
  6
Continuous
 62
     3
100
AcDbLine
 10
704.0
 20
-200.3000000000002
 30
0.0
 11
740.0
 21
-200.3000000000002
 31
0.0
  0
LINE
  5
76A
330
6F
100
AcDbEntity
  8
OUTLINE
  6
Continuous
 62
     3
100
AcDbLine
 10
740.0
 20
-200.3000000000002
 30
0.0
 11
740.0
 21
-240.3000000000002
 31
0.0
  0
LINE
  5
76B
330
6F
100
AcDbEntity
  8
OUTLINE
  6
Continuous
 62
     3
100
AcDbLine
 10
740.0
 20
-240.3000000000002
 30
0.0
 11
702.3037011669202
 21
-240.3000000000002
 31
0.0
  0
ARC
  5
76C
330
6F
100
AcDbEntity
  8
OUTLINE
  6
Continuous
 62
     3
100
AcDbCircle
 10
699.6000000000002
 20
-239.0
 30
0.0
 40
3.00000000000006
100
AcDbArc
 50
324.7524930078628
 51
334.3207113805523
  0
LINE
  5
76D
330
6F
100
AcDbEntity
  8
OUTLINE
  6
Continuous
 62
     3
100
AcDbLine
 10
702.050000000001
 20
-240.7313289693184
 30
0.0
 11
702.050000000001
 21
-249.9499999999997
 31
0.0
  0
ARC
  5
76E
330
6F
100
AcDbEntity
  8
OUTLINE
  6
Continuous
 62
     3
100
AcDbCircle
 10
700.0
 20
-249.9499999999997
 30
0.0
 40
2.049999999999726
100
AcDbArc
 50
270.0
 51
0.0
  0
LINE
  5
76F
330
6F
100
AcDbEntity
  8
OUTLINE
  6
Continuous
 62
     3
100
AcDbLine
 10
700.0
 20
-252.0
 30
0.0
 11
650.0000000000015
 21
-252.0
 31
0.0
  0
LINE
  5
770
330
6F
100
AcDbEntity
  8
OUTLINE
  6
Continuous
 62
     3
100
AcDbLine
 10
650.0000000000015
 20
-252.0
 30
0.0
 11
650.0000000000015
 21
-259.9999999999964
 31
0.0
  0
LINE
  5
771
330
6F
100
AcDbEntity
  8
OUTLINE
  6
Continuous
 62
     3
100
AcDbLine
 10
650.0000000000015
 20
-259.9999999999964
 30
0.0
 11
-149.9999999999982
 21
-259.9999999999964
 31
0.0
  0
LINE
  5
772
330
6F
100
AcDbEntity
  8
OUTLINE
  6
Continuous
 62
     3
100
AcDbLine
 10
-149.9999999999982
 20
-259.9999999999964
 30
0.0
 11
-149.9999999999982
 21
-252.0
 31
0.0
  0
LINE
  5
773
330
6F
100
AcDbEntity
  8
OUTLINE
  6
Continuous
 62
     3
100
AcDbLine
 10
-149.9999999999982
 20
-252.0
 30
0.0
 11
-700.0
 21
-252.0
 31
0.0
  0
ARC
  5
774
330
6F
100
AcDbEntity
  8
OUTLINE
  6
Continuous
 62
     3
100
AcDbCircle
 10
-700.0
 20
-249.9499999999997
 30
0.0
 40
2.049999999999954
100
AcDbArc
 50
180.0
 51
270.0
  0
LINE
  5
775
330
6F
100
AcDbEntity
  8
OUTLINE
  6
Continuous
 62
     3
100
AcDbLine
 10
-702.0499999999993
 20
-249.9499999999997
 30
0.0
 11
-702.050000000001
 21
-240.0
 31
0.0
  0
LINE
  5
776
330
6F
100
AcDbEntity
  8
OUTLINE
  6
Continuous
 62
     3
100
AcDbLine
 10
-702.050000000001
 20
-240.0
 30
0.0
 11
-704.0
 21
-240.0
 31
0.0
  0
LINE
  5
777
330
6F
100
AcDbEntity
  8
OUTLINE
  6
Continuous
 62
     3
100
AcDbLine
 10
-704.0
 20
-240.0
 30
0.0
 11
-704.0
 21
-23.41837661844602
 31
0.0
  0
LINE
  5
778
330
6F
100
AcDbEntity
  8
OUTLINE
  6
Continuous
 62
     3
100
AcDbLine
 10
-704.0
 20
-23.41837661844602
 30
0.0
 11
-704.0
 21
-23.41837661844602
 31
0.0
  0
LINE
  5
779
330
6F
100
AcDbEntity
  8
OUTLINE
  6
Continuous
 62
     3
100
AcDbLine
 10
-751.0001234834834
 20
-404.9603951084545
 30
0.0
 11
-751.0001234834834
 21
-402.9603951084539
 31
0.0
  0
LINE
  5
77A
330
6F
100
AcDbEntity
  8
OUTLINE
  6
Continuous
 62
     3
100
AcDbLine
 10
-751.0001234834834
 20
-402.9603951084539
 30
0.0
 11
-739.0001234834834
 21
-402.9603951084539
 31
0.0
  0
LINE
  5
77B
330
6F
100
AcDbEntity
  8
OUTLINE
  6
Continuous
 62
     3
100
AcDbLine
 10
-739.0001234834834
 20
-402.9603951084539
 30
0.0
 11
-739.0001234834834
 21
-399.9603951084546
 31
0.0
  0
LINE
  5
77C
330
6F
100
AcDbEntity
  8
OUTLINE
  6
Continuous
 62
     3
100
AcDbLine
 10
-739.0001234834834
 20
-399.9603951084546
 30
0.0
 11
-734.7001234834822
 21
-399.9603951084546
 31
0.0
  0
LINE
  5
77D
330
6F
100
AcDbEntity
  8
OUTLINE
  6
Continuous
 62
     3
100
AcDbLine
 10
-734.7001234834822
 20
-399.9603951084546
 30
0.0
 11
-734.7001234834822
 21
-379.9603951084546
 31
0.0
  0
LINE
  5
77E
330
6F
100
AcDbEntity
  8
OUTLINE
  6
Continuous
 62
     3
100
AcDbLine
 10
-734.7001234834822
 20
-379.9603951084546
 30
0.0
 11
-739.0001234834834
 21
-379.9603951084546
 31
0.0
  0
LINE
  5
77F
330
6F
100
AcDbEntity
  8
OUTLINE
  6
Continuous
 62
     3
100
AcDbLine
 10
-739.0001234834834
 20
-379.9603951084546
 30
0.0
 11
-739.0001234834834
 21
-369.4603951084282
 31
0.0
  0
LINE
  5
780
330
6F
100
AcDbEntity
  8
OUTLINE
  6
Continuous
 62
     3
100
AcDbLine
 10
-739.0001234834834
 20
-369.4603951084282
 30
0.0
 11
-734.7001234834822
 21
-369.4603951084282
 31
0.0
  0
LINE
  5
781
330
6F
100
AcDbEntity
  8
OUTLINE
  6
Continuous
 62
     3
100
AcDbLine
 10
-734.7001234834822
 20
-369.4603951084282
 30
0.0
 11
-734.7001234834822
 21
-344.9603951084541
 31
0.0
  0
LINE
  5
782
330
6F
100
AcDbEntity
  8
OUTLINE
  6
Continuous
 62
     3
100
AcDbLine
 10
-734.7001234834822
 20
-344.9603951084541
 30
0.0
 11
997.7000000000078
 21
-344.9603951084546
 31
0.0
  0
LINE
  5
783
330
6F
100
AcDbEntity
  8
OUTLINE
  6
Continuous
 62
     3
100
AcDbLine
 10
997.7000000000078
 20
-344.9603951084546
 30
0.0
 11
997.7000000000078
 21
-369.4603951084427
 31
0.0
  0
LINE
  5
784
330
6F
100
AcDbEntity
  8
OUTLINE
  6
Continuous
 62
     3
100
AcDbLine
 10
997.7000000000078
 20
-369.4603951084427
 30
0.0
 11
1002.000000000009
 21
-369.4603951084427
 31
0.0
  0
LINE
  5
785
330
6F
100
AcDbEntity
  8
OUTLINE
  6
Continuous
 62
     3
100
AcDbLine
 10
1002.000000000009
 20
-369.4603951084427
 30
0.0
 11
1002.000000000009
 21
-379.9603951084546
 31
0.0
  0
LINE
  5
786
330
6F
100
AcDbEntity
  8
OUTLINE
  6
Continuous
 62
     3
100
AcDbLine
 10
1002.000000000009
 20
-379.9603951084546
 30
0.0
 11
997.7000000000078
 21
-379.9603951084546
 31
0.0
  0
LINE
  5
787
330
6F
100
AcDbEntity
  8
OUTLINE
  6
Continuous
 62
     3
100
AcDbLine
 10
997.7000000000078
 20
-379.9603951084546
 30
0.0
 11
997.7000000000078
 21
-399.9603951084541
 31
0.0
  0
LINE
  5
788
330
6F
100
AcDbEntity
  8
OUTLINE
  6
Continuous
 62
     3
100
AcDbLine
 10
997.7000000000078
 20
-399.9603951084541
 30
0.0
 11
1002.000000000009
 21
-399.9603951084541
 31
0.0
  0
LINE
  5
789
330
6F
100
AcDbEntity
  8
OUTLINE
  6
Continuous
 62
     3
100
AcDbLine
 10
1002.000000000009
 20
-399.9603951084541
 30
0.0
 11
1002.000000000009
 21
-402.9603951084539
 31
0.0
  0
LINE
  5
78A
330
6F
100
AcDbEntity
  8
OUTLINE
  6
Continuous
 62
     3
100
AcDbLine
 10
1002.000000000009
 20
-402.9603951084539
 30
0.0
 11
1014.000000000009
 21
-402.9603951084539
 31
0.0
  0
LINE
  5
78B
330
6F
100
AcDbEntity
  8
OUTLINE
  6
Continuous
 62
     3
100
AcDbLine
 10
1014.000000000009
 20
-402.9603951084539
 30
0.0
 11
1014.000000000009
 21
-404.9603951084539
 31
0.0
  0
LINE
  5
78C
330
6F
100
AcDbEntity
  8
OUTLINE
  6
Continuous
 62
     3
100
AcDbLine
 10
1014.000000000009
 20
-404.9603951084539
 30
0.0
 11
-751.0001234834834
 21
-404.9603951084545
 31
0.0
  0
LINE
  5
78D
330
6F
100
AcDbEntity
  8
OUTLINE
  6
Continuous
 62
     3
100
AcDbLine
 10
-751.0001234834834
 20
-404.9603951084545
 30
0.0
 11
-751.0001234834834
 21
-404.9603951084545
 31
0.0
  0
LINE
  5
78E
330
6F
100
AcDbEntity
  8
SIZE
  6
Continuous
 62
    30
100
AcDbLine
 10
-727.0
 20
40.0
 30
0.0
 11
-727.0
 21
322.6835812552772
 31
0.0
  0
LINE
  5
78F
330
6F
100
AcDbEntity
  8
SIZE
  6
Continuous
 62
    30
100
AcDbLine
 10
727.0
 20
40.0
 30
0.0
 11
727.0
 21
322.6835812552772
 31
0.0
  0
LINE
  5
790
330
6F
100
AcDbEntity
  8
SIZE
  6
Continuous
 62
    30
100
AcDbLine
 10
-727.0
 20
302.6835812552772
 30
0.0
 11
727.0
 21
302.6835812552772
 31
0.0
  0
CIRCLE
  5
791
330
6F
100
AcDbEntity
  8
SIZE
  6
Continuous
 62
    30
100
AcDbCircle
 10
-727.0
 20
302.6835812552772
 30
0.0
 40
7.5
  0
CIRCLE
  5
792
330
6F
100
AcDbEntity
  8
SIZE
  6
Continuous
 62
    30
100
AcDbCircle
 10
727.0
 20
302.6835812552772
 30
0.0
 40
7.5
  0
TEXT
  5
793
330
6F
100
AcDbEntity
  8
SIZE
  6
Continuous
 62
    30
100
AcDbText
 10
-60.85714285714285
 20
322.6835812552772
 30
0.0
 40
40.0
  1
1454
 41
0.9
 72
     1
 11
0.0
 21
322.6835812552772
 31
0.0
100
AcDbText
  0
POINT
  5
794
330
6F
100
AcDbEntity
  8
DEFPOINTS
  6
Continuous
 62
    30
100
AcDbPoint
 10
-727.0
 20
20.0
 30
0.0
  0
POINT
  5
795
330
6F
100
AcDbEntity
  8
DEFPOINTS
  6
Continuous
 62
    30
100
AcDbPoint
 10
727.0
 20
20.0
 30
0.0
  0
POINT
  5
796
330
6F
100
AcDbEntity
  8
DEFPOINTS
  6
Continuous
 62
    30
100
AcDbPoint
 10
727.0
 20
302.6835812552772
 30
0.0
  0
LINE
  5
797
330
6F
100
AcDbEntity
  8
SIZE
  6
Continuous
 62
    30
100
AcDbLine
 10
-750.0
 20
-0.6999999999998181
 30
0.0
 11
-750.0
 21
322.6835812552772
 31
0.0
  0
LINE
  5
798
330
6F
100
AcDbEntity
  8
SIZE
  6
Continuous
 62
    30
100
AcDbLine
 10
-727.0
 20
40.0
 30
0.0
 11
-727.0
 21
322.6835812552772
 31
0.0
  0
LINE
  5
799
330
6F
100
AcDbEntity
  8
SIZE
  6
Continuous
 62
    30
100
AcDbLine
 10
-727.0
 20
302.6835812552772
 30
0.0
 11
-697.0
 21
302.6835812552772
 31
0.0
  0
LINE
  5
79A
330
6F
100
AcDbEntity
  8
SIZE
  6
Continuous
 62
    30
100
AcDbLine
 10
-750.0
 20
302.6835812552772
 30
0.0
 11
-908.2857142857145
 21
302.6835812552772
 31
0.0
  0
LINE
  5
79B
330
6F
100
AcDbEntity
  8
SIZE
  6
Continuous
 62
    30
100
AcDbLine
 10
-727.0
 20
302.6835812552772
 30
0.0
 11
-750.0
 21
302.6835812552772
 31
0.0
  0
CIRCLE
  5
79C
330
6F
100
AcDbEntity
  8
SIZE
  6
Continuous
 62
    30
100
AcDbCircle
 10
-727.0
 20
302.6835812552772
 30
0.0
 40
7.5
  0
CIRCLE
  5
79D
330
6F
100
AcDbEntity
  8
SIZE
  6
Continuous
 62
    30
100
AcDbCircle
 10
-750.0
 20
302.6835812552772
 30
0.0
 40
7.5
  0
TEXT
  5
79E
330
6F
100
AcDbEntity
  8
SIZE
  6
Continuous
 62
    30
100
AcDbText
 10
-888.2857142857142
 20
322.6835812552772
 30
0.0
 40
40.0
  1
23
 41
0.9
 72
     1
 11
-859.142857142857
 21
322.6835812552772
 31
0.0
100
AcDbText
  0
POINT
  5
79F
330
6F
100
AcDbEntity
  8
DEFPOINTS
  6
Continuous
 62
    30
100
AcDbPoint
 10
-750.0
 20
-20.69999999999982
 30
0.0
  0
POINT
  5
7A0
330
6F
100
AcDbEntity
  8
DEFPOINTS
  6
Continuous
 62
    30
100
AcDbPoint
 10
-727.0
 20
20.0
 30
0.0
  0
POINT
  5
7A1
330
6F
100
AcDbEntity
  8
DEFPOINTS
  6
Continuous
 62
    30
100
AcDbPoint
 10
-727.0
 20
302.6835812552772
 30
0.0
  0
LINE
  5
7A2
330
6F
100
AcDbEntity
  8
SIZE
  6
Continuous
 62
    30
100
AcDbLine
 10
750.0
 20
-0.6999999999998181
 30
0.0
 11
750.0
 21
322.6835812552772
 31
0.0
  0
LINE
  5
7A3
330
6F
100
AcDbEntity
  8
SIZE
  6
Continuous
 62
    30
100
AcDbLine
 10
727.0
 20
40.0
 30
0.0
 11
727.0
 21
322.6835812552772
 31
0.0
  0
LINE
  5
7A4
330
6F
100
AcDbEntity
  8
SIZE
  6
Continuous
 62
    30
100
AcDbLine
 10
727.0
 20
302.6835812552772
 30
0.0
 11
697.0
 21
302.6835812552772
 31
0.0
  0
LINE
  5
7A5
330
6F
100
AcDbEntity
  8
SIZE
  6
Continuous
 62
    30
100
AcDbLine
 10
750.0
 20
302.6835812552772
 30
0.0
 11
908.2857142857145
 21
302.6835812552772
 31
0.0
  0
LINE
  5
7A6
330
6F
100
AcDbEntity
  8
SIZE
  6
Continuous
 62
    30
100
AcDbLine
 10
727.0
 20
302.6835812552772
 30
0.0
 11
750.0
 21
302.6835812552772
 31
0.0
  0
CIRCLE
  5
7A7
330
6F
100
AcDbEntity
  8
SIZE
  6
Continuous
 62
    30
100
AcDbCircle
 10
727.0
 20
302.6835812552772
 30
0.0
 40
7.5
  0
CIRCLE
  5
7A8
330
6F
100
AcDbEntity
  8
SIZE
  6
Continuous
 62
    30
100
AcDbCircle
 10
750.0
 20
302.6835812552772
 30
0.0
 40
7.5
  0
TEXT
  5
7A9
330
6F
100
AcDbEntity
  8
SIZE
  6
Continuous
 62
    30
100
AcDbText
 10
830.0
 20
322.6835812552772
 30
0.0
 40
40.0
  1
23
 41
0.9
 72
     1
 11
859.142857142857
 21
322.6835812552772
 31
0.0
100
AcDbText
  0
POINT
  5
7AA
330
6F
100
AcDbEntity
  8
DEFPOINTS
  6
Continuous
 62
    30
100
AcDbPoint
 10
750.0
 20
-20.69999999999982
 30
0.0
  0
POINT
  5
7AB
330
6F
100
AcDbEntity
  8
DEFPOINTS
  6
Continuous
 62
    30
100
AcDbPoint
 10
727.0
 20
20.0
 30
0.0
  0
POINT
  5
7AC
330
6F
100
AcDbEntity
  8
DEFPOINTS
  6
Continuous
 62
    30
100
AcDbPoint
 10
727.0
 20
302.6835812552772
 30
0.0
  0
LINE
  5
7AD
330
6F
100
AcDbEntity
  8
NOTE
  6
Continuous
 62
     4
100
AcDbLine
 10
-745.1707581120135
 20
7.188105153310232
 30
0.0
 11
-727.0
 21
-18.0
 31
0.0
  0
LINE
  5
7AE
330
6F
100
AcDbEntity
  8
NOTE
  6
Continuous
 62
     4
100
AcDbLine
 10
-727.0
 20
-18.0
 30
0.0
 11
-755.3303906499385
 21
-5.271839991524132
 31
0.0
  0
LINE
  5
7AF
330
6F
100
AcDbEntity
  8
NOTE
  6
Continuous
 62
     4
100
AcDbLine
 10
-727.0
 20
-18.0
 30
0.0
 11
-750.2505743809761
 21
0.9581325808930499
 31
0.0
  0
LINE
  5
7B0
330
6F
100
AcDbEntity
  8
NOTE
  6
Continuous
 62
     4
100
AcDbLine
 10
-750.2505743809761
 20
0.9581325808930499
 30
0.0
 11
-822.3603551531356
 21
59.75525138998046
 31
0.0
  0
LINE
  5
7B1
330
6F
100
AcDbEntity
  8
NOTE
  6
Continuous
 62
     4
100
AcDbLine
 10
-822.3603551531356
 20
59.75525138998046
 30
0.0
 11
-1734.677785408612
 21
59.75525138998046
 31
0.0
  0
TEXT
  5
7B2
330
6F
100
AcDbEntity
  8
NOTE
  6
Continuous
 62
     4
100
AcDbText
 10
-1718.600238124606
 20
89.72956170835596
 30
0.0
 40
64.0
  1
AH 2×2 M10ボルト用
100
AcDbText
  0
LINE
  5
7B3
330
6F
100
AcDbEntity
  8
SIZE
  6
Continuous
 62
    30
100
AcDbLine
 10
1014.000000000009
 20
-424.9603951084539
 30
0.0
 11
1014.000000000009
 21
-703.9850270961769
 31
0.0
  0
LINE
  5
7B4
330
6F
100
AcDbEntity
  8
SIZE
  6
Continuous
 62
    30
100
AcDbLine
 10
-751.0001234834834
 20
-424.9603951084539
 30
0.0
 11
-751.0001234834834
 21
-703.9850270961769
 31
0.0
  0
LINE
  5
7B5
330
6F
100
AcDbEntity
  8
SIZE
  6
Continuous
 62
    30
100
AcDbLine
 10
1014.000000000009
 20
-683.9850270961769
 30
0.0
 11
-751.0001234834834
 21
-683.9850270961769
 31
0.0
  0
CIRCLE
  5
7B6
330
6F
100
AcDbEntity
  8
SIZE
  6
Continuous
 62
    30
100
AcDbCircle
 10
1014.000000000009
 20
-683.9850270961769
 30
0.0
 40
7.5
  0
CIRCLE
  5
7B7
330
6F
100
AcDbEntity
  8
SIZE
  6
Continuous
 62
    30
100
AcDbCircle
 10
-751.0001234834834
 20
-683.9850270961769
 30
0.0
 40
7.5
  0
TEXT
  5
7B8
330
6F
100
AcDbEntity
  8
SIZE
  6
Continuous
 62
    30
100
AcDbText
 10
71.4999382582628
 20
-663.9850270961769
 30
0.0
 40
40.0
  1
1765
 41
0.9
 72
     1
 11
131.4999382582628
 21
-663.9850270961769
 31
0.0
100
AcDbText
  0
POINT
  5
7B9
330
6F
100
AcDbEntity
  8
DEFPOINTS
  6
Continuous
 62
    30
100
AcDbPoint
 10
1014.000000000009
 20
-404.9603951084539
 30
0.0
  0
POINT
  5
7BA
330
6F
100
AcDbEntity
  8
DEFPOINTS
  6
Continuous
 62
    30
100
AcDbPoint
 10
-751.0001234834834
 20
-404.9603951084539
 30
0.0
  0
POINT
  5
7BB
330
6F
100
AcDbEntity
  8
DEFPOINTS
  6
Continuous
 62
    30
100
AcDbPoint
 10
-751.0001234834834
 20
-683.9850270961769
 30
0.0
  0
LINE
  5
7BC
330
6F
100
AcDbEntity
  8
SIZE
  6
Continuous
 62
    30
100
AcDbLine
 10
-700.0
 20
20.0
 30
0.0
 11
-700.0
 21
210.9890570364614
 31
0.0
  0
LINE
  5
7BD
330
6F
100
AcDbEntity
  8
SIZE
  6
Continuous
 62
    30
100
AcDbLine
 10
-750.0
 20
-0.6999999999998181
 30
0.0
 11
-750.0
 21
210.9890570364614
 31
0.0
  0
LINE
  5
7BE
330
6F
100
AcDbEntity
  8
SIZE
  6
Continuous
 62
    30
100
AcDbLine
 10
-700.0
 20
190.9890570364613
 30
0.0
 11
-750.0
 21
190.9890570364613
 31
0.0
  0
LINE
  5
7BF
330
6F
100
AcDbEntity
  8
SIZE
  6
Continuous
 62
    30
100
AcDbLine
 10
-750.0
 20
190.9890570364613
 30
0.0
 11
-878.2857142857142
 21
190.9890570364613
 31
0.0
  0
CIRCLE
  5
7C0
330
6F
100
AcDbEntity
  8
SIZE
  6
Continuous
 62
    30
100
AcDbCircle
 10
-700.0
 20
190.9890570364613
 30
0.0
 40
7.5
  0
CIRCLE
  5
7C1
330
6F
100
AcDbEntity
  8
SIZE
  6
Continuous
 62
    30
100
AcDbCircle
 10
-750.0
 20
190.9890570364613
 30
0.0
 40
7.5
  0
TEXT
  5
7C2
330
6F
100
AcDbEntity
  8
SIZE
  6
Continuous
 62
    30
100
AcDbText
 10
-858.2857142857141
 20
210.9890570364614
 30
0.0
 40
40.0
  1
50
 41
0.9
 72
     1
 11
-829.1428571428571
 21
210.9890570364614
 31
0.0
100
AcDbText
  0
POINT
  5
7C3
330
6F
100
AcDbEntity
  8
DEFPOINTS
  6
Continuous
 62
    30
100
AcDbPoint
 10
-700.0
 20
0.0
 30
0.0
  0
POINT
  5
7C4
330
6F
100
AcDbEntity
  8
DEFPOINTS
  6
Continuous
 62
    30
100
AcDbPoint
 10
-750.0
 20
-20.69999999999982
 30
0.0
  0
POINT
  5
7C5
330
6F
100
AcDbEntity
  8
DEFPOINTS
  6
Continuous
 62
    30
100
AcDbPoint
 10
-750.0
 20
190.9890570364613
 30
0.0
  0
LINE
  5
7C6
330
6F
100
AcDbEntity
  8
NOTE
  6
Continuous
 62
     4
100
AcDbLine
 10
-287.0196852390472
 20
-118.5
 30
0.0
 11
-160.0500000000029
 21
-118.5
 31
0.0
  0
LINE
  5
7C7
330
6F
100
AcDbEntity
  8
NOTE
  6
Continuous
 62
     4
100
AcDbLine
 10
-160.0500000000029
 20
-245.4696852390453
 30
0.0
 11
-160.0500000000029
 21
-118.5
 31
0.0
  0
LINE
  5
7C8
330
6F
100
AcDbEntity
  8
NOTE
  6
Continuous
 62
     4
100
AcDbLine
 10
-33.08031476095675
 20
-118.5
 30
0.0
 11
-160.0500000000011
 21
-118.5
 31
0.0
  0
LINE
  5
7C9
330
6F
100
AcDbEntity
  8
NOTE
  6
Continuous
 62
     4
100
AcDbLine
 10
-160.0500000000011
 20
8.469685239045245
 30
0.0
 11
-160.0500000000029
 21
-118.5
 31
0.0
  0
LINE
  5
7CA
330
6F
100
AcDbEntity
  8
DETAIL
  6
Continuous
 62
     5
100
AcDbLine
 10
-210.1737628132996
 20
-184.0
 30
0.0
 11
-109.9262371868008
 21
-184.0
 31
0.0
  0
LINE
  5
7CB
330
6F
100
AcDbEntity
  8
DETAIL
  6
Continuous
 62
     5
100
AcDbLine
 10
-216.3351119601011
 20
-178.8054097013
 30
0.0
 11
-105.3355519966007
 21
-180.2031819377998
 31
0.0
  0
LINE
  5
7CC
330
6F
100
AcDbEntity
  8
DETAIL
  6
Continuous
 62
     5
100
AcDbLine
 10
-129.6924538232997
 20
-41.82301084200026
 30
0.0
 11
-190.4075461767988
 21
-41.82301084200026
 31
0.0
  0
LINE
  5
7CD
330
6F
100
AcDbEntity
  8
DETAIL
  6
Continuous
 62
     5
100
AcDbLine
 10
-137.8142482468993
 20
-39.08114134520019
 30
0.0
 11
-182.2857517532011
 21
-39.08114134520019
 31
0.0
  0
LWPOLYLINE
  5
7CE
330
6F
100
AcDbEntity
  8
DETAIL
  6
Continuous
 62
     5
100
AcDbPolyline
 90
       23
 70
     0
 43
0.0
 10
-213.6310000165995
 20
-208.8008105293002
 10
-210.7462360742993
 20
-210.1714822135
 10
-207.5781586653993
 20
-211.5382168676001
 10
-204.0665287682005
 20
-212.8694528792002
 10
-200.1522613458001
 20
-214.1269369491001
 10
-195.7765728028006
 20
-215.2652310599001
 10
-190.8716449111998
 20
-216.2440252278001
 10
-185.3851991680985
 20
-217.0296104065001
 10
-179.3901570539001
 20
-217.5980807815004
 10
-173.0721003341987
 20
-217.9586161921998
 10
-166.5910397596999
 20
-218.1499066293
 10
-160.0500000000011
 20
-218.2088645076001
 10
-153.5089602403986
 20
-218.1499066293
 10
-147.0278996658998
 20
-217.9586161921998
 10
-140.7098429462003
 20
-217.5980807815004
 10
-134.7148008319
 20
-217.0296104065001
 10
-129.2283550888987
 20
-216.2440252278001
 10
-124.3234271972996
 20
-215.2652310599001
 10
-119.9477386542985
 20
-214.1269369491001
 10
-116.0334712318999
 20
-212.8694528792002
 10
-112.5218413347011
 20
-211.5382168676001
 10
-109.3537639258011
 20
-210.1714822135
 10
-106.468999983399
 20
-208.8008105293002
  0
LWPOLYLINE
  5
7E7
330
6F
100
AcDbEntity
  8
DETAIL
  6
Continuous
 62
     5
100
AcDbPolyline
 90
       30
 70
     0
 43
0.0
 10
-213.6310000165995
 20
-208.8008105293002
 10
-211.3948059687009
 20
-210.4095783002003
 10
-209.0013435786985
 20
-212.0143322112999
 10
-206.4264496614996
 20
-213.5940361155999
 10
-203.6439363131012
 20
-215.1245069019001
 10
-200.6282752368006
 20
-216.5794112996
 10
-197.3570978511998
 20
-217.9267759507002
 10
-193.8049193607003
 20
-219.1404107197
 10
-189.9476050749999
 20
-220.1956107061
 10
-185.7778995030003
 20
-221.0736913250002
 10
-181.3426994632009
 20
-221.7610883205998
 10
-176.7259717454999
 20
-222.2624415713999
 10
-172.0068585331992
 20
-222.6008104315001
 10
-167.2367318101005
 20
-222.8056011453
 10
-162.4465863647001
 20
-222.9012643311999
 10
-157.6534136354003
 20
-222.9012643311999
 10
-152.8632681898998
 20
-222.8056011453
 10
-148.0931414669012
 20
-222.6008104315001
 10
-143.3740282544986
 20
-222.2624415713999
 10
-138.7573005367994
 20
-221.7610883205998
 10
-134.3221004971001
 20
-221.0736913250002
 10
-130.1523949249986
 20
-220.1956107061
 10
-126.2950806394001
 20
-219.1404107197
 10
-122.7429021488005
 20
-217.9267759507002
 10
-119.4717247632998
 20
-216.5794112996
 10
-116.4560636869992
 20
-215.1245069019001
 10
-113.6735503385989
 20
-213.5940361155999
 10
-111.0986564213999
 20
-212.0143322112999
 10
-108.7051940312995
 20
-210.4095783002003
 10
-106.468999983399
 20
-208.8008105293002
  0
LWPOLYLINE
  5
807
330
6F
100
AcDbEntity
  8
DETAIL
  6
Continuous
 62
     5
100
AcDbPolyline
 90
       23
 70
     0
 43
0.0
 10
-107.0790529109999
 20
-27.83998285069993
 10
-109.9594195244008
 20
-26.49229740359988
 10
-113.1218947461002
 20
-25.14830192609998
 10
-116.6249869112998
 20
-23.83864644070036
 10
-120.5257382020991
 20
-22.60043706000033
 10
-124.8793077481987
 20
-21.47773815179971
 10
-129.7478272608004
 20
-20.50975007689976
 10
-135.1741511950986
 20
-19.72943460340001
 10
-141.0788078016994
 20
-19.16048772969998
 10
-147.2832779850996
 20
-18.79523709390014
 10
-153.6387644978003
 20
-18.59873446900019
 10
-160.0500000000011
 20
-18.53758870399997
 10
-166.4612355023
 20
-18.59873446900019
 10
-172.8167220150008
 20
-18.79523709390014
 10
-179.0211921983008
 20
-19.16048772969998
 10
-184.925848805
 20
-19.72943460340001
 10
-190.3521727392999
 20
-20.50975007689976
 10
-195.2206922518998
 20
-21.47773815179971
 10
-199.5742617979995
 20
-22.60043706000033
 10
-203.4750130886987
 20
-23.83864644070036
 10
-206.9781052539001
 20
-25.14830192609998
 10
-210.1405804756996
 20
-26.49229740359988
 10
-213.0209470891005
 20
-27.83998285069993
  0
LWPOLYLINE
  5
820
330
6F
100
AcDbEntity
  8
DETAIL
  6
Continuous
 62
     5
100
AcDbPolyline
 90
       30
 70
     0
 43
0.0
 10
-107.0790529109999
 20
-27.83998285069993
 10
-109.3110572751011
 20
-26.25875875869997
 10
-111.6997458507012
 20
-24.68130461130022
 10
-114.2687433753998
 20
-23.12799814289975
 10
-117.0432996732998
 20
-21.62228729740036
 10
-120.047968590401
 20
-20.18977718800034
 10
-123.3034066833988
 20
-18.86148752129975
 10
-126.832851253801
 20
-17.66295074690015
 10
-130.6571741589996
 20
-16.61814709579994
 10
-134.7793530735998
 20
-15.74553170800027
 10
-139.1502641776005
 20
-15.05851559730035
 10
-143.6889652906011
 20
-14.55320115960012
 10
-148.3217684621995
 20
-14.20854493360002
 10
-153.0014391249006
 20
-13.99774296240002
 10
-157.699544548499
 20
-13.8984948809002
 10
-162.4004554515995
 20
-13.8984948809002
 10
-167.0985608751998
 20
-13.99774296240002
 10
-171.7782315378008
 20
-14.20854493360002
 10
-176.4110347094993
 20
-14.55320115960012
 10
-180.9497358224998
 20
-15.05851559730035
 10
-185.3206469263987
 20
-15.74553170800027
 10
-189.4428258411008
 20
-16.61814709579994
 10
-193.2671487462994
 20
-17.66295074690015
 10
-196.7965933165997
 20
-18.86148752129975
 10
-200.0520314096994
 20
-20.18977718800034
 10
-203.0567003267006
 20
-21.62228729740036
 10
-205.8312566246986
 20
-23.12799814289975
 10
-208.4002541493992
 20
-24.68130461130022
 10
-210.7889427249993
 20
-26.25875875869997
 10
-213.0209470891005
 20
-27.83998285069993
  0
ARC
  5
840
330
6F
100
AcDbEntity
  8
DETAIL
  6
Continuous
 62
     5
100
AcDbCircle
 10
-160.0500000000011
 20
-118.5
 30
0.0
 40
105.0007616402
100
AcDbArc
 50
120.2969426106867
 51
239.3167491915151
  0
ARC
  5
841
330
6F
100
AcDbEntity
  8
DETAIL
  6
Continuous
 62
     5
100
AcDbCircle
 10
-160.0500000000011
 20
-118.5
 30
0.0
 40
105.0007616402
100
AcDbArc
 50
300.6832508084849
 51
59.70305738931325
  0
CIRCLE
  5
842
330
6F
100
AcDbEntity
  8
DETAIL
  6
Continuous
 62
     5
100
AcDbCircle
 10
-160.0500000000011
 20
-118.5
 30
0.0
 40
100.0
  0
CIRCLE
  5
843
330
6F
100
AcDbEntity
  8
DETAIL
  6
Continuous
 62
     5
100
AcDbCircle
 10
-160.0500000000011
 20
-118.5
 30
0.0
 40
94.9847543461
  0
CIRCLE
  5
844
330
6F
100
AcDbEntity
  8
DETAIL
  6
Continuous
 62
     5
100
AcDbCircle
 10
-160.0500000000011
 20
-118.5
 30
0.0
 40
94.9847543461
  0
CIRCLE
  5
845
330
6F
100
AcDbEntity
  8
DETAIL
  6
Continuous
 62
     5
100
AcDbCircle
 10
-160.0500000000011
 20
-118.5
 30
0.0
 40
82.50266545079998
  0
LINE
  5
846
330
6F
100
AcDbEntity
  8
SIZE
  6
Continuous
 62
    30
100
AcDbLine
 10
159.9499999999989
 20
28.46968523904525
 30
0.0
 11
159.9499999999989
 21
125.315159029501
 31
0.0
  0
LINE
  5
847
330
6F
100
AcDbEntity
  8
SIZE
  6
Continuous
 62
    30
100
AcDbLine
 10
-160.0500000000029
 20
28.46968523904525
 30
0.0
 11
-160.0500000000029
 21
125.315159029501
 31
0.0
  0
LINE
  5
848
330
6F
100
AcDbEntity
  8
SIZE
  6
Continuous
 62
    30
100
AcDbLine
 10
159.9499999999989
 20
105.315159029501
 30
0.0
 11
-160.0500000000029
 21
105.315159029501
 31
0.0
  0
CIRCLE
  5
849
330
6F
100
AcDbEntity
  8
SIZE
  6
Continuous
 62
    30
100
AcDbCircle
 10
159.9499999999989
 20
105.315159029501
 30
0.0
 40
7.5
  0
CIRCLE
  5
84A
330
6F
100
AcDbEntity
  8
SIZE
  6
Continuous
 62
    30
100
AcDbCircle
 10
-160.0500000000029
 20
105.315159029501
 30
0.0
 40
7.5
  0
TEXT
  5
84B
330
6F
100
AcDbEntity
  8
SIZE
  6
Continuous
 62
    30
100
AcDbText
 10
-46.33571428571628
 20
125.315159029501
 30
0.0
 40
40.0
  1
320
 41
0.9
 72
     1
 11
-0.0500000000020009
 21
125.315159029501
 31
0.0
100
AcDbText
  0
POINT
  5
84C
330
6F
100
AcDbEntity
  8
DEFPOINTS
  6
Continuous
 62
    30
100
AcDbPoint
 10
159.9499999999989
 20
8.469685239045245
 30
0.0
  0
POINT
  5
84D
330
6F
100
AcDbEntity
  8
DEFPOINTS
  6
Continuous
 62
    30
100
AcDbPoint
 10
-160.0500000000029
 20
8.469685239045245
 30
0.0
  0
POINT
  5
84E
330
6F
100
AcDbEntity
  8
DEFPOINTS
  6
Continuous
 62
    30
100
AcDbPoint
 10
-160.0500000000029
 20
105.315159029501
 30
0.0
  0
LINE
  5
84F
330
6F
100
AcDbEntity
  8
NOTE
  6
Continuous
 62
     4
100
AcDbLine
 10
-607.0196852390473
 20
-118.5
 30
0.0
 11
-480.0500000000027
 21
-118.5
 31
0.0
  0
LINE
  5
850
330
6F
100
AcDbEntity
  8
NOTE
  6
Continuous
 62
     4
100
AcDbLine
 10
-480.0500000000027
 20
-245.4696852390453
 30
0.0
 11
-480.0500000000027
 21
-118.5
 31
0.0
  0
LINE
  5
851
330
6F
100
AcDbEntity
  8
NOTE
  6
Continuous
 62
     4
100
AcDbLine
 10
-353.0803147609568
 20
-118.5
 30
0.0
 11
-480.0500000000011
 21
-118.5
 31
0.0
  0
LINE
  5
852
330
6F
100
AcDbEntity
  8
NOTE
  6
Continuous
 62
     4
100
AcDbLine
 10
-480.0500000000011
 20
8.469685239045245
 30
0.0
 11
-480.0500000000027
 21
-118.5
 31
0.0
  0
LINE
  5
853
330
6F
100
AcDbEntity
  8
DETAIL
  6
Continuous
 62
     5
100
AcDbLine
 10
-530.1737628132996
 20
-184.0
 30
0.0
 11
-429.9262371868008
 21
-184.0
 31
0.0
  0
LINE
  5
854
330
6F
100
AcDbEntity
  8
DETAIL
  6
Continuous
 62
     5
100
AcDbLine
 10
-536.3351119601011
 20
-178.8054097013
 30
0.0
 11
-425.3355519966008
 21
-180.2031819377998
 31
0.0
  0
LINE
  5
855
330
6F
100
AcDbEntity
  8
DETAIL
  6
Continuous
 62
     5
100
AcDbLine
 10
-449.6924538232997
 20
-41.82301084200026
 30
0.0
 11
-510.4075461767989
 21
-41.82301084200026
 31
0.0
  0
LINE
  5
856
330
6F
100
AcDbEntity
  8
DETAIL
  6
Continuous
 62
     5
100
AcDbLine
 10
-457.8142482468993
 20
-39.08114134520019
 30
0.0
 11
-502.2857517532012
 21
-39.08114134520019
 31
0.0
  0
LWPOLYLINE
  5
857
330
6F
100
AcDbEntity
  8
DETAIL
  6
Continuous
 62
     5
100
AcDbPolyline
 90
       23
 70
     0
 43
0.0
 10
-533.6310000165995
 20
-208.8008105293002
 10
-530.7462360742992
 20
-210.1714822135
 10
-527.5781586653992
 20
-211.5382168676001
 10
-524.0665287682005
 20
-212.8694528792002
 10
-520.1522613458
 20
-214.1269369491001
 10
-515.7765728028007
 20
-215.2652310599001
 10
-510.8716449111997
 20
-216.2440252278001
 10
-505.3851991680985
 20
-217.0296104065001
 10
-499.3901570539001
 20
-217.5980807815004
 10
-493.0721003341985
 20
-217.9586161921998
 10
-486.5910397596998
 20
-218.1499066293
 10
-480.0500000000011
 20
-218.2088645076001
 10
-473.5089602403984
 20
-218.1499066293
 10
-467.0278996658999
 20
-217.9586161921998
 10
-460.7098429462003
 20
-217.5980807815004
 10
-454.7148008318998
 20
-217.0296104065001
 10
-449.2283550888987
 20
-216.2440252278001
 10
-444.3234271972996
 20
-215.2652310599001
 10
-439.9477386542984
 20
-214.1269369491001
 10
-436.0334712319
 20
-212.8694528792002
 10
-432.5218413347011
 20
-211.5382168676001
 10
-429.3537639258011
 20
-210.1714822135
 10
-426.4689999833988
 20
-208.8008105293002
  0
LWPOLYLINE
  5
870
330
6F
100
AcDbEntity
  8
DETAIL
  6
Continuous
 62
     5
100
AcDbPolyline
 90
       30
 70
     0
 43
0.0
 10
-533.6310000165995
 20
-208.8008105293002
 10
-531.3948059687009
 20
-210.4095783002003
 10
-529.0013435786987
 20
-212.0143322112999
 10
-526.4264496614997
 20
-213.5940361155999
 10
-523.6439363131012
 20
-215.1245069019001
 10
-520.6282752368005
 20
-216.5794112996
 10
-517.3570978511998
 20
-217.9267759507002
 10
-513.8049193607002
 20
-219.1404107197
 10
-509.9476050749998
 20
-220.1956107061
 10
-505.7778995030004
 20
-221.0736913250002
 10
-501.3426994632009
 20
-221.7610883205998
 10
-496.7259717454998
 20
-222.2624415713999
 10
-492.0068585331991
 20
-222.6008104315001
 10
-487.2367318101004
 20
-222.8056011453
 10
-482.4465863647001
 20
-222.9012643311999
 10
-477.6534136354001
 20
-222.9012643311999
 10
-472.8632681898998
 20
-222.8056011453
 10
-468.0931414669011
 20
-222.6008104315001
 10
-463.3740282544986
 20
-222.2624415713999
 10
-458.7573005367993
 20
-221.7610883205998
 10
-454.3221004971
 20
-221.0736913250002
 10
-450.1523949249985
 20
-220.1956107061
 10
-446.2950806393998
 20
-219.1404107197
 10
-442.7429021488006
 20
-217.9267759507002
 10
-439.4717247632997
 20
-216.5794112996
 10
-436.4560636869992
 20
-215.1245069019001
 10
-433.6735503385988
 20
-213.5940361155999
 10
-431.0986564213997
 20
-212.0143322112999
 10
-428.7051940312992
 20
-210.4095783002003
 10
-426.4689999833988
 20
-208.8008105293002
  0
LWPOLYLINE
  5
890
330
6F
100
AcDbEntity
  8
DETAIL
  6
Continuous
 62
     5
100
AcDbPolyline
 90
       23
 70
     0
 43
0.0
 10
-427.079052911
 20
-27.83998285069993
 10
-429.9594195244008
 20
-26.49229740359988
 10
-433.1218947461001
 20
-25.14830192609998
 10
-436.6249869112998
 20
-23.83864644070036
 10
-440.5257382020988
 20
-22.60043706000033
 10
-444.8793077481987
 20
-21.47773815179971
 10
-449.7478272608004
 20
-20.50975007689976
 10
-455.1741511950986
 20
-19.72943460340001
 10
-461.0788078016994
 20
-19.16048772969998
 10
-467.2832779850996
 20
-18.79523709390014
 10
-473.6387644978004
 20
-18.59873446900019
 10
-480.0500000000011
 20
-18.53758870399997
 10
-486.4612355023
 20
-18.59873446900019
 10
-492.8167220150006
 20
-18.79523709390014
 10
-499.0211921983008
 20
-19.16048772969998
 10
-504.9258488049998
 20
-19.72943460340001
 10
-510.3521727392998
 20
-20.50975007689976
 10
-515.2206922518996
 20
-21.47773815179971
 10
-519.5742617979995
 20
-22.60043706000033
 10
-523.4750130886984
 20
-23.83864644070036
 10
-526.9781052539002
 20
-25.14830192609998
 10
-530.1405804756996
 20
-26.49229740359988
 10
-533.0209470891003
 20
-27.83998285069993
  0
LWPOLYLINE
  5
8A9
330
6F
100
AcDbEntity
  8
DETAIL
  6
Continuous
 62
     5
100
AcDbPolyline
 90
       30
 70
     0
 43
0.0
 10
-427.079052911
 20
-27.83998285069993
 10
-429.311057275101
 20
-26.25875875869997
 10
-431.6997458507012
 20
-24.68130461130022
 10
-434.2687433753998
 20
-23.12799814289975
 10
-437.0432996732997
 20
-21.62228729740036
 10
-440.0479685904008
 20
-20.18977718800034
 10
-443.3034066833989
 20
-18.86148752129975
 10
-446.8328512538009
 20
-17.66295074690015
 10
-450.6571741589996
 20
-16.61814709579994
 10
-454.7793530735996
 20
-15.74553170800027
 10
-459.1502641776004
 20
-15.05851559730035
 10
-463.6889652906011
 20
-14.55320115960012
 10
-468.3217684621994
 20
-14.20854493360002
 10
-473.0014391249006
 20
-13.99774296240002
 10
-477.6995445484988
 20
-13.8984948809002
 10
-482.4004554515995
 20
-13.8984948809002
 10
-487.0985608751996
 20
-13.99774296240002
 10
-491.7782315378008
 20
-14.20854493360002
 10
-496.4110347094993
 20
-14.55320115960012
 10
-500.9497358224998
 20
-15.05851559730035
 10
-505.3206469263986
 20
-15.74553170800027
 10
-509.4428258411006
 20
-16.61814709579994
 10
-513.2671487462991
 20
-17.66295074690015
 10
-516.7965933165996
 20
-18.86148752129975
 10
-520.0520314096994
 20
-20.18977718800034
 10
-523.0567003267005
 20
-21.62228729740036
 10
-525.8312566246986
 20
-23.12799814289975
 10
-528.4002541493991
 20
-24.68130461130022
 10
-530.7889427249993
 20
-26.25875875869997
 10
-533.0209470891003
 20
-27.83998285069993
  0
ARC
  5
8C9
330
6F
100
AcDbEntity
  8
DETAIL
  6
Continuous
 62
     5
100
AcDbCircle
 10
-480.0500000000011
 20
-118.5
 30
0.0
 40
105.0007616402
100
AcDbArc
 50
120.2969426106867
 51
239.3167491915135
  0
ARC
  5
8CA
330
6F
100
AcDbEntity
  8
DETAIL
  6
Continuous
 62
     5
100
AcDbCircle
 10
-480.0500000000011
 20
-118.5
 30
0.0
 40
105.0007616402
100
AcDbArc
 50
300.6832508084849
 51
59.70305738931325
  0
CIRCLE
  5
8CB
330
6F
100
AcDbEntity
  8
DETAIL
  6
Continuous
 62
     5
100
AcDbCircle
 10
-480.0500000000011
 20
-118.5
 30
0.0
 40
100.0
  0
CIRCLE
  5
8CC
330
6F
100
AcDbEntity
  8
DETAIL
  6
Continuous
 62
     5
100
AcDbCircle
 10
-480.0500000000011
 20
-118.5
 30
0.0
 40
94.9847543461
  0
CIRCLE
  5
8CD
330
6F
100
AcDbEntity
  8
DETAIL
  6
Continuous
 62
     5
100
AcDbCircle
 10
-480.0500000000011
 20
-118.5
 30
0.0
 40
94.9847543461
  0
CIRCLE
  5
8CE
330
6F
100
AcDbEntity
  8
DETAIL
  6
Continuous
 62
     5
100
AcDbCircle
 10
-480.0500000000011
 20
-118.5
 30
0.0
 40
82.50266545079998
  0
LINE
  5
8CF
330
6F
100
AcDbEntity
  8
SIZE
  6
Continuous
 62
    30
100
AcDbLine
 10
-160.0500000000011
 20
28.46968523904525
 30
0.0
 11
-160.0500000000011
 21
125.315159029501
 31
0.0
  0
LINE
  5
8D0
330
6F
100
AcDbEntity
  8
SIZE
  6
Continuous
 62
    30
100
AcDbLine
 10
-480.0500000000027
 20
28.46968523904525
 30
0.0
 11
-480.0500000000027
 21
125.315159029501
 31
0.0
  0
LINE
  5
8D1
330
6F
100
AcDbEntity
  8
SIZE
  6
Continuous
 62
    30
100
AcDbLine
 10
-160.0500000000011
 20
105.315159029501
 30
0.0
 11
-480.0500000000027
 21
105.315159029501
 31
0.0
  0
CIRCLE
  5
8D2
330
6F
100
AcDbEntity
  8
SIZE
  6
Continuous
 62
    30
100
AcDbCircle
 10
-160.0500000000011
 20
105.315159029501
 30
0.0
 40
7.5
  0
CIRCLE
  5
8D3
330
6F
100
AcDbEntity
  8
SIZE
  6
Continuous
 62
    30
100
AcDbCircle
 10
-480.0500000000027
 20
105.315159029501
 30
0.0
 40
7.5
  0
TEXT
  5
8D4
330
6F
100
AcDbEntity
  8
SIZE
  6
Continuous
 62
    30
100
AcDbText
 10
-366.3357142857163
 20
125.315159029501
 30
0.0
 40
40.0
  1
320
 41
0.9
 72
     1
 11
-320.050000000002
 21
125.315159029501
 31
0.0
100
AcDbText
  0
POINT
  5
8D5
330
6F
100
AcDbEntity
  8
DEFPOINTS
  6
Continuous
 62
    30
100
AcDbPoint
 10
-160.0500000000011
 20
8.469685239045245
 30
0.0
  0
POINT
  5
8D6
330
6F
100
AcDbEntity
  8
DEFPOINTS
  6
Continuous
 62
    30
100
AcDbPoint
 10
-480.0500000000027
 20
8.469685239045245
 30
0.0
  0
POINT
  5
8D7
330
6F
100
AcDbEntity
  8
DEFPOINTS
  6
Continuous
 62
    30
100
AcDbPoint
 10
-480.0500000000027
 20
105.315159029501
 30
0.0
  0
LINE
  5
8D8
330
6F
100
AcDbEntity
  8
NOTE
  6
Continuous
 62
     4
100
AcDbLine
 10
-482.1936801582831
 20
-87.51578261503958
 30
0.0
 11
-480.0500000000027
 21
-118.5
 31
0.0
  0
LINE
  5
8D9
330
6F
100
AcDbEntity
  8
NOTE
  6
Continuous
 62
     4
100
AcDbLine
 10
-480.0500000000027
 20
-118.5
 30
0.0
 11
-497.3985900502756
 21
-92.73872062868289
 31
0.0
  0
LINE
  5
8DA
330
6F
100
AcDbEntity
  8
NOTE
  6
Continuous
 62
     4
100
AcDbLine
 10
-480.0500000000027
 20
-118.5
 30
0.0
 11
-489.7961351042794
 21
-90.1272516218612
 31
0.0
  0
LINE
  5
8DB
330
6F
100
AcDbEntity
  8
NOTE
  6
Continuous
 62
     4
100
AcDbLine
 10
-489.7961351042794
 20
-90.1272516218612
 30
0.0
 11
-678.6826341633676
 21
459.7552456440637
 31
0.0
  0
LINE
  5
8DC
330
6F
100
AcDbEntity
  8
NOTE
  6
Continuous
 62
     4
100
AcDbLine
 10
-678.6826341633676
 20
459.7552456440637
 30
0.0
 11
-1591.000064418844
 21
459.7552456440637
 31
0.0
  0
TEXT
  5
8DD
330
6F
100
AcDbEntity
  8
NOTE
  6
Continuous
 62
     4
100
AcDbText
 10
-1568.921863128424
 20
486.2259256620645
 30
0.0
 40
64.0
  1
%%C200吹出円形フランジ
100
AcDbText
  0
TEXT
  5
8DE
330
6F
100
AcDbEntity
  8
ETC
  6
Continuous
 62
    61
100
AcDbText
 10
-772.7784485125177
 20
729.6144772535017
 30
0.0
 40
64.0
  1
PDFY-P112_140GMG9_2
 41
0.9
100
AcDbText
  0
ENDSEC
  0
SECTION
  2
OBJECTS
  0
DICTIONARY
  5
C
330
0
100
AcDbDictionary
281
     1
  3
ACAD_CIP_PREVIOUS_PRODUCT_INFO
350
8DF
  3
ACAD_COLOR
350
62
  3
ACAD_DETAILVIEWSTYLE
350
69
  3
ACAD_GROUP
350
D
  3
ACAD_LAYOUT
350
61
  3
ACAD_MATERIAL
350
10
  3
ACAD_MLEADERSTYLE
350
65
  3
ACAD_MLINESTYLE
350
5E
  3
ACAD_PLOTSETTINGS
350
60
  3
ACAD_PLOTSTYLENAME
350
E
  3
ACAD_SCALELIST
350
42
  3
ACAD_SECTIONVIEWSTYLE
350
67
  3
ACAD_TABLESTYLE
350
63
  3
ACAD_VISUALSTYLE
350
29
  3
ACDB_RECOMPOSE_DATA
350
94D
  3
AcDbVariableDictionary
350
8F8
  3
DWGPROPS
350
94E
  0
DICTIONARY
  5
8E2
330
54
100
AcDbDictionary
280
     1
281
     1
  3
ADSK_XREC_LAYER_RECONCILED
360
8E3
  0
DICTIONARY
  5
8E4
330
73
100
AcDbDictionary
280
     1
281
     1
  3
ADSK_XREC_LAYER_RECONCILED
360
8E5
  0
DICTIONARY
  5
8E6
330
76
100
AcDbDictionary
280
     1
281
     1
  3
ADSK_XREC_LAYER_RECONCILED
360
8E7
  0
DICTIONARY
  5
8E8
330
77
100
AcDbDictionary
280
     1
281
     1
  3
ADSK_XREC_LAYER_RECONCILED
360
8E9
  0
DICTIONARY
  5
8EA
330
78
100
AcDbDictionary
280
     1
281
     1
  3
ADSK_XREC_LAYER_RECONCILED
360
8EB
  0
DICTIONARY
  5
8EC
330
79
100
AcDbDictionary
280
     1
281
     1
  3
ADSK_XREC_LAYER_RECONCILED
360
8ED
  0
DICTIONARY
  5
8EE
330
7A
100
AcDbDictionary
280
     1
281
     1
  3
ADSK_XREC_LAYER_RECONCILED
360
8EF
  0
DICTIONARY
  5
8F0
330
7B
100
AcDbDictionary
280
     1
281
     1
  3
ADSK_XREC_LAYER_RECONCILED
360
8F1
  0
DICTIONARY
  5
8F2
330
7C
100
AcDbDictionary
280
     1
281
     1
  3
ADSK_XREC_LAYER_RECONCILED
360
8F3
  0
DICTIONARY
  5
8F4
330
7D
100
AcDbDictionary
280
     1
281
     1
  3
ADSK_XREC_LAYER_RECONCILED
360
8F5
  0
DICTIONARY
  5
8F6
330
7E
100
AcDbDictionary
280
     1
281
     1
  3
ADSK_XREC_LAYER_RECONCILED
360
8F7
  0
XRECORD
  5
8DF
102
{ACAD_REACTORS
330
C
102
}
330
C
100
AcDbXrecord
280
     1
300
ACD
300
2018
300
86830ACD_2018_0F
  0
DICTIONARY
  5
62
102
{ACAD_REACTORS
330
C
102
}
330
C
100
AcDbDictionary
281
     1
  0
DICTIONARY
  5
69
102
{ACAD_REACTORS
330
C
102
}
330
C
100
AcDbDictionary
281
     1
  3
Imperial24
350
6A
  0
DICTIONARY
  5
D
102
{ACAD_REACTORS
330
C
102
}
330
C
100
AcDbDictionary
281
     1
  0
DICTIONARY
  5
61
102
{ACAD_REACTORS
330
C
102
}
330
C
100
AcDbDictionary
281
     1
  3
Model
350
72
  3
レイアウト1
350
6E
  0
DICTIONARY
  5
10
102
{ACAD_REACTORS
330
C
102
}
330
C
100
AcDbDictionary
281
     1
  3
ByBlock
350
19
  3
ByLayer
350
11
  3
Global
350
21
  0
DICTIONARY
  5
65
102
{ACAD_REACTORS
330
C
102
}
330
C
100
AcDbDictionary
281
     1
  3
Standard
350
66
  0
DICTIONARY
  5
5E
102
{ACAD_REACTORS
330
C
102
}
330
C
100
AcDbDictionary
281
     1
  3
Standard
350
5F
  0
DICTIONARY
  5
60
102
{ACAD_REACTORS
330
C
102
}
330
C
100
AcDbDictionary
281
     1
  0
ACDBDICTIONARYWDFLT
  5
E
102
{ACAD_REACTORS
330
C
102
}
330
C
100
AcDbDictionary
281
     1
  3
Normal
350
F
100
AcDbDictionaryWithDefault
340
F
  0
DICTIONARY
  5
42
102
{ACAD_REACTORS
330
C
102
}
330
C
100
AcDbDictionary
281
     1
  3
A0
350
43
  3
A1
350
44
  3
A2
350
45
  3
A3
350
46
  3
A4
350
47
  3
A5
350
48
  3
A6
350
49
  3
A7
350
4A
  3
A8
350
4B
  3
A9
350
4C
  3
B0
350
4D
  3
B1
350
4E
  3
B2
350
4F
  3
B3
350
50
  3
B4
350
51
  3
B5
350
52
  3
B6
350
53
  0
DICTIONARY
  5
67
102
{ACAD_REACTORS
330
C
102
}
330
C
100
AcDbDictionary
281
     1
  3
Imperial24
350
68
  0
DICTIONARY
  5
63
102
{ACAD_REACTORS
330
C
102
}
330
C
100
AcDbDictionary
281
     1
  3
Standard
350
64
  0
DICTIONARY
  5
29
102
{ACAD_REACTORS
330
C
102
}
330
C
100
AcDbDictionary
281
     1
  3
2dWireframe
350
2F
  3
Basic
350
2E
  3
Brighten
350
35
  3
ColorChange
350
39
  3
Conceptual
350
32
  3
Dim
350
34
  3
EdgeColorOff
350
41
  3
Facepattern
350
38
  3
Flat
350
2A
  3
FlatWithEdges
350
2B
  3
Gouraud
350
2C
  3
GouraudWithEdges
350
2D
  3
Hidden
350
31
  3
JitterOff
350
3F
  3
Linepattern
350
37
  3
OverhangOff
350
40
  3
Realistic
350
33
  3
Shaded
350
3E
  3
Shaded with edges
350
3D
  3
Shades of Gray
350
3A
  3
Sketchy
350
3B
  3
Thicken
350
36
  3
Wireframe
350
30
  3
X-Ray
350
3C
  0
XRECORD
  5
94D
102
{ACAD_REACTORS
330
C
102
}
330
C
100
AcDbXrecord
280
     1
 90
        1
330
64
  0
DICTIONARY
  5
8F8
102
{ACAD_REACTORS
330
C
102
}
330
C
100
AcDbDictionary
281
     1
  3
CANNOSCALE
350
8FD
  3
CMLEADERSTYLE
350
8FA
  3
CTABLESTYLE
350
8F9
  3
CVIEWDETAILSTYLE
350
8FB
  3
CVIEWSECTIONSTYLE
350
8FC
  3
DIMASSOC
350
900
  3
INDEXCTL
350
8FF
  3
SORTENTS
350
8FE
  3
XCLIPFRAME
350
94B
  0
XRECORD
  5
94E
102
{ACAD_REACTORS
330
C
102
}
330
C
100
AcDbXrecord
280
     1
  1
DWGPROPS COOKIE
  2

  3

  4

  6

  7

  8
y_uebo
  9

300
=
301
=
302
=
303
=
304
=
305
=
306
=
307
=
308
=
309
=
 40
1.651100254629629
 41
2455902.607164352
 42
2459096.673113426
  1

 90
        0
  0
XRECORD
  5
8E3
102
{ACAD_REACTORS
330
8E2
102
}
330
8E2
100
AcDbXrecord
280
     1
290
     1
  0
XRECORD
  5
8E5
102
{ACAD_REACTORS
330
8E4
102
}
330
8E4
100
AcDbXrecord
280
     1
290
     1
  0
XRECORD
  5
8E7
102
{ACAD_REACTORS
330
8E6
102
}
330
8E6
100
AcDbXrecord
280
     1
290
     1
  0
XRECORD
  5
8E9
102
{ACAD_REACTORS
330
8E8
102
}
330
8E8
100
AcDbXrecord
280
     1
290
     1
  0
XRECORD
  5
8EB
102
{ACAD_REACTORS
330
8EA
102
}
330
8EA
100
AcDbXrecord
280
     1
290
     1
  0
XRECORD
  5
8ED
102
{ACAD_REACTORS
330
8EC
102
}
330
8EC
100
AcDbXrecord
280
     1
290
     1
  0
XRECORD
  5
8EF
102
{ACAD_REACTORS
330
8EE
102
}
330
8EE
100
AcDbXrecord
280
     1
290
     1
  0
XRECORD
  5
8F1
102
{ACAD_REACTORS
330
8F0
102
}
330
8F0
100
AcDbXrecord
280
     1
290
     1
  0
XRECORD
  5
8F3
102
{ACAD_REACTORS
330
8F2
102
}
330
8F2
100
AcDbXrecord
280
     1
290
     1
  0
XRECORD
  5
8F5
102
{ACAD_REACTORS
330
8F4
102
}
330
8F4
100
AcDbXrecord
280
     1
290
     1
  0
XRECORD
  5
8F7
102
{ACAD_REACTORS
330
8F6
102
}
330
8F6
100
AcDbXrecord
280
     1
290
     1
  0
ACDBDETAILVIEWSTYLE
  5
6A
102
{ACAD_XDICTIONARY
360
982
102
}
102
{ACAD_REACTORS
330
69
102
}
330
69
100
AcDbModelDocViewStyle
 70
     0
  3
Imperial24
290
     0
100
AcDbDetailViewStyle
 70
     0
 71
     0
 90
        3
 71
     1
340
55
 40
0.24
340
0
 40
0.24
300

 40
0.36
280
     3
 71
     2
340
5C
 90
       25
 71
     3
340
55
 40
0.24
 90
        1
 40
0.75
 90
        1
300
%<\AcVar ViewType \f "%tc1">% %<\AcVar ViewDetailId>%\PSCALE %<\AcVar ViewScale \f "%sn">%
 71
     4
340
5C
 90
       25
340
5C
 90
       25
280
     0
  0
LAYOUT
  5
72
102
{ACAD_XDICTIONARY
360
986
102
}
102
{ACAD_REACTORS
330
61
102
}
330
61
100
AcDbPlotSettings
  1

  2
OKI C931(PS)
  4

  6

 40
0.0
 41
0.0
 42
0.0
 43
0.0
 44
0.0
 45
0.0
 46
0.0
 47
0.0
 48
0.0
 49
0.0
140
0.0
141
0.0
142
1.0
143
1.0
 70
  1712
 72
     0
 73
     0
 74
     0
  7

 75
     0
147
1.0
148
0.0
149
0.0
100
AcDbLayout
  1
Model
 70
     1
 71
     0
 10
0.0
 20
0.0
 11
12.0
 21
9.0
 12
0.0
 22
0.0
 32
0.0
 14
0.0
 24
0.0
 34
0.0
 15
0.0
 25
0.0
 35
0.0
146
0.0
 13
0.0
 23
0.0
 33
0.0
 16
1.0
 26
0.0
 36
0.0
 17
0.0
 27
1.0
 37
0.0
 76
     0
330
6F
331
81
  0
LAYOUT
  5
6E
102
{ACAD_XDICTIONARY
360
984
102
}
102
{ACAD_REACTORS
330
61
102
}
330
61
100
AcDbPlotSettings
  1

  2
OKI C931(PS)
  4

  6

 40
0.0
 41
0.0
 42
0.0
 43
0.0
 44
0.0
 45
0.0
 46
0.0
 47
0.0
 48
0.0
 49
0.0
140
0.0
141
0.0
142
1.0
143
1.0
 70
   688
 72
     0
 73
     0
 74
     5
  7

 75
    16
147
1.0
148
0.0
149
0.0
100
AcDbLayout
  1
レイアウト1
 70
     1
 71
     1
 10
0.0
 20
0.0
 11
12.0
 21
9.0
 12
0.0
 22
0.0
 32
0.0
 14
1.000000000000000E+20
 24
1.000000000000000E+20
 34
1.000000000000000E+20
 15
-1.000000000000000E+20
 25
-1.000000000000000E+20
 35
-1.000000000000000E+20
146
0.0
 13
0.0
 23
0.0
 33
0.0
 16
1.0
 26
0.0
 36
0.0
 17
0.0
 27
1.0
 37
0.0
 76
     0
330
6B
  0
MATERIAL
  5
19
102
{ACAD_XDICTIONARY
360
1A
102
}
102
{ACAD_REACTORS
330
10
102
}
330
10
100
AcDbMaterial
  1
ByBlock
 72
     0
 43
0.0208333333333333
 43
0.0
 43
0.0
 43
0.0
 43
0.0
 43
0.0208333333333333
 43
0.0
 43
0.0
 43
0.0
 43
0.0
 43
1.0
 43
0.0
 43
0.0
 43
0.0
 43
0.0
 43
1.0
 77
     0
 47
0.0208333333333333
 47
0.0
 47
0.0
 47
0.0
 47
0.0
 47
0.0208333333333333
 47
0.0
 47
0.0
 47
0.0
 47
0.0
 47
1.0
 47
0.0
 47
0.0
 47
0.0
 47
0.0
 47
1.0
171
     0
 49
0.0208333333333333
 49
0.0
 49
0.0
 49
0.0
 49
0.0
 49
0.0208333333333333
 49
0.0
 49
0.0
 49
0.0
 49
0.0
 49
1.0
 49
0.0
 49
0.0
 49
0.0
 49
0.0
 49
1.0
175
     0
142
0.0208333333333333
142
0.0
142
0.0
142
0.0
142
0.0
142
0.0208333333333333
142
0.0
142
0.0
142
0.0
142
0.0
142
1.0
142
0.0
142
0.0
142
0.0
142
0.0
142
1.0
179
     0
144
0.0208333333333333
144
0.0
144
0.0
144
0.0
144
0.0
144
0.0208333333333333
144
0.0
144
0.0
144
0.0
144
0.0
144
1.0
144
0.0
144
0.0
144
0.0
144
0.0
144
1.0
147
0.0208333333333333
147
0.0
147
0.0
147
0.0
147
0.0
147
0.0208333333333333
147
0.0
147
0.0
147
0.0
147
0.0
147
1.0
147
0.0
147
0.0
147
0.0
147
0.0
147
1.0
  0
MATERIAL
  5
11
102
{ACAD_XDICTIONARY
360
12
102
}
102
{ACAD_REACTORS
330
10
102
}
330
10
100
AcDbMaterial
  1
ByLayer
 72
     0
 43
0.0208333333333333
 43
0.0
 43
0.0
 43
0.0
 43
0.0
 43
0.0208333333333333
 43
0.0
 43
0.0
 43
0.0
 43
0.0
 43
1.0
 43
0.0
 43
0.0
 43
0.0
 43
0.0
 43
1.0
 77
     0
 47
0.0208333333333333
 47
0.0
 47
0.0
 47
0.0
 47
0.0
 47
0.0208333333333333
 47
0.0
 47
0.0
 47
0.0
 47
0.0
 47
1.0
 47
0.0
 47
0.0
 47
0.0
 47
0.0
 47
1.0
171
     0
 49
0.0208333333333333
 49
0.0
 49
0.0
 49
0.0
 49
0.0
 49
0.0208333333333333
 49
0.0
 49
0.0
 49
0.0
 49
0.0
 49
1.0
 49
0.0
 49
0.0
 49
0.0
 49
0.0
 49
1.0
175
     0
142
0.0208333333333333
142
0.0
142
0.0
142
0.0
142
0.0
142
0.0208333333333333
142
0.0
142
0.0
142
0.0
142
0.0
142
1.0
142
0.0
142
0.0
142
0.0
142
0.0
142
1.0
179
     0
144
0.0208333333333333
144
0.0
144
0.0
144
0.0
144
0.0
144
0.0208333333333333
144
0.0
144
0.0
144
0.0
144
0.0
144
1.0
144
0.0
144
0.0
144
0.0
144
0.0
144
1.0
147
0.0208333333333333
147
0.0
147
0.0
147
0.0
147
0.0
147
0.0208333333333333
147
0.0
147
0.0
147
0.0
147
0.0
147
1.0
147
0.0
147
0.0
147
0.0
147
0.0
147
1.0
  0
MATERIAL
  5
21
102
{ACAD_XDICTIONARY
360
22
102
}
102
{ACAD_REACTORS
330
10
102
}
330
10
100
AcDbMaterial
  1
Global
 72
     0
 43
0.0208333333333333
 43
0.0
 43
0.0
 43
0.0
 43
0.0
 43
0.0208333333333333
 43
0.0
 43
0.0
 43
0.0
 43
0.0
 43
1.0
 43
0.0
 43
0.0
 43
0.0
 43
0.0
 43
1.0
 77
     0
 47
0.0208333333333333
 47
0.0
 47
0.0
 47
0.0
 47
0.0
 47
0.0208333333333333
 47
0.0
 47
0.0
 47
0.0
 47
0.0
 47
1.0
 47
0.0
 47
0.0
 47
0.0
 47
0.0
 47
1.0
171
     0
 49
0.0208333333333333
 49
0.0
 49
0.0
 49
0.0
 49
0.0
 49
0.0208333333333333
 49
0.0
 49
0.0
 49
0.0
 49
0.0
 49
1.0
 49
0.0
 49
0.0
 49
0.0
 49
0.0
 49
1.0
175
     0
142
0.0208333333333333
142
0.0
142
0.0
142
0.0
142
0.0
142
0.0208333333333333
142
0.0
142
0.0
142
0.0
142
0.0
142
1.0
142
0.0
142
0.0
142
0.0
142
0.0
142
1.0
179
     0
144
0.0208333333333333
144
0.0
144
0.0
144
0.0
144
0.0
144
0.0208333333333333
144
0.0
144
0.0
144
0.0
144
0.0
144
1.0
144
0.0
144
0.0
144
0.0
144
0.0
144
1.0
147
0.0208333333333333
147
0.0
147
0.0
147
0.0
147
0.0
147
0.0208333333333333
147
0.0
147
0.0
147
0.0
147
0.0
147
1.0
147
0.0
147
0.0
147
0.0
147
0.0
147
1.0
  0
MLEADERSTYLE
  5
66
102
{ACAD_REACTORS
330
65
102
}
330
65
100
AcDbMLeaderStyle
170
     2
171
     1
172
     0
 90
        2
 40
0.0
 41
0.0
173
     1
 91
-1056964608
340
5A
 92
       -2
290
     1
 42
0.09
291
     1
 43
0.36
  3
Standard
 44
0.18
300

342
55
174
     1
178
     6
175
     1
176
     0
 93
-1056964608
 45
0.18
292
     0
297
     0
 46
0.18
 94
-1056964608
 47
1.0
 49
1.0
140
1.0
293
     1
141
0.0
294
     1
177
     0
142
1.0
295
     0
296
     0
143
0.125
1001
ACAD_MLEADERVER
1070
     2
  0
MLINESTYLE
  5
5F
102
{ACAD_REACTORS
330
5E
102
}
330
5E
100
AcDbMlineStyle
  2
STANDARD
 70
     0
  3

 62
   256
 51
90.0
 52
90.0
 71
     2
 49
0.5
 62
   256
  6
BYLAYER
 49
-0.5
 62
   256
  6
BYLAYER
  0
ACDBPLACEHOLDER
  5
F
102
{ACAD_REACTORS
330
E
102
}
330
E
  0
SCALE
  5
43
102
{ACAD_REACTORS
330
42
102
}
330
42
100
AcDbScale
 70
     0
300
1:1
140
1.0
141
1.0
290
     1
  0
SCALE
  5
44
102
{ACAD_REACTORS
330
42
102
}
330
42
100
AcDbScale
 70
     0
300
1/128" = 1'-0"
140
0.0078125
141
12.0
290
     0
  0
SCALE
  5
45
102
{ACAD_REACTORS
330
42
102
}
330
42
100
AcDbScale
 70
     0
300
1/64" = 1'-0"
140
0.015625
141
12.0
290
     0
  0
SCALE
  5
46
102
{ACAD_REACTORS
330
42
102
}
330
42
100
AcDbScale
 70
     0
300
1/32" = 1'-0"
140
0.03125
141
12.0
290
     0
  0
SCALE
  5
47
102
{ACAD_REACTORS
330
42
102
}
330
42
100
AcDbScale
 70
     0
300
1/16" = 1'-0"
140
0.0625
141
12.0
290
     0
  0
SCALE
  5
48
102
{ACAD_REACTORS
330
42
102
}
330
42
100
AcDbScale
 70
     0
300
3/32" = 1'-0"
140
0.09375
141
12.0
290
     0
  0
SCALE
  5
49
102
{ACAD_REACTORS
330
42
102
}
330
42
100
AcDbScale
 70
     0
300
1/8" = 1'-0"
140
0.125
141
12.0
290
     0
  0
SCALE
  5
4A
102
{ACAD_REACTORS
330
42
102
}
330
42
100
AcDbScale
 70
     0
300
3/16" = 1'-0"
140
0.1875
141
12.0
290
     0
  0
SCALE
  5
4B
102
{ACAD_REACTORS
330
42
102
}
330
42
100
AcDbScale
 70
     0
300
1/4" = 1'-0"
140
0.25
141
12.0
290
     0
  0
SCALE
  5
4C
102
{ACAD_REACTORS
330
42
102
}
330
42
100
AcDbScale
 70
     0
300
3/8" = 1'-0"
140
0.375
141
12.0
290
     0
  0
SCALE
  5
4D
102
{ACAD_REACTORS
330
42
102
}
330
42
100
AcDbScale
 70
     0
300
1/2" = 1'-0"
140
0.5
141
12.0
290
     0
  0
SCALE
  5
4E
102
{ACAD_REACTORS
330
42
102
}
330
42
100
AcDbScale
 70
     0
300
3/4" = 1'-0"
140
0.75
141
12.0
290
     0
  0
SCALE
  5
4F
102
{ACAD_REACTORS
330
42
102
}
330
42
100
AcDbScale
 70
     0
300
1" = 1'-0"
140
1.0
141
12.0
290
     0
  0
SCALE
  5
50
102
{ACAD_REACTORS
330
42
102
}
330
42
100
AcDbScale
 70
     0
300
1-1/2" = 1'-0"
140
1.5
141
12.0
290
     0
  0
SCALE
  5
51
102
{ACAD_REACTORS
330
42
102
}
330
42
100
AcDbScale
 70
     0
300
3" = 1'-0"
140
3.0
141
12.0
290
     0
  0
SCALE
  5
52
102
{ACAD_REACTORS
330
42
102
}
330
42
100
AcDbScale
 70
     0
300
6" = 1'-0"
140
6.0
141
12.0
290
     0
  0
SCALE
  5
53
102
{ACAD_REACTORS
330
42
102
}
330
42
100
AcDbScale
 70
     0
300
1'-0" = 1'-0"
140
12.0
141
12.0
290
     0
  0
ACDBSECTIONVIEWSTYLE
  5
68
102
{ACAD_XDICTIONARY
360
980
102
}
102
{ACAD_REACTORS
330
67
102
}
330
67
100
AcDbModelDocViewStyle
 70
     0
  3
Imperial24
290
     0
100
AcDbSectionViewStyle
 70
     0
 71
     0
 90
       78
 71
     1
340
55
 40
0.24
340
0
340
0
 40
0.24
300
I, O, Q, S, X, Z
 40
0.48
 90
        3
 40
0.18
 90
        1
 71
     2
340
5C
 90
       25
340
5C
 90
       50
 40
0.24
 40
0.0
 40
0.24
 71
     3
340
55
 40
0.24
 90
        1
 40
0.75
 90
        1
300
%<\AcVar ViewType \f "%tc1">% %<\AcVar ViewSectionStartId>%-%<\AcVar ViewSectionEndId>%\PSCALE %<\AcVar ViewScale \f "%sn">%
 71
     4
300
ANSI31
 40
1.0
 90
        0
290
     0
290
     0
 90
        6
 40
0.0
 40
1.570796326794896
 40
0.2617993877991494
 40
1.308996938995747
 40
-0.2617993877991494
 40
1.832595714594045
  0
TABLESTYLE
  5
64
102
{ACAD_XDICTIONARY
360
903
102
}
102
{ACAD_REACTORS
330
63
102
}
330
63
100
AcDbTableStyle
  3
Standard
 70
     0
 71
     0
 40
0.06
 41
0.06
280
     0
281
     0
  7
STANDARD
140
0.18
170
     2
 62
     0
 63
     7
283
     0
274
    -2
284
     1
 64
     0
275
    -2
285
     1
 65
     0
276
    -2
286
     1
 66
     0
277
    -2
287
     1
 67
     0
278
    -2
288
     1
 68
     0
279
    -2
289
     1
 69
     0
  7
STANDARD
140
0.25
170
     5
 62
     0
 63
     7
283
     0
274
    -2
284
     1
 64
     0
275
    -2
285
     1
 65
     0
276
    -2
286
     1
 66
     0
277
    -2
287
     1
 67
     0
278
    -2
288
     1
 68
     0
279
    -2
289
     1
 69
     0
  7
STANDARD
140
0.18
170
     5
 62
     0
 63
     7
283
     0
274
    -2
284
     1
 64
     0
275
    -2
285
     1
 65
     0
276
    -2
286
     1
 66
     0
277
    -2
287
     1
 67
     0
278
    -2
288
     1
 68
     0
279
    -2
289
     1
 69
     0
  0
VISUALSTYLE
  5
2F
102
{ACAD_XDICTIONARY
360
959
102
}
102
{ACAD_REACTORS
330
29
102
}
330
29
100
AcDbVisualStyle
  2

 70
     4
 71
     0
 72
     2
 73
     0
 90
        0
 40
-0.6
 41
-30.0
 62
     5
 63
     7
 74
     1
 91
        4
 64
     7
 65
   257
 75
     1
175
     1
 42
1.0
 92
        0
 66
   257
 43
1.0
 76
     1
 77
     6
 78
     2
 67
     7
 79
     5
170
     0
171
     0
290
     0
174
     0
 93
        1
 44
0.0
173
     0
291
     0
 45
0.0
1001
ACAD
1000
AcDbSavedByObjectVersion
1070
     0
  0
VISUALSTYLE
  5
2E
102
{ACAD_XDICTIONARY
360
957
102
}
102
{ACAD_REACTORS
330
29
102
}
330
29
100
AcDbVisualStyle
  2

 70
     7
 71
     1
 72
     0
 73
     1
 90
        0
 40
-0.6
 41
-30.0
 62
     5
 63
     7
 74
     0
 91
        4
 64
     7
 65
   257
 75
     1
175
     1
 42
1.0
 92
        8
 66
     7
 43
1.0
 76
     1
 77
     6
 78
     2
 67
     7
 79
     5
170
     0
171
     0
290
     0
174
     0
 93
        1
 44
0.0
173
     0
291
     1
 45
0.0
1001
ACAD
1000
AcDbSavedByObjectVersion
1070
     0
  0
VISUALSTYLE
  5
35
102
{ACAD_XDICTIONARY
360
965
102
}
102
{ACAD_REACTORS
330
29
102
}
330
29
100
AcDbVisualStyle
  2

 70
    12
 71
     2
 72
     2
 73
     0
 90
        0
 40
-0.6
 41
-30.0
 62
     5
 63
     7
 74
     1
 91
        4
 64
     7
 65
   257
 75
     1
175
     1
 42
1.0
 92
        8
 66
     7
 43
1.0
 76
     1
 77
     6
 78
     2
 67
     7
 79
     5
170
     0
171
     0
290
     0
174
     0
 93
        1
 44
50.0
173
     0
291
     1
 45
0.0
1001
ACAD
1000
AcDbSavedByObjectVersion
1070
     0
  0
VISUALSTYLE
  5
39
102
{ACAD_XDICTIONARY
360
96D
102
}
102
{ACAD_REACTORS
330
29
102
}
330
29
100
AcDbVisualStyle
  2

 70
    16
 71
     2
 72
     2
 73
     3
 90
        0
 40
-0.6
 41
-30.0
 62
     5
 63
     8
 74
     1
 91
        4
 64
     7
 65
   257
 75
     1
175
     1
 42
1.0
 92
        8
 66
     8
 43
1.0
 76
     1
 77
     6
 78
     2
 67
     7
 79
     5
170
     0
171
     0
290
     0
174
     0
 93
        1
 44
0.0
173
     0
291
     1
 45
0.0
1001
ACAD
1000
AcDbSavedByObjectVersion
1070
     0
  0
VISUALSTYLE
  5
32
102
{ACAD_XDICTIONARY
360
95F
102
}
102
{ACAD_REACTORS
330
29
102
}
330
29
100
AcDbVisualStyle
  2

 70
     9
 71
     3
 72
     2
 73
     0
 90
        0
 40
-0.6
 41
-30.0
 62
     5
 63
     7
 74
     2
 91
        2
 64
     7
 65
   257
 75
     1
175
     1
 42
179.0
 92
        8
 66
     7
 43
1.0
 76
     1
 77
     6
 78
     2
 67
     7
 79
     3
170
     0
171
     0
290
     0
174
     0
 93
        1
 44
0.0
173
     0
291
     0
 45
0.0
1001
ACAD
1000
AcDbSavedByObjectVersion
1070
     0
  0
VISUALSTYLE
  5
34
102
{ACAD_XDICTIONARY
360
963
102
}
102
{ACAD_REACTORS
330
29
102
}
330
29
100
AcDbVisualStyle
  2

 70
    11
 71
     2
 72
     2
 73
     0
 90
        0
 40
-0.6
 41
-30.0
 62
     5
 63
     7
 74
     1
 91
        4
 64
     7
 65
   257
 75
     1
175
     1
 42
1.0
 92
        8
 66
     7
 43
1.0
 76
     1
 77
     6
 78
     2
 67
     7
 79
     5
170
     0
171
     0
290
     0
174
     0
 93
        1
 44
-50.0
173
     0
291
     1
 45
0.0
1001
ACAD
1000
AcDbSavedByObjectVersion
1070
     0
  0
VISUALSTYLE
  5
41
102
{ACAD_XDICTIONARY
360
97D
102
}
102
{ACAD_REACTORS
330
29
102
}
330
29
100
AcDbVisualStyle
  2

 70
    22
 71
     2
 72
     2
 73
     0
 90
        0
 40
-0.6
 41
-30.0
 62
     5
 63
     7
 74
     1
 91
        4
 64
     7
 65
   257
 75
     1
175
     1
 42
1.0
 92
        8
 66
     7
 43
1.0
 76
     1
 77
     6
 78
     2
 67
     7
 79
     5
170
     0
171
     0
290
     0
174
     0
 93
        1
 44
0.0
173
     0
291
     1
 45
0.0
1001
ACAD
1000
AcDbSavedByObjectVersion
1070
     0
  0
VISUALSTYLE
  5
38
102
{ACAD_XDICTIONARY
360
96B
102
}
102
{ACAD_REACTORS
330
29
102
}
330
29
100
AcDbVisualStyle
  2

 70
    15
 71
     2
 72
     2
 73
     0
 90
        0
 40
-0.6
 41
-30.0
 62
     5
 63
     7
 74
     1
 91
        4
 64
     7
 65
   257
 75
     1
175
     1
 42
1.0
 92
        8
 66
     7
 43
1.0
 76
     1
 77
     6
 78
     2
 67
     7
 79
     5
170
     0
171
     0
290
     0
174
     0
 93
        1
 44
0.0
173
     0
291
     1
 45
0.0
1001
ACAD
1000
AcDbSavedByObjectVersion
1070
     0
  0
VISUALSTYLE
  5
2A
102
{ACAD_XDICTIONARY
360
94F
102
}
102
{ACAD_REACTORS
330
29
102
}
330
29
100
AcDbVisualStyle
  2

 70
     0
 71
     2
 72
     1
 73
     1
 90
        2
 40
-0.6
 41
30.0
 62
     5
 63
     7
 74
     0
 91
        0
 64
     7
 65
   257
 75
     1
175
     1
 42
1.0
 92
        8
 66
     7
 43
1.0
 76
     1
 77
     6
 78
     2
 67
     7
 79
     5
170
     0
171
     0
290
     0
174
     0
 93
       13
 44
0.0
173
     0
291
     1
 45
0.0
1001
ACAD
1000
AcDbSavedByObjectVersion
1070
     0
  0
VISUALSTYLE
  5
2B
102
{ACAD_XDICTIONARY
360
951
102
}
102
{ACAD_REACTORS
330
29
102
}
330
29
100
AcDbVisualStyle
  2

 70
     1
 71
     2
 72
     1
 73
     1
 90
        2
 40
-0.6
 41
30.0
 62
     5
 63
     7
 74
     1
 91
        0
 64
     7
 65
   257
 75
     1
175
     1
 42
1.0
 92
        0
 66
   257
 43
1.0
 76
     1
 77
     6
 78
     2
 67
     7
 79
     5
170
     0
171
     0
290
     0
174
     0
 93
       13
 44
0.0
173
     0
291
     1
 45
0.0
1001
ACAD
1000
AcDbSavedByObjectVersion
1070
     0
  0
VISUALSTYLE
  5
2C
102
{ACAD_XDICTIONARY
360
953
102
}
102
{ACAD_REACTORS
330
29
102
}
330
29
100
AcDbVisualStyle
  2

 70
     2
 71
     2
 72
     2
 73
     1
 90
        2
 40
-0.6
 41
30.0
 62
     5
 63
     7
 74
     0
 91
        0
 64
     7
 65
   257
 75
     1
175
     1
 42
1.0
 92
        0
 66
     7
 43
1.0
 76
     1
 77
     6
 78
     2
 67
     7
 79
     5
170
     0
171
     0
290
     0
174
     0
 93
       13
 44
0.0
173
     0
291
     1
 45
0.0
1001
ACAD
1000
AcDbSavedByObjectVersion
1070
     0
  0
VISUALSTYLE
  5
2D
102
{ACAD_XDICTIONARY
360
955
102
}
102
{ACAD_REACTORS
330
29
102
}
330
29
100
AcDbVisualStyle
  2

 70
     3
 71
     2
 72
     2
 73
     1
 90
        2
 40
-0.6
 41
30.0
 62
     5
 63
     7
 74
     1
 91
        0
 64
     7
 65
   257
 75
     1
175
     1
 42
1.0
 92
        0
 66
   257
 43
1.0
 76
     1
 77
     6
 78
     2
 67
     7
 79
     5
170
     0
171
     0
290
     0
174
     0
 93
       13
 44
0.0
173
     0
291
     1
 45
0.0
1001
ACAD
1000
AcDbSavedByObjectVersion
1070
     0
  0
VISUALSTYLE
  5
31
102
{ACAD_XDICTIONARY
360
95D
102
}
102
{ACAD_REACTORS
330
29
102
}
330
29
100
AcDbVisualStyle
  2

 70
     6
 71
     1
 72
     2
 73
     2
 90
        0
 40
-0.6
 41
-30.0
 62
     5
 63
     7
 74
     2
 91
        2
 64
     7
 65
   257
 75
     2
175
     1
 42
40.0
 92
        0
 66
   257
 43
1.0
 76
     1
 77
     6
 78
     2
 67
     7
 79
     3
170
     0
171
     0
290
     0
174
     0
 93
        1
 44
0.0
173
     0
291
     0
 45
0.0
1001
ACAD
1000
AcDbSavedByObjectVersion
1070
     0
  0
VISUALSTYLE
  5
3F
102
{ACAD_XDICTIONARY
360
979
102
}
102
{ACAD_REACTORS
330
29
102
}
330
29
100
AcDbVisualStyle
  2

 70
    20
 71
     2
 72
     2
 73
     0
 90
        0
 40
-0.6
 41
-30.0
 62
     5
 63
     7
 74
     1
 91
        4
 64
     7
 65
   257
 75
     1
175
     1
 42
1.0
 92
       10
 66
     7
 43
1.0
 76
     1
 77
     6
 78
     2
 67
     7
 79
     5
170
     0
171
     0
290
     0
174
     0
 93
        1
 44
0.0
173
     0
291
     1
 45
0.0
1001
ACAD
1000
AcDbSavedByObjectVersion
1070
     0
  0
VISUALSTYLE
  5
37
102
{ACAD_XDICTIONARY
360
969
102
}
102
{ACAD_REACTORS
330
29
102
}
330
29
100
AcDbVisualStyle
  2

 70
    14
 71
     2
 72
     2
 73
     0
 90
        0
 40
-0.6
 41
-30.0
 62
     5
 63
     7
 74
     1
 91
        4
 64
     7
 65
   257
 75
     7
175
     7
 42
1.0
 92
        8
 66
     7
 43
1.0
 76
     1
 77
     6
 78
     2
 67
     7
 79
     5
170
     0
171
     0
290
     0
174
     0
 93
        1
 44
0.0
173
     0
291
     1
 45
0.0
1001
ACAD
1000
AcDbSavedByObjectVersion
1070
     0
  0
VISUALSTYLE
  5
40
102
{ACAD_XDICTIONARY
360
97B
102
}
102
{ACAD_REACTORS
330
29
102
}
330
29
100
AcDbVisualStyle
  2

 70
    21
 71
     2
 72
     2
 73
     0
 90
        0
 40
-0.6
 41
-30.0
 62
     5
 63
     7
 74
     1
 91
        4
 64
     7
 65
   257
 75
     1
175
     1
 42
1.0
 92
        9
 66
     7
 43
1.0
 76
     1
 77
     6
 78
     2
 67
     7
 79
     5
170
     0
171
     0
290
     0
174
     0
 93
        1
 44
0.0
173
     0
291
     1
 45
0.0
1001
ACAD
1000
AcDbSavedByObjectVersion
1070
     0
  0
VISUALSTYLE
  5
33
102
{ACAD_XDICTIONARY
360
961
102
}
102
{ACAD_REACTORS
330
29
102
}
330
29
100
AcDbVisualStyle
  2

 70
     8
 71
     2
 72
     3
 73
     0
 90
        2
 40
-0.6
 41
30.0
 62
     5
 63
     7
 74
     0
 91
        0
 64
     7
 65
   257
 75
     1
175
     1
 42
1.0
 92
        8
 66
   257
 43
1.0
 76
     1
 77
     6
 78
     2
 67
     7
 79
     3
170
     0
171
     0
290
     0
174
     0
 93
       13
 44
0.0
173
     0
291
     0
 45
0.0
1001
ACAD
1000
AcDbSavedByObjectVersion
1070
     0
  0
VISUALSTYLE
  5
3E
102
{ACAD_XDICTIONARY
360
977
102
}
102
{ACAD_REACTORS
330
29
102
}
330
29
100
AcDbVisualStyle
  2

 70
    27
 71
     2
 72
     2
 73
     1
 90
        2
 40
-0.6
 41
30.0
 62
     5
 63
     7
 74
     0
 91
        4
 64
     7
 65
   257
 75
     1
175
     1
 42
1.0
 92
        8
 66
   257
 43
1.0
 76
     1
 77
     6
 78
     2
 67
     8
 79
     3
170
     0
171
     0
290
     0
174
     0
 93
        5
 44
0.0
173
     0
291
     0
 45
0.0
1001
ACAD
1000
AcDbSavedByObjectVersion
1070
     0
  0
VISUALSTYLE
  5
3D
102
{ACAD_XDICTIONARY
360
975
102
}
102
{ACAD_REACTORS
330
29
102
}
330
29
100
AcDbVisualStyle
  2

 70
    26
 71
     2
 72
     2
 73
     1
 90
        2
 40
-0.6
 41
30.0
 62
     5
 63
     7
 74
     1
 91
        2
 64
     7
 65
   257
 75
     2
175
     1
 42
1.0
 92
        8
 66
   257
 43
1.0
 76
     1
 77
     6
 78
     2
 67
     7
 79
     3
170
     0
171
     0
290
     0
174
     0
 93
        5
 44
0.0
173
     0
291
     0
 45
0.0
1001
ACAD
1000
AcDbSavedByObjectVersion
1070
     0
  0
VISUALSTYLE
  5
3A
102
{ACAD_XDICTIONARY
360
96F
102
}
102
{ACAD_REACTORS
330
29
102
}
330
29
100
AcDbVisualStyle
  2

 70
    23
 71
     2
 72
     2
 73
     3
 90
        0
 40
-0.6
 41
-30.0
 62
     5
 63
     7
 74
     2
 91
        2
 64
     7
 65
     7
 75
     1
175
     1
 42
40.0
 92
        8
 66
     7
 43
1.0
 76
     1
 77
     6
 78
     2
 67
     7
 79
     3
170
     0
171
     0
290
     0
174
     0
 93
        1
 44
0.0
173
     0
291
     0
 45
0.0
1001
ACAD
1000
AcDbSavedByObjectVersion
1070
     0
  0
VISUALSTYLE
  5
3B
102
{ACAD_XDICTIONARY
360
971
102
}
102
{ACAD_REACTORS
330
29
102
}
330
29
100
AcDbVisualStyle
  2

 70
    24
 71
     1
 72
     2
 73
     2
 90
        0
 40
-0.6
 41
-30.0
 62
     5
 63
     7
 74
     2
 91
        2
 64
     7
 65
     7
 75
     1
175
     1
 42
40.0
 92
       11
 66
     7
 43
1.0
 76
     1
 77
     6
 78
     2
 67
     7
 79
     6
170
     0
171
     0
290
     0
174
     0
 93
        1
 44
0.0
173
     0
291
     0
 45
0.0
1001
ACAD
1000
AcDbSavedByObjectVersion
1070
     0
  0
VISUALSTYLE
  5
36
102
{ACAD_XDICTIONARY
360
967
102
}
102
{ACAD_REACTORS
330
29
102
}
330
29
100
AcDbVisualStyle
  2

 70
    13
 71
     2
 72
     2
 73
     0
 90
        0
 40
-0.6
 41
-30.0
 62
     5
 63
     7
 74
     1
 91
        4
 64
     7
 65
   257
 75
     1
175
     1
 42
1.0
 92
       12
 66
     7
 43
1.0
 76
     1
 77
     6
 78
     2
 67
     7
 79
     5
170
     0
171
     0
290
     0
174
     0
 93
        1
 44
0.0
173
     0
291
     1
 45
0.0
1001
ACAD
1000
AcDbSavedByObjectVersion
1070
     0
  0
VISUALSTYLE
  5
30
102
{ACAD_XDICTIONARY
360
95B
102
}
102
{ACAD_REACTORS
330
29
102
}
330
29
100
AcDbVisualStyle
  2

 70
     5
 71
     0
 72
     2
 73
     0
 90
        0
 40
-0.6
 41
-30.0
 62
     5
 63
     7
 74
     1
 91
        4
 64
     7
 65
   257
 75
     1
175
     1
 42
1.0
 92
        0
 66
   257
 43
1.0
 76
     1
 77
     6
 78
     2
 67
     7
 79
     3
170
     0
171
     0
290
     0
174
     0
 93
        1
 44
0.0
173
     0
291
     0
 45
0.0
1001
ACAD
1000
AcDbSavedByObjectVersion
1070
     0
  0
VISUALSTYLE
  5
3C
102
{ACAD_XDICTIONARY
360
973
102
}
102
{ACAD_REACTORS
330
29
102
}
330
29
100
AcDbVisualStyle
  2

 70
    25
 71
     2
 72
     2
 73
     1
 90
        1
 40
0.5
 41
-30.0
 62
     5
 63
     7
 74
     1
 91
        0
 64
     7
 65
   257
 75
     1
175
     1
 42
1.0
 92
        8
 66
     7
 43
1.0
 76
     1
 77
     6
 78
     2
 67
     7
 79
     3
170
     0
171
     0
290
     0
174
     0
 93
       13
 44
0.0
173
     0
291
     0
 45
0.0
1001
ACAD
1000
AcDbSavedByObjectVersion
1070
     0
  0
DICTIONARYVAR
  5
8FD
102
{ACAD_REACTORS
330
8F8
102
}
330
8F8
100
DictionaryVariables
280
     0
  1
1:1
  0
DICTIONARYVAR
  5
8FA
102
{ACAD_REACTORS
330
8F8
102
}
330
8F8
100
DictionaryVariables
280
     0
  1
STANDARD
  0
DICTIONARYVAR
  5
8F9
102
{ACAD_REACTORS
330
8F8
102
}
330
8F8
100
DictionaryVariables
280
     0
  1
STANDARD
  0
DICTIONARYVAR
  5
8FB
102
{ACAD_REACTORS
330
8F8
102
}
330
8F8
100
DictionaryVariables
280
     0
  1
Imperial24
  0
DICTIONARYVAR
  5
8FC
102
{ACAD_REACTORS
330
8F8
102
}
330
8F8
100
DictionaryVariables
280
     0
  1
Imperial24
  0
DICTIONARYVAR
  5
900
102
{ACAD_REACTORS
330
8F8
102
}
330
8F8
100
DictionaryVariables
280
     0
  1
1
  0
DICTIONARYVAR
  5
8FF
102
{ACAD_REACTORS
330
8F8
102
}
330
8F8
100
DictionaryVariables
280
     0
  1
0
  0
DICTIONARYVAR
  5
8FE
102
{ACAD_REACTORS
330
8F8
102
}
330
8F8
100
DictionaryVariables
280
     0
  1
127
  0
DICTIONARYVAR
  5
94B
102
{ACAD_REACTORS
330
8F8
102
}
330
8F8
100
DictionaryVariables
280
     0
  1
2
  0
DICTIONARY
  5
982
330
6A
100
AcDbDictionary
280
     1
281
     1
  3
ACAD_XREC_ROUNDTRIP
360
983
  0
DICTIONARY
  5
986
330
72
100
AcDbDictionary
280
     1
281
     1
  3
ACAD_XREC_ROUNDTRIP
360
987
  0
DICTIONARY
  5
984
330
6E
100
AcDbDictionary
280
     1
281
     1
  3
ACAD_XREC_ROUNDTRIP
360
985
  0
DICTIONARY
  5
1A
330
19
100
AcDbDictionary
280
     1
281
     1
  3
ACAD_XREC_ROUNDTRIP
360
908
  3
BUMPTILE
360
1C
  3
DIFFUSETILE
360
1B
  3
OPACITYTILE
360
1F
  3
REFLECTIONTILE
360
1E
  3
REFRACTIONTILE
360
20
  3
SPECULARTILE
360
1D
  0
DICTIONARY
  5
12
330
11
100
AcDbDictionary
280
     1
281
     1
  3
ACAD_XREC_ROUNDTRIP
360
907
  3
BUMPTILE
360
14
  3
DIFFUSETILE
360
13
  3
OPACITYTILE
360
17
  3
REFLECTIONTILE
360
16
  3
REFRACTIONTILE
360
18
  3
SPECULARTILE
360
15
  0
DICTIONARY
  5
22
330
21
100
AcDbDictionary
280
     1
281
     1
  3
ACAD_XREC_ROUNDTRIP
360
909
  3
BUMPTILE
360
24
  3
DIFFUSETILE
360
23
  3
OPACITYTILE
360
27
  3
REFLECTIONTILE
360
26
  3
REFRACTIONTILE
360
28
  3
SPECULARTILE
360
25
  0
DICTIONARY
  5
980
330
68
100
AcDbDictionary
280
     1
281
     1
  3
ACAD_XREC_ROUNDTRIP
360
981
  0
DICTIONARY
  5
903
330
64
100
AcDbDictionary
280
     1
281
     1
  3
ACAD_ROUNDTRIP_2008_TABLESTYLE_CELLSTYLEMAP
360
94C
  3
ACAD_XREC_ROUNDTRIP
360
97F
  0
DICTIONARY
  5
959
330
2F
100
AcDbDictionary
280
     1
281
     1
  3
ACAD_XREC_ROUNDTRIP
360
95A
  0
DICTIONARY
  5
957
330
2E
100
AcDbDictionary
280
     1
281
     1
  3
ACAD_XREC_ROUNDTRIP
360
958
  0
DICTIONARY
  5
965
330
35
100
AcDbDictionary
280
     1
281
     1
  3
ACAD_XREC_ROUNDTRIP
360
966
  0
DICTIONARY
  5
96D
330
39
100
AcDbDictionary
280
     1
281
     1
  3
ACAD_XREC_ROUNDTRIP
360
96E
  0
DICTIONARY
  5
95F
330
32
100
AcDbDictionary
280
     1
281
     1
  3
ACAD_XREC_ROUNDTRIP
360
960
  0
DICTIONARY
  5
963
330
34
100
AcDbDictionary
280
     1
281
     1
  3
ACAD_XREC_ROUNDTRIP
360
964
  0
DICTIONARY
  5
97D
330
41
100
AcDbDictionary
280
     1
281
     1
  3
ACAD_XREC_ROUNDTRIP
360
97E
  0
DICTIONARY
  5
96B
330
38
100
AcDbDictionary
280
     1
281
     1
  3
ACAD_XREC_ROUNDTRIP
360
96C
  0
DICTIONARY
  5
94F
330
2A
100
AcDbDictionary
280
     1
281
     1
  3
ACAD_XREC_ROUNDTRIP
360
950
  0
DICTIONARY
  5
951
330
2B
100
AcDbDictionary
280
     1
281
     1
  3
ACAD_XREC_ROUNDTRIP
360
952
  0
DICTIONARY
  5
953
330
2C
100
AcDbDictionary
280
     1
281
     1
  3
ACAD_XREC_ROUNDTRIP
360
954
  0
DICTIONARY
  5
955
330
2D
100
AcDbDictionary
280
     1
281
     1
  3
ACAD_XREC_ROUNDTRIP
360
956
  0
DICTIONARY
  5
95D
330
31
100
AcDbDictionary
280
     1
281
     1
  3
ACAD_XREC_ROUNDTRIP
360
95E
  0
DICTIONARY
  5
979
330
3F
100
AcDbDictionary
280
     1
281
     1
  3
ACAD_XREC_ROUNDTRIP
360
97A
  0
DICTIONARY
  5
969
330
37
100
AcDbDictionary
280
     1
281
     1
  3
ACAD_XREC_ROUNDTRIP
360
96A
  0
DICTIONARY
  5
97B
330
40
100
AcDbDictionary
280
     1
281
     1
  3
ACAD_XREC_ROUNDTRIP
360
97C
  0
DICTIONARY
  5
961
330
33
100
AcDbDictionary
280
     1
281
     1
  3
ACAD_XREC_ROUNDTRIP
360
962
  0
DICTIONARY
  5
977
330
3E
100
AcDbDictionary
280
     1
281
     1
  3
ACAD_XREC_ROUNDTRIP
360
978
  0
DICTIONARY
  5
975
330
3D
100
AcDbDictionary
280
     1
281
     1
  3
ACAD_XREC_ROUNDTRIP
360
976
  0
DICTIONARY
  5
96F
330
3A
100
AcDbDictionary
280
     1
281
     1
  3
ACAD_XREC_ROUNDTRIP
360
970
  0
DICTIONARY
  5
971
330
3B
100
AcDbDictionary
280
     1
281
     1
  3
ACAD_XREC_ROUNDTRIP
360
972
  0
DICTIONARY
  5
967
330
36
100
AcDbDictionary
280
     1
281
     1
  3
ACAD_XREC_ROUNDTRIP
360
968
  0
DICTIONARY
  5
95B
330
30
100
AcDbDictionary
280
     1
281
     1
  3
ACAD_XREC_ROUNDTRIP
360
95C
  0
DICTIONARY
  5
973
330
3C
100
AcDbDictionary
280
     1
281
     1
  3
ACAD_XREC_ROUNDTRIP
360
974
  0
XRECORD
  5
983
102
{ACAD_REACTORS
330
982
102
}
330
982
100
AcDbXrecord
280
     1
102
DISPLAYNAME
  1
Imperial24
102
FLAGS
 90
        0
  0
XRECORD
  5
987
102
{ACAD_REACTORS
330
986
102
}
330
986
100
AcDbXrecord
280
     1
102
SHADEPLOT
 70
     0
102
SHADEPLOTRESLEVEL
 70
     2
102
SHADEPLOTCUSTOMDPI
 70
   300
  0
XRECORD
  5
985
102
{ACAD_REACTORS
330
984
102
}
330
984
100
AcDbXrecord
280
     1
102
SHADEPLOT
 70
     0
102
SHADEPLOTRESLEVEL
 70
     2
102
SHADEPLOTCUSTOMDPI
 70
   300
  0
XRECORD
  5
908
102
{ACAD_REACTORS
330
1A
102
}
330
1A
100
AcDbXrecord
280
     1
102
MATERIAL
148
0.0
149
0.0
149
0.0
 93
        0
 94
      127
282
     0
 72
     0
 77
     0
171
     0
175
     0
179
     0
273
     0
  0
XRECORD
  5
1C
102
{ACAD_REACTORS
330
1A
102
}
330
1A
100
AcDbXrecord
280
     1
270
     1
271
     1
  0
XRECORD
  5
1B
102
{ACAD_REACTORS
330
1A
102
}
330
1A
100
AcDbXrecord
280
     1
270
     1
271
     1
  0
XRECORD
  5
1F
102
{ACAD_REACTORS
330
1A
102
}
330
1A
100
AcDbXrecord
280
     1
270
     1
271
     1
  0
XRECORD
  5
1E
102
{ACAD_REACTORS
330
1A
102
}
330
1A
100
AcDbXrecord
280
     1
270
     1
271
     1
  0
XRECORD
  5
20
102
{ACAD_REACTORS
330
1A
102
}
330
1A
100
AcDbXrecord
280
     1
270
     1
271
     1
  0
XRECORD
  5
1D
102
{ACAD_REACTORS
330
1A
102
}
330
1A
100
AcDbXrecord
280
     1
270
     1
271
     1
  0
XRECORD
  5
907
102
{ACAD_REACTORS
330
12
102
}
330
12
100
AcDbXrecord
280
     1
102
MATERIAL
148
0.0
149
0.0
149
0.0
 93
        0
 94
      127
282
     0
 72
     0
 77
     0
171
     0
175
     0
179
     0
273
     0
  0
XRECORD
  5
14
102
{ACAD_REACTORS
330
12
102
}
330
12
100
AcDbXrecord
280
     1
270
     1
271
     1
  0
XRECORD
  5
13
102
{ACAD_REACTORS
330
12
102
}
330
12
100
AcDbXrecord
280
     1
270
     1
271
     1
  0
XRECORD
  5
17
102
{ACAD_REACTORS
330
12
102
}
330
12
100
AcDbXrecord
280
     1
270
     1
271
     1
  0
XRECORD
  5
16
102
{ACAD_REACTORS
330
12
102
}
330
12
100
AcDbXrecord
280
     1
270
     1
271
     1
  0
XRECORD
  5
18
102
{ACAD_REACTORS
330
12
102
}
330
12
100
AcDbXrecord
280
     1
270
     1
271
     1
  0
XRECORD
  5
15
102
{ACAD_REACTORS
330
12
102
}
330
12
100
AcDbXrecord
280
     1
270
     1
271
     1
  0
XRECORD
  5
909
102
{ACAD_REACTORS
330
22
102
}
330
22
100
AcDbXrecord
280
     1
102
MATERIAL
148
0.0
149
0.0
149
0.0
 93
        0
 94
      127
282
     0
 72
     0
 77
     0
171
     0
175
     0
179
     0
273
     0
  0
XRECORD
  5
24
102
{ACAD_REACTORS
330
22
102
}
330
22
100
AcDbXrecord
280
     1
270
     1
271
     1
  0
XRECORD
  5
23
102
{ACAD_REACTORS
330
22
102
}
330
22
100
AcDbXrecord
280
     1
270
     1
271
     1
  0
XRECORD
  5
27
102
{ACAD_REACTORS
330
22
102
}
330
22
100
AcDbXrecord
280
     1
270
     1
271
     1
  0
XRECORD
  5
26
102
{ACAD_REACTORS
330
22
102
}
330
22
100
AcDbXrecord
280
     1
270
     1
271
     1
  0
XRECORD
  5
28
102
{ACAD_REACTORS
330
22
102
}
330
22
100
AcDbXrecord
280
     1
270
     1
271
     1
  0
XRECORD
  5
25
102
{ACAD_REACTORS
330
22
102
}
330
22
100
AcDbXrecord
280
     1
270
     1
271
     1
  0
XRECORD
  5
981
102
{ACAD_REACTORS
330
980
102
}
330
980
100
AcDbXrecord
280
     1
102
DISPLAYNAME
  1
Imperial24
102
FLAGS
 90
        0
  0
CELLSTYLEMAP
  5
94C
102
{ACAD_REACTORS
330
903
102
}
330
903
100
AcDbCellStyleMap
 90
        3
300
CELLSTYLE
  1
TABLEFORMAT_BEGIN
 90
        5
170
     1
 91
        0
 92
    32768
 62
   257
 93
        1
300
CONTENTFORMAT
  1
CONTENTFORMAT_BEGIN
 90
        0
 91
        0
 92
      512
 93
        0
300

 40
0.0
140
1.0
 94
        5
 62
     0
340
55
144
0.25
309
CONTENTFORMAT_END
171
     1
301
MARGIN
  1
CELLMARGIN_BEGIN
 40
0.06
 40
0.06
 40
0.06
 40
0.06
 40
0.18
 40
0.18
309
CELLMARGIN_END
 94
        6
 95
        1
302
GRIDFORMAT
  1
GRIDFORMAT_BEGIN
 90
        0
 91
        1
 62
     0
 92
       -2
340
0
 93
        0
 40
0.045
309
GRIDFORMAT_END
 95
        2
302
GRIDFORMAT
  1
GRIDFORMAT_BEGIN
 90
        0
 91
        1
 62
     0
 92
       -2
340
0
 93
        0
 40
0.045
309
GRIDFORMAT_END
 95
        4
302
GRIDFORMAT
  1
GRIDFORMAT_BEGIN
 90
        0
 91
        1
 62
     0
 92
       -2
340
0
 93
        0
 40
0.045
309
GRIDFORMAT_END
 95
        8
302
GRIDFORMAT
  1
GRIDFORMAT_BEGIN
 90
        0
 91
        1
 62
     0
 92
       -2
340
0
 93
        0
 40
0.045
309
GRIDFORMAT_END
 95
       16
302
GRIDFORMAT
  1
GRIDFORMAT_BEGIN
 90
        0
 91
        1
 62
     0
 92
       -2
340
0
 93
        0
 40
0.045
309
GRIDFORMAT_END
 95
       32
302
GRIDFORMAT
  1
GRIDFORMAT_BEGIN
 90
        0
 91
        1
 62
     0
 92
       -2
340
0
 93
        0
 40
0.045
309
GRIDFORMAT_END
309
TABLEFORMAT_END
  1
CELLSTYLE_BEGIN
 90
        1
 91
        1
300
_TITLE
309
CELLSTYLE_END
300
CELLSTYLE
  1
TABLEFORMAT_BEGIN
 90
        5
170
     1
 91
        0
 92
        0
 62
   257
 93
        1
300
CONTENTFORMAT
  1
CONTENTFORMAT_BEGIN
 90
        0
 91
        0
 92
      512
 93
        0
300

 40
0.0
140
1.0
 94
        5
 62
     0
340
55
144
0.18
309
CONTENTFORMAT_END
171
     1
301
MARGIN
  1
CELLMARGIN_BEGIN
 40
0.06
 40
0.06
 40
0.06
 40
0.06
 40
0.18
 40
0.18
309
CELLMARGIN_END
 94
        6
 95
        1
302
GRIDFORMAT
  1
GRIDFORMAT_BEGIN
 90
        0
 91
        1
 62
     0
 92
       -2
340
0
 93
        0
 40
0.045
309
GRIDFORMAT_END
 95
        2
302
GRIDFORMAT
  1
GRIDFORMAT_BEGIN
 90
        0
 91
        1
 62
     0
 92
       -2
340
0
 93
        0
 40
0.045
309
GRIDFORMAT_END
 95
        4
302
GRIDFORMAT
  1
GRIDFORMAT_BEGIN
 90
        0
 91
        1
 62
     0
 92
       -2
340
0
 93
        0
 40
0.045
309
GRIDFORMAT_END
 95
        8
302
GRIDFORMAT
  1
GRIDFORMAT_BEGIN
 90
        0
 91
        1
 62
     0
 92
       -2
340
0
 93
        0
 40
0.045
309
GRIDFORMAT_END
 95
       16
302
GRIDFORMAT
  1
GRIDFORMAT_BEGIN
 90
        0
 91
        1
 62
     0
 92
       -2
340
0
 93
        0
 40
0.045
309
GRIDFORMAT_END
 95
       32
302
GRIDFORMAT
  1
GRIDFORMAT_BEGIN
 90
        0
 91
        1
 62
     0
 92
       -2
340
0
 93
        0
 40
0.045
309
GRIDFORMAT_END
309
TABLEFORMAT_END
  1
CELLSTYLE_BEGIN
 90
        2
 91
        1
300
_HEADER
309
CELLSTYLE_END
300
CELLSTYLE
  1
TABLEFORMAT_BEGIN
 90
        5
170
     1
 91
        0
 92
        0
 62
   257
 93
        1
300
CONTENTFORMAT
  1
CONTENTFORMAT_BEGIN
 90
        0
 91
        0
 92
      512
 93
        0
300

 40
0.0
140
1.0
 94
        2
 62
     0
340
55
144
0.18
309
CONTENTFORMAT_END
171
     1
301
MARGIN
  1
CELLMARGIN_BEGIN
 40
0.06
 40
0.06
 40
0.06
 40
0.06
 40
0.18
 40
0.18
309
CELLMARGIN_END
 94
        6
 95
        1
302
GRIDFORMAT
  1
GRIDFORMAT_BEGIN
 90
        0
 91
        1
 62
     0
 92
       -2
340
0
 93
        0
 40
0.045
309
GRIDFORMAT_END
 95
        2
302
GRIDFORMAT
  1
GRIDFORMAT_BEGIN
 90
        0
 91
        1
 62
     0
 92
       -2
340
0
 93
        0
 40
0.045
309
GRIDFORMAT_END
 95
        4
302
GRIDFORMAT
  1
GRIDFORMAT_BEGIN
 90
        0
 91
        1
 62
     0
 92
       -2
340
0
 93
        0
 40
0.045
309
GRIDFORMAT_END
 95
        8
302
GRIDFORMAT
  1
GRIDFORMAT_BEGIN
 90
        0
 91
        1
 62
     0
 92
       -2
340
0
 93
        0
 40
0.045
309
GRIDFORMAT_END
 95
       16
302
GRIDFORMAT
  1
GRIDFORMAT_BEGIN
 90
        0
 91
        1
 62
     0
 92
       -2
340
0
 93
        0
 40
0.045
309
GRIDFORMAT_END
 95
       32
302
GRIDFORMAT
  1
GRIDFORMAT_BEGIN
 90
        0
 91
        1
 62
     0
 92
       -2
340
0
 93
        0
 40
0.045
309
GRIDFORMAT_END
309
TABLEFORMAT_END
  1
CELLSTYLE_BEGIN
 90
        3
 91
        2
300
_DATA
309
CELLSTYLE_END
  0
XRECORD
  5
97F
102
{ACAD_REACTORS
330
903
102
}
330
903
100
AcDbXrecord
280
     1
102
ACAD_ROUNDTRIP_PRE2007_TABLESTYLE
 90
      512
 91
        0
  1

 92
      512
 93
        0
  2

 94
      512
 95
        0
  3

  0
XRECORD
  5
95A
102
{ACAD_REACTORS
330
959
102
}
330
959
100
AcDbXrecord
280
     1
102
RTVSPost2010Prop28
280
     1
102
RTVSPost2010PropOp28
 70
     1
102
RTVSPost2010Prop29
280
     1
102
RTVSPost2010PropOp29
 70
     1
102
RTVSPost2010Prop30
280
     0
102
RTVSPost2010PropOp30
 70
     1
102
RTVSPost2010Prop31
280
     0
102
RTVSPost2010PropOp31
 70
     1
102
RTVSPost2010Prop32
280
     0
102
RTVSPost2010PropOp32
 70
     1
102
RTVSPost2010Prop33
280
     0
102
RTVSPost2010PropOp33
 70
     1
102
RTVSPost2010Prop34
280
     0
102
RTVSPost2010PropOp34
 70
     1
102
RTVSPost2010Prop35
280
     0
102
RTVSPost2010PropOp35
 70
     1
102
RTVSPost2010Prop36
280
     0
102
RTVSPost2010PropOp36
 70
     1
102
RTVSPost2010Prop37
 90
       50
102
RTVSPost2010PropOp37
 70
     1
102
RTVSPost2010Prop38
140
0.0
102
RTVSPost2010PropOp38
 70
     1
102
RTVSPost2010Prop39
140
1.0
102
RTVSPost2010PropOp39
 70
     1
102
RTVSPost2010Prop40
 90
        0
102
RTVSPost2010PropOp40
 70
     1
102
RTVSPost2010Prop41ColorIndex
 90
       18
102
RTVSPost2010Prop41ColorRGB
 90
        0
102
RTVSPost2010PropOp41
 70
     1
102
RTVSPost2010Prop42
 90
       50
102
RTVSPost2010PropOp42
 70
     1
102
RTVSPost2010Prop43
 90
        3
102
RTVSPost2010PropOp43
 70
     1
102
RTVSPost2010Prop44ColorIndex
 90
        5
102
RTVSPost2010Prop44ColorRGB
 90
      255
102
RTVSPost2010PropOp44
 70
     1
102
RTVSPost2010Prop45
280
     0
102
RTVSPost2010PropOp45
 70
     1
102
RTVSPost2010Prop46
 90
       50
102
RTVSPost2010PropOp46
 70
     1
102
RTVSPost2010Prop47
 90
       50
102
RTVSPost2010PropOp47
 70
     1
102
RTVSPost2010Prop48
 90
       50
102
RTVSPost2010PropOp48
 70
     1
102
RTVSPost2010Prop49
280
     0
102
RTVSPost2010PropOp49
 70
     1
102
RTVSPost2010Prop50
 90
       50
102
RTVSPost2010PropOp50
 70
     1
102
RTVSPost2010Prop51ColorIndex
 90
      256
102
RTVSPost2010Prop51ColorRGB
 90
-16777216
102
RTVSPost2010PropOp51
 70
     0
102
RTVSPost2010Prop52
140
1.0
102
RTVSPost2010PropOp52
 70
     0
102
RTVSPost2010Prop53
 90
        2
102
RTVSPost2010PropOp53
 70
     1
102
RTVSPost2010Prop54
  1
strokes_ogs.tif
102
RTVSPost2010PropOp54
 70
     1
102
RTVSPost2010Prop55
280
     0
102
RTVSPost2010PropOp55
 70
     1
102
RTVSPost2010Prop56
140
1.0
102
RTVSPost2010PropOp56
 70
     1
102
RTVSPost2010Prop57
140
1.0
102
RTVSPost2010PropOp57
 70
     1
102
RTVSPropertyOp0
 70
     1
102
RTVSPropertyOp1
 70
     1
102
RTVSPropertyOp2
 70
     1
102
RTVSPropertyOp3
 70
     1
102
RTVSPropertyOp4
 70
     1
102
RTVSPropertyOp5
 70
     1
102
RTVSPropertyOp6
 70
     1
102
RTVSPropertyOp7
 70
     1
102
RTVSPropertyOp8
 70
     1
102
RTVSPropertyOp9
 70
     1
102
RTVSPropertyOp10
 70
     1
102
RTVSPropertyOp11
 70
     1
102
RTVSPropertyOp12
 70
     1
102
RTVSPropertyOp13
 70
     1
102
RTVSPropertyOp14
 70
     1
102
RTVSPropertyOp15
 70
     1
102
RTVSPropertyOp16
 70
     1
102
RTVSPropertyOp17
 70
     1
102
RTVSPropertyOp18
 70
     1
102
RTVSPropertyOp19
 70
     1
102
RTVSPropertyOp20
 70
     1
102
RTVSPropertyOp21
 70
     1
102
RTVSPropertyOp22
 70
     1
102
RTVSPropertyOp23
 70
     1
102
RTVSPropertyOp24
 70
     1
102
RTVSPropertyOp25
 70
     1
102
RTVSPropertyOp26
 70
     1
102
RTVSPropertyOp27
 70
     1
102
RTVSPropertyOp28
 70
     1
102
RTVSPropertyOp29
 70
     1
102
RTVSPropertyOp30
 70
     1
102
RTVSPropertyOp31
 70
     1
102
RTVSPropertyOp32
 70
     1
102
RTVSPropertyOp33
 70
     1
102
RTVSPropertyOp34
 70
     1
102
RTVSPropertyOp35
 70
     1
102
RTVSPropertyOp36
 70
     1
102
RTVSPropertyOp37
 70
     1
102
RTVSPropertyOp38
 70
     1
102
RTVSPropertyOp39
 70
     1
102
RTVSPropertyOp40
 70
     1
102
RTVSPropertyOp41
 70
     1
102
RTVSPropertyOp42
 70
     1
102
RTVSPropertyOp43
 70
     1
102
RTVSPropertyOp44
 70
     1
102
RTVSPropertyOp45
 70
     1
102
RTVSPropertyOp46
 70
     1
102
RTVSPropertyOp47
 70
     1
102
RTVSPropertyOp48
 70
     1
102
RTVSPropertyOp49
 70
     1
102
RTVSPropertyOp50
 70
     1
102
RTVSPropertyOp51
 70
     0
102
RTVSPropertyOp52
 70
     0
102
RTVSPropertyOp53
 70
     1
102
RTVSPropertyOp54
 70
     1
102
RTVSPropertyOp55
 70
     1
102
RTVSPropertyOp56
 70
     1
102
RTVSPropertyOp57
 70
     1
102
RTVSPropertyOp58
 70
     1
102
RTVSPropertyOp59
 70
     1
102
RTVSPropertyOp60
 70
     1
102
RTVSPropertyOp61
 70
     1
102
RTVSPropertyOp62
 70
     1
  0
XRECORD
  5
958
102
{ACAD_REACTORS
330
957
102
}
330
957
100
AcDbXrecord
280
     1
102
RTVSPost2010Prop28
280
     0
102
RTVSPost2010PropOp28
 70
     1
102
RTVSPost2010Prop29
280
     1
102
RTVSPost2010PropOp29
 70
     1
102
RTVSPost2010Prop30
280
     1
102
RTVSPost2010PropOp30
 70
     1
102
RTVSPost2010Prop31
280
     0
102
RTVSPost2010PropOp31
 70
     1
102
RTVSPost2010Prop32
280
     0
102
RTVSPost2010PropOp32
 70
     1
102
RTVSPost2010Prop33
280
     0
102
RTVSPost2010PropOp33
 70
     1
102
RTVSPost2010Prop34
280
     0
102
RTVSPost2010PropOp34
 70
     1
102
RTVSPost2010Prop35
280
     0
102
RTVSPost2010PropOp35
 70
     1
102
RTVSPost2010Prop36
280
     0
102
RTVSPost2010PropOp36
 70
     1
102
RTVSPost2010Prop37
 90
       50
102
RTVSPost2010PropOp37
 70
     1
102
RTVSPost2010Prop38
140
0.0
102
RTVSPost2010PropOp38
 70
     1
102
RTVSPost2010Prop39
140
1.0
102
RTVSPost2010PropOp39
 70
     1
102
RTVSPost2010Prop40
 90
        0
102
RTVSPost2010PropOp40
 70
     1
102
RTVSPost2010Prop41ColorIndex
 90
       18
102
RTVSPost2010Prop41ColorRGB
 90
        0
102
RTVSPost2010PropOp41
 70
     1
102
RTVSPost2010Prop42
 90
       50
102
RTVSPost2010PropOp42
 70
     1
102
RTVSPost2010Prop43
 90
        3
102
RTVSPost2010PropOp43
 70
     1
102
RTVSPost2010Prop44ColorIndex
 90
        5
102
RTVSPost2010Prop44ColorRGB
 90
      255
102
RTVSPost2010PropOp44
 70
     1
102
RTVSPost2010Prop45
280
     0
102
RTVSPost2010PropOp45
 70
     1
102
RTVSPost2010Prop46
 90
       50
102
RTVSPost2010PropOp46
 70
     1
102
RTVSPost2010Prop47
 90
       50
102
RTVSPost2010PropOp47
 70
     1
102
RTVSPost2010Prop48
 90
       50
102
RTVSPost2010PropOp48
 70
     1
102
RTVSPost2010Prop49
280
     0
102
RTVSPost2010PropOp49
 70
     1
102
RTVSPost2010Prop50
 90
       50
102
RTVSPost2010PropOp50
 70
     1
102
RTVSPost2010Prop51ColorIndex
 90
      256
102
RTVSPost2010Prop51ColorRGB
 90
-16777216
102
RTVSPost2010PropOp51
 70
     0
102
RTVSPost2010Prop52
140
1.0
102
RTVSPost2010PropOp52
 70
     0
102
RTVSPost2010Prop53
 90
        2
102
RTVSPost2010PropOp53
 70
     1
102
RTVSPost2010Prop54
  1
strokes_ogs.tif
102
RTVSPost2010PropOp54
 70
     1
102
RTVSPost2010Prop55
280
     0
102
RTVSPost2010PropOp55
 70
     1
102
RTVSPost2010Prop56
140
1.0
102
RTVSPost2010PropOp56
 70
     1
102
RTVSPost2010Prop57
140
1.0
102
RTVSPost2010PropOp57
 70
     1
102
RTVSPropertyOp0
 70
     1
102
RTVSPropertyOp1
 70
     1
102
RTVSPropertyOp2
 70
     1
102
RTVSPropertyOp3
 70
     1
102
RTVSPropertyOp4
 70
     1
102
RTVSPropertyOp5
 70
     1
102
RTVSPropertyOp6
 70
     1
102
RTVSPropertyOp7
 70
     1
102
RTVSPropertyOp8
 70
     1
102
RTVSPropertyOp9
 70
     1
102
RTVSPropertyOp10
 70
     1
102
RTVSPropertyOp11
 70
     1
102
RTVSPropertyOp12
 70
     1
102
RTVSPropertyOp13
 70
     1
102
RTVSPropertyOp14
 70
     1
102
RTVSPropertyOp15
 70
     1
102
RTVSPropertyOp16
 70
     1
102
RTVSPropertyOp17
 70
     1
102
RTVSPropertyOp18
 70
     1
102
RTVSPropertyOp19
 70
     1
102
RTVSPropertyOp20
 70
     1
102
RTVSPropertyOp21
 70
     1
102
RTVSPropertyOp22
 70
     1
102
RTVSPropertyOp23
 70
     1
102
RTVSPropertyOp24
 70
     1
102
RTVSPropertyOp25
 70
     1
102
RTVSPropertyOp26
 70
     1
102
RTVSPropertyOp27
 70
     1
102
RTVSPropertyOp28
 70
     1
102
RTVSPropertyOp29
 70
     1
102
RTVSPropertyOp30
 70
     1
102
RTVSPropertyOp31
 70
     1
102
RTVSPropertyOp32
 70
     1
102
RTVSPropertyOp33
 70
     1
102
RTVSPropertyOp34
 70
     1
102
RTVSPropertyOp35
 70
     1
102
RTVSPropertyOp36
 70
     1
102
RTVSPropertyOp37
 70
     1
102
RTVSPropertyOp38
 70
     1
102
RTVSPropertyOp39
 70
     1
102
RTVSPropertyOp40
 70
     1
102
RTVSPropertyOp41
 70
     1
102
RTVSPropertyOp42
 70
     1
102
RTVSPropertyOp43
 70
     1
102
RTVSPropertyOp44
 70
     1
102
RTVSPropertyOp45
 70
     1
102
RTVSPropertyOp46
 70
     1
102
RTVSPropertyOp47
 70
     1
102
RTVSPropertyOp48
 70
     1
102
RTVSPropertyOp49
 70
     1
102
RTVSPropertyOp50
 70
     1
102
RTVSPropertyOp51
 70
     0
102
RTVSPropertyOp52
 70
     0
102
RTVSPropertyOp53
 70
     1
102
RTVSPropertyOp54
 70
     1
102
RTVSPropertyOp55
 70
     1
102
RTVSPropertyOp56
 70
     1
102
RTVSPropertyOp57
 70
     1
102
RTVSPropertyOp58
 70
     1
102
RTVSPropertyOp59
 70
     1
102
RTVSPropertyOp60
 70
     1
102
RTVSPropertyOp61
 70
     1
102
RTVSPropertyOp62
 70
     1
  0
XRECORD
  5
966
102
{ACAD_REACTORS
330
965
102
}
330
965
100
AcDbXrecord
280
     1
102
RTVSPost2010Prop28
280
     0
102
RTVSPost2010PropOp28
 70
     1
102
RTVSPost2010Prop29
280
     1
102
RTVSPost2010PropOp29
 70
     1
102
RTVSPost2010Prop30
280
     1
102
RTVSPost2010PropOp30
 70
     1
102
RTVSPost2010Prop31
280
     0
102
RTVSPost2010PropOp31
 70
     1
102
RTVSPost2010Prop32
280
     0
102
RTVSPost2010PropOp32
 70
     1
102
RTVSPost2010Prop33
280
     0
102
RTVSPost2010PropOp33
 70
     1
102
RTVSPost2010Prop34
280
     0
102
RTVSPost2010PropOp34
 70
     1
102
RTVSPost2010Prop35
280
     0
102
RTVSPost2010PropOp35
 70
     1
102
RTVSPost2010Prop36
280
     0
102
RTVSPost2010PropOp36
 70
     1
102
RTVSPost2010Prop37
 90
       50
102
RTVSPost2010PropOp37
 70
     1
102
RTVSPost2010Prop38
140
0.0
102
RTVSPost2010PropOp38
 70
     1
102
RTVSPost2010Prop39
140
1.0
102
RTVSPost2010PropOp39
 70
     1
102
RTVSPost2010Prop40
 90
        0
102
RTVSPost2010PropOp40
 70
     1
102
RTVSPost2010Prop41ColorIndex
 90
       18
102
RTVSPost2010Prop41ColorRGB
 90
        0
102
RTVSPost2010PropOp41
 70
     1
102
RTVSPost2010Prop42
 90
       50
102
RTVSPost2010PropOp42
 70
     1
102
RTVSPost2010Prop43
 90
        3
102
RTVSPost2010PropOp43
 70
     1
102
RTVSPost2010Prop44ColorIndex
 90
        5
102
RTVSPost2010Prop44ColorRGB
 90
      255
102
RTVSPost2010PropOp44
 70
     1
102
RTVSPost2010Prop45
280
     0
102
RTVSPost2010PropOp45
 70
     1
102
RTVSPost2010Prop46
 90
       50
102
RTVSPost2010PropOp46
 70
     1
102
RTVSPost2010Prop47
 90
       50
102
RTVSPost2010PropOp47
 70
     1
102
RTVSPost2010Prop48
 90
       50
102
RTVSPost2010PropOp48
 70
     1
102
RTVSPost2010Prop49
280
     0
102
RTVSPost2010PropOp49
 70
     1
102
RTVSPost2010Prop50
 90
       50
102
RTVSPost2010PropOp50
 70
     1
102
RTVSPost2010Prop51ColorIndex
 90
      256
102
RTVSPost2010Prop51ColorRGB
 90
-16777216
102
RTVSPost2010PropOp51
 70
     0
102
RTVSPost2010Prop52
140
1.0
102
RTVSPost2010PropOp52
 70
     0
102
RTVSPost2010Prop53
 90
        2
102
RTVSPost2010PropOp53
 70
     1
102
RTVSPost2010Prop54
  1
strokes_ogs.tif
102
RTVSPost2010PropOp54
 70
     1
102
RTVSPost2010Prop55
280
     0
102
RTVSPost2010PropOp55
 70
     1
102
RTVSPost2010Prop56
140
1.0
102
RTVSPost2010PropOp56
 70
     1
102
RTVSPost2010Prop57
140
1.0
102
RTVSPost2010PropOp57
 70
     1
102
RTVSPropertyOp0
 70
     1
102
RTVSPropertyOp1
 70
     1
102
RTVSPropertyOp2
 70
     1
102
RTVSPropertyOp3
 70
     1
102
RTVSPropertyOp4
 70
     1
102
RTVSPropertyOp5
 70
     1
102
RTVSPropertyOp6
 70
     1
102
RTVSPropertyOp7
 70
     1
102
RTVSPropertyOp8
 70
     1
102
RTVSPropertyOp9
 70
     1
102
RTVSPropertyOp10
 70
     1
102
RTVSPropertyOp11
 70
     1
102
RTVSPropertyOp12
 70
     1
102
RTVSPropertyOp13
 70
     1
102
RTVSPropertyOp14
 70
     1
102
RTVSPropertyOp15
 70
     1
102
RTVSPropertyOp16
 70
     1
102
RTVSPropertyOp17
 70
     1
102
RTVSPropertyOp18
 70
     1
102
RTVSPropertyOp19
 70
     1
102
RTVSPropertyOp20
 70
     1
102
RTVSPropertyOp21
 70
     1
102
RTVSPropertyOp22
 70
     1
102
RTVSPropertyOp23
 70
     1
102
RTVSPropertyOp24
 70
     1
102
RTVSPropertyOp25
 70
     1
102
RTVSPropertyOp26
 70
     1
102
RTVSPropertyOp27
 70
     1
102
RTVSPropertyOp28
 70
     1
102
RTVSPropertyOp29
 70
     1
102
RTVSPropertyOp30
 70
     1
102
RTVSPropertyOp31
 70
     1
102
RTVSPropertyOp32
 70
     1
102
RTVSPropertyOp33
 70
     1
102
RTVSPropertyOp34
 70
     1
102
RTVSPropertyOp35
 70
     1
102
RTVSPropertyOp36
 70
     1
102
RTVSPropertyOp37
 70
     1
102
RTVSPropertyOp38
 70
     1
102
RTVSPropertyOp39
 70
     1
102
RTVSPropertyOp40
 70
     1
102
RTVSPropertyOp41
 70
     1
102
RTVSPropertyOp42
 70
     1
102
RTVSPropertyOp43
 70
     1
102
RTVSPropertyOp44
 70
     1
102
RTVSPropertyOp45
 70
     1
102
RTVSPropertyOp46
 70
     1
102
RTVSPropertyOp47
 70
     1
102
RTVSPropertyOp48
 70
     1
102
RTVSPropertyOp49
 70
     1
102
RTVSPropertyOp50
 70
     1
102
RTVSPropertyOp51
 70
     0
102
RTVSPropertyOp52
 70
     0
102
RTVSPropertyOp53
 70
     1
102
RTVSPropertyOp54
 70
     1
102
RTVSPropertyOp55
 70
     1
102
RTVSPropertyOp56
 70
     1
102
RTVSPropertyOp57
 70
     1
102
RTVSPropertyOp58
 70
     1
102
RTVSPropertyOp59
 70
     1
102
RTVSPropertyOp60
 70
     1
102
RTVSPropertyOp61
 70
     1
102
RTVSPropertyOp62
 70
     1
  0
XRECORD
  5
96E
102
{ACAD_REACTORS
330
96D
102
}
330
96D
100
AcDbXrecord
280
     1
102
RTVSPost2010Prop28
280
     0
102
RTVSPost2010PropOp28
 70
     1
102
RTVSPost2010Prop29
280
     1
102
RTVSPost2010PropOp29
 70
     1
102
RTVSPost2010Prop30
280
     1
102
RTVSPost2010PropOp30
 70
     1
102
RTVSPost2010Prop31
280
     0
102
RTVSPost2010PropOp31
 70
     1
102
RTVSPost2010Prop32
280
     0
102
RTVSPost2010PropOp32
 70
     1
102
RTVSPost2010Prop33
280
     0
102
RTVSPost2010PropOp33
 70
     1
102
RTVSPost2010Prop34
280
     0
102
RTVSPost2010PropOp34
 70
     1
102
RTVSPost2010Prop35
280
     0
102
RTVSPost2010PropOp35
 70
     1
102
RTVSPost2010Prop36
280
     0
102
RTVSPost2010PropOp36
 70
     1
102
RTVSPost2010Prop37
 90
       50
102
RTVSPost2010PropOp37
 70
     1
102
RTVSPost2010Prop38
140
0.0
102
RTVSPost2010PropOp38
 70
     1
102
RTVSPost2010Prop39
140
1.0
102
RTVSPost2010PropOp39
 70
     1
102
RTVSPost2010Prop40
 90
        0
102
RTVSPost2010PropOp40
 70
     1
102
RTVSPost2010Prop41ColorIndex
 90
       18
102
RTVSPost2010Prop41ColorRGB
 90
        0
102
RTVSPost2010PropOp41
 70
     1
102
RTVSPost2010Prop42
 90
       50
102
RTVSPost2010PropOp42
 70
     1
102
RTVSPost2010Prop43
 90
        3
102
RTVSPost2010PropOp43
 70
     1
102
RTVSPost2010Prop44ColorIndex
 90
        5
102
RTVSPost2010Prop44ColorRGB
 90
      255
102
RTVSPost2010PropOp44
 70
     1
102
RTVSPost2010Prop45
280
     0
102
RTVSPost2010PropOp45
 70
     1
102
RTVSPost2010Prop46
 90
       50
102
RTVSPost2010PropOp46
 70
     1
102
RTVSPost2010Prop47
 90
       50
102
RTVSPost2010PropOp47
 70
     1
102
RTVSPost2010Prop48
 90
       50
102
RTVSPost2010PropOp48
 70
     1
102
RTVSPost2010Prop49
280
     0
102
RTVSPost2010PropOp49
 70
     1
102
RTVSPost2010Prop50
 90
       50
102
RTVSPost2010PropOp50
 70
     1
102
RTVSPost2010Prop51ColorIndex
 90
      256
102
RTVSPost2010Prop51ColorRGB
 90
-16777216
102
RTVSPost2010PropOp51
 70
     0
102
RTVSPost2010Prop52
140
1.0
102
RTVSPost2010PropOp52
 70
     0
102
RTVSPost2010Prop53
 90
        2
102
RTVSPost2010PropOp53
 70
     1
102
RTVSPost2010Prop54
  1
strokes_ogs.tif
102
RTVSPost2010PropOp54
 70
     1
102
RTVSPost2010Prop55
280
     0
102
RTVSPost2010PropOp55
 70
     1
102
RTVSPost2010Prop56
140
1.0
102
RTVSPost2010PropOp56
 70
     1
102
RTVSPost2010Prop57
140
1.0
102
RTVSPost2010PropOp57
 70
     1
102
RTVSPropertyOp0
 70
     1
102
RTVSPropertyOp1
 70
     1
102
RTVSPropertyOp2
 70
     1
102
RTVSPropertyOp3
 70
     1
102
RTVSPropertyOp4
 70
     1
102
RTVSPropertyOp5
 70
     1
102
RTVSPropertyOp6
 70
     1
102
RTVSPropertyOp7
 70
     1
102
RTVSPropertyOp8
 70
     1
102
RTVSPropertyOp9
 70
     1
102
RTVSPropertyOp10
 70
     1
102
RTVSPropertyOp11
 70
     1
102
RTVSPropertyOp12
 70
     1
102
RTVSPropertyOp13
 70
     1
102
RTVSPropertyOp14
 70
     1
102
RTVSPropertyOp15
 70
     1
102
RTVSPropertyOp16
 70
     1
102
RTVSPropertyOp17
 70
     1
102
RTVSPropertyOp18
 70
     1
102
RTVSPropertyOp19
 70
     1
102
RTVSPropertyOp20
 70
     1
102
RTVSPropertyOp21
 70
     1
102
RTVSPropertyOp22
 70
     1
102
RTVSPropertyOp23
 70
     1
102
RTVSPropertyOp24
 70
     1
102
RTVSPropertyOp25
 70
     1
102
RTVSPropertyOp26
 70
     1
102
RTVSPropertyOp27
 70
     1
102
RTVSPropertyOp28
 70
     1
102
RTVSPropertyOp29
 70
     1
102
RTVSPropertyOp30
 70
     1
102
RTVSPropertyOp31
 70
     1
102
RTVSPropertyOp32
 70
     1
102
RTVSPropertyOp33
 70
     1
102
RTVSPropertyOp34
 70
     1
102
RTVSPropertyOp35
 70
     1
102
RTVSPropertyOp36
 70
     1
102
RTVSPropertyOp37
 70
     1
102
RTVSPropertyOp38
 70
     1
102
RTVSPropertyOp39
 70
     1
102
RTVSPropertyOp40
 70
     1
102
RTVSPropertyOp41
 70
     1
102
RTVSPropertyOp42
 70
     1
102
RTVSPropertyOp43
 70
     1
102
RTVSPropertyOp44
 70
     1
102
RTVSPropertyOp45
 70
     1
102
RTVSPropertyOp46
 70
     1
102
RTVSPropertyOp47
 70
     1
102
RTVSPropertyOp48
 70
     1
102
RTVSPropertyOp49
 70
     1
102
RTVSPropertyOp50
 70
     1
102
RTVSPropertyOp51
 70
     0
102
RTVSPropertyOp52
 70
     0
102
RTVSPropertyOp53
 70
     1
102
RTVSPropertyOp54
 70
     1
102
RTVSPropertyOp55
 70
     1
102
RTVSPropertyOp56
 70
     1
102
RTVSPropertyOp57
 70
     1
102
RTVSPropertyOp58
 70
     1
102
RTVSPropertyOp59
 70
     1
102
RTVSPropertyOp60
 70
     1
102
RTVSPropertyOp61
 70
     1
102
RTVSPropertyOp62
 70
     1
  0
XRECORD
  5
960
102
{ACAD_REACTORS
330
95F
102
}
330
95F
100
AcDbXrecord
280
     1
102
RTVSPost2010Prop28
280
     0
102
RTVSPost2010PropOp28
 70
     1
102
RTVSPost2010Prop29
280
     1
102
RTVSPost2010PropOp29
 70
     1
102
RTVSPost2010Prop30
280
     1
102
RTVSPost2010PropOp30
 70
     1
102
RTVSPost2010Prop31
280
     0
102
RTVSPost2010PropOp31
 70
     1
102
RTVSPost2010Prop32
280
     0
102
RTVSPost2010PropOp32
 70
     1
102
RTVSPost2010Prop33
280
     0
102
RTVSPost2010PropOp33
 70
     1
102
RTVSPost2010Prop34
280
     0
102
RTVSPost2010PropOp34
 70
     1
102
RTVSPost2010Prop35
280
     0
102
RTVSPost2010PropOp35
 70
     1
102
RTVSPost2010Prop36
280
     0
102
RTVSPost2010PropOp36
 70
     1
102
RTVSPost2010Prop37
 90
       50
102
RTVSPost2010PropOp37
 70
     1
102
RTVSPost2010Prop38
140
0.0
102
RTVSPost2010PropOp38
 70
     1
102
RTVSPost2010Prop39
140
1.0
102
RTVSPost2010PropOp39
 70
     1
102
RTVSPost2010Prop40
 90
        0
102
RTVSPost2010PropOp40
 70
     1
102
RTVSPost2010Prop41ColorIndex
 90
       18
102
RTVSPost2010Prop41ColorRGB
 90
        0
102
RTVSPost2010PropOp41
 70
     1
102
RTVSPost2010Prop42
 90
       50
102
RTVSPost2010PropOp42
 70
     1
102
RTVSPost2010Prop43
 90
        3
102
RTVSPost2010PropOp43
 70
     1
102
RTVSPost2010Prop44ColorIndex
 90
        5
102
RTVSPost2010Prop44ColorRGB
 90
      255
102
RTVSPost2010PropOp44
 70
     1
102
RTVSPost2010Prop45
280
     0
102
RTVSPost2010PropOp45
 70
     1
102
RTVSPost2010Prop46
 90
       50
102
RTVSPost2010PropOp46
 70
     1
102
RTVSPost2010Prop47
 90
       50
102
RTVSPost2010PropOp47
 70
     1
102
RTVSPost2010Prop48
 90
       50
102
RTVSPost2010PropOp48
 70
     1
102
RTVSPost2010Prop49
280
     0
102
RTVSPost2010PropOp49
 70
     1
102
RTVSPost2010Prop50
 90
       50
102
RTVSPost2010PropOp50
 70
     1
102
RTVSPost2010Prop51ColorIndex
 90
      256
102
RTVSPost2010Prop51ColorRGB
 90
-16777216
102
RTVSPost2010PropOp51
 70
     0
102
RTVSPost2010Prop52
140
1.0
102
RTVSPost2010PropOp52
 70
     0
102
RTVSPost2010Prop53
 90
        2
102
RTVSPost2010PropOp53
 70
     1
102
RTVSPost2010Prop54
  1
strokes_ogs.tif
102
RTVSPost2010PropOp54
 70
     1
102
RTVSPost2010Prop55
280
     0
102
RTVSPost2010PropOp55
 70
     1
102
RTVSPost2010Prop56
140
1.0
102
RTVSPost2010PropOp56
 70
     1
102
RTVSPost2010Prop57
140
1.0
102
RTVSPost2010PropOp57
 70
     1
102
RTVSPropertyOp0
 70
     1
102
RTVSPropertyOp1
 70
     1
102
RTVSPropertyOp2
 70
     1
102
RTVSPropertyOp3
 70
     1
102
RTVSPropertyOp4
 70
     1
102
RTVSPropertyOp5
 70
     1
102
RTVSPropertyOp6
 70
     1
102
RTVSPropertyOp7
 70
     1
102
RTVSPropertyOp8
 70
     1
102
RTVSPropertyOp9
 70
     1
102
RTVSPropertyOp10
 70
     1
102
RTVSPropertyOp11
 70
     1
102
RTVSPropertyOp12
 70
     1
102
RTVSPropertyOp13
 70
     1
102
RTVSPropertyOp14
 70
     1
102
RTVSPropertyOp15
 70
     1
102
RTVSPropertyOp16
 70
     1
102
RTVSPropertyOp17
 70
     1
102
RTVSPropertyOp18
 70
     1
102
RTVSPropertyOp19
 70
     1
102
RTVSPropertyOp20
 70
     1
102
RTVSPropertyOp21
 70
     1
102
RTVSPropertyOp22
 70
     1
102
RTVSPropertyOp23
 70
     1
102
RTVSPropertyOp24
 70
     1
102
RTVSPropertyOp25
 70
     1
102
RTVSPropertyOp26
 70
     1
102
RTVSPropertyOp27
 70
     1
102
RTVSPropertyOp28
 70
     1
102
RTVSPropertyOp29
 70
     1
102
RTVSPropertyOp30
 70
     1
102
RTVSPropertyOp31
 70
     1
102
RTVSPropertyOp32
 70
     1
102
RTVSPropertyOp33
 70
     1
102
RTVSPropertyOp34
 70
     1
102
RTVSPropertyOp35
 70
     1
102
RTVSPropertyOp36
 70
     1
102
RTVSPropertyOp37
 70
     1
102
RTVSPropertyOp38
 70
     1
102
RTVSPropertyOp39
 70
     1
102
RTVSPropertyOp40
 70
     1
102
RTVSPropertyOp41
 70
     1
102
RTVSPropertyOp42
 70
     1
102
RTVSPropertyOp43
 70
     1
102
RTVSPropertyOp44
 70
     1
102
RTVSPropertyOp45
 70
     1
102
RTVSPropertyOp46
 70
     1
102
RTVSPropertyOp47
 70
     1
102
RTVSPropertyOp48
 70
     1
102
RTVSPropertyOp49
 70
     1
102
RTVSPropertyOp50
 70
     1
102
RTVSPropertyOp51
 70
     0
102
RTVSPropertyOp52
 70
     0
102
RTVSPropertyOp53
 70
     1
102
RTVSPropertyOp54
 70
     1
102
RTVSPropertyOp55
 70
     1
102
RTVSPropertyOp56
 70
     1
102
RTVSPropertyOp57
 70
     1
102
RTVSPropertyOp58
 70
     1
102
RTVSPropertyOp59
 70
     1
102
RTVSPropertyOp60
 70
     1
102
RTVSPropertyOp61
 70
     1
102
RTVSPropertyOp62
 70
     1
  0
XRECORD
  5
964
102
{ACAD_REACTORS
330
963
102
}
330
963
100
AcDbXrecord
280
     1
102
RTVSPost2010Prop28
280
     0
102
RTVSPost2010PropOp28
 70
     1
102
RTVSPost2010Prop29
280
     1
102
RTVSPost2010PropOp29
 70
     1
102
RTVSPost2010Prop30
280
     1
102
RTVSPost2010PropOp30
 70
     1
102
RTVSPost2010Prop31
280
     0
102
RTVSPost2010PropOp31
 70
     1
102
RTVSPost2010Prop32
280
     0
102
RTVSPost2010PropOp32
 70
     1
102
RTVSPost2010Prop33
280
     0
102
RTVSPost2010PropOp33
 70
     1
102
RTVSPost2010Prop34
280
     0
102
RTVSPost2010PropOp34
 70
     1
102
RTVSPost2010Prop35
280
     0
102
RTVSPost2010PropOp35
 70
     1
102
RTVSPost2010Prop36
280
     0
102
RTVSPost2010PropOp36
 70
     1
102
RTVSPost2010Prop37
 90
       50
102
RTVSPost2010PropOp37
 70
     1
102
RTVSPost2010Prop38
140
0.0
102
RTVSPost2010PropOp38
 70
     1
102
RTVSPost2010Prop39
140
1.0
102
RTVSPost2010PropOp39
 70
     1
102
RTVSPost2010Prop40
 90
        0
102
RTVSPost2010PropOp40
 70
     1
102
RTVSPost2010Prop41ColorIndex
 90
       18
102
RTVSPost2010Prop41ColorRGB
 90
        0
102
RTVSPost2010PropOp41
 70
     1
102
RTVSPost2010Prop42
 90
       50
102
RTVSPost2010PropOp42
 70
     1
102
RTVSPost2010Prop43
 90
        3
102
RTVSPost2010PropOp43
 70
     1
102
RTVSPost2010Prop44ColorIndex
 90
        5
102
RTVSPost2010Prop44ColorRGB
 90
      255
102
RTVSPost2010PropOp44
 70
     1
102
RTVSPost2010Prop45
280
     0
102
RTVSPost2010PropOp45
 70
     1
102
RTVSPost2010Prop46
 90
       50
102
RTVSPost2010PropOp46
 70
     1
102
RTVSPost2010Prop47
 90
       50
102
RTVSPost2010PropOp47
 70
     1
102
RTVSPost2010Prop48
 90
       50
102
RTVSPost2010PropOp48
 70
     1
102
RTVSPost2010Prop49
280
     0
102
RTVSPost2010PropOp49
 70
     1
102
RTVSPost2010Prop50
 90
       50
102
RTVSPost2010PropOp50
 70
     1
102
RTVSPost2010Prop51ColorIndex
 90
      256
102
RTVSPost2010Prop51ColorRGB
 90
-16777216
102
RTVSPost2010PropOp51
 70
     0
102
RTVSPost2010Prop52
140
1.0
102
RTVSPost2010PropOp52
 70
     0
102
RTVSPost2010Prop53
 90
        2
102
RTVSPost2010PropOp53
 70
     1
102
RTVSPost2010Prop54
  1
strokes_ogs.tif
102
RTVSPost2010PropOp54
 70
     1
102
RTVSPost2010Prop55
280
     0
102
RTVSPost2010PropOp55
 70
     1
102
RTVSPost2010Prop56
140
1.0
102
RTVSPost2010PropOp56
 70
     1
102
RTVSPost2010Prop57
140
1.0
102
RTVSPost2010PropOp57
 70
     1
102
RTVSPropertyOp0
 70
     1
102
RTVSPropertyOp1
 70
     1
102
RTVSPropertyOp2
 70
     1
102
RTVSPropertyOp3
 70
     1
102
RTVSPropertyOp4
 70
     1
102
RTVSPropertyOp5
 70
     1
102
RTVSPropertyOp6
 70
     1
102
RTVSPropertyOp7
 70
     1
102
RTVSPropertyOp8
 70
     1
102
RTVSPropertyOp9
 70
     1
102
RTVSPropertyOp10
 70
     1
102
RTVSPropertyOp11
 70
     1
102
RTVSPropertyOp12
 70
     1
102
RTVSPropertyOp13
 70
     1
102
RTVSPropertyOp14
 70
     1
102
RTVSPropertyOp15
 70
     1
102
RTVSPropertyOp16
 70
     1
102
RTVSPropertyOp17
 70
     1
102
RTVSPropertyOp18
 70
     1
102
RTVSPropertyOp19
 70
     1
102
RTVSPropertyOp20
 70
     1
102
RTVSPropertyOp21
 70
     1
102
RTVSPropertyOp22
 70
     1
102
RTVSPropertyOp23
 70
     1
102
RTVSPropertyOp24
 70
     1
102
RTVSPropertyOp25
 70
     1
102
RTVSPropertyOp26
 70
     1
102
RTVSPropertyOp27
 70
     1
102
RTVSPropertyOp28
 70
     1
102
RTVSPropertyOp29
 70
     1
102
RTVSPropertyOp30
 70
     1
102
RTVSPropertyOp31
 70
     1
102
RTVSPropertyOp32
 70
     1
102
RTVSPropertyOp33
 70
     1
102
RTVSPropertyOp34
 70
     1
102
RTVSPropertyOp35
 70
     1
102
RTVSPropertyOp36
 70
     1
102
RTVSPropertyOp37
 70
     1
102
RTVSPropertyOp38
 70
     1
102
RTVSPropertyOp39
 70
     1
102
RTVSPropertyOp40
 70
     1
102
RTVSPropertyOp41
 70
     1
102
RTVSPropertyOp42
 70
     1
102
RTVSPropertyOp43
 70
     1
102
RTVSPropertyOp44
 70
     1
102
RTVSPropertyOp45
 70
     1
102
RTVSPropertyOp46
 70
     1
102
RTVSPropertyOp47
 70
     1
102
RTVSPropertyOp48
 70
     1
102
RTVSPropertyOp49
 70
     1
102
RTVSPropertyOp50
 70
     1
102
RTVSPropertyOp51
 70
     0
102
RTVSPropertyOp52
 70
     0
102
RTVSPropertyOp53
 70
     1
102
RTVSPropertyOp54
 70
     1
102
RTVSPropertyOp55
 70
     1
102
RTVSPropertyOp56
 70
     1
102
RTVSPropertyOp57
 70
     1
102
RTVSPropertyOp58
 70
     1
102
RTVSPropertyOp59
 70
     1
102
RTVSPropertyOp60
 70
     1
102
RTVSPropertyOp61
 70
     1
102
RTVSPropertyOp62
 70
     1
  0
XRECORD
  5
97E
102
{ACAD_REACTORS
330
97D
102
}
330
97D
100
AcDbXrecord
280
     1
102
RTVSPost2010Prop28
280
     0
102
RTVSPost2010PropOp28
 70
     1
102
RTVSPost2010Prop29
280
     1
102
RTVSPost2010PropOp29
 70
     1
102
RTVSPost2010Prop30
280
     1
102
RTVSPost2010PropOp30
 70
     1
102
RTVSPost2010Prop31
280
     0
102
RTVSPost2010PropOp31
 70
     1
102
RTVSPost2010Prop32
280
     0
102
RTVSPost2010PropOp32
 70
     1
102
RTVSPost2010Prop33
280
     0
102
RTVSPost2010PropOp33
 70
     1
102
RTVSPost2010Prop34
280
     0
102
RTVSPost2010PropOp34
 70
     1
102
RTVSPost2010Prop35
280
     0
102
RTVSPost2010PropOp35
 70
     1
102
RTVSPost2010Prop36
280
     0
102
RTVSPost2010PropOp36
 70
     1
102
RTVSPost2010Prop37
 90
       50
102
RTVSPost2010PropOp37
 70
     0
102
RTVSPost2010Prop38
140
0.0
102
RTVSPost2010PropOp38
 70
     0
102
RTVSPost2010Prop39
140
1.0
102
RTVSPost2010PropOp39
 70
     0
102
RTVSPost2010Prop40
 90
        0
102
RTVSPost2010PropOp40
 70
     0
102
RTVSPost2010Prop41ColorIndex
 90
       18
102
RTVSPost2010Prop41ColorRGB
 90
        0
102
RTVSPost2010PropOp41
 70
     0
102
RTVSPost2010Prop42
 90
       50
102
RTVSPost2010PropOp42
 70
     0
102
RTVSPost2010Prop43
 90
        3
102
RTVSPost2010PropOp43
 70
     0
102
RTVSPost2010Prop44ColorIndex
 90
        5
102
RTVSPost2010Prop44ColorRGB
 90
      255
102
RTVSPost2010PropOp44
 70
     0
102
RTVSPost2010Prop45
280
     0
102
RTVSPost2010PropOp45
 70
     1
102
RTVSPost2010Prop46
 90
       50
102
RTVSPost2010PropOp46
 70
     0
102
RTVSPost2010Prop47
 90
       50
102
RTVSPost2010PropOp47
 70
     0
102
RTVSPost2010Prop48
 90
       50
102
RTVSPost2010PropOp48
 70
     0
102
RTVSPost2010Prop49
280
     0
102
RTVSPost2010PropOp49
 70
     1
102
RTVSPost2010Prop50
 90
       50
102
RTVSPost2010PropOp50
 70
     0
102
RTVSPost2010Prop51ColorIndex
 90
      256
102
RTVSPost2010Prop51ColorRGB
 90
-16777216
102
RTVSPost2010PropOp51
 70
     0
102
RTVSPost2010Prop52
140
1.0
102
RTVSPost2010PropOp52
 70
     0
102
RTVSPost2010Prop53
 90
        2
102
RTVSPost2010PropOp53
 70
     0
102
RTVSPost2010Prop54
  1
strokes_ogs.tif
102
RTVSPost2010PropOp54
 70
     0
102
RTVSPost2010Prop55
280
     0
102
RTVSPost2010PropOp55
 70
     1
102
RTVSPost2010Prop56
140
1.0
102
RTVSPost2010PropOp56
 70
     0
102
RTVSPost2010Prop57
140
1.0
102
RTVSPost2010PropOp57
 70
     0
102
RTVSPropertyOp0
 70
     0
102
RTVSPropertyOp1
 70
     0
102
RTVSPropertyOp2
 70
     0
102
RTVSPropertyOp3
 70
     0
102
RTVSPropertyOp4
 70
     0
102
RTVSPropertyOp5
 70
     0
102
RTVSPropertyOp6
 70
     0
102
RTVSPropertyOp7
 70
     0
102
RTVSPropertyOp8
 70
     0
102
RTVSPropertyOp9
 70
     0
102
RTVSPropertyOp10
 70
     0
102
RTVSPropertyOp11
 70
     0
102
RTVSPropertyOp12
 70
     0
102
RTVSPropertyOp13
 70
     0
102
RTVSPropertyOp14
 70
     2
102
RTVSPropertyOp15
 70
     0
102
RTVSPropertyOp16
 70
     0
102
RTVSPropertyOp17
 70
     0
102
RTVSPropertyOp18
 70
     0
102
RTVSPropertyOp19
 70
     0
102
RTVSPropertyOp20
 70
     0
102
RTVSPropertyOp21
 70
     0
102
RTVSPropertyOp22
 70
     0
102
RTVSPropertyOp23
 70
     0
102
RTVSPropertyOp24
 70
     0
102
RTVSPropertyOp25
 70
     0
102
RTVSPropertyOp26
 70
     0
102
RTVSPropertyOp27
 70
     0
102
RTVSPropertyOp28
 70
     1
102
RTVSPropertyOp29
 70
     1
102
RTVSPropertyOp30
 70
     1
102
RTVSPropertyOp31
 70
     1
102
RTVSPropertyOp32
 70
     1
102
RTVSPropertyOp33
 70
     1
102
RTVSPropertyOp34
 70
     1
102
RTVSPropertyOp35
 70
     1
102
RTVSPropertyOp36
 70
     1
102
RTVSPropertyOp37
 70
     0
102
RTVSPropertyOp38
 70
     0
102
RTVSPropertyOp39
 70
     0
102
RTVSPropertyOp40
 70
     0
102
RTVSPropertyOp41
 70
     0
102
RTVSPropertyOp42
 70
     0
102
RTVSPropertyOp43
 70
     0
102
RTVSPropertyOp44
 70
     0
102
RTVSPropertyOp45
 70
     1
102
RTVSPropertyOp46
 70
     0
102
RTVSPropertyOp47
 70
     0
102
RTVSPropertyOp48
 70
     0
102
RTVSPropertyOp49
 70
     1
102
RTVSPropertyOp50
 70
     0
102
RTVSPropertyOp51
 70
     0
102
RTVSPropertyOp52
 70
     0
102
RTVSPropertyOp53
 70
     0
102
RTVSPropertyOp54
 70
     0
102
RTVSPropertyOp55
 70
     1
102
RTVSPropertyOp56
 70
     0
102
RTVSPropertyOp57
 70
     0
102
RTVSPropertyOp58
 70
     0
102
RTVSPropertyOp59
 70
     0
102
RTVSPropertyOp60
 70
     0
102
RTVSPropertyOp61
 70
     0
102
RTVSPropertyOp62
 70
     0
  0
XRECORD
  5
96C
102
{ACAD_REACTORS
330
96B
102
}
330
96B
100
AcDbXrecord
280
     1
102
RTVSPost2010Prop28
280
     0
102
RTVSPost2010PropOp28
 70
     1
102
RTVSPost2010Prop29
280
     1
102
RTVSPost2010PropOp29
 70
     1
102
RTVSPost2010Prop30
280
     1
102
RTVSPost2010PropOp30
 70
     1
102
RTVSPost2010Prop31
280
     0
102
RTVSPost2010PropOp31
 70
     1
102
RTVSPost2010Prop32
280
     0
102
RTVSPost2010PropOp32
 70
     1
102
RTVSPost2010Prop33
280
     0
102
RTVSPost2010PropOp33
 70
     1
102
RTVSPost2010Prop34
280
     0
102
RTVSPost2010PropOp34
 70
     1
102
RTVSPost2010Prop35
280
     0
102
RTVSPost2010PropOp35
 70
     1
102
RTVSPost2010Prop36
280
     0
102
RTVSPost2010PropOp36
 70
     1
102
RTVSPost2010Prop37
 90
       50
102
RTVSPost2010PropOp37
 70
     1
102
RTVSPost2010Prop38
140
0.0
102
RTVSPost2010PropOp38
 70
     1
102
RTVSPost2010Prop39
140
1.0
102
RTVSPost2010PropOp39
 70
     1
102
RTVSPost2010Prop40
 90
        0
102
RTVSPost2010PropOp40
 70
     1
102
RTVSPost2010Prop41ColorIndex
 90
       18
102
RTVSPost2010Prop41ColorRGB
 90
        0
102
RTVSPost2010PropOp41
 70
     1
102
RTVSPost2010Prop42
 90
       50
102
RTVSPost2010PropOp42
 70
     1
102
RTVSPost2010Prop43
 90
        3
102
RTVSPost2010PropOp43
 70
     1
102
RTVSPost2010Prop44ColorIndex
 90
        5
102
RTVSPost2010Prop44ColorRGB
 90
      255
102
RTVSPost2010PropOp44
 70
     1
102
RTVSPost2010Prop45
280
     0
102
RTVSPost2010PropOp45
 70
     1
102
RTVSPost2010Prop46
 90
       50
102
RTVSPost2010PropOp46
 70
     1
102
RTVSPost2010Prop47
 90
       50
102
RTVSPost2010PropOp47
 70
     1
102
RTVSPost2010Prop48
 90
       50
102
RTVSPost2010PropOp48
 70
     1
102
RTVSPost2010Prop49
280
     0
102
RTVSPost2010PropOp49
 70
     1
102
RTVSPost2010Prop50
 90
       50
102
RTVSPost2010PropOp50
 70
     1
102
RTVSPost2010Prop51ColorIndex
 90
      256
102
RTVSPost2010Prop51ColorRGB
 90
-16777216
102
RTVSPost2010PropOp51
 70
     0
102
RTVSPost2010Prop52
140
1.0
102
RTVSPost2010PropOp52
 70
     0
102
RTVSPost2010Prop53
 90
        2
102
RTVSPost2010PropOp53
 70
     1
102
RTVSPost2010Prop54
  1
strokes_ogs.tif
102
RTVSPost2010PropOp54
 70
     1
102
RTVSPost2010Prop55
280
     0
102
RTVSPost2010PropOp55
 70
     1
102
RTVSPost2010Prop56
140
1.0
102
RTVSPost2010PropOp56
 70
     1
102
RTVSPost2010Prop57
140
1.0
102
RTVSPost2010PropOp57
 70
     1
102
RTVSPropertyOp0
 70
     1
102
RTVSPropertyOp1
 70
     1
102
RTVSPropertyOp2
 70
     1
102
RTVSPropertyOp3
 70
     1
102
RTVSPropertyOp4
 70
     1
102
RTVSPropertyOp5
 70
     1
102
RTVSPropertyOp6
 70
     1
102
RTVSPropertyOp7
 70
     1
102
RTVSPropertyOp8
 70
     1
102
RTVSPropertyOp9
 70
     1
102
RTVSPropertyOp10
 70
     1
102
RTVSPropertyOp11
 70
     1
102
RTVSPropertyOp12
 70
     1
102
RTVSPropertyOp13
 70
     1
102
RTVSPropertyOp14
 70
     1
102
RTVSPropertyOp15
 70
     1
102
RTVSPropertyOp16
 70
     1
102
RTVSPropertyOp17
 70
     1
102
RTVSPropertyOp18
 70
     1
102
RTVSPropertyOp19
 70
     1
102
RTVSPropertyOp20
 70
     1
102
RTVSPropertyOp21
 70
     1
102
RTVSPropertyOp22
 70
     1
102
RTVSPropertyOp23
 70
     1
102
RTVSPropertyOp24
 70
     1
102
RTVSPropertyOp25
 70
     1
102
RTVSPropertyOp26
 70
     1
102
RTVSPropertyOp27
 70
     1
102
RTVSPropertyOp28
 70
     1
102
RTVSPropertyOp29
 70
     1
102
RTVSPropertyOp30
 70
     1
102
RTVSPropertyOp31
 70
     1
102
RTVSPropertyOp32
 70
     1
102
RTVSPropertyOp33
 70
     1
102
RTVSPropertyOp34
 70
     1
102
RTVSPropertyOp35
 70
     1
102
RTVSPropertyOp36
 70
     1
102
RTVSPropertyOp37
 70
     1
102
RTVSPropertyOp38
 70
     1
102
RTVSPropertyOp39
 70
     1
102
RTVSPropertyOp40
 70
     1
102
RTVSPropertyOp41
 70
     1
102
RTVSPropertyOp42
 70
     1
102
RTVSPropertyOp43
 70
     1
102
RTVSPropertyOp44
 70
     1
102
RTVSPropertyOp45
 70
     1
102
RTVSPropertyOp46
 70
     1
102
RTVSPropertyOp47
 70
     1
102
RTVSPropertyOp48
 70
     1
102
RTVSPropertyOp49
 70
     1
102
RTVSPropertyOp50
 70
     1
102
RTVSPropertyOp51
 70
     0
102
RTVSPropertyOp52
 70
     0
102
RTVSPropertyOp53
 70
     1
102
RTVSPropertyOp54
 70
     1
102
RTVSPropertyOp55
 70
     1
102
RTVSPropertyOp56
 70
     1
102
RTVSPropertyOp57
 70
     1
102
RTVSPropertyOp58
 70
     1
102
RTVSPropertyOp59
 70
     1
102
RTVSPropertyOp60
 70
     1
102
RTVSPropertyOp61
 70
     1
102
RTVSPropertyOp62
 70
     1
  0
XRECORD
  5
950
102
{ACAD_REACTORS
330
94F
102
}
330
94F
100
AcDbXrecord
280
     1
102
RTVSPost2010Prop28
280
     0
102
RTVSPost2010PropOp28
 70
     1
102
RTVSPost2010Prop29
280
     1
102
RTVSPost2010PropOp29
 70
     1
102
RTVSPost2010Prop30
280
     1
102
RTVSPost2010PropOp30
 70
     1
102
RTVSPost2010Prop31
280
     0
102
RTVSPost2010PropOp31
 70
     1
102
RTVSPost2010Prop32
280
     0
102
RTVSPost2010PropOp32
 70
     1
102
RTVSPost2010Prop33
280
     0
102
RTVSPost2010PropOp33
 70
     1
102
RTVSPost2010Prop34
280
     0
102
RTVSPost2010PropOp34
 70
     1
102
RTVSPost2010Prop35
280
     0
102
RTVSPost2010PropOp35
 70
     1
102
RTVSPost2010Prop36
280
     0
102
RTVSPost2010PropOp36
 70
     1
102
RTVSPost2010Prop37
 90
       50
102
RTVSPost2010PropOp37
 70
     1
102
RTVSPost2010Prop38
140
0.0
102
RTVSPost2010PropOp38
 70
     1
102
RTVSPost2010Prop39
140
1.0
102
RTVSPost2010PropOp39
 70
     1
102
RTVSPost2010Prop40
 90
        0
102
RTVSPost2010PropOp40
 70
     1
102
RTVSPost2010Prop41ColorIndex
 90
       18
102
RTVSPost2010Prop41ColorRGB
 90
        0
102
RTVSPost2010PropOp41
 70
     1
102
RTVSPost2010Prop42
 90
       50
102
RTVSPost2010PropOp42
 70
     1
102
RTVSPost2010Prop43
 90
        3
102
RTVSPost2010PropOp43
 70
     1
102
RTVSPost2010Prop44ColorIndex
 90
        5
102
RTVSPost2010Prop44ColorRGB
 90
      255
102
RTVSPost2010PropOp44
 70
     1
102
RTVSPost2010Prop45
280
     0
102
RTVSPost2010PropOp45
 70
     1
102
RTVSPost2010Prop46
 90
       50
102
RTVSPost2010PropOp46
 70
     1
102
RTVSPost2010Prop47
 90
       50
102
RTVSPost2010PropOp47
 70
     1
102
RTVSPost2010Prop48
 90
       50
102
RTVSPost2010PropOp48
 70
     1
102
RTVSPost2010Prop49
280
     0
102
RTVSPost2010PropOp49
 70
     1
102
RTVSPost2010Prop50
 90
       50
102
RTVSPost2010PropOp50
 70
     1
102
RTVSPost2010Prop51ColorIndex
 90
      256
102
RTVSPost2010Prop51ColorRGB
 90
-16777216
102
RTVSPost2010PropOp51
 70
     0
102
RTVSPost2010Prop52
140
1.0
102
RTVSPost2010PropOp52
 70
     0
102
RTVSPost2010Prop53
 90
        2
102
RTVSPost2010PropOp53
 70
     1
102
RTVSPost2010Prop54
  1
strokes_ogs.tif
102
RTVSPost2010PropOp54
 70
     1
102
RTVSPost2010Prop55
280
     0
102
RTVSPost2010PropOp55
 70
     1
102
RTVSPost2010Prop56
140
1.0
102
RTVSPost2010PropOp56
 70
     1
102
RTVSPost2010Prop57
140
1.0
102
RTVSPost2010PropOp57
 70
     1
102
RTVSPropertyOp0
 70
     1
102
RTVSPropertyOp1
 70
     1
102
RTVSPropertyOp2
 70
     1
102
RTVSPropertyOp3
 70
     1
102
RTVSPropertyOp4
 70
     1
102
RTVSPropertyOp5
 70
     1
102
RTVSPropertyOp6
 70
     1
102
RTVSPropertyOp7
 70
     1
102
RTVSPropertyOp8
 70
     1
102
RTVSPropertyOp9
 70
     1
102
RTVSPropertyOp10
 70
     1
102
RTVSPropertyOp11
 70
     1
102
RTVSPropertyOp12
 70
     1
102
RTVSPropertyOp13
 70
     1
102
RTVSPropertyOp14
 70
     1
102
RTVSPropertyOp15
 70
     1
102
RTVSPropertyOp16
 70
     1
102
RTVSPropertyOp17
 70
     1
102
RTVSPropertyOp18
 70
     1
102
RTVSPropertyOp19
 70
     1
102
RTVSPropertyOp20
 70
     1
102
RTVSPropertyOp21
 70
     1
102
RTVSPropertyOp22
 70
     1
102
RTVSPropertyOp23
 70
     1
102
RTVSPropertyOp24
 70
     1
102
RTVSPropertyOp25
 70
     1
102
RTVSPropertyOp26
 70
     1
102
RTVSPropertyOp27
 70
     1
102
RTVSPropertyOp28
 70
     1
102
RTVSPropertyOp29
 70
     1
102
RTVSPropertyOp30
 70
     1
102
RTVSPropertyOp31
 70
     1
102
RTVSPropertyOp32
 70
     1
102
RTVSPropertyOp33
 70
     1
102
RTVSPropertyOp34
 70
     1
102
RTVSPropertyOp35
 70
     1
102
RTVSPropertyOp36
 70
     1
102
RTVSPropertyOp37
 70
     1
102
RTVSPropertyOp38
 70
     1
102
RTVSPropertyOp39
 70
     1
102
RTVSPropertyOp40
 70
     1
102
RTVSPropertyOp41
 70
     1
102
RTVSPropertyOp42
 70
     1
102
RTVSPropertyOp43
 70
     1
102
RTVSPropertyOp44
 70
     1
102
RTVSPropertyOp45
 70
     1
102
RTVSPropertyOp46
 70
     1
102
RTVSPropertyOp47
 70
     1
102
RTVSPropertyOp48
 70
     1
102
RTVSPropertyOp49
 70
     1
102
RTVSPropertyOp50
 70
     1
102
RTVSPropertyOp51
 70
     0
102
RTVSPropertyOp52
 70
     0
102
RTVSPropertyOp53
 70
     1
102
RTVSPropertyOp54
 70
     1
102
RTVSPropertyOp55
 70
     1
102
RTVSPropertyOp56
 70
     1
102
RTVSPropertyOp57
 70
     1
102
RTVSPropertyOp58
 70
     1
102
RTVSPropertyOp59
 70
     1
102
RTVSPropertyOp60
 70
     1
102
RTVSPropertyOp61
 70
     1
102
RTVSPropertyOp62
 70
     1
  0
XRECORD
  5
952
102
{ACAD_REACTORS
330
951
102
}
330
951
100
AcDbXrecord
280
     1
102
RTVSPost2010Prop28
280
     0
102
RTVSPost2010PropOp28
 70
     1
102
RTVSPost2010Prop29
280
     1
102
RTVSPost2010PropOp29
 70
     1
102
RTVSPost2010Prop30
280
     1
102
RTVSPost2010PropOp30
 70
     1
102
RTVSPost2010Prop31
280
     0
102
RTVSPost2010PropOp31
 70
     1
102
RTVSPost2010Prop32
280
     0
102
RTVSPost2010PropOp32
 70
     1
102
RTVSPost2010Prop33
280
     0
102
RTVSPost2010PropOp33
 70
     1
102
RTVSPost2010Prop34
280
     0
102
RTVSPost2010PropOp34
 70
     1
102
RTVSPost2010Prop35
280
     0
102
RTVSPost2010PropOp35
 70
     1
102
RTVSPost2010Prop36
280
     0
102
RTVSPost2010PropOp36
 70
     1
102
RTVSPost2010Prop37
 90
       50
102
RTVSPost2010PropOp37
 70
     1
102
RTVSPost2010Prop38
140
0.0
102
RTVSPost2010PropOp38
 70
     1
102
RTVSPost2010Prop39
140
1.0
102
RTVSPost2010PropOp39
 70
     1
102
RTVSPost2010Prop40
 90
        0
102
RTVSPost2010PropOp40
 70
     1
102
RTVSPost2010Prop41ColorIndex
 90
       18
102
RTVSPost2010Prop41ColorRGB
 90
        0
102
RTVSPost2010PropOp41
 70
     1
102
RTVSPost2010Prop42
 90
       50
102
RTVSPost2010PropOp42
 70
     1
102
RTVSPost2010Prop43
 90
        3
102
RTVSPost2010PropOp43
 70
     1
102
RTVSPost2010Prop44ColorIndex
 90
        5
102
RTVSPost2010Prop44ColorRGB
 90
      255
102
RTVSPost2010PropOp44
 70
     1
102
RTVSPost2010Prop45
280
     0
102
RTVSPost2010PropOp45
 70
     1
102
RTVSPost2010Prop46
 90
       50
102
RTVSPost2010PropOp46
 70
     1
102
RTVSPost2010Prop47
 90
       50
102
RTVSPost2010PropOp47
 70
     1
102
RTVSPost2010Prop48
 90
       50
102
RTVSPost2010PropOp48
 70
     1
102
RTVSPost2010Prop49
280
     0
102
RTVSPost2010PropOp49
 70
     1
102
RTVSPost2010Prop50
 90
       50
102
RTVSPost2010PropOp50
 70
     1
102
RTVSPost2010Prop51ColorIndex
 90
      256
102
RTVSPost2010Prop51ColorRGB
 90
-16777216
102
RTVSPost2010PropOp51
 70
     0
102
RTVSPost2010Prop52
140
1.0
102
RTVSPost2010PropOp52
 70
     0
102
RTVSPost2010Prop53
 90
        2
102
RTVSPost2010PropOp53
 70
     1
102
RTVSPost2010Prop54
  1
strokes_ogs.tif
102
RTVSPost2010PropOp54
 70
     1
102
RTVSPost2010Prop55
280
     0
102
RTVSPost2010PropOp55
 70
     1
102
RTVSPost2010Prop56
140
1.0
102
RTVSPost2010PropOp56
 70
     1
102
RTVSPost2010Prop57
140
1.0
102
RTVSPost2010PropOp57
 70
     1
102
RTVSPropertyOp0
 70
     1
102
RTVSPropertyOp1
 70
     1
102
RTVSPropertyOp2
 70
     1
102
RTVSPropertyOp3
 70
     1
102
RTVSPropertyOp4
 70
     1
102
RTVSPropertyOp5
 70
     1
102
RTVSPropertyOp6
 70
     1
102
RTVSPropertyOp7
 70
     1
102
RTVSPropertyOp8
 70
     1
102
RTVSPropertyOp9
 70
     1
102
RTVSPropertyOp10
 70
     1
102
RTVSPropertyOp11
 70
     1
102
RTVSPropertyOp12
 70
     1
102
RTVSPropertyOp13
 70
     1
102
RTVSPropertyOp14
 70
     1
102
RTVSPropertyOp15
 70
     1
102
RTVSPropertyOp16
 70
     1
102
RTVSPropertyOp17
 70
     1
102
RTVSPropertyOp18
 70
     1
102
RTVSPropertyOp19
 70
     1
102
RTVSPropertyOp20
 70
     1
102
RTVSPropertyOp21
 70
     1
102
RTVSPropertyOp22
 70
     1
102
RTVSPropertyOp23
 70
     1
102
RTVSPropertyOp24
 70
     1
102
RTVSPropertyOp25
 70
     1
102
RTVSPropertyOp26
 70
     1
102
RTVSPropertyOp27
 70
     1
102
RTVSPropertyOp28
 70
     1
102
RTVSPropertyOp29
 70
     1
102
RTVSPropertyOp30
 70
     1
102
RTVSPropertyOp31
 70
     1
102
RTVSPropertyOp32
 70
     1
102
RTVSPropertyOp33
 70
     1
102
RTVSPropertyOp34
 70
     1
102
RTVSPropertyOp35
 70
     1
102
RTVSPropertyOp36
 70
     1
102
RTVSPropertyOp37
 70
     1
102
RTVSPropertyOp38
 70
     1
102
RTVSPropertyOp39
 70
     1
102
RTVSPropertyOp40
 70
     1
102
RTVSPropertyOp41
 70
     1
102
RTVSPropertyOp42
 70
     1
102
RTVSPropertyOp43
 70
     1
102
RTVSPropertyOp44
 70
     1
102
RTVSPropertyOp45
 70
     1
102
RTVSPropertyOp46
 70
     1
102
RTVSPropertyOp47
 70
     1
102
RTVSPropertyOp48
 70
     1
102
RTVSPropertyOp49
 70
     1
102
RTVSPropertyOp50
 70
     1
102
RTVSPropertyOp51
 70
     0
102
RTVSPropertyOp52
 70
     0
102
RTVSPropertyOp53
 70
     1
102
RTVSPropertyOp54
 70
     1
102
RTVSPropertyOp55
 70
     1
102
RTVSPropertyOp56
 70
     1
102
RTVSPropertyOp57
 70
     1
102
RTVSPropertyOp58
 70
     1
102
RTVSPropertyOp59
 70
     1
102
RTVSPropertyOp60
 70
     1
102
RTVSPropertyOp61
 70
     1
102
RTVSPropertyOp62
 70
     1
  0
XRECORD
  5
954
102
{ACAD_REACTORS
330
953
102
}
330
953
100
AcDbXrecord
280
     1
102
RTVSPost2010Prop28
280
     0
102
RTVSPost2010PropOp28
 70
     1
102
RTVSPost2010Prop29
280
     1
102
RTVSPost2010PropOp29
 70
     1
102
RTVSPost2010Prop30
280
     1
102
RTVSPost2010PropOp30
 70
     1
102
RTVSPost2010Prop31
280
     0
102
RTVSPost2010PropOp31
 70
     1
102
RTVSPost2010Prop32
280
     0
102
RTVSPost2010PropOp32
 70
     1
102
RTVSPost2010Prop33
280
     0
102
RTVSPost2010PropOp33
 70
     1
102
RTVSPost2010Prop34
280
     0
102
RTVSPost2010PropOp34
 70
     1
102
RTVSPost2010Prop35
280
     0
102
RTVSPost2010PropOp35
 70
     1
102
RTVSPost2010Prop36
280
     0
102
RTVSPost2010PropOp36
 70
     1
102
RTVSPost2010Prop37
 90
       50
102
RTVSPost2010PropOp37
 70
     1
102
RTVSPost2010Prop38
140
0.0
102
RTVSPost2010PropOp38
 70
     1
102
RTVSPost2010Prop39
140
1.0
102
RTVSPost2010PropOp39
 70
     1
102
RTVSPost2010Prop40
 90
        0
102
RTVSPost2010PropOp40
 70
     1
102
RTVSPost2010Prop41ColorIndex
 90
       18
102
RTVSPost2010Prop41ColorRGB
 90
        0
102
RTVSPost2010PropOp41
 70
     1
102
RTVSPost2010Prop42
 90
       50
102
RTVSPost2010PropOp42
 70
     1
102
RTVSPost2010Prop43
 90
        3
102
RTVSPost2010PropOp43
 70
     1
102
RTVSPost2010Prop44ColorIndex
 90
        5
102
RTVSPost2010Prop44ColorRGB
 90
      255
102
RTVSPost2010PropOp44
 70
     1
102
RTVSPost2010Prop45
280
     0
102
RTVSPost2010PropOp45
 70
     1
102
RTVSPost2010Prop46
 90
       50
102
RTVSPost2010PropOp46
 70
     1
102
RTVSPost2010Prop47
 90
       50
102
RTVSPost2010PropOp47
 70
     1
102
RTVSPost2010Prop48
 90
       50
102
RTVSPost2010PropOp48
 70
     1
102
RTVSPost2010Prop49
280
     0
102
RTVSPost2010PropOp49
 70
     1
102
RTVSPost2010Prop50
 90
       50
102
RTVSPost2010PropOp50
 70
     1
102
RTVSPost2010Prop51ColorIndex
 90
      256
102
RTVSPost2010Prop51ColorRGB
 90
-16777216
102
RTVSPost2010PropOp51
 70
     0
102
RTVSPost2010Prop52
140
1.0
102
RTVSPost2010PropOp52
 70
     0
102
RTVSPost2010Prop53
 90
        2
102
RTVSPost2010PropOp53
 70
     1
102
RTVSPost2010Prop54
  1
strokes_ogs.tif
102
RTVSPost2010PropOp54
 70
     1
102
RTVSPost2010Prop55
280
     0
102
RTVSPost2010PropOp55
 70
     1
102
RTVSPost2010Prop56
140
1.0
102
RTVSPost2010PropOp56
 70
     1
102
RTVSPost2010Prop57
140
1.0
102
RTVSPost2010PropOp57
 70
     1
102
RTVSPropertyOp0
 70
     1
102
RTVSPropertyOp1
 70
     1
102
RTVSPropertyOp2
 70
     1
102
RTVSPropertyOp3
 70
     1
102
RTVSPropertyOp4
 70
     1
102
RTVSPropertyOp5
 70
     1
102
RTVSPropertyOp6
 70
     1
102
RTVSPropertyOp7
 70
     1
102
RTVSPropertyOp8
 70
     1
102
RTVSPropertyOp9
 70
     1
102
RTVSPropertyOp10
 70
     1
102
RTVSPropertyOp11
 70
     1
102
RTVSPropertyOp12
 70
     1
102
RTVSPropertyOp13
 70
     1
102
RTVSPropertyOp14
 70
     1
102
RTVSPropertyOp15
 70
     1
102
RTVSPropertyOp16
 70
     1
102
RTVSPropertyOp17
 70
     1
102
RTVSPropertyOp18
 70
     1
102
RTVSPropertyOp19
 70
     1
102
RTVSPropertyOp20
 70
     1
102
RTVSPropertyOp21
 70
     1
102
RTVSPropertyOp22
 70
     1
102
RTVSPropertyOp23
 70
     1
102
RTVSPropertyOp24
 70
     1
102
RTVSPropertyOp25
 70
     1
102
RTVSPropertyOp26
 70
     1
102
RTVSPropertyOp27
 70
     1
102
RTVSPropertyOp28
 70
     1
102
RTVSPropertyOp29
 70
     1
102
RTVSPropertyOp30
 70
     1
102
RTVSPropertyOp31
 70
     1
102
RTVSPropertyOp32
 70
     1
102
RTVSPropertyOp33
 70
     1
102
RTVSPropertyOp34
 70
     1
102
RTVSPropertyOp35
 70
     1
102
RTVSPropertyOp36
 70
     1
102
RTVSPropertyOp37
 70
     1
102
RTVSPropertyOp38
 70
     1
102
RTVSPropertyOp39
 70
     1
102
RTVSPropertyOp40
 70
     1
102
RTVSPropertyOp41
 70
     1
102
RTVSPropertyOp42
 70
     1
102
RTVSPropertyOp43
 70
     1
102
RTVSPropertyOp44
 70
     1
102
RTVSPropertyOp45
 70
     1
102
RTVSPropertyOp46
 70
     1
102
RTVSPropertyOp47
 70
     1
102
RTVSPropertyOp48
 70
     1
102
RTVSPropertyOp49
 70
     1
102
RTVSPropertyOp50
 70
     1
102
RTVSPropertyOp51
 70
     0
102
RTVSPropertyOp52
 70
     0
102
RTVSPropertyOp53
 70
     1
102
RTVSPropertyOp54
 70
     1
102
RTVSPropertyOp55
 70
     1
102
RTVSPropertyOp56
 70
     1
102
RTVSPropertyOp57
 70
     1
102
RTVSPropertyOp58
 70
     1
102
RTVSPropertyOp59
 70
     1
102
RTVSPropertyOp60
 70
     1
102
RTVSPropertyOp61
 70
     1
102
RTVSPropertyOp62
 70
     1
  0
XRECORD
  5
956
102
{ACAD_REACTORS
330
955
102
}
330
955
100
AcDbXrecord
280
     1
102
RTVSPost2010Prop28
280
     0
102
RTVSPost2010PropOp28
 70
     1
102
RTVSPost2010Prop29
280
     1
102
RTVSPost2010PropOp29
 70
     1
102
RTVSPost2010Prop30
280
     1
102
RTVSPost2010PropOp30
 70
     1
102
RTVSPost2010Prop31
280
     0
102
RTVSPost2010PropOp31
 70
     1
102
RTVSPost2010Prop32
280
     0
102
RTVSPost2010PropOp32
 70
     1
102
RTVSPost2010Prop33
280
     0
102
RTVSPost2010PropOp33
 70
     1
102
RTVSPost2010Prop34
280
     0
102
RTVSPost2010PropOp34
 70
     1
102
RTVSPost2010Prop35
280
     0
102
RTVSPost2010PropOp35
 70
     1
102
RTVSPost2010Prop36
280
     0
102
RTVSPost2010PropOp36
 70
     1
102
RTVSPost2010Prop37
 90
       50
102
RTVSPost2010PropOp37
 70
     1
102
RTVSPost2010Prop38
140
0.0
102
RTVSPost2010PropOp38
 70
     1
102
RTVSPost2010Prop39
140
1.0
102
RTVSPost2010PropOp39
 70
     1
102
RTVSPost2010Prop40
 90
        0
102
RTVSPost2010PropOp40
 70
     1
102
RTVSPost2010Prop41ColorIndex
 90
       18
102
RTVSPost2010Prop41ColorRGB
 90
        0
102
RTVSPost2010PropOp41
 70
     1
102
RTVSPost2010Prop42
 90
       50
102
RTVSPost2010PropOp42
 70
     1
102
RTVSPost2010Prop43
 90
        3
102
RTVSPost2010PropOp43
 70
     1
102
RTVSPost2010Prop44ColorIndex
 90
        5
102
RTVSPost2010Prop44ColorRGB
 90
      255
102
RTVSPost2010PropOp44
 70
     1
102
RTVSPost2010Prop45
280
     0
102
RTVSPost2010PropOp45
 70
     1
102
RTVSPost2010Prop46
 90
       50
102
RTVSPost2010PropOp46
 70
     1
102
RTVSPost2010Prop47
 90
       50
102
RTVSPost2010PropOp47
 70
     1
102
RTVSPost2010Prop48
 90
       50
102
RTVSPost2010PropOp48
 70
     1
102
RTVSPost2010Prop49
280
     0
102
RTVSPost2010PropOp49
 70
     1
102
RTVSPost2010Prop50
 90
       50
102
RTVSPost2010PropOp50
 70
     1
102
RTVSPost2010Prop51ColorIndex
 90
      256
102
RTVSPost2010Prop51ColorRGB
 90
-16777216
102
RTVSPost2010PropOp51
 70
     0
102
RTVSPost2010Prop52
140
1.0
102
RTVSPost2010PropOp52
 70
     0
102
RTVSPost2010Prop53
 90
        2
102
RTVSPost2010PropOp53
 70
     1
102
RTVSPost2010Prop54
  1
strokes_ogs.tif
102
RTVSPost2010PropOp54
 70
     1
102
RTVSPost2010Prop55
280
     0
102
RTVSPost2010PropOp55
 70
     1
102
RTVSPost2010Prop56
140
1.0
102
RTVSPost2010PropOp56
 70
     1
102
RTVSPost2010Prop57
140
1.0
102
RTVSPost2010PropOp57
 70
     1
102
RTVSPropertyOp0
 70
     1
102
RTVSPropertyOp1
 70
     1
102
RTVSPropertyOp2
 70
     1
102
RTVSPropertyOp3
 70
     1
102
RTVSPropertyOp4
 70
     1
102
RTVSPropertyOp5
 70
     1
102
RTVSPropertyOp6
 70
     1
102
RTVSPropertyOp7
 70
     1
102
RTVSPropertyOp8
 70
     1
102
RTVSPropertyOp9
 70
     1
102
RTVSPropertyOp10
 70
     1
102
RTVSPropertyOp11
 70
     1
102
RTVSPropertyOp12
 70
     1
102
RTVSPropertyOp13
 70
     1
102
RTVSPropertyOp14
 70
     1
102
RTVSPropertyOp15
 70
     1
102
RTVSPropertyOp16
 70
     1
102
RTVSPropertyOp17
 70
     1
102
RTVSPropertyOp18
 70
     1
102
RTVSPropertyOp19
 70
     1
102
RTVSPropertyOp20
 70
     1
102
RTVSPropertyOp21
 70
     1
102
RTVSPropertyOp22
 70
     1
102
RTVSPropertyOp23
 70
     1
102
RTVSPropertyOp24
 70
     1
102
RTVSPropertyOp25
 70
     1
102
RTVSPropertyOp26
 70
     1
102
RTVSPropertyOp27
 70
     1
102
RTVSPropertyOp28
 70
     1
102
RTVSPropertyOp29
 70
     1
102
RTVSPropertyOp30
 70
     1
102
RTVSPropertyOp31
 70
     1
102
RTVSPropertyOp32
 70
     1
102
RTVSPropertyOp33
 70
     1
102
RTVSPropertyOp34
 70
     1
102
RTVSPropertyOp35
 70
     1
102
RTVSPropertyOp36
 70
     1
102
RTVSPropertyOp37
 70
     1
102
RTVSPropertyOp38
 70
     1
102
RTVSPropertyOp39
 70
     1
102
RTVSPropertyOp40
 70
     1
102
RTVSPropertyOp41
 70
     1
102
RTVSPropertyOp42
 70
     1
102
RTVSPropertyOp43
 70
     1
102
RTVSPropertyOp44
 70
     1
102
RTVSPropertyOp45
 70
     1
102
RTVSPropertyOp46
 70
     1
102
RTVSPropertyOp47
 70
     1
102
RTVSPropertyOp48
 70
     1
102
RTVSPropertyOp49
 70
     1
102
RTVSPropertyOp50
 70
     1
102
RTVSPropertyOp51
 70
     0
102
RTVSPropertyOp52
 70
     0
102
RTVSPropertyOp53
 70
     1
102
RTVSPropertyOp54
 70
     1
102
RTVSPropertyOp55
 70
     1
102
RTVSPropertyOp56
 70
     1
102
RTVSPropertyOp57
 70
     1
102
RTVSPropertyOp58
 70
     1
102
RTVSPropertyOp59
 70
     1
102
RTVSPropertyOp60
 70
     1
102
RTVSPropertyOp61
 70
     1
102
RTVSPropertyOp62
 70
     1
  0
XRECORD
  5
95E
102
{ACAD_REACTORS
330
95D
102
}
330
95D
100
AcDbXrecord
280
     1
102
RTVSPost2010Prop28
280
     0
102
RTVSPost2010PropOp28
 70
     1
102
RTVSPost2010Prop29
280
     1
102
RTVSPost2010PropOp29
 70
     1
102
RTVSPost2010Prop30
280
     1
102
RTVSPost2010PropOp30
 70
     1
102
RTVSPost2010Prop31
280
     0
102
RTVSPost2010PropOp31
 70
     1
102
RTVSPost2010Prop32
280
     0
102
RTVSPost2010PropOp32
 70
     1
102
RTVSPost2010Prop33
280
     0
102
RTVSPost2010PropOp33
 70
     1
102
RTVSPost2010Prop34
280
     0
102
RTVSPost2010PropOp34
 70
     1
102
RTVSPost2010Prop35
280
     0
102
RTVSPost2010PropOp35
 70
     1
102
RTVSPost2010Prop36
280
     0
102
RTVSPost2010PropOp36
 70
     1
102
RTVSPost2010Prop37
 90
       50
102
RTVSPost2010PropOp37
 70
     1
102
RTVSPost2010Prop38
140
0.0
102
RTVSPost2010PropOp38
 70
     1
102
RTVSPost2010Prop39
140
1.0
102
RTVSPost2010PropOp39
 70
     1
102
RTVSPost2010Prop40
 90
        0
102
RTVSPost2010PropOp40
 70
     1
102
RTVSPost2010Prop41ColorIndex
 90
       18
102
RTVSPost2010Prop41ColorRGB
 90
        0
102
RTVSPost2010PropOp41
 70
     1
102
RTVSPost2010Prop42
 90
       50
102
RTVSPost2010PropOp42
 70
     1
102
RTVSPost2010Prop43
 90
        3
102
RTVSPost2010PropOp43
 70
     1
102
RTVSPost2010Prop44ColorIndex
 90
        5
102
RTVSPost2010Prop44ColorRGB
 90
      255
102
RTVSPost2010PropOp44
 70
     1
102
RTVSPost2010Prop45
280
     0
102
RTVSPost2010PropOp45
 70
     1
102
RTVSPost2010Prop46
 90
       50
102
RTVSPost2010PropOp46
 70
     1
102
RTVSPost2010Prop47
 90
       50
102
RTVSPost2010PropOp47
 70
     1
102
RTVSPost2010Prop48
 90
       50
102
RTVSPost2010PropOp48
 70
     1
102
RTVSPost2010Prop49
280
     0
102
RTVSPost2010PropOp49
 70
     1
102
RTVSPost2010Prop50
 90
       50
102
RTVSPost2010PropOp50
 70
     1
102
RTVSPost2010Prop51ColorIndex
 90
      256
102
RTVSPost2010Prop51ColorRGB
 90
-16777216
102
RTVSPost2010PropOp51
 70
     0
102
RTVSPost2010Prop52
140
1.0
102
RTVSPost2010PropOp52
 70
     0
102
RTVSPost2010Prop53
 90
        2
102
RTVSPost2010PropOp53
 70
     1
102
RTVSPost2010Prop54
  1
strokes_ogs.tif
102
RTVSPost2010PropOp54
 70
     1
102
RTVSPost2010Prop55
280
     0
102
RTVSPost2010PropOp55
 70
     1
102
RTVSPost2010Prop56
140
1.0
102
RTVSPost2010PropOp56
 70
     1
102
RTVSPost2010Prop57
140
1.0
102
RTVSPost2010PropOp57
 70
     1
102
RTVSPropertyOp0
 70
     1
102
RTVSPropertyOp1
 70
     1
102
RTVSPropertyOp2
 70
     1
102
RTVSPropertyOp3
 70
     1
102
RTVSPropertyOp4
 70
     1
102
RTVSPropertyOp5
 70
     1
102
RTVSPropertyOp6
 70
     1
102
RTVSPropertyOp7
 70
     1
102
RTVSPropertyOp8
 70
     1
102
RTVSPropertyOp9
 70
     1
102
RTVSPropertyOp10
 70
     1
102
RTVSPropertyOp11
 70
     1
102
RTVSPropertyOp12
 70
     1
102
RTVSPropertyOp13
 70
     1
102
RTVSPropertyOp14
 70
     1
102
RTVSPropertyOp15
 70
     1
102
RTVSPropertyOp16
 70
     1
102
RTVSPropertyOp17
 70
     1
102
RTVSPropertyOp18
 70
     1
102
RTVSPropertyOp19
 70
     1
102
RTVSPropertyOp20
 70
     1
102
RTVSPropertyOp21
 70
     1
102
RTVSPropertyOp22
 70
     1
102
RTVSPropertyOp23
 70
     1
102
RTVSPropertyOp24
 70
     1
102
RTVSPropertyOp25
 70
     1
102
RTVSPropertyOp26
 70
     1
102
RTVSPropertyOp27
 70
     1
102
RTVSPropertyOp28
 70
     1
102
RTVSPropertyOp29
 70
     1
102
RTVSPropertyOp30
 70
     1
102
RTVSPropertyOp31
 70
     1
102
RTVSPropertyOp32
 70
     1
102
RTVSPropertyOp33
 70
     1
102
RTVSPropertyOp34
 70
     1
102
RTVSPropertyOp35
 70
     1
102
RTVSPropertyOp36
 70
     1
102
RTVSPropertyOp37
 70
     1
102
RTVSPropertyOp38
 70
     1
102
RTVSPropertyOp39
 70
     1
102
RTVSPropertyOp40
 70
     1
102
RTVSPropertyOp41
 70
     1
102
RTVSPropertyOp42
 70
     1
102
RTVSPropertyOp43
 70
     1
102
RTVSPropertyOp44
 70
     1
102
RTVSPropertyOp45
 70
     1
102
RTVSPropertyOp46
 70
     1
102
RTVSPropertyOp47
 70
     1
102
RTVSPropertyOp48
 70
     1
102
RTVSPropertyOp49
 70
     1
102
RTVSPropertyOp50
 70
     1
102
RTVSPropertyOp51
 70
     0
102
RTVSPropertyOp52
 70
     0
102
RTVSPropertyOp53
 70
     1
102
RTVSPropertyOp54
 70
     1
102
RTVSPropertyOp55
 70
     1
102
RTVSPropertyOp56
 70
     1
102
RTVSPropertyOp57
 70
     1
102
RTVSPropertyOp58
 70
     1
102
RTVSPropertyOp59
 70
     1
102
RTVSPropertyOp60
 70
     1
102
RTVSPropertyOp61
 70
     1
102
RTVSPropertyOp62
 70
     1
  0
XRECORD
  5
97A
102
{ACAD_REACTORS
330
979
102
}
330
979
100
AcDbXrecord
280
     1
102
RTVSPost2010Prop28
280
     0
102
RTVSPost2010PropOp28
 70
     1
102
RTVSPost2010Prop29
280
     1
102
RTVSPost2010PropOp29
 70
     1
102
RTVSPost2010Prop30
280
     1
102
RTVSPost2010PropOp30
 70
     1
102
RTVSPost2010Prop31
280
     0
102
RTVSPost2010PropOp31
 70
     1
102
RTVSPost2010Prop32
280
     0
102
RTVSPost2010PropOp32
 70
     1
102
RTVSPost2010Prop33
280
     0
102
RTVSPost2010PropOp33
 70
     1
102
RTVSPost2010Prop34
280
     0
102
RTVSPost2010PropOp34
 70
     1
102
RTVSPost2010Prop35
280
     0
102
RTVSPost2010PropOp35
 70
     1
102
RTVSPost2010Prop36
280
     0
102
RTVSPost2010PropOp36
 70
     1
102
RTVSPost2010Prop37
 90
       50
102
RTVSPost2010PropOp37
 70
     0
102
RTVSPost2010Prop38
140
0.0
102
RTVSPost2010PropOp38
 70
     0
102
RTVSPost2010Prop39
140
1.0
102
RTVSPost2010PropOp39
 70
     0
102
RTVSPost2010Prop40
 90
        0
102
RTVSPost2010PropOp40
 70
     0
102
RTVSPost2010Prop41ColorIndex
 90
       18
102
RTVSPost2010Prop41ColorRGB
 90
        0
102
RTVSPost2010PropOp41
 70
     0
102
RTVSPost2010Prop42
 90
       50
102
RTVSPost2010PropOp42
 70
     0
102
RTVSPost2010Prop43
 90
        3
102
RTVSPost2010PropOp43
 70
     0
102
RTVSPost2010Prop44ColorIndex
 90
        5
102
RTVSPost2010Prop44ColorRGB
 90
      255
102
RTVSPost2010PropOp44
 70
     0
102
RTVSPost2010Prop45
280
     0
102
RTVSPost2010PropOp45
 70
     1
102
RTVSPost2010Prop46
 90
       50
102
RTVSPost2010PropOp46
 70
     0
102
RTVSPost2010Prop47
 90
       50
102
RTVSPost2010PropOp47
 70
     0
102
RTVSPost2010Prop48
 90
       50
102
RTVSPost2010PropOp48
 70
     0
102
RTVSPost2010Prop49
280
     0
102
RTVSPost2010PropOp49
 70
     1
102
RTVSPost2010Prop50
 90
       50
102
RTVSPost2010PropOp50
 70
     0
102
RTVSPost2010Prop51ColorIndex
 90
      256
102
RTVSPost2010Prop51ColorRGB
 90
-16777216
102
RTVSPost2010PropOp51
 70
     0
102
RTVSPost2010Prop52
140
1.0
102
RTVSPost2010PropOp52
 70
     0
102
RTVSPost2010Prop53
 90
        2
102
RTVSPost2010PropOp53
 70
     0
102
RTVSPost2010Prop54
  1
strokes_ogs.tif
102
RTVSPost2010PropOp54
 70
     0
102
RTVSPost2010Prop55
280
     0
102
RTVSPost2010PropOp55
 70
     1
102
RTVSPost2010Prop56
140
1.0
102
RTVSPost2010PropOp56
 70
     0
102
RTVSPost2010Prop57
140
1.0
102
RTVSPost2010PropOp57
 70
     0
102
RTVSPropertyOp0
 70
     0
102
RTVSPropertyOp1
 70
     0
102
RTVSPropertyOp2
 70
     0
102
RTVSPropertyOp3
 70
     0
102
RTVSPropertyOp4
 70
     0
102
RTVSPropertyOp5
 70
     0
102
RTVSPropertyOp6
 70
     0
102
RTVSPropertyOp7
 70
     0
102
RTVSPropertyOp8
 70
     0
102
RTVSPropertyOp9
 70
     0
102
RTVSPropertyOp10
 70
     0
102
RTVSPropertyOp11
 70
     0
102
RTVSPropertyOp12
 70
     0
102
RTVSPropertyOp13
 70
     0
102
RTVSPropertyOp14
 70
     2
102
RTVSPropertyOp15
 70
     0
102
RTVSPropertyOp16
 70
     0
102
RTVSPropertyOp17
 70
     0
102
RTVSPropertyOp18
 70
     0
102
RTVSPropertyOp19
 70
     0
102
RTVSPropertyOp20
 70
     0
102
RTVSPropertyOp21
 70
     0
102
RTVSPropertyOp22
 70
     0
102
RTVSPropertyOp23
 70
     0
102
RTVSPropertyOp24
 70
     0
102
RTVSPropertyOp25
 70
     0
102
RTVSPropertyOp26
 70
     0
102
RTVSPropertyOp27
 70
     0
102
RTVSPropertyOp28
 70
     1
102
RTVSPropertyOp29
 70
     1
102
RTVSPropertyOp30
 70
     1
102
RTVSPropertyOp31
 70
     1
102
RTVSPropertyOp32
 70
     1
102
RTVSPropertyOp33
 70
     1
102
RTVSPropertyOp34
 70
     1
102
RTVSPropertyOp35
 70
     1
102
RTVSPropertyOp36
 70
     1
102
RTVSPropertyOp37
 70
     0
102
RTVSPropertyOp38
 70
     0
102
RTVSPropertyOp39
 70
     0
102
RTVSPropertyOp40
 70
     0
102
RTVSPropertyOp41
 70
     0
102
RTVSPropertyOp42
 70
     0
102
RTVSPropertyOp43
 70
     0
102
RTVSPropertyOp44
 70
     0
102
RTVSPropertyOp45
 70
     1
102
RTVSPropertyOp46
 70
     0
102
RTVSPropertyOp47
 70
     0
102
RTVSPropertyOp48
 70
     0
102
RTVSPropertyOp49
 70
     1
102
RTVSPropertyOp50
 70
     0
102
RTVSPropertyOp51
 70
     0
102
RTVSPropertyOp52
 70
     0
102
RTVSPropertyOp53
 70
     0
102
RTVSPropertyOp54
 70
     0
102
RTVSPropertyOp55
 70
     1
102
RTVSPropertyOp56
 70
     0
102
RTVSPropertyOp57
 70
     0
102
RTVSPropertyOp58
 70
     0
102
RTVSPropertyOp59
 70
     0
102
RTVSPropertyOp60
 70
     0
102
RTVSPropertyOp61
 70
     0
102
RTVSPropertyOp62
 70
     0
  0
XRECORD
  5
96A
102
{ACAD_REACTORS
330
969
102
}
330
969
100
AcDbXrecord
280
     1
102
RTVSPost2010Prop28
280
     0
102
RTVSPost2010PropOp28
 70
     1
102
RTVSPost2010Prop29
280
     1
102
RTVSPost2010PropOp29
 70
     1
102
RTVSPost2010Prop30
280
     1
102
RTVSPost2010PropOp30
 70
     1
102
RTVSPost2010Prop31
280
     0
102
RTVSPost2010PropOp31
 70
     1
102
RTVSPost2010Prop32
280
     0
102
RTVSPost2010PropOp32
 70
     1
102
RTVSPost2010Prop33
280
     0
102
RTVSPost2010PropOp33
 70
     1
102
RTVSPost2010Prop34
280
     0
102
RTVSPost2010PropOp34
 70
     1
102
RTVSPost2010Prop35
280
     0
102
RTVSPost2010PropOp35
 70
     1
102
RTVSPost2010Prop36
280
     0
102
RTVSPost2010PropOp36
 70
     1
102
RTVSPost2010Prop37
 90
       50
102
RTVSPost2010PropOp37
 70
     1
102
RTVSPost2010Prop38
140
0.0
102
RTVSPost2010PropOp38
 70
     1
102
RTVSPost2010Prop39
140
1.0
102
RTVSPost2010PropOp39
 70
     1
102
RTVSPost2010Prop40
 90
        0
102
RTVSPost2010PropOp40
 70
     1
102
RTVSPost2010Prop41ColorIndex
 90
       18
102
RTVSPost2010Prop41ColorRGB
 90
        0
102
RTVSPost2010PropOp41
 70
     1
102
RTVSPost2010Prop42
 90
       50
102
RTVSPost2010PropOp42
 70
     1
102
RTVSPost2010Prop43
 90
        3
102
RTVSPost2010PropOp43
 70
     1
102
RTVSPost2010Prop44ColorIndex
 90
        5
102
RTVSPost2010Prop44ColorRGB
 90
      255
102
RTVSPost2010PropOp44
 70
     1
102
RTVSPost2010Prop45
280
     0
102
RTVSPost2010PropOp45
 70
     1
102
RTVSPost2010Prop46
 90
       50
102
RTVSPost2010PropOp46
 70
     1
102
RTVSPost2010Prop47
 90
       50
102
RTVSPost2010PropOp47
 70
     1
102
RTVSPost2010Prop48
 90
       50
102
RTVSPost2010PropOp48
 70
     1
102
RTVSPost2010Prop49
280
     0
102
RTVSPost2010PropOp49
 70
     1
102
RTVSPost2010Prop50
 90
       50
102
RTVSPost2010PropOp50
 70
     1
102
RTVSPost2010Prop51ColorIndex
 90
      256
102
RTVSPost2010Prop51ColorRGB
 90
-16777216
102
RTVSPost2010PropOp51
 70
     0
102
RTVSPost2010Prop52
140
1.0
102
RTVSPost2010PropOp52
 70
     0
102
RTVSPost2010Prop53
 90
        2
102
RTVSPost2010PropOp53
 70
     1
102
RTVSPost2010Prop54
  1
strokes_ogs.tif
102
RTVSPost2010PropOp54
 70
     1
102
RTVSPost2010Prop55
280
     0
102
RTVSPost2010PropOp55
 70
     1
102
RTVSPost2010Prop56
140
1.0
102
RTVSPost2010PropOp56
 70
     1
102
RTVSPost2010Prop57
140
1.0
102
RTVSPost2010PropOp57
 70
     1
102
RTVSPropertyOp0
 70
     1
102
RTVSPropertyOp1
 70
     1
102
RTVSPropertyOp2
 70
     1
102
RTVSPropertyOp3
 70
     1
102
RTVSPropertyOp4
 70
     1
102
RTVSPropertyOp5
 70
     1
102
RTVSPropertyOp6
 70
     1
102
RTVSPropertyOp7
 70
     1
102
RTVSPropertyOp8
 70
     1
102
RTVSPropertyOp9
 70
     1
102
RTVSPropertyOp10
 70
     1
102
RTVSPropertyOp11
 70
     1
102
RTVSPropertyOp12
 70
     1
102
RTVSPropertyOp13
 70
     1
102
RTVSPropertyOp14
 70
     1
102
RTVSPropertyOp15
 70
     1
102
RTVSPropertyOp16
 70
     1
102
RTVSPropertyOp17
 70
     1
102
RTVSPropertyOp18
 70
     1
102
RTVSPropertyOp19
 70
     1
102
RTVSPropertyOp20
 70
     1
102
RTVSPropertyOp21
 70
     1
102
RTVSPropertyOp22
 70
     1
102
RTVSPropertyOp23
 70
     1
102
RTVSPropertyOp24
 70
     1
102
RTVSPropertyOp25
 70
     1
102
RTVSPropertyOp26
 70
     1
102
RTVSPropertyOp27
 70
     1
102
RTVSPropertyOp28
 70
     1
102
RTVSPropertyOp29
 70
     1
102
RTVSPropertyOp30
 70
     1
102
RTVSPropertyOp31
 70
     1
102
RTVSPropertyOp32
 70
     1
102
RTVSPropertyOp33
 70
     1
102
RTVSPropertyOp34
 70
     1
102
RTVSPropertyOp35
 70
     1
102
RTVSPropertyOp36
 70
     1
102
RTVSPropertyOp37
 70
     1
102
RTVSPropertyOp38
 70
     1
102
RTVSPropertyOp39
 70
     1
102
RTVSPropertyOp40
 70
     1
102
RTVSPropertyOp41
 70
     1
102
RTVSPropertyOp42
 70
     1
102
RTVSPropertyOp43
 70
     1
102
RTVSPropertyOp44
 70
     1
102
RTVSPropertyOp45
 70
     1
102
RTVSPropertyOp46
 70
     1
102
RTVSPropertyOp47
 70
     1
102
RTVSPropertyOp48
 70
     1
102
RTVSPropertyOp49
 70
     1
102
RTVSPropertyOp50
 70
     1
102
RTVSPropertyOp51
 70
     0
102
RTVSPropertyOp52
 70
     0
102
RTVSPropertyOp53
 70
     1
102
RTVSPropertyOp54
 70
     1
102
RTVSPropertyOp55
 70
     1
102
RTVSPropertyOp56
 70
     1
102
RTVSPropertyOp57
 70
     1
102
RTVSPropertyOp58
 70
     1
102
RTVSPropertyOp59
 70
     1
102
RTVSPropertyOp60
 70
     1
102
RTVSPropertyOp61
 70
     1
102
RTVSPropertyOp62
 70
     1
  0
XRECORD
  5
97C
102
{ACAD_REACTORS
330
97B
102
}
330
97B
100
AcDbXrecord
280
     1
102
RTVSPost2010Prop28
280
     0
102
RTVSPost2010PropOp28
 70
     1
102
RTVSPost2010Prop29
280
     1
102
RTVSPost2010PropOp29
 70
     1
102
RTVSPost2010Prop30
280
     1
102
RTVSPost2010PropOp30
 70
     1
102
RTVSPost2010Prop31
280
     0
102
RTVSPost2010PropOp31
 70
     1
102
RTVSPost2010Prop32
280
     0
102
RTVSPost2010PropOp32
 70
     1
102
RTVSPost2010Prop33
280
     0
102
RTVSPost2010PropOp33
 70
     1
102
RTVSPost2010Prop34
280
     0
102
RTVSPost2010PropOp34
 70
     1
102
RTVSPost2010Prop35
280
     0
102
RTVSPost2010PropOp35
 70
     1
102
RTVSPost2010Prop36
280
     0
102
RTVSPost2010PropOp36
 70
     1
102
RTVSPost2010Prop37
 90
       50
102
RTVSPost2010PropOp37
 70
     0
102
RTVSPost2010Prop38
140
0.0
102
RTVSPost2010PropOp38
 70
     0
102
RTVSPost2010Prop39
140
1.0
102
RTVSPost2010PropOp39
 70
     0
102
RTVSPost2010Prop40
 90
        0
102
RTVSPost2010PropOp40
 70
     0
102
RTVSPost2010Prop41ColorIndex
 90
       18
102
RTVSPost2010Prop41ColorRGB
 90
        0
102
RTVSPost2010PropOp41
 70
     0
102
RTVSPost2010Prop42
 90
       50
102
RTVSPost2010PropOp42
 70
     0
102
RTVSPost2010Prop43
 90
        3
102
RTVSPost2010PropOp43
 70
     0
102
RTVSPost2010Prop44ColorIndex
 90
        5
102
RTVSPost2010Prop44ColorRGB
 90
      255
102
RTVSPost2010PropOp44
 70
     0
102
RTVSPost2010Prop45
280
     0
102
RTVSPost2010PropOp45
 70
     1
102
RTVSPost2010Prop46
 90
       50
102
RTVSPost2010PropOp46
 70
     0
102
RTVSPost2010Prop47
 90
       50
102
RTVSPost2010PropOp47
 70
     0
102
RTVSPost2010Prop48
 90
       50
102
RTVSPost2010PropOp48
 70
     0
102
RTVSPost2010Prop49
280
     0
102
RTVSPost2010PropOp49
 70
     1
102
RTVSPost2010Prop50
 90
       50
102
RTVSPost2010PropOp50
 70
     0
102
RTVSPost2010Prop51ColorIndex
 90
      256
102
RTVSPost2010Prop51ColorRGB
 90
-16777216
102
RTVSPost2010PropOp51
 70
     0
102
RTVSPost2010Prop52
140
1.0
102
RTVSPost2010PropOp52
 70
     0
102
RTVSPost2010Prop53
 90
        2
102
RTVSPost2010PropOp53
 70
     0
102
RTVSPost2010Prop54
  1
strokes_ogs.tif
102
RTVSPost2010PropOp54
 70
     0
102
RTVSPost2010Prop55
280
     0
102
RTVSPost2010PropOp55
 70
     1
102
RTVSPost2010Prop56
140
1.0
102
RTVSPost2010PropOp56
 70
     0
102
RTVSPost2010Prop57
140
1.0
102
RTVSPost2010PropOp57
 70
     0
102
RTVSPropertyOp0
 70
     0
102
RTVSPropertyOp1
 70
     0
102
RTVSPropertyOp2
 70
     0
102
RTVSPropertyOp3
 70
     0
102
RTVSPropertyOp4
 70
     0
102
RTVSPropertyOp5
 70
     0
102
RTVSPropertyOp6
 70
     0
102
RTVSPropertyOp7
 70
     0
102
RTVSPropertyOp8
 70
     0
102
RTVSPropertyOp9
 70
     0
102
RTVSPropertyOp10
 70
     0
102
RTVSPropertyOp11
 70
     0
102
RTVSPropertyOp12
 70
     0
102
RTVSPropertyOp13
 70
     0
102
RTVSPropertyOp14
 70
     2
102
RTVSPropertyOp15
 70
     0
102
RTVSPropertyOp16
 70
     0
102
RTVSPropertyOp17
 70
     0
102
RTVSPropertyOp18
 70
     0
102
RTVSPropertyOp19
 70
     0
102
RTVSPropertyOp20
 70
     0
102
RTVSPropertyOp21
 70
     0
102
RTVSPropertyOp22
 70
     0
102
RTVSPropertyOp23
 70
     0
102
RTVSPropertyOp24
 70
     0
102
RTVSPropertyOp25
 70
     0
102
RTVSPropertyOp26
 70
     0
102
RTVSPropertyOp27
 70
     0
102
RTVSPropertyOp28
 70
     1
102
RTVSPropertyOp29
 70
     1
102
RTVSPropertyOp30
 70
     1
102
RTVSPropertyOp31
 70
     1
102
RTVSPropertyOp32
 70
     1
102
RTVSPropertyOp33
 70
     1
102
RTVSPropertyOp34
 70
     1
102
RTVSPropertyOp35
 70
     1
102
RTVSPropertyOp36
 70
     1
102
RTVSPropertyOp37
 70
     0
102
RTVSPropertyOp38
 70
     0
102
RTVSPropertyOp39
 70
     0
102
RTVSPropertyOp40
 70
     0
102
RTVSPropertyOp41
 70
     0
102
RTVSPropertyOp42
 70
     0
102
RTVSPropertyOp43
 70
     0
102
RTVSPropertyOp44
 70
     0
102
RTVSPropertyOp45
 70
     1
102
RTVSPropertyOp46
 70
     0
102
RTVSPropertyOp47
 70
     0
102
RTVSPropertyOp48
 70
     0
102
RTVSPropertyOp49
 70
     1
102
RTVSPropertyOp50
 70
     0
102
RTVSPropertyOp51
 70
     0
102
RTVSPropertyOp52
 70
     0
102
RTVSPropertyOp53
 70
     0
102
RTVSPropertyOp54
 70
     0
102
RTVSPropertyOp55
 70
     1
102
RTVSPropertyOp56
 70
     0
102
RTVSPropertyOp57
 70
     0
102
RTVSPropertyOp58
 70
     0
102
RTVSPropertyOp59
 70
     0
102
RTVSPropertyOp60
 70
     0
102
RTVSPropertyOp61
 70
     0
102
RTVSPropertyOp62
 70
     0
  0
XRECORD
  5
962
102
{ACAD_REACTORS
330
961
102
}
330
961
100
AcDbXrecord
280
     1
102
RTVSPost2010Prop28
280
     0
102
RTVSPost2010PropOp28
 70
     1
102
RTVSPost2010Prop29
280
     1
102
RTVSPost2010PropOp29
 70
     1
102
RTVSPost2010Prop30
280
     1
102
RTVSPost2010PropOp30
 70
     1
102
RTVSPost2010Prop31
280
     0
102
RTVSPost2010PropOp31
 70
     1
102
RTVSPost2010Prop32
280
     0
102
RTVSPost2010PropOp32
 70
     1
102
RTVSPost2010Prop33
280
     0
102
RTVSPost2010PropOp33
 70
     1
102
RTVSPost2010Prop34
280
     0
102
RTVSPost2010PropOp34
 70
     1
102
RTVSPost2010Prop35
280
     0
102
RTVSPost2010PropOp35
 70
     1
102
RTVSPost2010Prop36
280
     0
102
RTVSPost2010PropOp36
 70
     1
102
RTVSPost2010Prop37
 90
       50
102
RTVSPost2010PropOp37
 70
     1
102
RTVSPost2010Prop38
140
0.0
102
RTVSPost2010PropOp38
 70
     1
102
RTVSPost2010Prop39
140
1.0
102
RTVSPost2010PropOp39
 70
     1
102
RTVSPost2010Prop40
 90
        0
102
RTVSPost2010PropOp40
 70
     1
102
RTVSPost2010Prop41ColorIndex
 90
       18
102
RTVSPost2010Prop41ColorRGB
 90
        0
102
RTVSPost2010PropOp41
 70
     1
102
RTVSPost2010Prop42
 90
       50
102
RTVSPost2010PropOp42
 70
     1
102
RTVSPost2010Prop43
 90
        3
102
RTVSPost2010PropOp43
 70
     1
102
RTVSPost2010Prop44ColorIndex
 90
        5
102
RTVSPost2010Prop44ColorRGB
 90
      255
102
RTVSPost2010PropOp44
 70
     1
102
RTVSPost2010Prop45
280
     0
102
RTVSPost2010PropOp45
 70
     1
102
RTVSPost2010Prop46
 90
       50
102
RTVSPost2010PropOp46
 70
     1
102
RTVSPost2010Prop47
 90
       50
102
RTVSPost2010PropOp47
 70
     1
102
RTVSPost2010Prop48
 90
       50
102
RTVSPost2010PropOp48
 70
     1
102
RTVSPost2010Prop49
280
     0
102
RTVSPost2010PropOp49
 70
     1
102
RTVSPost2010Prop50
 90
       50
102
RTVSPost2010PropOp50
 70
     1
102
RTVSPost2010Prop51ColorIndex
 90
      256
102
RTVSPost2010Prop51ColorRGB
 90
-16777216
102
RTVSPost2010PropOp51
 70
     0
102
RTVSPost2010Prop52
140
1.0
102
RTVSPost2010PropOp52
 70
     0
102
RTVSPost2010Prop53
 90
        2
102
RTVSPost2010PropOp53
 70
     1
102
RTVSPost2010Prop54
  1
strokes_ogs.tif
102
RTVSPost2010PropOp54
 70
     1
102
RTVSPost2010Prop55
280
     0
102
RTVSPost2010PropOp55
 70
     1
102
RTVSPost2010Prop56
140
1.0
102
RTVSPost2010PropOp56
 70
     1
102
RTVSPost2010Prop57
140
1.0
102
RTVSPost2010PropOp57
 70
     1
102
RTVSPropertyOp0
 70
     1
102
RTVSPropertyOp1
 70
     1
102
RTVSPropertyOp2
 70
     1
102
RTVSPropertyOp3
 70
     1
102
RTVSPropertyOp4
 70
     1
102
RTVSPropertyOp5
 70
     1
102
RTVSPropertyOp6
 70
     1
102
RTVSPropertyOp7
 70
     1
102
RTVSPropertyOp8
 70
     1
102
RTVSPropertyOp9
 70
     1
102
RTVSPropertyOp10
 70
     1
102
RTVSPropertyOp11
 70
     1
102
RTVSPropertyOp12
 70
     1
102
RTVSPropertyOp13
 70
     1
102
RTVSPropertyOp14
 70
     1
102
RTVSPropertyOp15
 70
     1
102
RTVSPropertyOp16
 70
     1
102
RTVSPropertyOp17
 70
     1
102
RTVSPropertyOp18
 70
     1
102
RTVSPropertyOp19
 70
     1
102
RTVSPropertyOp20
 70
     1
102
RTVSPropertyOp21
 70
     1
102
RTVSPropertyOp22
 70
     1
102
RTVSPropertyOp23
 70
     1
102
RTVSPropertyOp24
 70
     1
102
RTVSPropertyOp25
 70
     1
102
RTVSPropertyOp26
 70
     1
102
RTVSPropertyOp27
 70
     1
102
RTVSPropertyOp28
 70
     1
102
RTVSPropertyOp29
 70
     1
102
RTVSPropertyOp30
 70
     1
102
RTVSPropertyOp31
 70
     1
102
RTVSPropertyOp32
 70
     1
102
RTVSPropertyOp33
 70
     1
102
RTVSPropertyOp34
 70
     1
102
RTVSPropertyOp35
 70
     1
102
RTVSPropertyOp36
 70
     1
102
RTVSPropertyOp37
 70
     1
102
RTVSPropertyOp38
 70
     1
102
RTVSPropertyOp39
 70
     1
102
RTVSPropertyOp40
 70
     1
102
RTVSPropertyOp41
 70
     1
102
RTVSPropertyOp42
 70
     1
102
RTVSPropertyOp43
 70
     1
102
RTVSPropertyOp44
 70
     1
102
RTVSPropertyOp45
 70
     1
102
RTVSPropertyOp46
 70
     1
102
RTVSPropertyOp47
 70
     1
102
RTVSPropertyOp48
 70
     1
102
RTVSPropertyOp49
 70
     1
102
RTVSPropertyOp50
 70
     1
102
RTVSPropertyOp51
 70
     0
102
RTVSPropertyOp52
 70
     0
102
RTVSPropertyOp53
 70
     1
102
RTVSPropertyOp54
 70
     1
102
RTVSPropertyOp55
 70
     1
102
RTVSPropertyOp56
 70
     1
102
RTVSPropertyOp57
 70
     1
102
RTVSPropertyOp58
 70
     1
102
RTVSPropertyOp59
 70
     1
102
RTVSPropertyOp60
 70
     1
102
RTVSPropertyOp61
 70
     1
102
RTVSPropertyOp62
 70
     1
  0
XRECORD
  5
978
102
{ACAD_REACTORS
330
977
102
}
330
977
100
AcDbXrecord
280
     1
102
RTVSPost2010Prop28
280
     0
102
RTVSPost2010PropOp28
 70
     1
102
RTVSPost2010Prop29
280
     1
102
RTVSPost2010PropOp29
 70
     1
102
RTVSPost2010Prop30
280
     1
102
RTVSPost2010PropOp30
 70
     1
102
RTVSPost2010Prop31
280
     0
102
RTVSPost2010PropOp31
 70
     1
102
RTVSPost2010Prop32
280
     0
102
RTVSPost2010PropOp32
 70
     1
102
RTVSPost2010Prop33
280
     0
102
RTVSPost2010PropOp33
 70
     1
102
RTVSPost2010Prop34
280
     0
102
RTVSPost2010PropOp34
 70
     1
102
RTVSPost2010Prop35
280
     0
102
RTVSPost2010PropOp35
 70
     1
102
RTVSPost2010Prop36
280
     0
102
RTVSPost2010PropOp36
 70
     1
102
RTVSPost2010Prop37
 90
       50
102
RTVSPost2010PropOp37
 70
     1
102
RTVSPost2010Prop38
140
0.0
102
RTVSPost2010PropOp38
 70
     1
102
RTVSPost2010Prop39
140
1.0
102
RTVSPost2010PropOp39
 70
     1
102
RTVSPost2010Prop40
 90
        0
102
RTVSPost2010PropOp40
 70
     1
102
RTVSPost2010Prop41ColorIndex
 90
       18
102
RTVSPost2010Prop41ColorRGB
 90
        0
102
RTVSPost2010PropOp41
 70
     1
102
RTVSPost2010Prop42
 90
       50
102
RTVSPost2010PropOp42
 70
     1
102
RTVSPost2010Prop43
 90
        3
102
RTVSPost2010PropOp43
 70
     1
102
RTVSPost2010Prop44ColorIndex
 90
        5
102
RTVSPost2010Prop44ColorRGB
 90
      255
102
RTVSPost2010PropOp44
 70
     1
102
RTVSPost2010Prop45
280
     0
102
RTVSPost2010PropOp45
 70
     1
102
RTVSPost2010Prop46
 90
       50
102
RTVSPost2010PropOp46
 70
     1
102
RTVSPost2010Prop47
 90
       50
102
RTVSPost2010PropOp47
 70
     1
102
RTVSPost2010Prop48
 90
       50
102
RTVSPost2010PropOp48
 70
     1
102
RTVSPost2010Prop49
280
     0
102
RTVSPost2010PropOp49
 70
     1
102
RTVSPost2010Prop50
 90
       50
102
RTVSPost2010PropOp50
 70
     1
102
RTVSPost2010Prop51ColorIndex
 90
      256
102
RTVSPost2010Prop51ColorRGB
 90
-16777216
102
RTVSPost2010PropOp51
 70
     0
102
RTVSPost2010Prop52
140
1.0
102
RTVSPost2010PropOp52
 70
     0
102
RTVSPost2010Prop53
 90
        2
102
RTVSPost2010PropOp53
 70
     1
102
RTVSPost2010Prop54
  1
strokes_ogs.tif
102
RTVSPost2010PropOp54
 70
     1
102
RTVSPost2010Prop55
280
     0
102
RTVSPost2010PropOp55
 70
     1
102
RTVSPost2010Prop56
140
1.0
102
RTVSPost2010PropOp56
 70
     1
102
RTVSPost2010Prop57
140
1.0
102
RTVSPost2010PropOp57
 70
     1
102
RTVSPropertyOp0
 70
     1
102
RTVSPropertyOp1
 70
     1
102
RTVSPropertyOp2
 70
     1
102
RTVSPropertyOp3
 70
     1
102
RTVSPropertyOp4
 70
     1
102
RTVSPropertyOp5
 70
     1
102
RTVSPropertyOp6
 70
     1
102
RTVSPropertyOp7
 70
     1
102
RTVSPropertyOp8
 70
     1
102
RTVSPropertyOp9
 70
     1
102
RTVSPropertyOp10
 70
     1
102
RTVSPropertyOp11
 70
     1
102
RTVSPropertyOp12
 70
     1
102
RTVSPropertyOp13
 70
     1
102
RTVSPropertyOp14
 70
     1
102
RTVSPropertyOp15
 70
     1
102
RTVSPropertyOp16
 70
     1
102
RTVSPropertyOp17
 70
     1
102
RTVSPropertyOp18
 70
     1
102
RTVSPropertyOp19
 70
     1
102
RTVSPropertyOp20
 70
     1
102
RTVSPropertyOp21
 70
     1
102
RTVSPropertyOp22
 70
     1
102
RTVSPropertyOp23
 70
     1
102
RTVSPropertyOp24
 70
     1
102
RTVSPropertyOp25
 70
     1
102
RTVSPropertyOp26
 70
     1
102
RTVSPropertyOp27
 70
     1
102
RTVSPropertyOp28
 70
     1
102
RTVSPropertyOp29
 70
     1
102
RTVSPropertyOp30
 70
     1
102
RTVSPropertyOp31
 70
     1
102
RTVSPropertyOp32
 70
     1
102
RTVSPropertyOp33
 70
     1
102
RTVSPropertyOp34
 70
     1
102
RTVSPropertyOp35
 70
     1
102
RTVSPropertyOp36
 70
     1
102
RTVSPropertyOp37
 70
     1
102
RTVSPropertyOp38
 70
     1
102
RTVSPropertyOp39
 70
     1
102
RTVSPropertyOp40
 70
     1
102
RTVSPropertyOp41
 70
     1
102
RTVSPropertyOp42
 70
     1
102
RTVSPropertyOp43
 70
     1
102
RTVSPropertyOp44
 70
     1
102
RTVSPropertyOp45
 70
     1
102
RTVSPropertyOp46
 70
     1
102
RTVSPropertyOp47
 70
     1
102
RTVSPropertyOp48
 70
     1
102
RTVSPropertyOp49
 70
     1
102
RTVSPropertyOp50
 70
     1
102
RTVSPropertyOp51
 70
     0
102
RTVSPropertyOp52
 70
     0
102
RTVSPropertyOp53
 70
     1
102
RTVSPropertyOp54
 70
     1
102
RTVSPropertyOp55
 70
     1
102
RTVSPropertyOp56
 70
     1
102
RTVSPropertyOp57
 70
     1
102
RTVSPropertyOp58
 70
     1
102
RTVSPropertyOp59
 70
     1
102
RTVSPropertyOp60
 70
     1
102
RTVSPropertyOp61
 70
     1
102
RTVSPropertyOp62
 70
     1
  0
XRECORD
  5
976
102
{ACAD_REACTORS
330
975
102
}
330
975
100
AcDbXrecord
280
     1
102
RTVSPost2010Prop28
280
     0
102
RTVSPost2010PropOp28
 70
     1
102
RTVSPost2010Prop29
280
     1
102
RTVSPost2010PropOp29
 70
     1
102
RTVSPost2010Prop30
280
     1
102
RTVSPost2010PropOp30
 70
     1
102
RTVSPost2010Prop31
280
     0
102
RTVSPost2010PropOp31
 70
     1
102
RTVSPost2010Prop32
280
     0
102
RTVSPost2010PropOp32
 70
     1
102
RTVSPost2010Prop33
280
     0
102
RTVSPost2010PropOp33
 70
     1
102
RTVSPost2010Prop34
280
     0
102
RTVSPost2010PropOp34
 70
     1
102
RTVSPost2010Prop35
280
     0
102
RTVSPost2010PropOp35
 70
     1
102
RTVSPost2010Prop36
280
     0
102
RTVSPost2010PropOp36
 70
     1
102
RTVSPost2010Prop37
 90
       50
102
RTVSPost2010PropOp37
 70
     1
102
RTVSPost2010Prop38
140
0.0
102
RTVSPost2010PropOp38
 70
     1
102
RTVSPost2010Prop39
140
1.0
102
RTVSPost2010PropOp39
 70
     1
102
RTVSPost2010Prop40
 90
        0
102
RTVSPost2010PropOp40
 70
     1
102
RTVSPost2010Prop41ColorIndex
 90
       18
102
RTVSPost2010Prop41ColorRGB
 90
        0
102
RTVSPost2010PropOp41
 70
     1
102
RTVSPost2010Prop42
 90
       50
102
RTVSPost2010PropOp42
 70
     1
102
RTVSPost2010Prop43
 90
        3
102
RTVSPost2010PropOp43
 70
     1
102
RTVSPost2010Prop44ColorIndex
 90
        5
102
RTVSPost2010Prop44ColorRGB
 90
      255
102
RTVSPost2010PropOp44
 70
     1
102
RTVSPost2010Prop45
280
     0
102
RTVSPost2010PropOp45
 70
     1
102
RTVSPost2010Prop46
 90
       50
102
RTVSPost2010PropOp46
 70
     1
102
RTVSPost2010Prop47
 90
       50
102
RTVSPost2010PropOp47
 70
     1
102
RTVSPost2010Prop48
 90
       50
102
RTVSPost2010PropOp48
 70
     1
102
RTVSPost2010Prop49
280
     0
102
RTVSPost2010PropOp49
 70
     1
102
RTVSPost2010Prop50
 90
       50
102
RTVSPost2010PropOp50
 70
     1
102
RTVSPost2010Prop51ColorIndex
 90
      256
102
RTVSPost2010Prop51ColorRGB
 90
-16777216
102
RTVSPost2010PropOp51
 70
     0
102
RTVSPost2010Prop52
140
1.0
102
RTVSPost2010PropOp52
 70
     0
102
RTVSPost2010Prop53
 90
        2
102
RTVSPost2010PropOp53
 70
     1
102
RTVSPost2010Prop54
  1
strokes_ogs.tif
102
RTVSPost2010PropOp54
 70
     1
102
RTVSPost2010Prop55
280
     0
102
RTVSPost2010PropOp55
 70
     1
102
RTVSPost2010Prop56
140
1.0
102
RTVSPost2010PropOp56
 70
     1
102
RTVSPost2010Prop57
140
1.0
102
RTVSPost2010PropOp57
 70
     1
102
RTVSPropertyOp0
 70
     1
102
RTVSPropertyOp1
 70
     1
102
RTVSPropertyOp2
 70
     1
102
RTVSPropertyOp3
 70
     1
102
RTVSPropertyOp4
 70
     1
102
RTVSPropertyOp5
 70
     1
102
RTVSPropertyOp6
 70
     1
102
RTVSPropertyOp7
 70
     1
102
RTVSPropertyOp8
 70
     1
102
RTVSPropertyOp9
 70
     1
102
RTVSPropertyOp10
 70
     1
102
RTVSPropertyOp11
 70
     1
102
RTVSPropertyOp12
 70
     1
102
RTVSPropertyOp13
 70
     1
102
RTVSPropertyOp14
 70
     1
102
RTVSPropertyOp15
 70
     1
102
RTVSPropertyOp16
 70
     1
102
RTVSPropertyOp17
 70
     1
102
RTVSPropertyOp18
 70
     1
102
RTVSPropertyOp19
 70
     1
102
RTVSPropertyOp20
 70
     1
102
RTVSPropertyOp21
 70
     1
102
RTVSPropertyOp22
 70
     1
102
RTVSPropertyOp23
 70
     1
102
RTVSPropertyOp24
 70
     1
102
RTVSPropertyOp25
 70
     1
102
RTVSPropertyOp26
 70
     1
102
RTVSPropertyOp27
 70
     1
102
RTVSPropertyOp28
 70
     1
102
RTVSPropertyOp29
 70
     1
102
RTVSPropertyOp30
 70
     1
102
RTVSPropertyOp31
 70
     1
102
RTVSPropertyOp32
 70
     1
102
RTVSPropertyOp33
 70
     1
102
RTVSPropertyOp34
 70
     1
102
RTVSPropertyOp35
 70
     1
102
RTVSPropertyOp36
 70
     1
102
RTVSPropertyOp37
 70
     1
102
RTVSPropertyOp38
 70
     1
102
RTVSPropertyOp39
 70
     1
102
RTVSPropertyOp40
 70
     1
102
RTVSPropertyOp41
 70
     1
102
RTVSPropertyOp42
 70
     1
102
RTVSPropertyOp43
 70
     1
102
RTVSPropertyOp44
 70
     1
102
RTVSPropertyOp45
 70
     1
102
RTVSPropertyOp46
 70
     1
102
RTVSPropertyOp47
 70
     1
102
RTVSPropertyOp48
 70
     1
102
RTVSPropertyOp49
 70
     1
102
RTVSPropertyOp50
 70
     1
102
RTVSPropertyOp51
 70
     0
102
RTVSPropertyOp52
 70
     0
102
RTVSPropertyOp53
 70
     1
102
RTVSPropertyOp54
 70
     1
102
RTVSPropertyOp55
 70
     1
102
RTVSPropertyOp56
 70
     1
102
RTVSPropertyOp57
 70
     1
102
RTVSPropertyOp58
 70
     1
102
RTVSPropertyOp59
 70
     1
102
RTVSPropertyOp60
 70
     1
102
RTVSPropertyOp61
 70
     1
102
RTVSPropertyOp62
 70
     1
  0
XRECORD
  5
970
102
{ACAD_REACTORS
330
96F
102
}
330
96F
100
AcDbXrecord
280
     1
102
RTVSPost2010Prop28
280
     0
102
RTVSPost2010PropOp28
 70
     1
102
RTVSPost2010Prop29
280
     1
102
RTVSPost2010PropOp29
 70
     1
102
RTVSPost2010Prop30
280
     1
102
RTVSPost2010PropOp30
 70
     1
102
RTVSPost2010Prop31
280
     0
102
RTVSPost2010PropOp31
 70
     1
102
RTVSPost2010Prop32
280
     0
102
RTVSPost2010PropOp32
 70
     1
102
RTVSPost2010Prop33
280
     0
102
RTVSPost2010PropOp33
 70
     1
102
RTVSPost2010Prop34
280
     0
102
RTVSPost2010PropOp34
 70
     1
102
RTVSPost2010Prop35
280
     0
102
RTVSPost2010PropOp35
 70
     1
102
RTVSPost2010Prop36
280
     0
102
RTVSPost2010PropOp36
 70
     1
102
RTVSPost2010Prop37
 90
       50
102
RTVSPost2010PropOp37
 70
     1
102
RTVSPost2010Prop38
140
0.0
102
RTVSPost2010PropOp38
 70
     1
102
RTVSPost2010Prop39
140
1.0
102
RTVSPost2010PropOp39
 70
     1
102
RTVSPost2010Prop40
 90
        0
102
RTVSPost2010PropOp40
 70
     1
102
RTVSPost2010Prop41ColorIndex
 90
       18
102
RTVSPost2010Prop41ColorRGB
 90
        0
102
RTVSPost2010PropOp41
 70
     1
102
RTVSPost2010Prop42
 90
       50
102
RTVSPost2010PropOp42
 70
     1
102
RTVSPost2010Prop43
 90
        3
102
RTVSPost2010PropOp43
 70
     1
102
RTVSPost2010Prop44ColorIndex
 90
        5
102
RTVSPost2010Prop44ColorRGB
 90
      255
102
RTVSPost2010PropOp44
 70
     1
102
RTVSPost2010Prop45
280
     0
102
RTVSPost2010PropOp45
 70
     1
102
RTVSPost2010Prop46
 90
       50
102
RTVSPost2010PropOp46
 70
     1
102
RTVSPost2010Prop47
 90
       50
102
RTVSPost2010PropOp47
 70
     1
102
RTVSPost2010Prop48
 90
       50
102
RTVSPost2010PropOp48
 70
     1
102
RTVSPost2010Prop49
280
     0
102
RTVSPost2010PropOp49
 70
     1
102
RTVSPost2010Prop50
 90
       50
102
RTVSPost2010PropOp50
 70
     1
102
RTVSPost2010Prop51ColorIndex
 90
      256
102
RTVSPost2010Prop51ColorRGB
 90
-16777216
102
RTVSPost2010PropOp51
 70
     0
102
RTVSPost2010Prop52
140
1.0
102
RTVSPost2010PropOp52
 70
     0
102
RTVSPost2010Prop53
 90
        2
102
RTVSPost2010PropOp53
 70
     1
102
RTVSPost2010Prop54
  1
strokes_ogs.tif
102
RTVSPost2010PropOp54
 70
     1
102
RTVSPost2010Prop55
280
     0
102
RTVSPost2010PropOp55
 70
     1
102
RTVSPost2010Prop56
140
1.0
102
RTVSPost2010PropOp56
 70
     1
102
RTVSPost2010Prop57
140
1.0
102
RTVSPost2010PropOp57
 70
     1
102
RTVSPropertyOp0
 70
     1
102
RTVSPropertyOp1
 70
     1
102
RTVSPropertyOp2
 70
     1
102
RTVSPropertyOp3
 70
     1
102
RTVSPropertyOp4
 70
     1
102
RTVSPropertyOp5
 70
     1
102
RTVSPropertyOp6
 70
     1
102
RTVSPropertyOp7
 70
     1
102
RTVSPropertyOp8
 70
     1
102
RTVSPropertyOp9
 70
     1
102
RTVSPropertyOp10
 70
     1
102
RTVSPropertyOp11
 70
     1
102
RTVSPropertyOp12
 70
     1
102
RTVSPropertyOp13
 70
     1
102
RTVSPropertyOp14
 70
     1
102
RTVSPropertyOp15
 70
     1
102
RTVSPropertyOp16
 70
     1
102
RTVSPropertyOp17
 70
     1
102
RTVSPropertyOp18
 70
     1
102
RTVSPropertyOp19
 70
     1
102
RTVSPropertyOp20
 70
     1
102
RTVSPropertyOp21
 70
     1
102
RTVSPropertyOp22
 70
     1
102
RTVSPropertyOp23
 70
     1
102
RTVSPropertyOp24
 70
     1
102
RTVSPropertyOp25
 70
     1
102
RTVSPropertyOp26
 70
     1
102
RTVSPropertyOp27
 70
     1
102
RTVSPropertyOp28
 70
     1
102
RTVSPropertyOp29
 70
     1
102
RTVSPropertyOp30
 70
     1
102
RTVSPropertyOp31
 70
     1
102
RTVSPropertyOp32
 70
     1
102
RTVSPropertyOp33
 70
     1
102
RTVSPropertyOp34
 70
     1
102
RTVSPropertyOp35
 70
     1
102
RTVSPropertyOp36
 70
     1
102
RTVSPropertyOp37
 70
     1
102
RTVSPropertyOp38
 70
     1
102
RTVSPropertyOp39
 70
     1
102
RTVSPropertyOp40
 70
     1
102
RTVSPropertyOp41
 70
     1
102
RTVSPropertyOp42
 70
     1
102
RTVSPropertyOp43
 70
     1
102
RTVSPropertyOp44
 70
     1
102
RTVSPropertyOp45
 70
     1
102
RTVSPropertyOp46
 70
     1
102
RTVSPropertyOp47
 70
     1
102
RTVSPropertyOp48
 70
     1
102
RTVSPropertyOp49
 70
     1
102
RTVSPropertyOp50
 70
     1
102
RTVSPropertyOp51
 70
     0
102
RTVSPropertyOp52
 70
     0
102
RTVSPropertyOp53
 70
     1
102
RTVSPropertyOp54
 70
     1
102
RTVSPropertyOp55
 70
     1
102
RTVSPropertyOp56
 70
     1
102
RTVSPropertyOp57
 70
     1
102
RTVSPropertyOp58
 70
     1
102
RTVSPropertyOp59
 70
     1
102
RTVSPropertyOp60
 70
     1
102
RTVSPropertyOp61
 70
     1
102
RTVSPropertyOp62
 70
     1
  0
XRECORD
  5
972
102
{ACAD_REACTORS
330
971
102
}
330
971
100
AcDbXrecord
280
     1
102
RTVSPost2010Prop28
280
     0
102
RTVSPost2010PropOp28
 70
     1
102
RTVSPost2010Prop29
280
     1
102
RTVSPost2010PropOp29
 70
     1
102
RTVSPost2010Prop30
280
     1
102
RTVSPost2010PropOp30
 70
     1
102
RTVSPost2010Prop31
280
     0
102
RTVSPost2010PropOp31
 70
     1
102
RTVSPost2010Prop32
280
     0
102
RTVSPost2010PropOp32
 70
     1
102
RTVSPost2010Prop33
280
     0
102
RTVSPost2010PropOp33
 70
     1
102
RTVSPost2010Prop34
280
     0
102
RTVSPost2010PropOp34
 70
     1
102
RTVSPost2010Prop35
280
     0
102
RTVSPost2010PropOp35
 70
     1
102
RTVSPost2010Prop36
280
     0
102
RTVSPost2010PropOp36
 70
     1
102
RTVSPost2010Prop37
 90
       50
102
RTVSPost2010PropOp37
 70
     1
102
RTVSPost2010Prop38
140
0.0
102
RTVSPost2010PropOp38
 70
     1
102
RTVSPost2010Prop39
140
1.0
102
RTVSPost2010PropOp39
 70
     1
102
RTVSPost2010Prop40
 90
        0
102
RTVSPost2010PropOp40
 70
     1
102
RTVSPost2010Prop41ColorIndex
 90
       18
102
RTVSPost2010Prop41ColorRGB
 90
        0
102
RTVSPost2010PropOp41
 70
     1
102
RTVSPost2010Prop42
 90
       50
102
RTVSPost2010PropOp42
 70
     1
102
RTVSPost2010Prop43
 90
        3
102
RTVSPost2010PropOp43
 70
     1
102
RTVSPost2010Prop44ColorIndex
 90
        5
102
RTVSPost2010Prop44ColorRGB
 90
      255
102
RTVSPost2010PropOp44
 70
     1
102
RTVSPost2010Prop45
280
     0
102
RTVSPost2010PropOp45
 70
     1
102
RTVSPost2010Prop46
 90
       50
102
RTVSPost2010PropOp46
 70
     1
102
RTVSPost2010Prop47
 90
       50
102
RTVSPost2010PropOp47
 70
     1
102
RTVSPost2010Prop48
 90
       50
102
RTVSPost2010PropOp48
 70
     1
102
RTVSPost2010Prop49
280
     0
102
RTVSPost2010PropOp49
 70
     1
102
RTVSPost2010Prop50
 90
       50
102
RTVSPost2010PropOp50
 70
     1
102
RTVSPost2010Prop51ColorIndex
 90
      256
102
RTVSPost2010Prop51ColorRGB
 90
-16777216
102
RTVSPost2010PropOp51
 70
     0
102
RTVSPost2010Prop52
140
1.0
102
RTVSPost2010PropOp52
 70
     0
102
RTVSPost2010Prop53
 90
        2
102
RTVSPost2010PropOp53
 70
     1
102
RTVSPost2010Prop54
  1
strokes_ogs.tif
102
RTVSPost2010PropOp54
 70
     1
102
RTVSPost2010Prop55
280
     0
102
RTVSPost2010PropOp55
 70
     1
102
RTVSPost2010Prop56
140
1.0
102
RTVSPost2010PropOp56
 70
     1
102
RTVSPost2010Prop57
140
1.0
102
RTVSPost2010PropOp57
 70
     1
102
RTVSPropertyOp0
 70
     1
102
RTVSPropertyOp1
 70
     1
102
RTVSPropertyOp2
 70
     1
102
RTVSPropertyOp3
 70
     1
102
RTVSPropertyOp4
 70
     1
102
RTVSPropertyOp5
 70
     1
102
RTVSPropertyOp6
 70
     1
102
RTVSPropertyOp7
 70
     1
102
RTVSPropertyOp8
 70
     1
102
RTVSPropertyOp9
 70
     1
102
RTVSPropertyOp10
 70
     1
102
RTVSPropertyOp11
 70
     1
102
RTVSPropertyOp12
 70
     1
102
RTVSPropertyOp13
 70
     1
102
RTVSPropertyOp14
 70
     1
102
RTVSPropertyOp15
 70
     1
102
RTVSPropertyOp16
 70
     1
102
RTVSPropertyOp17
 70
     1
102
RTVSPropertyOp18
 70
     1
102
RTVSPropertyOp19
 70
     1
102
RTVSPropertyOp20
 70
     1
102
RTVSPropertyOp21
 70
     1
102
RTVSPropertyOp22
 70
     1
102
RTVSPropertyOp23
 70
     1
102
RTVSPropertyOp24
 70
     1
102
RTVSPropertyOp25
 70
     1
102
RTVSPropertyOp26
 70
     1
102
RTVSPropertyOp27
 70
     1
102
RTVSPropertyOp28
 70
     1
102
RTVSPropertyOp29
 70
     1
102
RTVSPropertyOp30
 70
     1
102
RTVSPropertyOp31
 70
     1
102
RTVSPropertyOp32
 70
     1
102
RTVSPropertyOp33
 70
     1
102
RTVSPropertyOp34
 70
     1
102
RTVSPropertyOp35
 70
     1
102
RTVSPropertyOp36
 70
     1
102
RTVSPropertyOp37
 70
     1
102
RTVSPropertyOp38
 70
     1
102
RTVSPropertyOp39
 70
     1
102
RTVSPropertyOp40
 70
     1
102
RTVSPropertyOp41
 70
     1
102
RTVSPropertyOp42
 70
     1
102
RTVSPropertyOp43
 70
     1
102
RTVSPropertyOp44
 70
     1
102
RTVSPropertyOp45
 70
     1
102
RTVSPropertyOp46
 70
     1
102
RTVSPropertyOp47
 70
     1
102
RTVSPropertyOp48
 70
     1
102
RTVSPropertyOp49
 70
     1
102
RTVSPropertyOp50
 70
     1
102
RTVSPropertyOp51
 70
     0
102
RTVSPropertyOp52
 70
     0
102
RTVSPropertyOp53
 70
     1
102
RTVSPropertyOp54
 70
     1
102
RTVSPropertyOp55
 70
     1
102
RTVSPropertyOp56
 70
     1
102
RTVSPropertyOp57
 70
     1
102
RTVSPropertyOp58
 70
     1
102
RTVSPropertyOp59
 70
     1
102
RTVSPropertyOp60
 70
     1
102
RTVSPropertyOp61
 70
     1
102
RTVSPropertyOp62
 70
     1
  0
XRECORD
  5
968
102
{ACAD_REACTORS
330
967
102
}
330
967
100
AcDbXrecord
280
     1
102
RTVSPost2010Prop28
280
     0
102
RTVSPost2010PropOp28
 70
     1
102
RTVSPost2010Prop29
280
     1
102
RTVSPost2010PropOp29
 70
     1
102
RTVSPost2010Prop30
280
     1
102
RTVSPost2010PropOp30
 70
     1
102
RTVSPost2010Prop31
280
     0
102
RTVSPost2010PropOp31
 70
     1
102
RTVSPost2010Prop32
280
     0
102
RTVSPost2010PropOp32
 70
     1
102
RTVSPost2010Prop33
280
     0
102
RTVSPost2010PropOp33
 70
     1
102
RTVSPost2010Prop34
280
     0
102
RTVSPost2010PropOp34
 70
     1
102
RTVSPost2010Prop35
280
     0
102
RTVSPost2010PropOp35
 70
     1
102
RTVSPost2010Prop36
280
     0
102
RTVSPost2010PropOp36
 70
     1
102
RTVSPost2010Prop37
 90
       50
102
RTVSPost2010PropOp37
 70
     1
102
RTVSPost2010Prop38
140
0.0
102
RTVSPost2010PropOp38
 70
     1
102
RTVSPost2010Prop39
140
1.0
102
RTVSPost2010PropOp39
 70
     1
102
RTVSPost2010Prop40
 90
        0
102
RTVSPost2010PropOp40
 70
     1
102
RTVSPost2010Prop41ColorIndex
 90
       18
102
RTVSPost2010Prop41ColorRGB
 90
        0
102
RTVSPost2010PropOp41
 70
     1
102
RTVSPost2010Prop42
 90
       50
102
RTVSPost2010PropOp42
 70
     1
102
RTVSPost2010Prop43
 90
        3
102
RTVSPost2010PropOp43
 70
     1
102
RTVSPost2010Prop44ColorIndex
 90
        5
102
RTVSPost2010Prop44ColorRGB
 90
      255
102
RTVSPost2010PropOp44
 70
     1
102
RTVSPost2010Prop45
280
     0
102
RTVSPost2010PropOp45
 70
     1
102
RTVSPost2010Prop46
 90
       50
102
RTVSPost2010PropOp46
 70
     1
102
RTVSPost2010Prop47
 90
       50
102
RTVSPost2010PropOp47
 70
     1
102
RTVSPost2010Prop48
 90
       50
102
RTVSPost2010PropOp48
 70
     1
102
RTVSPost2010Prop49
280
     0
102
RTVSPost2010PropOp49
 70
     1
102
RTVSPost2010Prop50
 90
       50
102
RTVSPost2010PropOp50
 70
     1
102
RTVSPost2010Prop51ColorIndex
 90
      256
102
RTVSPost2010Prop51ColorRGB
 90
-16777216
102
RTVSPost2010PropOp51
 70
     0
102
RTVSPost2010Prop52
140
1.0
102
RTVSPost2010PropOp52
 70
     0
102
RTVSPost2010Prop53
 90
        2
102
RTVSPost2010PropOp53
 70
     1
102
RTVSPost2010Prop54
  1
strokes_ogs.tif
102
RTVSPost2010PropOp54
 70
     1
102
RTVSPost2010Prop55
280
     0
102
RTVSPost2010PropOp55
 70
     1
102
RTVSPost2010Prop56
140
1.0
102
RTVSPost2010PropOp56
 70
     1
102
RTVSPost2010Prop57
140
1.0
102
RTVSPost2010PropOp57
 70
     1
102
RTVSPropertyOp0
 70
     1
102
RTVSPropertyOp1
 70
     1
102
RTVSPropertyOp2
 70
     1
102
RTVSPropertyOp3
 70
     1
102
RTVSPropertyOp4
 70
     1
102
RTVSPropertyOp5
 70
     1
102
RTVSPropertyOp6
 70
     1
102
RTVSPropertyOp7
 70
     1
102
RTVSPropertyOp8
 70
     1
102
RTVSPropertyOp9
 70
     1
102
RTVSPropertyOp10
 70
     1
102
RTVSPropertyOp11
 70
     1
102
RTVSPropertyOp12
 70
     1
102
RTVSPropertyOp13
 70
     1
102
RTVSPropertyOp14
 70
     1
102
RTVSPropertyOp15
 70
     1
102
RTVSPropertyOp16
 70
     1
102
RTVSPropertyOp17
 70
     1
102
RTVSPropertyOp18
 70
     1
102
RTVSPropertyOp19
 70
     1
102
RTVSPropertyOp20
 70
     1
102
RTVSPropertyOp21
 70
     1
102
RTVSPropertyOp22
 70
     1
102
RTVSPropertyOp23
 70
     1
102
RTVSPropertyOp24
 70
     1
102
RTVSPropertyOp25
 70
     1
102
RTVSPropertyOp26
 70
     1
102
RTVSPropertyOp27
 70
     1
102
RTVSPropertyOp28
 70
     1
102
RTVSPropertyOp29
 70
     1
102
RTVSPropertyOp30
 70
     1
102
RTVSPropertyOp31
 70
     1
102
RTVSPropertyOp32
 70
     1
102
RTVSPropertyOp33
 70
     1
102
RTVSPropertyOp34
 70
     1
102
RTVSPropertyOp35
 70
     1
102
RTVSPropertyOp36
 70
     1
102
RTVSPropertyOp37
 70
     1
102
RTVSPropertyOp38
 70
     1
102
RTVSPropertyOp39
 70
     1
102
RTVSPropertyOp40
 70
     1
102
RTVSPropertyOp41
 70
     1
102
RTVSPropertyOp42
 70
     1
102
RTVSPropertyOp43
 70
     1
102
RTVSPropertyOp44
 70
     1
102
RTVSPropertyOp45
 70
     1
102
RTVSPropertyOp46
 70
     1
102
RTVSPropertyOp47
 70
     1
102
RTVSPropertyOp48
 70
     1
102
RTVSPropertyOp49
 70
     1
102
RTVSPropertyOp50
 70
     1
102
RTVSPropertyOp51
 70
     0
102
RTVSPropertyOp52
 70
     0
102
RTVSPropertyOp53
 70
     1
102
RTVSPropertyOp54
 70
     1
102
RTVSPropertyOp55
 70
     1
102
RTVSPropertyOp56
 70
     1
102
RTVSPropertyOp57
 70
     1
102
RTVSPropertyOp58
 70
     1
102
RTVSPropertyOp59
 70
     1
102
RTVSPropertyOp60
 70
     1
102
RTVSPropertyOp61
 70
     1
102
RTVSPropertyOp62
 70
     1
  0
XRECORD
  5
95C
102
{ACAD_REACTORS
330
95B
102
}
330
95B
100
AcDbXrecord
280
     1
102
RTVSPost2010Prop28
280
     0
102
RTVSPost2010PropOp28
 70
     1
102
RTVSPost2010Prop29
280
     1
102
RTVSPost2010PropOp29
 70
     1
102
RTVSPost2010Prop30
280
     1
102
RTVSPost2010PropOp30
 70
     1
102
RTVSPost2010Prop31
280
     0
102
RTVSPost2010PropOp31
 70
     1
102
RTVSPost2010Prop32
280
     0
102
RTVSPost2010PropOp32
 70
     1
102
RTVSPost2010Prop33
280
     0
102
RTVSPost2010PropOp33
 70
     1
102
RTVSPost2010Prop34
280
     0
102
RTVSPost2010PropOp34
 70
     1
102
RTVSPost2010Prop35
280
     0
102
RTVSPost2010PropOp35
 70
     1
102
RTVSPost2010Prop36
280
     0
102
RTVSPost2010PropOp36
 70
     1
102
RTVSPost2010Prop37
 90
       50
102
RTVSPost2010PropOp37
 70
     1
102
RTVSPost2010Prop38
140
0.0
102
RTVSPost2010PropOp38
 70
     1
102
RTVSPost2010Prop39
140
1.0
102
RTVSPost2010PropOp39
 70
     1
102
RTVSPost2010Prop40
 90
        0
102
RTVSPost2010PropOp40
 70
     1
102
RTVSPost2010Prop41ColorIndex
 90
       18
102
RTVSPost2010Prop41ColorRGB
 90
        0
102
RTVSPost2010PropOp41
 70
     1
102
RTVSPost2010Prop42
 90
       50
102
RTVSPost2010PropOp42
 70
     1
102
RTVSPost2010Prop43
 90
        3
102
RTVSPost2010PropOp43
 70
     1
102
RTVSPost2010Prop44ColorIndex
 90
        5
102
RTVSPost2010Prop44ColorRGB
 90
      255
102
RTVSPost2010PropOp44
 70
     1
102
RTVSPost2010Prop45
280
     0
102
RTVSPost2010PropOp45
 70
     1
102
RTVSPost2010Prop46
 90
       50
102
RTVSPost2010PropOp46
 70
     1
102
RTVSPost2010Prop47
 90
       50
102
RTVSPost2010PropOp47
 70
     1
102
RTVSPost2010Prop48
 90
       50
102
RTVSPost2010PropOp48
 70
     1
102
RTVSPost2010Prop49
280
     0
102
RTVSPost2010PropOp49
 70
     1
102
RTVSPost2010Prop50
 90
       50
102
RTVSPost2010PropOp50
 70
     1
102
RTVSPost2010Prop51ColorIndex
 90
      256
102
RTVSPost2010Prop51ColorRGB
 90
-16777216
102
RTVSPost2010PropOp51
 70
     0
102
RTVSPost2010Prop52
140
1.0
102
RTVSPost2010PropOp52
 70
     0
102
RTVSPost2010Prop53
 90
        2
102
RTVSPost2010PropOp53
 70
     1
102
RTVSPost2010Prop54
  1
strokes_ogs.tif
102
RTVSPost2010PropOp54
 70
     1
102
RTVSPost2010Prop55
280
     0
102
RTVSPost2010PropOp55
 70
     1
102
RTVSPost2010Prop56
140
1.0
102
RTVSPost2010PropOp56
 70
     1
102
RTVSPost2010Prop57
140
1.0
102
RTVSPost2010PropOp57
 70
     1
102
RTVSPropertyOp0
 70
     1
102
RTVSPropertyOp1
 70
     1
102
RTVSPropertyOp2
 70
     1
102
RTVSPropertyOp3
 70
     1
102
RTVSPropertyOp4
 70
     1
102
RTVSPropertyOp5
 70
     1
102
RTVSPropertyOp6
 70
     1
102
RTVSPropertyOp7
 70
     1
102
RTVSPropertyOp8
 70
     1
102
RTVSPropertyOp9
 70
     1
102
RTVSPropertyOp10
 70
     1
102
RTVSPropertyOp11
 70
     1
102
RTVSPropertyOp12
 70
     1
102
RTVSPropertyOp13
 70
     1
102
RTVSPropertyOp14
 70
     1
102
RTVSPropertyOp15
 70
     1
102
RTVSPropertyOp16
 70
     1
102
RTVSPropertyOp17
 70
     1
102
RTVSPropertyOp18
 70
     1
102
RTVSPropertyOp19
 70
     1
102
RTVSPropertyOp20
 70
     1
102
RTVSPropertyOp21
 70
     1
102
RTVSPropertyOp22
 70
     1
102
RTVSPropertyOp23
 70
     1
102
RTVSPropertyOp24
 70
     1
102
RTVSPropertyOp25
 70
     1
102
RTVSPropertyOp26
 70
     1
102
RTVSPropertyOp27
 70
     1
102
RTVSPropertyOp28
 70
     1
102
RTVSPropertyOp29
 70
     1
102
RTVSPropertyOp30
 70
     1
102
RTVSPropertyOp31
 70
     1
102
RTVSPropertyOp32
 70
     1
102
RTVSPropertyOp33
 70
     1
102
RTVSPropertyOp34
 70
     1
102
RTVSPropertyOp35
 70
     1
102
RTVSPropertyOp36
 70
     1
102
RTVSPropertyOp37
 70
     1
102
RTVSPropertyOp38
 70
     1
102
RTVSPropertyOp39
 70
     1
102
RTVSPropertyOp40
 70
     1
102
RTVSPropertyOp41
 70
     1
102
RTVSPropertyOp42
 70
     1
102
RTVSPropertyOp43
 70
     1
102
RTVSPropertyOp44
 70
     1
102
RTVSPropertyOp45
 70
     1
102
RTVSPropertyOp46
 70
     1
102
RTVSPropertyOp47
 70
     1
102
RTVSPropertyOp48
 70
     1
102
RTVSPropertyOp49
 70
     1
102
RTVSPropertyOp50
 70
     1
102
RTVSPropertyOp51
 70
     0
102
RTVSPropertyOp52
 70
     0
102
RTVSPropertyOp53
 70
     1
102
RTVSPropertyOp54
 70
     1
102
RTVSPropertyOp55
 70
     1
102
RTVSPropertyOp56
 70
     1
102
RTVSPropertyOp57
 70
     1
102
RTVSPropertyOp58
 70
     1
102
RTVSPropertyOp59
 70
     1
102
RTVSPropertyOp60
 70
     1
102
RTVSPropertyOp61
 70
     1
102
RTVSPropertyOp62
 70
     1
  0
XRECORD
  5
974
102
{ACAD_REACTORS
330
973
102
}
330
973
100
AcDbXrecord
280
     1
102
RTVSPost2010Prop28
280
     0
102
RTVSPost2010PropOp28
 70
     1
102
RTVSPost2010Prop29
280
     1
102
RTVSPost2010PropOp29
 70
     1
102
RTVSPost2010Prop30
280
     1
102
RTVSPost2010PropOp30
 70
     1
102
RTVSPost2010Prop31
280
     0
102
RTVSPost2010PropOp31
 70
     1
102
RTVSPost2010Prop32
280
     0
102
RTVSPost2010PropOp32
 70
     1
102
RTVSPost2010Prop33
280
     0
102
RTVSPost2010PropOp33
 70
     1
102
RTVSPost2010Prop34
280
     0
102
RTVSPost2010PropOp34
 70
     1
102
RTVSPost2010Prop35
280
     0
102
RTVSPost2010PropOp35
 70
     1
102
RTVSPost2010Prop36
280
     0
102
RTVSPost2010PropOp36
 70
     1
102
RTVSPost2010Prop37
 90
       50
102
RTVSPost2010PropOp37
 70
     1
102
RTVSPost2010Prop38
140
0.0
102
RTVSPost2010PropOp38
 70
     1
102
RTVSPost2010Prop39
140
1.0
102
RTVSPost2010PropOp39
 70
     1
102
RTVSPost2010Prop40
 90
        0
102
RTVSPost2010PropOp40
 70
     1
102
RTVSPost2010Prop41ColorIndex
 90
       18
102
RTVSPost2010Prop41ColorRGB
 90
        0
102
RTVSPost2010PropOp41
 70
     1
102
RTVSPost2010Prop42
 90
       50
102
RTVSPost2010PropOp42
 70
     1
102
RTVSPost2010Prop43
 90
        3
102
RTVSPost2010PropOp43
 70
     1
102
RTVSPost2010Prop44ColorIndex
 90
        5
102
RTVSPost2010Prop44ColorRGB
 90
      255
102
RTVSPost2010PropOp44
 70
     1
102
RTVSPost2010Prop45
280
     0
102
RTVSPost2010PropOp45
 70
     1
102
RTVSPost2010Prop46
 90
       50
102
RTVSPost2010PropOp46
 70
     1
102
RTVSPost2010Prop47
 90
       50
102
RTVSPost2010PropOp47
 70
     1
102
RTVSPost2010Prop48
 90
       50
102
RTVSPost2010PropOp48
 70
     1
102
RTVSPost2010Prop49
280
     0
102
RTVSPost2010PropOp49
 70
     1
102
RTVSPost2010Prop50
 90
       50
102
RTVSPost2010PropOp50
 70
     1
102
RTVSPost2010Prop51ColorIndex
 90
      256
102
RTVSPost2010Prop51ColorRGB
 90
-16777216
102
RTVSPost2010PropOp51
 70
     0
102
RTVSPost2010Prop52
140
1.0
102
RTVSPost2010PropOp52
 70
     0
102
RTVSPost2010Prop53
 90
        2
102
RTVSPost2010PropOp53
 70
     1
102
RTVSPost2010Prop54
  1
strokes_ogs.tif
102
RTVSPost2010PropOp54
 70
     1
102
RTVSPost2010Prop55
280
     0
102
RTVSPost2010PropOp55
 70
     1
102
RTVSPost2010Prop56
140
1.0
102
RTVSPost2010PropOp56
 70
     1
102
RTVSPost2010Prop57
140
1.0
102
RTVSPost2010PropOp57
 70
     1
102
RTVSPropertyOp0
 70
     1
102
RTVSPropertyOp1
 70
     1
102
RTVSPropertyOp2
 70
     1
102
RTVSPropertyOp3
 70
     1
102
RTVSPropertyOp4
 70
     1
102
RTVSPropertyOp5
 70
     1
102
RTVSPropertyOp6
 70
     1
102
RTVSPropertyOp7
 70
     1
102
RTVSPropertyOp8
 70
     1
102
RTVSPropertyOp9
 70
     1
102
RTVSPropertyOp10
 70
     1
102
RTVSPropertyOp11
 70
     1
102
RTVSPropertyOp12
 70
     1
102
RTVSPropertyOp13
 70
     1
102
RTVSPropertyOp14
 70
     1
102
RTVSPropertyOp15
 70
     1
102
RTVSPropertyOp16
 70
     1
102
RTVSPropertyOp17
 70
     1
102
RTVSPropertyOp18
 70
     1
102
RTVSPropertyOp19
 70
     1
102
RTVSPropertyOp20
 70
     1
102
RTVSPropertyOp21
 70
     1
102
RTVSPropertyOp22
 70
     1
102
RTVSPropertyOp23
 70
     1
102
RTVSPropertyOp24
 70
     1
102
RTVSPropertyOp25
 70
     1
102
RTVSPropertyOp26
 70
     1
102
RTVSPropertyOp27
 70
     1
102
RTVSPropertyOp28
 70
     1
102
RTVSPropertyOp29
 70
     1
102
RTVSPropertyOp30
 70
     1
102
RTVSPropertyOp31
 70
     1
102
RTVSPropertyOp32
 70
     1
102
RTVSPropertyOp33
 70
     1
102
RTVSPropertyOp34
 70
     1
102
RTVSPropertyOp35
 70
     1
102
RTVSPropertyOp36
 70
     1
102
RTVSPropertyOp37
 70
     1
102
RTVSPropertyOp38
 70
     1
102
RTVSPropertyOp39
 70
     1
102
RTVSPropertyOp40
 70
     1
102
RTVSPropertyOp41
 70
     1
102
RTVSPropertyOp42
 70
     1
102
RTVSPropertyOp43
 70
     1
102
RTVSPropertyOp44
 70
     1
102
RTVSPropertyOp45
 70
     1
102
RTVSPropertyOp46
 70
     1
102
RTVSPropertyOp47
 70
     1
102
RTVSPropertyOp48
 70
     1
102
RTVSPropertyOp49
 70
     1
102
RTVSPropertyOp50
 70
     1
102
RTVSPropertyOp51
 70
     0
102
RTVSPropertyOp52
 70
     0
102
RTVSPropertyOp53
 70
     1
102
RTVSPropertyOp54
 70
     1
102
RTVSPropertyOp55
 70
     1
102
RTVSPropertyOp56
 70
     1
102
RTVSPropertyOp57
 70
     1
102
RTVSPropertyOp58
 70
     1
102
RTVSPropertyOp59
 70
     1
102
RTVSPropertyOp60
 70
     1
102
RTVSPropertyOp61
 70
     1
102
RTVSPropertyOp62
 70
     1
  0
ENDSEC
  0
EOF
