  0
SECTION
  2
HEADER
  9
$ACADVER
  1
AC1015
  9
$ACADMAINTVER
 70
    20
  9
$DWGCODEPAGE
  3
ANSI_932
  9
$INSBASE
 10
0.0
 20
0.0
 30
0.0
  9
$EXTMIN
 10
-1401.11128119082
 20
-842.1294908393029
 30
-0.0015258207003583
  9
$EXTMAX
 10
1159.32115674236
 20
1053.32081046842
 30
0.0000000349246037
  9
$LIMMIN
 10
-4267.152221060483
 20
-2696.083210198413
  9
$LIMMAX
 10
7190.717422586465
 20
5141.155363923066
  9
$ORTHOMODE
 70
     0
  9
$REGENMODE
 70
     1
  9
$FILLMODE
 70
     1
  9
$QTEXTMODE
 70
     0
  9
$MIRRTEXT
 70
     0
  9
$LTSCALE
 40
20.0
  9
$ATTMODE
 70
     1
  9
$TEXTSIZE
 40
60.0
  9
$TRACEWID
 40
0.05
  9
$TEXTSTYLE
  7
STANDARD1
  9
$CLAYER
  8
NOTE
  9
$CELTYPE
  6
CONTINUOUS
  9
$CECOLOR
 62
     7
  9
$CELTSCALE
 40
1.0
  9
$DISPSILH
 70
     0
  9
$DIMSCALE
 40
1.0
  9
$DIMASZ
 40
30.0
  9
$DIMEXO
 40
20.0
  9
$DIMDLI
 40
80.0
  9
$DIMRND
 40
0.0
  9
$DIMDLE
 40
0.0
  9
$DIMEXE
 40
20.0
  9
$DIMTP
 40
0.0
  9
$DIMTM
 40
0.0
  9
$DIMTXT
 40
40.0
  9
$DIMCEN
 40
0.09
  9
$DIMTSZ
 40
0.0
  9
$DIMTOL
 70
     0
  9
$DIMLIM
 70
     0
  9
$DIMTIH
 70
     0
  9
$DIMTOH
 70
     0
  9
$DIMSE1
 70
     0
  9
$DIMSE2
 70
     0
  9
$DIMTAD
 70
     1
  9
$DIMZIN
 70
     8
  9
$DIMBLK
  1

  9
$DIMASO
 70
     1
  9
$DIMSHO
 70
     0
  9
$DIMPOST
  1

  9
$DIMAPOST
  1

  9
$DIMALT
 70
     0
  9
$DIMALTD
 70
     2
  9
$DIMALTF
 40
25.4
  9
$DIMLFAC
 40
1.0
  9
$DIMTOFL
 70
     1
  9
$DIMTVP
 40
0.0
  9
$DIMTIX
 70
     0
  9
$DIMSOXD
 70
     0
  9
$DIMSAH
 70
     0
  9
$DIMBLK1
  1

  9
$DIMBLK2
  1

  9
$DIMSTYLE
  2
Standard
  9
$DIMCLRD
 70
     0
  9
$DIMCLRE
 70
     0
  9
$DIMCLRT
 70
     0
  9
$DIMTFAC
 40
1.0
  9
$DIMGAP
 40
0.09
  9
$DIMJUST
 70
     0
  9
$DIMSD1
 70
     0
  9
$DIMSD2
 70
     0
  9
$DIMTOLJ
 70
     1
  9
$DIMTZIN
 70
     0
  9
$DIMALTZ
 70
     0
  9
$DIMALTTZ
 70
     0
  9
$DIMUPT
 70
     0
  9
$DIMDEC
 70
     4
  9
$DIMTDEC
 70
     4
  9
$DIMALTU
 70
     2
  9
$DIMALTTD
 70
     2
  9
$DIMTXSTY
  7
STANDARD
  9
$DIMAUNIT
 70
     0
  9
$DIMADEC
 70
     0
  9
$DIMALTRND
 40
0.0
  9
$DIMAZIN
 70
     0
  9
$DIMDSEP
 70
    46
  9
$DIMATFIT
 70
     3
  9
$DIMFRAC
 70
     0
  9
$DIMLDRBLK
  1

  9
$DIMLUNIT
 70
     2
  9
$DIMLWD
 70
    -2
  9
$DIMLWE
 70
    -2
  9
$DIMTMOVE
 70
     0
  9
$LUNITS
 70
     2
  9
$LUPREC
 70
     4
  9
$SKETCHINC
 40
0.1
  9
$FILLETRAD
 40
0.0
  9
$AUNITS
 70
     1
  9
$AUPREC
 70
     3
  9
$MENU
  1
ACAD
  9
$ELEVATION
 40
0.0
  9
$PELEVATION
 40
0.0
  9
$THICKNESS
 40
0.0
  9
$LIMCHECK
 70
     0
  9
$CHAMFERA
 40
0.0
  9
$CHAMFERB
 40
0.0
  9
$CHAMFERC
 40
0.0
  9
$CHAMFERD
 40
0.0
  9
$SKPOLY
 70
     0
  9
$TDCREATE
 40
2455902.607164352
  9
$TDUCREATE
 40
2455902.232164352
  9
$TDUPDATE
 40
2459100.608078704
  9
$TDUUPDATE
 40
2459100.233078704
  9
$TDINDWG
 40
1.6978976968
  9
$TDUSRTIMER
 40
1.6978940856
  9
$USRTIMER
 70
     1
  9
$ANGBASE
 50
0.0
  9
$ANGDIR
 70
     0
  9
$PDMODE
 70
     3
  9
$PDSIZE
 40
-2.0
  9
$PLINEWID
 40
0.0
  9
$SPLFRAME
 70
     0
  9
$SPLINETYPE
 70
     6
  9
$SPLINESEGS
 70
     8
  9
$HANDSEED
  5
451
  9
$SURFTAB1
 70
     6
  9
$SURFTAB2
 70
     6
  9
$SURFTYPE
 70
     6
  9
$SURFU
 70
     6
  9
$SURFV
 70
     6
  9
$UCSBASE
  2

  9
$UCSNAME
  2

  9
$UCSORG
 10
0.0
 20
0.0
 30
0.0
  9
$UCSXDIR
 10
1.0
 20
0.0
 30
0.0
  9
$UCSYDIR
 10
0.0
 20
1.0
 30
0.0
  9
$UCSORTHOREF
  2

  9
$UCSORTHOVIEW
 70
     0
  9
$UCSORGTOP
 10
0.0
 20
0.0
 30
0.0
  9
$UCSORGBOTTOM
 10
0.0
 20
0.0
 30
0.0
  9
$UCSORGLEFT
 10
0.0
 20
0.0
 30
0.0
  9
$UCSORGRIGHT
 10
0.0
 20
0.0
 30
0.0
  9
$UCSORGFRONT
 10
0.0
 20
0.0
 30
0.0
  9
$UCSORGBACK
 10
0.0
 20
0.0
 30
0.0
  9
$PUCSBASE
  2

  9
$PUCSNAME
  2

  9
$PUCSORG
 10
0.0
 20
0.0
 30
0.0
  9
$PUCSXDIR
 10
1.0
 20
0.0
 30
0.0
  9
$PUCSYDIR
 10
0.0
 20
1.0
 30
0.0
  9
$PUCSORTHOREF
  2

  9
$PUCSORTHOVIEW
 70
     0
  9
$PUCSORGTOP
 10
0.0
 20
0.0
 30
0.0
  9
$PUCSORGBOTTOM
 10
0.0
 20
0.0
 30
0.0
  9
$PUCSORGLEFT
 10
0.0
 20
0.0
 30
0.0
  9
$PUCSORGRIGHT
 10
0.0
 20
0.0
 30
0.0
  9
$PUCSORGFRONT
 10
0.0
 20
0.0
 30
0.0
  9
$PUCSORGBACK
 10
0.0
 20
0.0
 30
0.0
  9
$USERI1
 70
     0
  9
$USERI2
 70
     0
  9
$USERI3
 70
     0
  9
$USERI4
 70
     0
  9
$USERI5
 70
     0
  9
$USERR1
 40
20.0
  9
$USERR2
 40
0.0
  9
$USERR3
 40
0.0
  9
$USERR4
 40
0.0
  9
$USERR5
 40
0.0
  9
$WORLDVIEW
 70
     1
  9
$SHADEDGE
 70
     3
  9
$SHADEDIF
 70
    70
  9
$TILEMODE
 70
     1
  9
$MAXACTVP
 70
    64
  9
$PINSBASE
 10
0.0
 20
0.0
 30
0.0
  9
$PLIMCHECK
 70
     0
  9
$PEXTMIN
 10
1.000000000000000E+20
 20
1.000000000000000E+20
 30
1.000000000000000E+20
  9
$PEXTMAX
 10
-1.000000000000000E+20
 20
-1.000000000000000E+20
 30
-1.000000000000000E+20
  9
$PLIMMIN
 10
0.0
 20
0.0
  9
$PLIMMAX
 10
12.0
 20
9.0
  9
$UNITMODE
 70
     0
  9
$VISRETAIN
 70
     1
  9
$PLINEGEN
 70
     0
  9
$PSLTSCALE
 70
     1
  9
$TREEDEPTH
 70
  3020
  9
$CMLSTYLE
  2
Standard
  9
$CMLJUST
 70
     0
  9
$CMLSCALE
 40
1.0
  9
$PROXYGRAPHICS
 70
     1
  9
$MEASUREMENT
 70
     0
  9
$CELWEIGHT
370
    -1
  9
$ENDCAPS
280
     0
  9
$JOINSTYLE
280
     0
  9
$LWDISPLAY
290
     0
  9
$INSUNITS
 70
     0
  9
$HYPERLINKBASE
  1

  9
$STYLESHEET
  1
monochrome.ctb
  9
$XEDIT
290
     1
  9
$CEPSNTYPE
380
     0
  9
$PSTYLEMODE
290
     1
  9
$FINGERPRINTGUID
  2
{26266BEC-EDDD-9944-8E46-3CA285800711}
  9
$VERSIONGUID
  2
{8D0381B0-CA9A-A847-BB6C-506162C25082}
  9
$EXTNAMES
290
     1
  9
$PSVPSCALE
 40
0.0
  9
$OLESTARTUP
290
     0
  0
ENDSEC
  0
SECTION
  2
CLASSES
  0
CLASS
  1
ACDBDICTIONARYWDFLT
  2
AcDbDictionaryWithDefault
  3
ObjectDBX Classes
 90
        0
280
     0
281
     0
  0
CLASS
  1
MATERIAL
  2
AcDbMaterial
  3
ObjectDBX Classes
 90
     1153
280
     0
281
     0
  0
CLASS
  1
VISUALSTYLE
  2
AcDbVisualStyle
  3
ObjectDBX Classes
 90
     4095
280
     0
281
     0
  0
CLASS
  1
SCALE
  2
AcDbScale
  3
ObjectDBX Classes
 90
     1153
280
     0
281
     0
  0
CLASS
  1
TABLESTYLE
  2
AcDbTableStyle
  3
ObjectDBX Classes
 90
     4095
280
     0
281
     0
  0
CLASS
  1
MLEADERSTYLE
  2
AcDbMLeaderStyle
  3
ACDB_MLEADERSTYLE_CLASS
 90
     4095
280
     0
281
     0
  0
CLASS
  1
ACDBSECTIONVIEWSTYLE
  2
AcDbSectionViewStyle
  3
ObjectDBX Classes
 90
     1025
280
     0
281
     0
  0
CLASS
  1
ACDBDETAILVIEWSTYLE
  2
AcDbDetailViewStyle
  3
ObjectDBX Classes
 90
     1025
280
     0
281
     0
  0
CLASS
  1
DICTIONARYVAR
  2
AcDbDictionaryVar
  3
ObjectDBX Classes
 90
        0
280
     0
281
     0
  0
CLASS
  1
CELLSTYLEMAP
  2
AcDbCellStyleMap
  3
ObjectDBX Classes
 90
     1152
280
     0
281
     0
  0
CLASS
  1
ACDBPLACEHOLDER
  2
AcDbPlaceHolder
  3
ObjectDBX Classes
 90
        0
280
     0
281
     0
  0
CLASS
  1
LAYOUT
  2
AcDbLayout
  3
ObjectDBX Classes
 90
        0
280
     0
281
     0
  0
ENDSEC
  0
SECTION
  2
TABLES
  0
TABLE
  2
VPORT
  5
8
330
0
100
AcDbSymbolTable
 70
     1
  0
VPORT
  5
81
330
8
100
AcDbSymbolTableRecord
100
AcDbViewportTableRecord
  2
*ACTIVE
 70
     0
 10
0.0
 20
0.0
 11
1.0
 21
1.0
 12
-120.8950622242291
 22
184.9201405567375
 13
0.0
 23
0.0
 14
50.0
 24
50.0
 15
100.0
 25
100.0
 16
0.0
 26
0.0
 36
1.0
 17
0.0
 27
0.0
 37
0.0
 40
2068.227204116102
 41
2.027595269382391
 42
50.0
 43
0.0
 44
0.0
 50
0.0
 51
0.0
 71
     0
 72
  1000
 73
     1
 74
     0
 75
     0
 76
     0
 77
     0
 78
     0
281
     0
 65
     1
110
0.0
120
0.0
130
0.0
111
1.0
121
0.0
131
0.0
112
0.0
122
1.0
132
0.0
 79
     0
146
0.0
1001
ACAD_NAV_VCDISPLAY
1070
     3
  0
ENDTAB
  0
TABLE
  2
LTYPE
  5
5
330
0
100
AcDbSymbolTable
 70
     2
  0
LTYPE
  5
5A
330
5
100
AcDbSymbolTableRecord
100
AcDbLinetypeTableRecord
  2
ByBlock
 70
     0
  3

 72
    65
 73
     0
 40
0.0
  0
LTYPE
  5
5B
330
5
100
AcDbSymbolTableRecord
100
AcDbLinetypeTableRecord
  2
ByLayer
 70
     0
  3

 72
    65
 73
     0
 40
0.0
  0
LTYPE
  5
5C
330
5
100
AcDbSymbolTableRecord
100
AcDbLinetypeTableRecord
  2
CONTINUOUS
 70
     0
  3
実線
 72
    65
 73
     0
 40
0.0
  0
LTYPE
  5
75
330
5
100
AcDbSymbolTableRecord
100
AcDbLinetypeTableRecord
  2
DASHDOT
 70
     0
  3
____ _ ____ _ ____ _ ____ _ ____ _ ____ _ ____
 72
    65
 73
     4
 40
5.5
 49
4.0
 74
     0
 49
-0.6
 74
     0
 49
0.3
 74
     0
 49
-0.6
 74
     0
  0
ENDTAB
  0
TABLE
  2
LAYER
  5
2
330
0
100
AcDbSymbolTable
 70
    12
  0
LAYER
  5
54
102
{ACAD_XDICTIONARY
360
368
102
}
330
2
100
AcDbSymbolTableRecord
100
AcDbLayerTableRecord
  2
0
 70
     0
 62
     7
  6
CONTINUOUS
370
    -3
390
F
  0
LAYER
  5
73
102
{ACAD_XDICTIONARY
360
36A
102
}
330
2
100
AcDbSymbolTableRecord
100
AcDbLayerTableRecord
  2
NOTE
 70
     0
 62
     4
  6
CONTINUOUS
370
    -3
390
F
  0
LAYER
  5
76
102
{ACAD_XDICTIONARY
360
36C
102
}
330
2
100
AcDbSymbolTableRecord
100
AcDbLayerTableRecord
  2
OUTLINE
 70
     0
 62
     3
  6
CONTINUOUS
370
    -3
390
F
  0
LAYER
  5
77
102
{ACAD_XDICTIONARY
360
36E
102
}
330
2
100
AcDbSymbolTableRecord
100
AcDbLayerTableRecord
  2
DETAIL
 70
     0
 62
     5
  6
CONTINUOUS
370
    -3
390
F
  0
LAYER
  5
78
102
{ACAD_XDICTIONARY
360
370
102
}
330
2
100
AcDbSymbolTableRecord
100
AcDbLayerTableRecord
  2
BASIS
 70
     0
 62
     6
  6
DASHDOT
370
    -3
390
F
  0
LAYER
  5
79
102
{ACAD_XDICTIONARY
360
372
102
}
330
2
100
AcDbSymbolTableRecord
100
AcDbLayerTableRecord
  2
SIZE
 70
     0
 62
    30
  6
CONTINUOUS
370
    -3
390
F
  0
LAYER
  5
7A
102
{ACAD_XDICTIONARY
360
374
102
}
330
2
100
AcDbSymbolTableRecord
100
AcDbLayerTableRecord
  2
ARRANGE
 70
     0
 62
     1
  6
CONTINUOUS
370
    -3
390
F
  0
LAYER
  5
7B
102
{ACAD_XDICTIONARY
360
376
102
}
330
2
100
AcDbSymbolTableRecord
100
AcDbLayerTableRecord
  2
FIX
 70
     0
 62
    11
  6
CONTINUOUS
370
    -3
390
F
  0
LAYER
  5
7C
102
{ACAD_XDICTIONARY
360
378
102
}
330
2
100
AcDbSymbolTableRecord
100
AcDbLayerTableRecord
  2
SERVICESPACE
 70
     0
 62
     2
  6
DASHDOT
370
    -3
390
F
  0
LAYER
  5
7D
102
{ACAD_XDICTIONARY
360
37A
102
}
330
2
100
AcDbSymbolTableRecord
100
AcDbLayerTableRecord
  2
ETC
 70
     0
 62
    61
  6
CONTINUOUS
370
    -3
390
F
  0
LAYER
  5
7E
102
{ACAD_XDICTIONARY
360
37C
102
}
330
2
100
AcDbSymbolTableRecord
100
AcDbLayerTableRecord
  2
SYMBOLLINE
 70
     0
 62
    15
  6
CONTINUOUS
370
    -3
390
F
  0
LAYER
  5
7F
330
2
100
AcDbSymbolTableRecord
100
AcDbLayerTableRecord
  2
DEFPOINTS
 70
     0
 62
     7
  6
CONTINUOUS
290
     0
370
    -3
390
F
  0
ENDTAB
  0
TABLE
  2
STYLE
  5
3
330
0
100
AcDbSymbolTable
 70
     3
  0
STYLE
  5
55
330
3
100
AcDbSymbolTableRecord
100
AcDbTextStyleTableRecord
  2
STANDARD
 70
     0
 40
0.0
 41
0.9
 50
0.0
 71
     0
 42
64.0
  3
SIMPLEX
  4
BIGFONT
  0
STYLE
  5
59
330
3
100
AcDbSymbolTableRecord
100
AcDbTextStyleTableRecord
  2
Annotative
 70
     0
 40
0.0
 41
1.0
 50
0.0
 71
     0
 42
0.2
  3
txt
  4

1001
AcadAnnotative
1000
AnnotativeData
1002
{
1070
     1
1070
     1
1002
}
  0
STYLE
  5
74
330
3
100
AcDbSymbolTableRecord
100
AcDbTextStyleTableRecord
  2
STANDARD1
 70
     0
 40
60.0
 41
0.7
 50
0.0
 71
     0
 42
60.0
  3
MONOTXT.shx
  4
BIGFONT.shx
  0
ENDTAB
  0
TABLE
  2
VIEW
  5
6
330
0
100
AcDbSymbolTable
 70
     1
  0
VIEW
  5
80
330
6
100
AcDbSymbolTableRecord
100
AcDbViewTableRecord
  2
ALL
 70
     0
 40
9000.0
 10
241.506647
 20
0.0
 41
12483.01
 11
0.0
 21
0.0
 31
1.0
 12
0.0
 22
0.0
 32
0.0
 42
50.0
 43
0.0
 44
0.0
 50
0.0
 71
     0
281
     0
 72
     0
  0
ENDTAB
  0
TABLE
  2
UCS
  5
7
330
0
100
AcDbSymbolTable
 70
     0
  0
ENDTAB
  0
TABLE
  2
APPID
  5
9
330
0
100
AcDbSymbolTable
 70
     6
  0
APPID
  5
56
330
9
100
AcDbSymbolTableRecord
100
AcDbRegAppTableRecord
  2
ACAD
 70
     0
  0
APPID
  5
5D
330
9
100
AcDbSymbolTableRecord
100
AcDbRegAppTableRecord
  2
AcadAnnotative
 70
     0
  0
APPID
  5
35F
330
9
100
AcDbSymbolTableRecord
100
AcDbRegAppTableRecord
  2
ACAD_NAV_VCDISPLAY
 70
     0
  0
APPID
  5
366
330
9
100
AcDbSymbolTableRecord
100
AcDbRegAppTableRecord
  2
ACAD_EXEMPT_FROM_CAD_STANDARDS
 70
     0
  0
APPID
  5
3C0
330
9
100
AcDbSymbolTableRecord
100
AcDbRegAppTableRecord
  2
ACAD_MLEADERVER
 70
     0
  0
APPID
  5
413
330
9
100
AcDbSymbolTableRecord
100
AcDbRegAppTableRecord
  2
ACAD_PSEXT
 70
     0
  0
ENDTAB
  0
TABLE
  2
DIMSTYLE
  5
A
330
0
100
AcDbSymbolTable
 70
     2
100
AcDbDimStyleTable
 71
     0
  0
DIMSTYLE
105
57
330
A
100
AcDbSymbolTableRecord
100
AcDbDimStyleTableRecord
  2
Standard
 70
     0
340
55
  0
DIMSTYLE
105
58
330
A
100
AcDbSymbolTableRecord
100
AcDbDimStyleTableRecord
  2
Annotative
 70
     0
340
55
1001
AcadAnnotative
1000
AnnotativeData
1002
{
1070
     1
1070
     1
1002
}
  0
ENDTAB
  0
TABLE
  2
BLOCK_RECORD
  5
1
330
0
100
AcDbSymbolTable
 70
     0
  0
BLOCK_RECORD
  5
6F
330
1
100
AcDbSymbolTableRecord
100
AcDbBlockTableRecord
  2
*Model_Space
340
72
  0
BLOCK_RECORD
  5
6B
330
1
100
AcDbSymbolTableRecord
100
AcDbBlockTableRecord
  2
*Paper_Space
340
6E
  0
ENDTAB
  0
ENDSEC
  0
SECTION
  2
BLOCKS
  0
BLOCK
  5
70
330
6F
100
AcDbEntity
  8
0
100
AcDbBlockBegin
  2
*Model_Space
 70
     0
 10
0.0
 20
0.0
 30
0.0
  3
*Model_Space
  1

  0
ENDBLK
  5
71
330
6F
100
AcDbEntity
  8
0
100
AcDbBlockEnd
  0
BLOCK
  5
6C
330
6B
100
AcDbEntity
 67
     1
  8
0
100
AcDbBlockBegin
  2
*Paper_Space
 70
     0
 10
0.0
 20
0.0
 30
0.0
  3
*Paper_Space
  1

  0
ENDBLK
  5
6D
330
6B
100
AcDbEntity
 67
     1
  8
0
100
AcDbBlockEnd
  0
ENDSEC
  0
SECTION
  2
ENTITIES
  0
LINE
  5
86
330
6F
100
AcDbEntity
  8
DETAIL
  6
Continuous
 62
     5
100
AcDbLine
 10
598.9999382583621
 20
455.5249999999987
 30
0.0
 11
598.9999382583625
 21
-194.4750000000017
 31
0.0
  0
LINE
  5
87
330
6F
100
AcDbEntity
  8
DETAIL
  6
Continuous
 62
     5
100
AcDbLine
 10
578.6999382583617
 20
435.2249999999981
 30
0.0
 11
578.6999382583623
 21
-174.1750000000011
 31
0.0
  0
LINE
  5
88
330
6F
100
AcDbEntity
  8
DETAIL
  6
Continuous
 62
     5
100
AcDbLine
 10
561.1999382583623
 20
417.7249999999983
 30
0.0
 11
561.1999382583623
 21
-156.6750000000011
 31
0.0
  0
LINE
  5
89
330
6F
100
AcDbEntity
  8
DETAIL
  6
Continuous
 62
     5
100
AcDbLine
 10
-401.0000617416373
 20
455.5249999999976
 30
0.0
 11
-401.0000617416373
 21
-194.4750000000017
 31
0.0
  0
LINE
  5
8A
330
6F
100
AcDbEntity
  8
DETAIL
  6
Continuous
 62
     5
100
AcDbLine
 10
-401.0000617416373
 20
-194.4750000000017
 30
0.0
 11
598.9999382583625
 21
-194.4750000000017
 31
0.0
  0
LINE
  5
8B
330
6F
100
AcDbEntity
  8
DETAIL
  6
Continuous
 62
     5
100
AcDbLine
 10
-380.7000617416372
 20
435.2249999999988
 30
0.0
 11
-380.7000617416372
 21
-174.1750000000002
 31
0.0
  0
LINE
  5
8C
330
6F
100
AcDbEntity
  8
DETAIL
  6
Continuous
 62
     5
100
AcDbLine
 10
-363.2000617416372
 20
417.7249999999993
 30
0.0
 11
-363.2000617416372
 21
-156.6750000000006
 31
0.0
  0
LINE
  5
8D
330
6F
100
AcDbEntity
  8
DETAIL
  6
Continuous
 62
     5
100
AcDbLine
 10
598.9999382583621
 20
455.5249999999987
 30
0.0
 11
-401.0000617416383
 21
455.5249999999992
 31
0.0
  0
LINE
  5
8E
330
6F
100
AcDbEntity
  8
DETAIL
  6
Continuous
 62
     5
100
AcDbLine
 10
578.6999382583617
 20
435.2249999999981
 30
0.0
 11
-380.7000617416374
 21
435.2249999999988
 31
0.0
  0
LINE
  5
8F
330
6F
100
AcDbEntity
  8
DETAIL
  6
Continuous
 62
     5
100
AcDbLine
 10
561.1999382583623
 20
417.7249999999983
 30
0.0
 11
-363.2000617416372
 21
417.7249999999993
 31
0.0
  0
LINE
  5
90
330
6F
100
AcDbEntity
  8
DETAIL
  6
Continuous
 62
     5
100
AcDbLine
 10
578.6999382583623
 20
-174.1750000000011
 30
0.0
 11
-380.7000617416369
 21
-174.1750000000006
 31
0.0
  0
LINE
  5
91
330
6F
100
AcDbEntity
  8
DETAIL
  6
Continuous
 62
     5
100
AcDbLine
 10
561.1999382583623
 20
-156.6750000000011
 30
0.0
 11
-363.2000617416372
 21
-156.6750000000006
 31
0.0
  0
LINE
  5
92
330
6F
100
AcDbEntity
  8
DETAIL
  6
Continuous
 62
     5
100
AcDbLine
 10
561.1999382583623
 20
-156.6750000000014
 30
0.0
 11
598.9999382583625
 21
-194.4750000000017
 31
0.0
  0
LINE
  5
93
330
6F
100
AcDbEntity
  8
DETAIL
  6
Continuous
 62
     5
100
AcDbLine
 10
561.1999382583623
 20
417.7249999999981
 30
0.0
 11
598.9999382583625
 21
455.5249999999983
 31
0.0
  0
LINE
  5
94
330
6F
100
AcDbEntity
  8
DETAIL
  6
Continuous
 62
     5
100
AcDbLine
 10
-363.2000617416372
 20
417.7249999999993
 30
0.0
 11
-401.0000617416373
 21
455.5249999999983
 31
0.0
  0
LINE
  5
95
330
6F
100
AcDbEntity
  8
DETAIL
  6
Continuous
 62
     5
100
AcDbLine
 10
-363.2000617416372
 20
-156.6750000000006
 30
0.0
 11
-401.0000617416373
 21
-194.4750000000017
 31
0.0
  0
LINE
  5
96
330
6F
100
AcDbEntity
  8
DETAIL
  6
Continuous
 62
     5
100
AcDbLine
 10
237.4411688048001
 20
-500.2750000000019
 30
0.0
 11
42.45883119530001
 21
-500.2750000000019
 31
0.0
  0
LINE
  5
97
330
6F
100
AcDbEntity
  8
DETAIL
  6
Continuous
 62
     5
100
AcDbLine
 10
-42.5588311951999
 20
-500.2750000000019
 30
0.0
 11
-237.5411688046999
 21
-500.2750000000019
 31
0.0
  0
LINE
  5
98
330
6F
100
AcDbEntity
  8
DETAIL
  6
Continuous
 62
     5
100
AcDbLine
 10
329.0166650312002
 20
-465.3750000000012
 30
0.0
 11
182.9209470890998
 21
-465.3750000000012
 31
0.0
  0
LINE
  5
99
330
6F
100
AcDbEntity
  8
DETAIL
  6
Continuous
 62
     5
100
AcDbLine
 10
86.97905291100029
 20
-465.3750000000012
 30
0.0
 11
-137.0790529109001
 21
-465.3750000000012
 31
0.0
  0
LINE
  5
9A
330
6F
100
AcDbEntity
  8
DETAIL
  6
Continuous
 62
     5
100
AcDbLine
 10
-183.0209470889997
 20
-465.3750000000012
 30
0.0
 11
-329.0166650311005
 21
-465.3750000000012
 31
0.0
  0
LINE
  5
9B
330
6F
100
AcDbEntity
  8
DETAIL
  6
Continuous
 62
     5
100
AcDbLine
 10
-190.6337275447997
 20
-465.2750000000018
 30
0.0
 11
-89.46627245510011
 21
-465.2750000000018
 31
0.0
  0
LINE
  5
9C
330
6F
100
AcDbEntity
  8
DETAIL
  6
Continuous
 62
     5
100
AcDbLine
 10
89.36627245520027
 20
-465.2750000000018
 30
0.0
 11
190.5337275448999
 21
-465.2750000000018
 31
0.0
  0
LINE
  5
9D
330
6F
100
AcDbEntity
  8
DETAIL
  6
Continuous
 62
     5
100
AcDbLine
 10
329.2166650312
 20
-460.2750000000018
 30
0.0
 11
329.0166650312002
 21
-460.2750000000018
 31
0.0
  0
LINE
  5
9E
330
6F
100
AcDbEntity
  8
DETAIL
  6
Continuous
 62
     5
100
AcDbLine
 10
-329.0166650311005
 20
-460.2750000000018
 30
0.0
 11
-329.2166650311003
 21
-460.2750000000018
 31
0.0
  0
LINE
  5
9F
330
6F
100
AcDbEntity
  8
DETAIL
  6
Continuous
 62
     5
100
AcDbLine
 10
329.0166650312002
 20
-450.6665290310015
 30
0.0
 11
-329.0166650311005
 21
-450.6665290310015
 31
0.0
  0
LINE
  5
A0
330
6F
100
AcDbEntity
  8
DETAIL
  6
Continuous
 62
     5
100
AcDbLine
 10
342.0692043159004
 20
-431.2750000000018
 30
0.0
 11
333.7134624402004
 21
-431.2750000000018
 31
0.0
  0
LINE
  5
A1
330
6F
100
AcDbEntity
  8
DETAIL
  6
Continuous
 62
     5
100
AcDbLine
 10
-333.7633200849998
 20
-431.2750000000018
 30
0.0
 11
-342.1692040987003
 21
-431.2750000000018
 31
0.0
  0
LINE
  5
A2
330
6F
100
AcDbEntity
  8
DETAIL
  6
Continuous
 62
     5
100
AcDbLine
 10
329.0166650312002
 20
-429.9872245511018
 30
0.0
 11
-329.0166650311005
 21
-429.9872245511018
 31
0.0
  0
LINE
  5
A3
330
6F
100
AcDbEntity
  8
DETAIL
  6
Continuous
 62
     5
100
AcDbLine
 10
329.0166650312002
 20
-429.8900482074016
 30
0.0
 11
-329.0166650311005
 21
-429.8900482074016
 31
0.0
  0
LINE
  5
A4
330
6F
100
AcDbEntity
  8
DETAIL
  6
Continuous
 62
     5
100
AcDbLine
 10
349.5000000000998
 20
-427.2750000000018
 30
0.0
 11
-349.4999999999002
 21
-427.2750000000018
 31
0.0
  0
LINE
  5
A5
330
6F
100
AcDbEntity
  8
DETAIL
  6
Continuous
 62
     5
100
AcDbLine
 10
-349.4999999999002
 20
-424.7750000000019
 30
0.0
 11
349.5000000000998
 21
-424.7750000000019
 31
0.0
  0
LINE
  5
A6
330
6F
100
AcDbEntity
  8
DETAIL
  6
Continuous
 62
     5
100
AcDbLine
 10
-349.4999999999002
 20
-424.7750000000019
 30
0.0
 11
349.5000000000998
 21
-424.7750000000019
 31
0.0
  0
LINE
  5
A7
330
6F
100
AcDbEntity
  8
DETAIL
  6
Continuous
 62
     5
100
AcDbLine
 10
350.0000000000998
 20
-421.5250000000018
 30
0.0
 11
349.5000000000998
 21
-421.5250000000018
 31
0.0
  0
LINE
  5
A8
330
6F
100
AcDbEntity
  8
DETAIL
  6
Continuous
 62
     5
100
AcDbLine
 10
-349.4999999999002
 20
-421.5250000000018
 30
0.0
 11
-349.9999999999002
 21
-421.5250000000018
 31
0.0
  0
LINE
  5
A9
330
6F
100
AcDbEntity
  8
DETAIL
  6
Continuous
 62
     5
100
AcDbLine
 10
-352.0499999999004
 20
-419.4750000000015
 30
0.0
 11
-350.0499999999004
 21
-419.4750000000015
 31
0.0
  0
LINE
  5
AA
330
6F
100
AcDbEntity
  8
DETAIL
  6
Continuous
 62
     5
100
AcDbLine
 10
352.0500000001
 20
-419.4750000000015
 30
0.0
 11
350.0500000001
 21
-419.4750000000015
 31
0.0
  0
LINE
  5
AB
330
6F
100
AcDbEntity
  8
DETAIL
  6
Continuous
 62
     5
100
AcDbLine
 10
400.0000000000998
 20
-418.4750000000017
 30
0.0
 11
350.0000000000998
 21
-418.4750000000017
 31
0.0
  0
LINE
  5
AC
330
6F
100
AcDbEntity
  8
DETAIL
  6
Continuous
 62
     5
100
AcDbLine
 10
-349.9999999999002
 20
-418.4750000000017
 30
0.0
 11
-399.9999999999002
 21
-418.4750000000017
 31
0.0
  0
LINE
  5
AD
330
6F
100
AcDbEntity
  8
DETAIL
  6
Continuous
 62
     5
100
AcDbLine
 10
350.0000000001003
 20
-417.6750000000015
 30
0.0
 11
-349.9999999999002
 21
-417.6750000000015
 31
0.0
  0
LINE
  5
AE
330
6F
100
AcDbEntity
  8
DETAIL
  6
Continuous
 62
     5
100
AcDbLine
 10
-399.9999999999002
 20
-399.4750000000017
 30
0.0
 11
-383.9999999999002
 21
-399.4750000000017
 31
0.0
  0
LINE
  5
AF
330
6F
100
AcDbEntity
  8
DETAIL
  6
Continuous
 62
     5
100
AcDbLine
 10
400.0000000000998
 20
-399.4750000000017
 30
0.0
 11
384.0000000000998
 21
-399.4750000000017
 31
0.0
  0
LINE
  5
B0
330
6F
100
AcDbEntity
  8
DETAIL
  6
Continuous
 62
     5
100
AcDbLine
 10
-399.9999999999002
 20
-387.4750000000017
 30
0.0
 11
-383.9999999999002
 21
-387.4750000000017
 31
0.0
  0
LINE
  5
B1
330
6F
100
AcDbEntity
  8
DETAIL
  6
Continuous
 62
     5
100
AcDbLine
 10
400.0000000000998
 20
-387.4750000000017
 30
0.0
 11
384.0000000000998
 21
-387.4750000000017
 31
0.0
  0
LINE
  5
B2
330
6F
100
AcDbEntity
  8
DETAIL
  6
Continuous
 62
     5
100
AcDbLine
 10
400.0000000000998
 20
-368.4750000000017
 30
0.0
 11
350.0000000000998
 21
-368.4750000000017
 31
0.0
  0
LINE
  5
B3
330
6F
100
AcDbEntity
  8
DETAIL
  6
Continuous
 62
     5
100
AcDbLine
 10
-349.9999999999002
 20
-368.4750000000017
 30
0.0
 11
-399.9999999999002
 21
-368.4750000000017
 31
0.0
  0
LINE
  5
B4
330
6F
100
AcDbEntity
  8
DETAIL
  6
Continuous
 62
     5
100
AcDbLine
 10
-353.9999999999002
 20
-367.6750000000016
 30
0.0
 11
-349.9999999999002
 21
-367.6750000000016
 31
0.0
  0
LINE
  5
B5
330
6F
100
AcDbEntity
  8
DETAIL
  6
Continuous
 62
     5
100
AcDbLine
 10
354.0000000000998
 20
-358.6260000000016
 30
0.0
 11
350.0000000000998
 21
-358.6260000000016
 31
0.0
  0
LWPOLYLINE
  5
B6
330
6F
100
AcDbEntity
  8
DETAIL
  6
Continuous
 62
     5
100
AcDbPolyline
 90
       30
 70
     0
 43
0.0
 10
-87.07905291090012
 20
-465.3750000000012
 10
-89.31105727500037
 20
-465.2914248522015
 10
-91.6997458506005
 20
-465.0386541073016
 10
-94.26874337530014
 20
-464.6156881896017
 10
-97.04329967319996
 20
-464.0256506074015
 10
-100.0479685903003
 20
-463.2774940735019
 10
-103.3034066832999
 20
-462.3910984358022
 10
-106.8328512537002
 20
-461.3944381689019
 10
-110.6571741588998
 20
-460.3284115905021
 10
-114.7793530735
 20
-459.2476687956017
 10
-119.1502641774998
 20
-458.225738490702
 10
-123.6889652905004
 20
-457.3364245878015
 10
-128.3217684620997
 20
-456.6347044908018
 10
-133.0014391247998
 20
-456.1536153078016
 10
-137.6995445484001
 20
-455.9098814972016
 10
-142.4004554514997
 20
-455.9098814972016
 10
-147.0985608751
 20
-456.1536153078016
 10
-151.7782315377001
 20
-456.6347044908018
 10
-156.4110347094004
 20
-457.3364245878015
 10
-160.9497358224
 20
-458.225738490702
 10
-165.3206469262998
 20
-459.2476687956017
 10
-169.442825841
 20
-460.3284115905021
 10
-173.2671487461996
 20
-461.3944381689019
 10
-176.7965933164998
 20
-462.3910984358022
 10
-180.0520314096004
 20
-463.2774940735019
 10
-183.0567003265998
 20
-464.0256506074015
 10
-185.8312566245997
 20
-464.6156881896017
 10
-188.4002541493003
 20
-465.0386541073016
 10
-190.7889427249004
 20
-465.2914248522015
 10
-193.0209470889996
 20
-465.3750000000012
  0
LWPOLYLINE
  5
D6
330
6F
100
AcDbEntity
  8
DETAIL
  6
Continuous
 62
     5
100
AcDbPolyline
 90
       30
 70
     0
 43
0.0
 10
192.9209470890998
 20
-465.3750000000012
 10
190.6889427249996
 20
-465.2914248522015
 10
188.3002541493994
 20
-465.0386541073016
 10
185.7312566246999
 20
-464.6156881896017
 10
182.9567003268
 20
-464.0256506074015
 10
179.9520314096996
 20
-463.2774940735019
 10
176.6965933167
 20
-462.3910984358022
 10
173.1671487462997
 20
-461.3944381689019
 10
169.3428258411002
 20
-460.3284115905021
 10
165.2206469264999
 20
-459.2476687956017
 10
160.8497358225001
 20
-458.225738490702
 10
156.3110347095996
 20
-457.3364245878015
 10
151.6782315379002
 20
-456.6347044908018
 10
146.9985608752001
 20
-456.1536153078016
 10
142.3004554515999
 20
-455.9098814972016
 10
137.5995445485002
 20
-455.9098814972016
 10
132.9014391249
 20
-456.1536153078016
 10
128.2217684622999
 20
-456.6347044908018
 10
123.5889652905996
 20
-457.3364245878015
 10
119.0502641775999
 20
-458.225738490702
 10
114.6793530737002
 20
-459.2476687956017
 10
110.5571741589999
 20
-460.3284115905021
 10
106.7328512538004
 20
-461.3944381689019
 10
103.2034066835001
 20
-462.3910984358022
 10
99.94796859039958
 20
-463.2774940735019
 10
96.94329967340012
 20
-464.0256506074015
 10
94.16874337540024
 20
-464.6156881896017
 10
91.59974585069971
 20
-465.0386541073016
 10
89.21105727509962
 20
-465.2914248522015
 10
86.97905291100029
 20
-465.3750000000012
  0
LINE
  5
F6
330
6F
100
AcDbEntity
  8
DETAIL
  6
Continuous
 62
     5
100
AcDbLine
 10
-340.7067960235
 20
-431.4371400053016
 30
0.0
 11
-340.5635991758002
 21
-431.5159088541017
 31
0.0
  0
LINE
  5
F7
330
6F
100
AcDbEntity
  8
DETAIL
  6
Continuous
 62
     5
100
AcDbLine
 10
-340.9924483928
 20
-431.2754786552017
 30
0.0
 11
-340.7039256855999
 21
-431.4387189033017
 31
0.0
  0
LINE
  5
F8
330
6F
100
AcDbEntity
  8
DETAIL
  6
Continuous
 62
     5
100
AcDbLine
 10
-339.2151419826997
 20
-450.4495240644013
 30
0.0
 11
-339.5155336810997
 21
-433.2400951871015
 31
0.0
  0
LINE
  5
F9
330
6F
100
AcDbEntity
  8
DETAIL
  6
Continuous
 62
     5
100
AcDbLine
 10
-399.9999999999002
 20
-368.4750000000017
 30
0.0
 11
-399.9999999999002
 21
-387.4750000000017
 31
0.0
  0
LINE
  5
FA
330
6F
100
AcDbEntity
  8
DETAIL
  6
Continuous
 62
     5
100
AcDbLine
 10
-399.9999999999002
 20
-399.4750000000017
 30
0.0
 11
-399.9999999999002
 21
-418.4750000000017
 31
0.0
  0
LINE
  5
FB
330
6F
100
AcDbEntity
  8
DETAIL
  6
Continuous
 62
     5
100
AcDbLine
 10
-383.9999999999002
 20
-385.4750000000017
 30
0.0
 11
-383.9999999999002
 21
-387.4750000000017
 31
0.0
  0
LINE
  5
FC
330
6F
100
AcDbEntity
  8
DETAIL
  6
Continuous
 62
     5
100
AcDbLine
 10
-383.9999999999002
 20
-399.4750000000017
 30
0.0
 11
-383.9999999999002
 21
-401.4750000000017
 31
0.0
  0
LINE
  5
FD
330
6F
100
AcDbEntity
  8
DETAIL
  6
Continuous
 62
     5
100
AcDbLine
 10
-369.9999999999002
 20
-401.4750000000017
 30
0.0
 11
-369.9999999999002
 21
-385.4750000000017
 31
0.0
  0
LINE
  5
FE
330
6F
100
AcDbEntity
  8
DETAIL
  6
Continuous
 62
     5
100
AcDbLine
 10
-353.9999999999002
 20
-194.4750000000017
 30
0.0
 11
-353.9999999999002
 21
-368.4750000000017
 31
0.0
  0
LINE
  5
FF
330
6F
100
AcDbEntity
  8
DETAIL
  6
Continuous
 62
     5
100
AcDbLine
 10
-352.0499999999004
 20
-419.4750000000015
 30
0.0
 11
-352.0499999999004
 21
-418.4750000000017
 31
0.0
  0
LINE
  5
100
330
6F
100
AcDbEntity
  8
DETAIL
  6
Continuous
 62
     5
100
AcDbLine
 10
-350.0499999999004
 20
-419.4750000000015
 30
0.0
 11
-350.0499999999004
 21
-418.4750000000017
 31
0.0
  0
LINE
  5
101
330
6F
100
AcDbEntity
  8
DETAIL
  6
Continuous
 62
     5
100
AcDbLine
 10
-349.9999999999002
 20
-194.4750000000017
 30
0.0
 11
-349.9999999999002
 21
-200.7750000000019
 31
0.0
  0
LINE
  5
102
330
6F
100
AcDbEntity
  8
DETAIL
  6
Continuous
 62
     5
100
AcDbLine
 10
-349.9999999999002
 20
-262.7750000000019
 30
0.0
 11
-349.9999999999002
 21
-421.4750000000016
 31
0.0
  0
LINE
  5
103
330
6F
100
AcDbEntity
  8
DETAIL
  6
Continuous
 62
     5
100
AcDbLine
 10
-349.9999999999002
 20
-421.5250000000018
 30
0.0
 11
-349.9999999999002
 21
-421.4750000000016
 31
0.0
  0
LINE
  5
104
330
6F
100
AcDbEntity
  8
DETAIL
  6
Continuous
 62
     5
100
AcDbLine
 10
-349.4999999999002
 20
-427.2750000000018
 30
0.0
 11
-349.4999999999002
 21
-421.4750000000016
 31
0.0
  0
LINE
  5
105
330
6F
100
AcDbEntity
  8
DETAIL
  6
Continuous
 62
     5
100
AcDbLine
 10
-348.9999999999002
 20
-262.7750000000019
 30
0.0
 11
-348.9999999999002
 21
-200.7750000000019
 31
0.0
  0
LINE
  5
106
330
6F
100
AcDbEntity
  8
DETAIL
  6
Continuous
 62
     5
100
AcDbLine
 10
-338.9999999999002
 20
-262.7750000000019
 30
0.0
 11
-338.9999999999002
 21
-200.7750000000019
 31
0.0
  0
LINE
  5
107
330
6F
100
AcDbEntity
  8
DETAIL
  6
Continuous
 62
     5
100
AcDbLine
 10
-338.4999999999002
 20
-251.116421356202
 30
0.0
 11
-338.4999999999002
 21
-262.7750000000019
 31
0.0
  0
LINE
  5
108
330
6F
100
AcDbEntity
  8
DETAIL
  6
Continuous
 62
     5
100
AcDbLine
 10
-338.4999999999002
 20
-251.116421356202
 30
0.0
 11
-338.4999999999002
 21
-200.7750000000019
 31
0.0
  0
LINE
  5
109
330
6F
100
AcDbEntity
  8
DETAIL
  6
Continuous
 62
     5
100
AcDbLine
 10
-329.0166650311005
 20
-465.3750000000012
 30
0.0
 11
-329.0166650311005
 21
-429.8900482074016
 31
0.0
  0
LINE
  5
10A
330
6F
100
AcDbEntity
  8
DETAIL
  6
Continuous
 62
     5
100
AcDbLine
 10
353.9825475974001
 20
-197.2315015157014
 30
0.0
 11
383.0000000000998
 21
-196.7250000000016
 31
0.0
  0
LINE
  5
10B
330
6F
100
AcDbEntity
  8
DETAIL
  6
Continuous
 62
     5
100
AcDbLine
 10
354.0000000000998
 20
-311.6260000000016
 30
0.0
 11
350.0000000000998
 21
-311.6260000000016
 31
0.0
  0
LINE
  5
10C
330
6F
100
AcDbEntity
  8
DETAIL
  6
Continuous
 62
     5
100
AcDbLine
 10
350.0000000000998
 20
-298.6260000000016
 30
0.0
 11
373.0000000000998
 21
-298.6260000000016
 31
0.0
  0
LINE
  5
10D
330
6F
100
AcDbEntity
  8
DETAIL
  6
Continuous
 62
     5
100
AcDbLine
 10
406.5000000000996
 20
-293.1260000000015
 30
0.0
 11
388.4999999875997
 21
-293.1260000000015
 31
0.0
  0
LINE
  5
10E
330
6F
100
AcDbEntity
  8
DETAIL
  6
Continuous
 62
     5
100
AcDbLine
 10
373.0000000000998
 20
-290.6260000000015
 30
0.0
 11
387.0000000000998
 21
-290.6260000000015
 31
0.0
  0
LINE
  5
10F
330
6F
100
AcDbEntity
  8
DETAIL
  6
Continuous
 62
     5
100
AcDbLine
 10
387.0000000000998
 20
-290.0660000000021
 30
0.0
 11
388.5000000000998
 21
-290.0660000000021
 31
0.0
  0
LINE
  5
110
330
6F
100
AcDbEntity
  8
DETAIL
  6
Continuous
 62
     5
100
AcDbLine
 10
373.0000000000998
 20
-282.1260000000016
 30
0.0
 11
385.6850454238
 21
-282.1260000000016
 31
0.0
  0
LINE
  5
111
330
6F
100
AcDbEntity
  8
DETAIL
  6
Continuous
 62
     5
100
AcDbLine
 10
404.7982940778998
 20
-282.1260000000016
 30
0.0
 11
390.2017059221996
 21
-282.1260000000016
 31
0.0
  0
LINE
  5
112
330
6F
100
AcDbEntity
  8
DETAIL
  6
Continuous
 62
     5
100
AcDbLine
 10
387.0000000000998
 20
-274.186000000002
 30
0.0
 11
388.5000000000998
 21
-274.186000000002
 31
0.0
  0
LINE
  5
113
330
6F
100
AcDbEntity
  8
DETAIL
  6
Continuous
 62
     5
100
AcDbLine
 10
387.0000000000998
 20
-273.6260000000016
 30
0.0
 11
373.0000000000998
 21
-273.6260000000016
 31
0.0
  0
LINE
  5
114
330
6F
100
AcDbEntity
  8
DETAIL
  6
Continuous
 62
     5
100
AcDbLine
 10
406.5000000000996
 20
-271.1260000000016
 30
0.0
 11
388.5000000000998
 21
-271.1260000000016
 31
0.0
  0
LINE
  5
115
330
6F
100
AcDbEntity
  8
DETAIL
  6
Continuous
 62
     5
100
AcDbLine
 10
350.0000000000998
 20
-265.6260000000016
 30
0.0
 11
373.0000000000998
 21
-265.6260000000016
 31
0.0
  0
LINE
  5
116
330
6F
100
AcDbEntity
  8
DETAIL
  6
Continuous
 62
     5
100
AcDbLine
 10
-349.9999999999002
 20
-262.7750000000019
 30
0.0
 11
-338.4999999999002
 21
-262.7750000000019
 31
0.0
  0
LINE
  5
117
330
6F
100
AcDbEntity
  8
DETAIL
  6
Continuous
 62
     5
100
AcDbLine
 10
350.0000000000998
 20
-262.7750000000019
 30
0.0
 11
338.5000000000998
 21
-262.7750000000019
 31
0.0
  0
LINE
  5
118
330
6F
100
AcDbEntity
  8
DETAIL
  6
Continuous
 62
     5
100
AcDbLine
 10
339.0000000001003
 20
-262.1063708499018
 30
0.0
 11
-338.4999999999002
 21
-262.1063708499018
 31
0.0
  0
LINE
  5
119
330
6F
100
AcDbEntity
  8
DETAIL
  6
Continuous
 62
     5
100
AcDbLine
 10
339.0000000001003
 20
-259.4193650814017
 30
0.0
 11
-338.4999999999002
 21
-259.4193650814017
 31
0.0
  0
LINE
  5
11A
330
6F
100
AcDbEntity
  8
DETAIL
  6
Continuous
 62
     5
100
AcDbLine
 10
-338.4999999999002
 20
-251.116421356202
 30
0.0
 11
339.0000000001003
 21
-251.116421356202
 31
0.0
  0
LINE
  5
11B
330
6F
100
AcDbEntity
  8
DETAIL
  6
Continuous
 62
     5
100
AcDbLine
 10
349.0000000000998
 20
-234.1260000000016
 30
0.0
 11
349.4000000001004
 21
-234.1260000000016
 31
0.0
  0
LINE
  5
11C
330
6F
100
AcDbEntity
  8
DETAIL
  6
Continuous
 62
     5
100
AcDbLine
 10
350.0000000000998
 20
-234.1260000000016
 30
0.0
 11
380.0000000000998
 21
-234.1260000000016
 31
0.0
  0
LINE
  5
11D
330
6F
100
AcDbEntity
  8
DETAIL
  6
Continuous
 62
     5
100
AcDbLine
 10
423.8006356998998
 20
-229.6319255134017
 30
0.0
 11
401.5000000000997
 21
-229.6319255134017
 31
0.0
  0
LINE
  5
11E
330
6F
100
AcDbEntity
  8
DETAIL
  6
Continuous
 62
     5
100
AcDbLine
 10
380.0000000000998
 20
-226.6260000000016
 30
0.0
 11
397.0000000000998
 21
-226.6260000000016
 31
0.0
  0
LINE
  5
11F
330
6F
100
AcDbEntity
  8
DETAIL
  6
Continuous
 62
     5
100
AcDbLine
 10
397.0000000000998
 20
-226.2260000000019
 30
0.0
 11
401.5000000000997
 21
-226.2260000000019
 31
0.0
  0
LINE
  5
120
330
6F
100
AcDbEntity
  8
DETAIL
  6
Continuous
 62
     5
100
AcDbLine
 10
380.0000000000998
 20
-215.1260000000016
 30
0.0
 11
395.2209438087
 21
-215.1260000000016
 31
0.0
  0
LINE
  5
121
330
6F
100
AcDbEntity
  8
DETAIL
  6
Continuous
 62
     5
100
AcDbLine
 10
421.5000000000998
 20
-215.1260000000016
 30
0.0
 11
403.5000000000998
 21
-215.1260000000016
 31
0.0
  0
LINE
  5
122
330
6F
100
AcDbEntity
  8
DETAIL
  6
Continuous
 62
     5
100
AcDbLine
 10
339.0000000001003
 20
-211.116421356202
 30
0.0
 11
-338.4999999999002
 21
-211.116421356202
 31
0.0
  0
LINE
  5
123
330
6F
100
AcDbEntity
  8
DETAIL
  6
Continuous
 62
     5
100
AcDbLine
 10
349.4000000001004
 20
-205.1260000000016
 30
0.0
 11
350.0000000000998
 21
-205.1260000000016
 31
0.0
  0
LINE
  5
124
330
6F
100
AcDbEntity
  8
DETAIL
  6
Continuous
 62
     5
100
AcDbLine
 10
339.0000000001003
 20
-204.130634918602
 30
0.0
 11
-338.4999999999002
 21
-204.130634918602
 31
0.0
  0
LINE
  5
125
330
6F
100
AcDbEntity
  8
DETAIL
  6
Continuous
 62
     5
100
AcDbLine
 10
397.0000000000998
 20
-204.0260000000021
 30
0.0
 11
401.5000000000997
 21
-204.0260000000021
 31
0.0
  0
LINE
  5
126
330
6F
100
AcDbEntity
  8
DETAIL
  6
Continuous
 62
     5
100
AcDbLine
 10
397.0000000000998
 20
-203.6260000000015
 30
0.0
 11
380.0000000000998
 21
-203.6260000000015
 31
0.0
  0
LINE
  5
127
330
6F
100
AcDbEntity
  8
DETAIL
  6
Continuous
 62
     5
100
AcDbLine
 10
339.0000000001003
 20
-201.443629150102
 30
0.0
 11
-338.4999999999002
 21
-201.443629150102
 31
0.0
  0
LINE
  5
128
330
6F
100
AcDbEntity
  8
DETAIL
  6
Continuous
 62
     5
100
AcDbLine
 10
-349.9999999999002
 20
-200.7750000000019
 30
0.0
 11
-338.4999999999002
 21
-200.7750000000019
 31
0.0
  0
LINE
  5
129
330
6F
100
AcDbEntity
  8
DETAIL
  6
Continuous
 62
     5
100
AcDbLine
 10
350.0000000000998
 20
-200.7750000000019
 30
0.0
 11
338.5000000000998
 21
-200.7750000000019
 31
0.0
  0
LINE
  5
12A
330
6F
100
AcDbEntity
  8
DETAIL
  6
Continuous
 62
     5
100
AcDbLine
 10
423.8006356998998
 20
-200.6200744866014
 30
0.0
 11
401.5000000000997
 21
-200.6200744866014
 31
0.0
  0
LINE
  5
12B
330
6F
100
AcDbEntity
  8
DETAIL
  6
Continuous
 62
     5
100
AcDbLine
 10
353.0000000000998
 20
-200.4750000000017
 30
0.0
 11
350.0000000000998
 21
-200.4750000000017
 31
0.0
  0
LINE
  5
12C
330
6F
100
AcDbEntity
  8
DETAIL
  6
Continuous
 62
     5
100
AcDbLine
 10
383.0000000000998
 20
-196.4750000000016
 30
0.0
 11
407.5000000000998
 21
-196.4750000000016
 31
0.0
  0
LWPOLYLINE
  5
12D
330
6F
100
AcDbEntity
  8
DETAIL
  6
Continuous
 62
     5
100
AcDbPolyline
 90
        5
 70
     0
 43
0.0
 10
-338.4999999999002
 20
-259.9405018740021
 10
-338.6628482865
 20
-259.723869993402
 10
-338.8368236435001
 20
-259.4204061285013
 10
-338.9859373569
 20
-259.068229252202
 10
-338.9999999999002
 20
-259.0200345216022
  0
LWPOLYLINE
  5
134
330
6F
100
AcDbEntity
  8
DETAIL
  6
Continuous
 62
     5
100
AcDbPolyline
 90
        5
 70
     0
 43
0.0
 10
-338.9999999999002
 20
-204.5299654784017
 10
-338.9859373569
 20
-204.4817707478019
 10
-338.8368236435001
 20
-204.1295938715016
 10
-338.6628482865
 20
-203.8261300066019
 10
-338.4999999999002
 20
-203.6094981260017
  0
LINE
  5
13B
330
6F
100
AcDbEntity
  8
DETAIL
  6
Continuous
 62
     5
100
AcDbLine
 10
-240.0428319107998
 20
-465.3750000000012
 30
0.0
 11
-237.5411688046999
 21
-500.2750000000019
 31
0.0
  0
LWPOLYLINE
  5
13C
330
6F
100
AcDbEntity
  8
DETAIL
  6
Continuous
 62
     5
100
AcDbPolyline
 90
        6
 70
     0
 43
0.0
 10
427.5000000000998
 20
-208.1701023410019
 10
428.3339009919997
 20
-208.6206704366019
 10
429.4962908769
 20
-209.7511376946017
 10
430.3298823677994
 20
-211.2104033466017
 10
430.832016928
 20
-213.0011259292019
 10
431.0000000000997
 20
-215.1260000000016
  0
LWPOLYLINE
  5
144
330
6F
100
AcDbEntity
  8
DETAIL
  6
Continuous
 62
     5
100
AcDbPolyline
 90
        5
 70
     0
 43
0.0
 10
406.5000000000996
 20
-277.9820426211021
 10
407.2728904620996
 20
-278.5016376754017
 10
407.9776490778
 20
-279.4302123930015
 10
408.4048089793999
 20
-280.6363858248019
 10
408.5485281374998
 20
-282.1260000000016
  0
LINE
  5
14B
330
6F
100
AcDbEntity
  8
DETAIL
  6
Continuous
 62
     5
100
AcDbLine
 10
-40.05716808910006
 20
-465.3750000000012
 30
0.0
 11
-42.5588311951999
 21
-500.2750000000019
 31
0.0
  0
LWPOLYLINE
  5
14C
330
6F
100
AcDbEntity
  8
DETAIL
  6
Continuous
 62
     5
100
AcDbPolyline
 90
        6
 70
     0
 43
0.0
 10
427.5000000000998
 20
-222.0818976590022
 10
428.3339009919997
 20
-221.6313295634013
 10
429.4962908769
 20
-220.5008623054014
 10
430.3298823677994
 20
-219.0415966534015
 10
430.832016928
 20
-217.2508740708022
 10
431.0000000000997
 20
-215.1260000000016
  0
LINE
  5
154
330
6F
100
AcDbEntity
  8
DETAIL
  6
Continuous
 62
     5
100
AcDbLine
 10
423.7672317334998
 20
-200.5931257834013
 30
0.0
 11
427.5000000000998
 21
-203.6260000000015
 31
0.0
  0
LINE
  5
155
330
6F
100
AcDbEntity
  8
DETAIL
  6
Continuous
 62
     5
100
AcDbLine
 10
39.9571680892002
 20
-465.3750000000012
 30
0.0
 11
42.45883119530001
 21
-500.2750000000019
 31
0.0
  0
LINE
  5
156
330
6F
100
AcDbEntity
  8
DETAIL
  6
Continuous
 62
     5
100
AcDbLine
 10
423.7672317334998
 20
-229.6588742166018
 30
0.0
 11
427.5000000000998
 21
-226.6260000000016
 31
0.0
  0
LWPOLYLINE
  5
157
330
6F
100
AcDbEntity
  8
DETAIL
  6
Continuous
 62
     5
100
AcDbPolyline
 90
        5
 70
     0
 43
0.0
 10
406.5000000000996
 20
-286.2699573789019
 10
407.2728904620996
 20
-285.7503623246016
 10
407.9776490778
 20
-284.8217876070016
 10
408.4048089793999
 20
-283.6156141752022
 10
408.5485281374998
 20
-282.1260000000016
  0
LINE
  5
15E
330
6F
100
AcDbEntity
  8
DETAIL
  6
Continuous
 62
     5
100
AcDbLine
 10
340.8311249802998
 20
-431.3588878399016
 30
0.0
 11
340.9714109117002
 21
-431.2750000000018
 31
0.0
  0
LINE
  5
15F
330
6F
100
AcDbEntity
  8
DETAIL
  6
Continuous
 62
     5
100
AcDbLine
 10
340.8266058228999
 20
-431.3615904355014
 30
0.0
 11
340.9713984119997
 21
-431.2750000000018
 31
0.0
  0
LINE
  5
160
330
6F
100
AcDbEntity
  8
DETAIL
  6
Continuous
 62
     5
100
AcDbLine
 10
340.6488772717001
 20
-431.4664252087017
 30
0.0
 11
340.8311249802998
 21
-431.3588878399016
 31
0.0
  0
LINE
  5
161
330
6F
100
AcDbEntity
  8
DETAIL
  6
Continuous
 62
     5
100
AcDbLine
 10
340.6519674990002
 20
-431.4646024105018
 30
0.0
 11
340.6554159766999
 21
-431.4626255198011
 31
0.0
  0
LINE
  5
162
330
6F
100
AcDbEntity
  8
DETAIL
  6
Continuous
 62
     5
100
AcDbLine
 10
340.5321849994996
 20
-431.5332692192016
 30
0.0
 11
340.6488772717001
 21
-431.4664252087017
 31
0.0
  0
LWPOLYLINE
  5
163
330
6F
100
AcDbEntity
  8
DETAIL
  6
Continuous
 62
     5
100
AcDbPolyline
 90
        6
 70
     0
 43
0.0
 10
338.5000000000998
 20
-203.6909334520019
 10
338.6368236436999
 20
-203.9295938715017
 10
338.7859373569997
 20
-204.281770747802
 10
338.9010777917999
 20
-204.6763738255017
 10
338.9746185378997
 20
-205.1057183334019
 10
339.0000000000998
 20
-205.5548989873019
  0
LINE
  5
16B
330
6F
100
AcDbEntity
  8
DETAIL
  6
Continuous
 62
     5
100
AcDbLine
 10
239.9428319109
 20
-465.3750000000012
 30
0.0
 11
237.4411688048001
 21
-500.2750000000019
 31
0.0
  0
LWPOLYLINE
  5
16C
330
6F
100
AcDbEntity
  8
DETAIL
  6
Continuous
 62
     5
100
AcDbPolyline
 90
        6
 70
     0
 43
0.0
 10
395.2209438087
 20
-215.1260000000016
 10
395.8803832812998
 20
-216.3756061731015
 10
396.3766404609994
 20
-217.5526906728014
 10
396.7241646535001
 20
-218.6816382288021
 10
396.9311087917001
 20
-219.7842432308021
 10
397.0000000000998
 20
-220.8760000000016
  0
LWPOLYLINE
  5
174
330
6F
100
AcDbEntity
  8
DETAIL
  6
Continuous
 62
     5
100
AcDbPolyline
 90
        6
 70
     0
 43
0.0
 10
395.2209438087
 20
-203.6260000000015
 10
395.8831797004001
 20
-204.8814904768019
 10
396.3793907372999
 20
-206.060223066002
 10
396.7254353280002
 20
-207.1867581420015
 10
396.9314086932997
 20
-208.2866292566018
 10
397.0000000000998
 20
-209.3760000000016
  0
LWPOLYLINE
  5
17C
330
6F
100
AcDbEntity
  8
DETAIL
  6
Continuous
 62
     5
100
AcDbPolyline
 90
        4
 70
     0
 43
0.0
 10
421.5000000000998
 20
-215.1260000000016
 10
422.4052912962993
 20
-216.858574257702
 10
423.0651303267002
 20
-218.4906734159017
 10
423.5000000000998
 20
-220.0647741840016
  0
LWPOLYLINE
  5
182
330
6F
100
AcDbEntity
  8
DETAIL
  6
Continuous
 62
     5
100
AcDbPolyline
 90
        4
 70
     0
 43
0.0
 10
421.5000000000998
 20
-200.6200744866014
 10
422.4052912962993
 20
-202.3526487443019
 10
423.0651303267002
 20
-203.9847479025016
 10
423.5000000000998
 20
-205.5588486706015
  0
LWPOLYLINE
  5
188
330
6F
100
AcDbEntity
  8
DETAIL
  6
Continuous
 62
     5
100
AcDbPolyline
 90
        5
 70
     0
 43
0.0
 10
404.7982940778998
 20
-282.1260000000016
 10
405.5553491239995
 20
-283.5941253227015
 10
406.0838632582997
 20
-284.980979474502
 10
406.3963414157995
 20
-286.3151127180022
 10
406.5000000000996
 20
-287.6260000000016
  0
LWPOLYLINE
  5
18F
330
6F
100
AcDbEntity
  8
DETAIL
  6
Continuous
 62
     5
100
AcDbPolyline
 90
        5
 70
     0
 43
0.0
 10
404.7982940778998
 20
-271.1260000000016
 10
405.5553491239995
 20
-272.5941253227015
 10
406.0838632582997
 20
-273.980979474502
 10
406.3963414157995
 20
-275.3151127180022
 10
406.5000000000996
 20
-276.6260000000016
  0
LWPOLYLINE
  5
196
330
6F
100
AcDbEntity
  8
DETAIL
  6
Continuous
 62
     5
100
AcDbPolyline
 90
        5
 70
     0
 43
0.0
 10
385.6850454238
 20
-282.1260000000016
 10
386.2721148810002
 20
-283.2650680129013
 10
386.6795120181003
 20
-284.335594114102
 10
386.9201447546
 20
-285.3645965075017
 10
387.0000000000998
 20
-286.3760000000016
  0
LWPOLYLINE
  5
19D
330
6F
100
AcDbEntity
  8
DETAIL
  6
Continuous
 62
     5
100
AcDbPolyline
 90
        5
 70
     0
 43
0.0
 10
385.6850454238
 20
-273.6260000000016
 10
386.2730518714995
 20
-274.7671531358014
 10
386.6802707945997
 20
-275.8380555838016
 10
386.9203542016001
 20
-276.8659299427012
 10
387.0000000000998
 20
-277.8760000000016
  0
LWPOLYLINE
  5
1A4
330
6F
100
AcDbEntity
  8
DETAIL
  6
Continuous
 62
     5
100
AcDbPolyline
 90
        5
 70
     0
 43
0.0
 10
388.4999999844
 20
-287.6259998020018
 10
388.6036162730994
 20
-288.9366184625019
 10
388.9157918113003
 20
-290.2699037441021
 10
389.4440215177999
 20
-291.6564760899014
 10
390.2017059221996
 20
-293.1260000000015
  0
LWPOLYLINE
  5
1AB
330
6F
100
AcDbEntity
  8
DETAIL
  6
Continuous
 62
     5
100
AcDbPolyline
 90
        5
 70
     0
 43
0.0
 10
388.5000000000998
 20
-276.6260000000016
 10
388.6036162730994
 20
-277.9366184625019
 10
388.9157918113003
 20
-279.2699037441021
 10
389.4440215177999
 20
-280.6564760899014
 10
390.2017059221996
 20
-282.1260000000016
  0
LINE
  5
1B2
330
6F
100
AcDbEntity
  8
DETAIL
  6
Continuous
 62
     5
100
AcDbLine
 10
329.0166650312002
 20
-465.3750000000012
 30
0.0
 11
329.0166650312002
 21
-429.8900482074016
 31
0.0
  0
LINE
  5
1B3
330
6F
100
AcDbEntity
  8
DETAIL
  6
Continuous
 62
     5
100
AcDbLine
 10
338.5000000000998
 20
-251.116421356202
 30
0.0
 11
338.5000000000998
 21
-262.7750000000019
 31
0.0
  0
LINE
  5
1B4
330
6F
100
AcDbEntity
  8
DETAIL
  6
Continuous
 62
     5
100
AcDbLine
 10
338.5000000000998
 20
-251.116421356202
 30
0.0
 11
338.5000000000998
 21
-200.7750000000019
 31
0.0
  0
LINE
  5
1B5
330
6F
100
AcDbEntity
  8
DETAIL
  6
Continuous
 62
     5
100
AcDbLine
 10
339.0000000000998
 20
-200.7750000000019
 30
0.0
 11
339.0000000000998
 21
-262.7750000000019
 31
0.0
  0
LINE
  5
1B6
330
6F
100
AcDbEntity
  8
DETAIL
  6
Continuous
 62
     5
100
AcDbLine
 10
349.0000000000998
 20
-200.7750000000019
 30
0.0
 11
349.0000000000998
 21
-262.7750000000019
 31
0.0
  0
LINE
  5
1B7
330
6F
100
AcDbEntity
  8
DETAIL
  6
Continuous
 62
     5
100
AcDbLine
 10
349.4000000001004
 20
-262.7750000000019
 30
0.0
 11
349.4000000001004
 21
-200.7750000000019
 31
0.0
  0
LINE
  5
1B8
330
6F
100
AcDbEntity
  8
DETAIL
  6
Continuous
 62
     5
100
AcDbLine
 10
349.5000000000998
 20
-427.2750000000018
 30
0.0
 11
349.5000000000998
 21
-421.4750000000016
 31
0.0
  0
LINE
  5
1B9
330
6F
100
AcDbEntity
  8
DETAIL
  6
Continuous
 62
     5
100
AcDbLine
 10
350.0000000000998
 20
-194.4750000000017
 30
0.0
 11
350.0000000000998
 21
-200.7750000000019
 31
0.0
  0
LINE
  5
1BA
330
6F
100
AcDbEntity
  8
DETAIL
  6
Continuous
 62
     5
100
AcDbLine
 10
350.0000000000998
 20
-200.7750000000019
 30
0.0
 11
350.0000000000998
 21
-262.7750000000019
 31
0.0
  0
LINE
  5
1BB
330
6F
100
AcDbEntity
  8
DETAIL
  6
Continuous
 62
     5
100
AcDbLine
 10
350.0000000000998
 20
-262.7750000000019
 30
0.0
 11
350.0000000000998
 21
-421.4750000000016
 31
0.0
  0
LINE
  5
1BC
330
6F
100
AcDbEntity
  8
DETAIL
  6
Continuous
 62
     5
100
AcDbLine
 10
350.0000000000998
 20
-421.5250000000018
 30
0.0
 11
350.0000000000998
 21
-421.4750000000016
 31
0.0
  0
LINE
  5
1BD
330
6F
100
AcDbEntity
  8
DETAIL
  6
Continuous
 62
     5
100
AcDbLine
 10
350.0500000001
 20
-418.4750000000017
 30
0.0
 11
350.0500000001
 21
-419.4750000000015
 31
0.0
  0
LINE
  5
1BE
330
6F
100
AcDbEntity
  8
DETAIL
  6
Continuous
 62
     5
100
AcDbLine
 10
352.0500000001
 20
-418.4750000000017
 30
0.0
 11
352.0500000001
 21
-419.4750000000015
 31
0.0
  0
LINE
  5
1BF
330
6F
100
AcDbEntity
  8
DETAIL
  6
Continuous
 62
     5
100
AcDbLine
 10
353.0000000000994
 20
-194.4750000000008
 30
0.0
 11
353.0000000000998
 21
-200.4750000000017
 31
0.0
  0
LINE
  5
1C0
330
6F
100
AcDbEntity
  8
DETAIL
  6
Continuous
 62
     5
100
AcDbLine
 10
354.0000000000998
 20
-234.1260000000016
 30
0.0
 11
354.0000000000998
 21
-265.6260000000016
 31
0.0
  0
LINE
  5
1C1
330
6F
100
AcDbEntity
  8
DETAIL
  6
Continuous
 62
     5
100
AcDbLine
 10
354.0000000000998
 20
-368.4750000000017
 30
0.0
 11
354.0000000000998
 21
-298.6260000000016
 31
0.0
  0
LINE
  5
1C2
330
6F
100
AcDbEntity
  8
DETAIL
  6
Continuous
 62
     5
100
AcDbLine
 10
370.0000000000998
 20
-385.4750000000017
 30
0.0
 11
370.0000000000998
 21
-401.4750000000017
 31
0.0
  0
LINE
  5
1C3
330
6F
100
AcDbEntity
  8
DETAIL
  6
Continuous
 62
     5
100
AcDbLine
 10
373.0000000000998
 20
-265.6260000000016
 30
0.0
 11
373.0000000000998
 21
-298.6260000000016
 31
0.0
  0
LINE
  5
1C4
330
6F
100
AcDbEntity
  8
DETAIL
  6
Continuous
 62
     5
100
AcDbLine
 10
380.0000000000998
 20
-196.7773651948014
 30
0.0
 11
380.0000000000998
 21
-234.1260000000016
 31
0.0
  0
LINE
  5
1C5
330
6F
100
AcDbEntity
  8
DETAIL
  6
Continuous
 62
     5
100
AcDbLine
 10
380.0999999999
 20
-203.6260000000015
 30
0.0
 11
380.0999999999
 21
-196.7756196883015
 31
0.0
  0
LINE
  5
1C6
330
6F
100
AcDbEntity
  8
DETAIL
  6
Continuous
 62
     5
100
AcDbLine
 10
383.0000000000998
 20
-194.4750000000017
 30
0.0
 11
383.0000000000998
 21
-196.7250000000016
 31
0.0
  0
LINE
  5
1C7
330
6F
100
AcDbEntity
  8
DETAIL
  6
Continuous
 62
     5
100
AcDbLine
 10
384.0000000000998
 20
-401.4750000000017
 30
0.0
 11
384.0000000000998
 21
-399.4750000000017
 31
0.0
  0
LINE
  5
1C8
330
6F
100
AcDbEntity
  8
DETAIL
  6
Continuous
 62
     5
100
AcDbLine
 10
384.0000000000998
 20
-387.4750000000017
 30
0.0
 11
384.0000000000998
 21
-385.4750000000017
 31
0.0
  0
LINE
  5
1C9
330
6F
100
AcDbEntity
  8
DETAIL
  6
Continuous
 62
     5
100
AcDbLine
 10
387.0000000000998
 20
-290.6260000000015
 30
0.0
 11
387.0000000000998
 21
-273.6260000000016
 31
0.0
  0
LINE
  5
1CA
330
6F
100
AcDbEntity
  8
DETAIL
  6
Continuous
 62
     5
100
AcDbLine
 10
388.5000000000998
 20
-293.126000097002
 30
0.0
 11
388.5000000000998
 21
-271.1259999033014
 31
0.0
  0
LINE
  5
1CB
330
6F
100
AcDbEntity
  8
DETAIL
  6
Continuous
 62
     5
100
AcDbLine
 10
397.0000000000998
 20
-226.6260000000016
 30
0.0
 11
397.0000000000998
 21
-203.6260000000015
 31
0.0
  0
LINE
  5
1CC
330
6F
100
AcDbEntity
  8
DETAIL
  6
Continuous
 62
     5
100
AcDbLine
 10
339.2151419828004
 20
-450.4495240644013
 30
0.0
 11
339.5155336812003
 21
-433.2400951871015
 31
0.0
  0
LWPOLYLINE
  5
1CD
330
6F
100
AcDbEntity
  8
DETAIL
  6
Continuous
 62
     5
100
AcDbPolyline
 90
        6
 70
     0
 43
0.0
 10
339.0000000000998
 20
-257.995101012702
 10
338.9746185378997
 20
-258.4442816667019
 10
338.9010777917999
 20
-258.8736261745021
 10
338.7859373569997
 20
-259.2682292522018
 10
338.6368236436999
 20
-259.6204061285021
 10
338.5000000000998
 20
-259.8590665480019
  0
LWPOLYLINE
  5
1D5
330
6F
100
AcDbEntity
  8
DETAIL
  6
Continuous
 62
     5
100
AcDbPolyline
 90
        5
 70
     0
 43
0.0
 10
387.0000000000998
 20
-277.8760000000016
 10
386.9202311843999
 20
-278.8868534500021
 10
386.6799781867001
 20
-279.9148939626016
 10
386.2728678485999
 20
-280.9852564715015
 10
385.6850454238
 20
-282.1260000000016
  0
LWPOLYLINE
  5
1DC
330
6F
100
AcDbEntity
  8
DETAIL
  6
Continuous
 62
     5
100
AcDbPolyline
 90
        5
 70
     0
 43
0.0
 10
390.2017059221996
 20
-271.1260000000016
 10
389.4446508761
 20
-272.5941253227015
 10
388.9161367419
 20
-273.980979474502
 10
388.6036585843001
 20
-275.3151127180022
 10
388.5000000000998
 20
-276.6260000000016
  0
LWPOLYLINE
  5
1E3
330
6F
100
AcDbEntity
  8
DETAIL
  6
Continuous
 62
     5
100
AcDbPolyline
 90
        5
 70
     0
 43
0.0
 10
390.2017059221996
 20
-282.1260000000016
 10
389.4446509004999
 20
-283.594125268502
 10
388.9161367736002
 20
-284.9809793718018
 10
388.6036586077996
 20
-286.3151125684021
 10
388.4999999844
 20
-287.6259998020018
  0
LWPOLYLINE
  5
1EA
330
6F
100
AcDbEntity
  8
DETAIL
  6
Continuous
 62
     5
100
AcDbPolyline
 90
        4
 70
     0
 43
0.0
 10
403.5000000000998
 20
-200.6200744866014
 10
402.5947087038
 20
-202.3526487443019
 10
401.9348696734001
 20
-203.9847479025016
 10
401.5000000000997
 20
-205.5588486706015
  0
LWPOLYLINE
  5
1F0
330
6F
100
AcDbEntity
  8
DETAIL
  6
Continuous
 62
     5
100
AcDbPolyline
 90
        4
 70
     0
 43
0.0
 10
403.5000000000998
 20
-215.1260000000016
 10
402.5947087038
 20
-216.858574257702
 10
401.9348696734001
 20
-218.4906734159017
 10
401.5000000000997
 20
-220.0647741840016
  0
LWPOLYLINE
  5
1F6
330
6F
100
AcDbEntity
  8
DETAIL
  6
Continuous
 62
     5
100
AcDbPolyline
 90
        4
 70
     0
 43
0.0
 10
401.5000000000997
 20
-224.6931513294017
 10
401.9378638371996
 20
-226.2760128848017
 10
402.5983531296994
 20
-227.9071918078021
 10
403.5000000000998
 20
-229.6319255134017
  0
LWPOLYLINE
  5
1FC
330
6F
100
AcDbEntity
  8
DETAIL
  6
Continuous
 62
     5
100
AcDbPolyline
 90
        4
 70
     0
 43
0.0
 10
401.5000000000997
 20
-210.1872258160015
 10
401.9378638371996
 20
-211.7700873714016
 10
402.5983531296994
 20
-213.4012662944019
 10
403.5000000000998
 20
-215.1260000000016
  0
LWPOLYLINE
  5
202
330
6F
100
AcDbEntity
  8
DETAIL
  6
Continuous
 62
     5
100
AcDbPolyline
 90
        4
 70
     0
 43
0.0
 10
423.5000000000998
 20
-220.0647741840016
 10
423.7672396146995
 20
-221.6129478062017
 10
423.7672238503995
 20
-223.1451599383022
 10
423.5000000000998
 20
-224.6931513294017
  0
LWPOLYLINE
  5
208
330
6F
100
AcDbEntity
  8
DETAIL
  6
Continuous
 62
     5
100
AcDbPolyline
 90
        4
 70
     0
 43
0.0
 10
423.5000000000998
 20
-205.5588486706015
 10
423.7672396146995
 20
-207.1070222928015
 10
423.7672238503995
 20
-208.639234424902
 10
423.5000000000998
 20
-210.1872258160015
  0
LINE
  5
20E
330
6F
100
AcDbEntity
  8
DETAIL
  6
Continuous
 62
     5
100
AcDbLine
 10
400.0000000000998
 20
-368.4750000000017
 30
0.0
 11
400.0000000000998
 21
-387.4750000000017
 31
0.0
  0
LINE
  5
20F
330
6F
100
AcDbEntity
  8
DETAIL
  6
Continuous
 62
     5
100
AcDbLine
 10
400.0000000000998
 20
-399.4750000000017
 30
0.0
 11
400.0000000000998
 21
-418.4750000000017
 31
0.0
  0
LINE
  5
210
330
6F
100
AcDbEntity
  8
DETAIL
  6
Continuous
 62
     5
100
AcDbLine
 10
401.5000000000997
 20
-229.6319255134017
 30
0.0
 11
401.5000000000997
 21
-200.6200744866014
 31
0.0
  0
LINE
  5
211
330
6F
100
AcDbEntity
  8
DETAIL
  6
Continuous
 62
     5
100
AcDbLine
 10
406.5000000000996
 20
-271.125999998802
 30
0.0
 11
406.5000000000996
 21
-293.1260000012021
 31
0.0
  0
LINE
  5
212
330
6F
100
AcDbEntity
  8
DETAIL
  6
Continuous
 62
     5
100
AcDbLine
 10
407.5000000000998
 20
-194.4750000000017
 30
0.0
 11
407.5000000000998
 21
-196.4750000000016
 31
0.0
  0
LINE
  5
213
330
6F
100
AcDbEntity
  8
DETAIL
  6
Continuous
 62
     5
100
AcDbLine
 10
408.0000000000998
 20
-194.4750000000017
 30
0.0
 11
408.0000000000998
 21
-195.9750000000017
 31
0.0
  0
LINE
  5
214
330
6F
100
AcDbEntity
  8
DETAIL
  6
Continuous
 62
     5
100
AcDbLine
 10
423.5000000000998
 20
-224.6931513294017
 30
0.0
 11
423.5000000000998
 21
-229.6319255134017
 31
0.0
  0
LINE
  5
215
330
6F
100
AcDbEntity
  8
DETAIL
  6
Continuous
 62
     5
100
AcDbLine
 10
423.5000000000998
 20
-220.0647741840016
 30
0.0
 11
423.5000000000998
 21
-210.1872258160015
 31
0.0
  0
LINE
  5
216
330
6F
100
AcDbEntity
  8
DETAIL
  6
Continuous
 62
     5
100
AcDbLine
 10
423.5000000000998
 20
-205.5588486706015
 30
0.0
 11
423.5000000000998
 21
-200.6200744866014
 31
0.0
  0
LINE
  5
217
330
6F
100
AcDbEntity
  8
DETAIL
  6
Continuous
 62
     5
100
AcDbLine
 10
427.5000000000998
 20
-226.6250852098015
 30
0.0
 11
427.5000000000998
 21
-203.6269147902017
 31
0.0
  0
LWPOLYLINE
  5
218
330
6F
100
AcDbEntity
  8
DETAIL
  6
Continuous
 62
     5
100
AcDbPolyline
 90
        6
 70
     0
 43
0.0
 10
397.0000000000998
 20
-209.3760000000016
 10
396.9312648656994
 20
-210.4665156839014
 10
396.7247694054001
 20
-211.5679264742016
 10
396.3777319112994
 20
-212.6963219290014
 10
395.8814768433001
 20
-213.8740934842021
 10
395.2209438087
 20
-215.1260000000016
  0
LWPOLYLINE
  5
220
330
6F
100
AcDbEntity
  8
DETAIL
  6
Continuous
 62
     5
100
AcDbPolyline
 90
        6
 70
     0
 43
0.0
 10
397.0000000000998
 20
-220.8760000000016
 10
396.9311869501997
 20
-221.9671354346015
 10
396.7246763670999
 20
-223.0683013012017
 10
396.3784431441998
 20
-224.1943739178018
 10
395.8825838421997
 20
-225.3717638812017
 10
395.2209438087
 20
-226.6260000000016
  0
LWPOLYLINE
  5
228
330
6F
100
AcDbEntity
  8
DETAIL
  6
Continuous
 62
     5
100
AcDbPolyline
 90
        5
 70
     0
 43
0.0
 10
387.0000000000998
 20
-286.3760000000016
 10
386.9202158493997
 20
-287.3869510644022
 10
386.6799418345997
 20
-288.4150119009014
 10
386.2727497719994
 20
-289.485519268002
 10
385.6850454238
 20
-290.6260000000015
  0
LWPOLYLINE
  5
22F
330
6F
100
AcDbEntity
  8
DETAIL
  6
Continuous
 62
     5
100
AcDbPolyline
 90
        5
 70
     0
 43
0.0
 10
406.5000000000996
 20
-276.6260000000016
 10
406.3963837269999
 20
-277.9366184625019
 10
406.0842081888002
 20
-279.2699037441021
 10
405.5559784823996
 20
-280.6564760899014
 10
404.7982940778998
 20
-282.1260000000016
  0
LWPOLYLINE
  5
236
330
6F
100
AcDbEntity
  8
DETAIL
  6
Continuous
 62
     5
100
AcDbPolyline
 90
        5
 70
     0
 43
0.0
 10
406.5000000000996
 20
-287.6260000000016
 10
406.3963837269999
 20
-288.9366184625019
 10
406.0842081888002
 20
-290.2699037441021
 10
405.5559784823996
 20
-291.6564760899014
 10
404.7982940778998
 20
-293.1260000000015
  0
LWPOLYLINE
  5
23D
330
6F
100
AcDbEntity
  8
DETAIL
  6
Continuous
 62
     5
100
AcDbPolyline
 90
        4
 70
     0
 43
0.0
 10
423.5000000000998
 20
-210.1872258160015
 10
423.0621361629999
 20
-211.7700873714016
 10
422.4016468703998
 20
-213.4012662944019
 10
421.5000000000998
 20
-215.1260000000016
  0
LWPOLYLINE
  5
243
330
6F
100
AcDbEntity
  8
DETAIL
  6
Continuous
 62
     5
100
AcDbPolyline
 90
        4
 70
     0
 43
0.0
 10
423.5000000000998
 20
-224.6931513294017
 10
423.0621361629999
 20
-226.2760128848017
 10
422.4016468703998
 20
-227.9071918078021
 10
421.5000000000998
 20
-229.6319255134017
  0
ARC
  5
249
330
6F
100
AcDbEntity
  8
DETAIL
  6
Continuous
 62
     5
100
AcDbCircle
 10
-376.9999999999002
 20
-401.4750000000017
 30
0.0
 40
7.0
100
AcDbArc
 50
180.0
 51
0.0
  0
ARC
  5
24A
330
6F
100
AcDbEntity
  8
DETAIL
  6
Continuous
 62
     5
100
AcDbCircle
 10
-376.9999999999002
 20
-385.4750000000017
 30
0.0
 40
7.0
100
AcDbArc
 50
0.0
 51
180.0
  0
ARC
  5
24B
330
6F
100
AcDbEntity
  8
DETAIL
  6
Continuous
 62
     5
100
AcDbCircle
 10
-329.2166650311003
 20
-450.2750000000019
 30
0.0
 40
10.0
100
AcDbArc
 50
180.9999999999757
 51
270.0
  0
ARC
  5
24C
330
6F
100
AcDbEntity
  8
DETAIL
  6
Continuous
 62
     5
100
AcDbCircle
 10
-342.1692109475
 20
-427.2750000000018
 30
0.0
 40
4.0
100
AcDbArc
 50
186.3793702184694
 51
270.0000056148748
  0
ARC
  5
24D
330
6F
100
AcDbEntity
  8
DETAIL
  6
Continuous
 62
     5
100
AcDbCircle
 10
-341.515227352
 20
-433.2750000000019
 30
0.0
 40
1.999999713499999
100
AcDbArc
 50
1.000000859716638
 51
61.58856578419853
  0
ARC
  5
24E
330
6F
100
AcDbEntity
  8
DETAIL
  6
Continuous
 62
     5
100
AcDbCircle
 10
-346.6413469025003
 20
-427.7750000000018
 30
0.0
 40
0.5
100
AcDbArc
 50
6.379370127914472
 51
89.99999917280256
  0
ARC
  5
24F
330
6F
100
AcDbEntity
  8
DETAIL
  6
Continuous
 62
     5
100
AcDbCircle
 10
329.2166650312
 20
-450.2750000000019
 30
0.0
 40
10.0
100
AcDbArc
 50
270.0
 51
358.9999999999721
  0
ARC
  5
250
330
6F
100
AcDbEntity
  8
DETAIL
  6
Continuous
 62
     5
100
AcDbCircle
 10
377.0000000000998
 20
-385.4750000000017
 30
0.0
 40
7.0
100
AcDbArc
 50
0.0
 51
180.0
  0
ARC
  5
251
330
6F
100
AcDbEntity
  8
DETAIL
  6
Continuous
 62
     5
100
AcDbCircle
 10
377.0000000000998
 20
-401.4750000000017
 30
0.0
 40
7.0
100
AcDbArc
 50
180.0
 51
0.0
  0
ARC
  5
252
330
6F
100
AcDbEntity
  8
DETAIL
  6
Continuous
 62
     5
100
AcDbCircle
 10
342.0692109476001
 20
-427.2750000000018
 30
0.0
 40
4.0
100
AcDbArc
 50
269.9999976051191
 51
353.6206297842047
  0
ARC
  5
253
330
6F
100
AcDbEntity
  8
DETAIL
  6
Continuous
 62
     5
100
AcDbCircle
 10
341.5152264404002
 20
-433.2750000000019
 30
0.0
 40
1.999999561499999
100
AcDbArc
 50
119.4395751258219
 51
178.9999986845101
  0
ARC
  5
254
330
6F
100
AcDbEntity
  8
DETAIL
  6
Continuous
 62
     5
100
AcDbCircle
 10
346.5413469025997
 20
-427.7750000000018
 30
0.0
 40
0.5
100
AcDbArc
 50
90.00000060468684
 51
173.6206298503775
  0
ARC
  5
255
330
6F
100
AcDbEntity
  8
DETAIL
  6
Continuous
 62
     5
100
AcDbCircle
 10
354.0000000000998
 20
-198.231349211002
 30
0.0
 40
1.0
100
AcDbArc
 50
90.99999978530098
 51
179.9999878252837
  0
ARC
  5
256
330
6F
100
AcDbEntity
  8
DETAIL
  6
Continuous
 62
     5
100
AcDbCircle
 10
407.5000000000998
 20
-195.9750000000017
 30
0.0
 40
0.5
100
AcDbArc
 50
270.0
 51
0.000056884284598
  0
LINE
  5
257
330
6F
100
AcDbEntity
  8
NOTE
  6
Continuous
 62
     4
100
AcDbLine
 10
427.5000000000998
 20
-235.3953543253215
 30
0.0
 11
427.5000000000998
 21
-194.8566456746798
 31
0.0
  0
LINE
  5
258
330
6F
100
AcDbEntity
  8
NOTE
  6
Continuous
 62
     4
100
AcDbLine
 10
445.7271194250547
 20
-215.1260000000007
 30
0.0
 11
409.2728805751447
 21
-215.1260000000007
 31
0.0
  0
LINE
  5
259
330
6F
100
AcDbEntity
  8
NOTE
  6
Continuous
 62
     4
100
AcDbLine
 10
406.5000000000996
 20
-304.7123305282775
 30
0.0
 11
406.5000000000996
 21
-259.5396694717247
 31
0.0
  0
LINE
  5
25A
330
6F
100
AcDbEntity
  8
NOTE
  6
Continuous
 62
     4
100
AcDbLine
 10
423.5537212177611
 20
-282.1260000000011
 30
0.0
 11
389.4462787824384
 21
-282.1260000000011
 31
0.0
  0
LINE
  5
25B
330
6F
100
AcDbEntity
  8
SIZE
  6
Continuous
 62
    30
100
AcDbLine
 10
350.0000000000998
 20
-318.6260000000006
 30
0.0
 11
350.0000000000998
 21
-620.8473095016093
 31
0.0
  0
LINE
  5
25C
330
6F
100
AcDbEntity
  8
SIZE
  6
Continuous
 62
    30
100
AcDbLine
 10
406.5000000000996
 20
-324.7123305282776
 30
0.0
 11
406.5000000000996
 21
-620.8473095016093
 31
0.0
  0
LINE
  5
25D
330
6F
100
AcDbEntity
  8
SIZE
  6
Continuous
 62
    30
100
AcDbLine
 10
350.0000000000998
 20
-600.8473095016093
 30
0.0
 11
406.5000000000996
 21
-600.8473095016093
 31
0.0
  0
LINE
  5
25E
330
6F
100
AcDbEntity
  8
SIZE
  6
Continuous
 62
    30
100
AcDbLine
 10
406.5000000000996
 20
-600.8473095016093
 30
0.0
 11
534.7857142858138
 21
-600.8473095016093
 31
0.0
  0
CIRCLE
  5
25F
330
6F
100
AcDbEntity
  8
SIZE
  6
Continuous
 62
    30
100
AcDbCircle
 10
350.0000000000998
 20
-600.8473095016093
 30
0.0
 40
7.5
  0
CIRCLE
  5
260
330
6F
100
AcDbEntity
  8
SIZE
  6
Continuous
 62
    30
100
AcDbCircle
 10
406.5000000000996
 20
-600.8473095016093
 30
0.0
 40
7.5
  0
TEXT
  5
261
330
6F
100
AcDbEntity
  8
SIZE
  6
Continuous
 62
    30
100
AcDbText
 10
456.5000000000996
 20
-580.8473095016092
 30
0.0
 40
40.0
  1
57
 41
0.9
 72
     1
 11
485.6428571429568
 21
-580.8473095016092
 31
0.0
100
AcDbText
  0
POINT
  5
262
330
6F
100
AcDbEntity
  8
DEFPOINTS
  6
Continuous
 62
    30
100
AcDbPoint
 10
350.0000000000998
 20
-298.6260000000008
 30
0.0
  0
POINT
  5
263
330
6F
100
AcDbEntity
  8
DEFPOINTS
  6
Continuous
 62
    30
100
AcDbPoint
 10
406.5000000000996
 20
-304.7123305282775
 30
0.0
  0
POINT
  5
264
330
6F
100
AcDbEntity
  8
DEFPOINTS
  6
Continuous
 62
    30
100
AcDbPoint
 10
406.5000000000996
 20
-600.8473095016093
 30
0.0
  0
LINE
  5
265
330
6F
100
AcDbEntity
  8
SIZE
  6
Continuous
 62
    30
100
AcDbLine
 10
350.0000000000998
 20
-318.6260000000006
 30
0.0
 11
350.0000000000998
 21
-734.8049712736177
 31
0.0
  0
LINE
  5
266
330
6F
100
AcDbEntity
  8
SIZE
  6
Continuous
 62
    30
100
AcDbLine
 10
427.5000000000998
 20
-255.3953543253215
 30
0.0
 11
427.5000000000996
 21
-734.8049712736177
 31
0.0
  0
LINE
  5
267
330
6F
100
AcDbEntity
  8
SIZE
  6
Continuous
 62
    30
100
AcDbLine
 10
350.0000000000998
 20
-714.8049712736177
 30
0.0
 11
427.5000000000996
 21
-714.8049712736177
 31
0.0
  0
LINE
  5
268
330
6F
100
AcDbEntity
  8
SIZE
  6
Continuous
 62
    30
100
AcDbLine
 10
427.5000000000996
 20
-714.8049712736177
 30
0.0
 11
555.7857142858138
 21
-714.8049712736177
 31
0.0
  0
CIRCLE
  5
269
330
6F
100
AcDbEntity
  8
SIZE
  6
Continuous
 62
    30
100
AcDbCircle
 10
350.0000000000998
 20
-714.8049712736177
 30
0.0
 40
7.5
  0
CIRCLE
  5
26A
330
6F
100
AcDbEntity
  8
SIZE
  6
Continuous
 62
    30
100
AcDbCircle
 10
427.5000000000996
 20
-714.8049712736177
 30
0.0
 40
7.5
  0
TEXT
  5
26B
330
6F
100
AcDbEntity
  8
SIZE
  6
Continuous
 62
    30
100
AcDbText
 10
477.5000000000996
 20
-694.8049712736177
 30
0.0
 40
40.0
  1
78
 41
0.9
 72
     1
 11
506.6428571429568
 21
-694.8049712736177
 31
0.0
100
AcDbText
  0
POINT
  5
26C
330
6F
100
AcDbEntity
  8
DEFPOINTS
  6
Continuous
 62
    30
100
AcDbPoint
 10
350.0000000000998
 20
-298.6260000000008
 30
0.0
  0
POINT
  5
26D
330
6F
100
AcDbEntity
  8
DEFPOINTS
  6
Continuous
 62
    30
100
AcDbPoint
 10
427.5000000000998
 20
-235.3953543253215
 30
0.0
  0
POINT
  5
26E
330
6F
100
AcDbEntity
  8
DEFPOINTS
  6
Continuous
 62
    30
100
AcDbPoint
 10
427.5000000000996
 20
-714.8049712736177
 30
0.0
  0
LINE
  5
26F
330
6F
100
AcDbEntity
  8
SIZE
  6
Continuous
 62
    30
100
AcDbLine
 10
369.5000000000996
 20
-417.7750000000012
 30
0.0
 11
807.8219302936222
 21
-417.7750000000015
 31
0.0
  0
LINE
  5
270
330
6F
100
AcDbEntity
  8
SIZE
  6
Continuous
 62
    30
100
AcDbLine
 10
443.5537212177611
 20
-282.1260000000011
 30
0.0
 11
807.8219302936222
 21
-282.1260000000013
 31
0.0
  0
LINE
  5
271
330
6F
100
AcDbEntity
  8
SIZE
  6
Continuous
 62
    30
100
AcDbLine
 10
787.8219302936225
 20
-417.7750000000015
 30
0.0
 11
787.8219302936225
 21
-282.1260000000013
 31
0.0
  0
CIRCLE
  5
272
330
6F
100
AcDbEntity
  8
SIZE
  6
Continuous
 62
    30
100
AcDbCircle
 10
787.8219302936225
 20
-417.7750000000015
 30
0.0
 40
7.5
  0
CIRCLE
  5
273
330
6F
100
AcDbEntity
  8
SIZE
  6
Continuous
 62
    30
100
AcDbCircle
 10
787.8219302936225
 20
-282.1260000000013
 30
0.0
 40
7.5
  0
TEXT
  5
274
330
6F
100
AcDbEntity
  8
SIZE
  6
Continuous
 62
    30
100
AcDbText
 10
767.8219302936224
 20
-391.9505000000012
 30
0.0
 40
40.0
  1
136
 50
90.0
 41
0.9
 72
     1
 11
767.8219302936224
 21
-349.9505000000012
 31
0.0
100
AcDbText
  0
POINT
  5
275
330
6F
100
AcDbEntity
  8
DEFPOINTS
  6
Continuous
 62
    30
100
AcDbPoint
 10
349.5000000000997
 20
-417.7750000000012
 30
0.0
  0
POINT
  5
276
330
6F
100
AcDbEntity
  8
DEFPOINTS
  6
Continuous
 62
    30
100
AcDbPoint
 10
423.5537212177611
 20
-282.1260000000011
 30
0.0
  0
POINT
  5
277
330
6F
100
AcDbEntity
  8
DEFPOINTS
  6
Continuous
 62
    30
100
AcDbPoint
 10
787.8219302936225
 20
-282.1260000000013
 30
0.0
  0
LINE
  5
278
330
6F
100
AcDbEntity
  8
SIZE
  6
Continuous
 62
    30
100
AcDbLine
 10
465.7271194250546
 20
-215.1260000000007
 30
0.0
 11
807.8219302936222
 21
-215.1260000000008
 31
0.0
  0
LINE
  5
279
330
6F
100
AcDbEntity
  8
SIZE
  6
Continuous
 62
    30
100
AcDbLine
 10
443.5537212177611
 20
-282.1260000000011
 30
0.0
 11
807.8219302936222
 21
-282.1260000000013
 31
0.0
  0
LINE
  5
27A
330
6F
100
AcDbEntity
  8
SIZE
  6
Continuous
 62
    30
100
AcDbLine
 10
787.8219302936225
 20
-215.1260000000008
 30
0.0
 11
787.8219302936222
 21
-282.1260000000013
 31
0.0
  0
CIRCLE
  5
27B
330
6F
100
AcDbEntity
  8
SIZE
  6
Continuous
 62
    30
100
AcDbCircle
 10
787.8219302936225
 20
-215.1260000000008
 30
0.0
 40
7.5
  0
CIRCLE
  5
27C
330
6F
100
AcDbEntity
  8
SIZE
  6
Continuous
 62
    30
100
AcDbCircle
 10
787.8219302936222
 20
-282.1260000000013
 30
0.0
 40
7.5
  0
TEXT
  5
27D
330
6F
100
AcDbEntity
  8
SIZE
  6
Continuous
 62
    30
100
AcDbText
 10
767.8219302936222
 20
-277.768857142858
 30
0.0
 40
40.0
  1
67
 50
90.0
 41
0.9
 72
     1
 11
767.8219302936222
 21
-248.6260000000009
 31
0.0
100
AcDbText
  0
POINT
  5
27E
330
6F
100
AcDbEntity
  8
DEFPOINTS
  6
Continuous
 62
    30
100
AcDbPoint
 10
445.7271194250547
 20
-215.1260000000007
 30
0.0
  0
POINT
  5
27F
330
6F
100
AcDbEntity
  8
DEFPOINTS
  6
Continuous
 62
    30
100
AcDbPoint
 10
423.5537212177611
 20
-282.1260000000011
 30
0.0
  0
POINT
  5
280
330
6F
100
AcDbEntity
  8
DEFPOINTS
  6
Continuous
 62
    30
100
AcDbPoint
 10
787.8219302936222
 20
-282.1260000000013
 30
0.0
  0
LINE
  5
281
330
6F
100
AcDbEntity
  8
SIZE
  6
Continuous
 62
    30
100
AcDbLine
 10
-401.0000617416373
 20
475.5249999999992
 30
0.0
 11
-401.0000617416373
 21
812.8486705991706
 31
0.0
  0
LINE
  5
282
330
6F
100
AcDbEntity
  8
SIZE
  6
Continuous
 62
    30
100
AcDbLine
 10
598.9999382583625
 20
475.5249999999987
 30
0.0
 11
598.9999382583625
 21
812.8486705991706
 31
0.0
  0
LINE
  5
283
330
6F
100
AcDbEntity
  8
SIZE
  6
Continuous
 62
    30
100
AcDbLine
 10
-401.0000617416373
 20
792.8486705991709
 30
0.0
 11
598.9999382583625
 21
792.8486705991709
 31
0.0
  0
CIRCLE
  5
284
330
6F
100
AcDbEntity
  8
SIZE
  6
Continuous
 62
    30
100
AcDbCircle
 10
-401.0000617416373
 20
792.8486705991709
 30
0.0
 40
7.5
  0
CIRCLE
  5
285
330
6F
100
AcDbEntity
  8
SIZE
  6
Continuous
 62
    30
100
AcDbCircle
 10
598.9999382583625
 20
792.8486705991709
 30
0.0
 40
7.5
  0
TEXT
  5
286
330
6F
100
AcDbEntity
  8
SIZE
  6
Continuous
 62
    30
100
AcDbText
 10
38.99993825836261
 20
812.8486705991706
 30
0.0
 40
40.0
  1
1000
 41
0.9
 72
     1
 11
98.99993825836261
 21
812.8486705991706
 31
0.0
100
AcDbText
  0
POINT
  5
287
330
6F
100
AcDbEntity
  8
DEFPOINTS
  6
Continuous
 62
    30
100
AcDbPoint
 10
-401.0000617416373
 20
455.5249999999992
 30
0.0
  0
POINT
  5
288
330
6F
100
AcDbEntity
  8
DEFPOINTS
  6
Continuous
 62
    30
100
AcDbPoint
 10
598.9999382583625
 20
455.5249999999987
 30
0.0
  0
POINT
  5
289
330
6F
100
AcDbEntity
  8
DEFPOINTS
  6
Continuous
 62
    30
100
AcDbPoint
 10
598.9999382583625
 20
792.8486705991709
 30
0.0
  0
LINE
  5
28A
330
6F
100
AcDbEntity
  8
SIZE
  6
Continuous
 62
    30
100
AcDbLine
 10
618.9999382583621
 20
455.5249999999987
 30
0.0
 11
807.821930293622
 21
455.5249999999984
 31
0.0
  0
LINE
  5
28B
330
6F
100
AcDbEntity
  8
SIZE
  6
Continuous
 62
    30
100
AcDbLine
 10
618.9999382583622
 20
-194.4750000000017
 30
0.0
 11
807.821930293622
 21
-194.4750000000017
 31
0.0
  0
LINE
  5
28C
330
6F
100
AcDbEntity
  8
SIZE
  6
Continuous
 62
    30
100
AcDbLine
 10
787.8219302936221
 20
455.5249999999984
 30
0.0
 11
787.8219302936221
 21
-194.4750000000017
 31
0.0
  0
CIRCLE
  5
28D
330
6F
100
AcDbEntity
  8
SIZE
  6
Continuous
 62
    30
100
AcDbCircle
 10
787.8219302936221
 20
455.5249999999984
 30
0.0
 40
7.5
  0
CIRCLE
  5
28E
330
6F
100
AcDbEntity
  8
SIZE
  6
Continuous
 62
    30
100
AcDbCircle
 10
787.8219302936221
 20
-194.4750000000017
 30
0.0
 40
7.5
  0
TEXT
  5
28F
330
6F
100
AcDbEntity
  8
SIZE
  6
Continuous
 62
    30
100
AcDbText
 10
767.8219302936221
 20
84.23928571428422
 30
0.0
 40
40.0
  1
650
 50
90.0
 41
0.9
 72
     1
 11
767.8219302936221
 21
130.5249999999985
 31
0.0
100
AcDbText
  0
POINT
  5
290
330
6F
100
AcDbEntity
  8
DEFPOINTS
  6
Continuous
 62
    30
100
AcDbPoint
 10
598.9999382583621
 20
455.5249999999987
 30
0.0
  0
POINT
  5
291
330
6F
100
AcDbEntity
  8
DEFPOINTS
  6
Continuous
 62
    30
100
AcDbPoint
 10
598.9999382583625
 20
-194.4750000000017
 30
0.0
  0
POINT
  5
292
330
6F
100
AcDbEntity
  8
DEFPOINTS
  6
Continuous
 62
    30
100
AcDbPoint
 10
787.8219302936221
 20
-194.4750000000017
 30
0.0
  0
LINE
  5
293
330
6F
100
AcDbEntity
  8
NOTE
  6
Continuous
 62
     4
100
AcDbLine
 10
437.3527900215766
 20
-244.5800255376444
 30
0.0
 11
427.5000000000998
 21
-215.1260000000007
 31
0.0
  0
LINE
  5
294
330
6F
100
AcDbEntity
  8
NOTE
  6
Continuous
 62
     4
100
AcDbLine
 10
427.5000000000998
 20
-215.1260000000007
 30
0.0
 11
450.7597791323056
 21
-235.7075394540962
 31
0.0
  0
LINE
  5
295
330
6F
100
AcDbEntity
  8
NOTE
  6
Continuous
 62
     4
100
AcDbLine
 10
427.5000000000998
 20
-215.1260000000007
 30
0.0
 11
444.0562845769411
 21
-240.1437824958703
 31
0.0
  0
LINE
  5
296
330
6F
100
AcDbEntity
  8
NOTE
  6
Continuous
 62
     4
100
AcDbLine
 10
444.0562845769411
 20
-240.1437824958703
 30
0.0
 11
705.1181699942351
 21
-634.6277886760531
 31
0.0
  0
LINE
  5
297
330
6F
100
AcDbEntity
  8
NOTE
  6
Continuous
 62
     4
100
AcDbLine
 10
705.1181699942351
 20
-634.6277886760531
 30
0.0
 11
1158.995594313095
 21
-634.6277886760531
 31
0.0
  0
LINE
  5
298
330
6F
100
AcDbEntity
  8
NOTE
  6
Continuous
 62
     4
100
AcDbLine
 10
415.9048194403808
 20
-311.7261091699888
 30
0.0
 11
406.5000000000996
 21
-282.1260000000011
 31
0.0
  0
LINE
  5
299
330
6F
100
AcDbEntity
  8
NOTE
  6
Continuous
 62
     4
100
AcDbLine
 10
406.5000000000996
 20
-282.1260000000011
 30
0.0
 11
429.4448670434238
 21
-303.0580368799533
 31
0.0
  0
LINE
  5
29A
330
6F
100
AcDbEntity
  8
NOTE
  6
Continuous
 62
     4
100
AcDbLine
 10
406.5000000000996
 20
-282.1260000000011
 30
0.0
 11
422.6748432419022
 21
-307.3920730249712
 31
0.0
  0
LINE
  5
29B
330
6F
100
AcDbEntity
  8
NOTE
  6
Continuous
 62
     4
100
AcDbLine
 10
422.6748432419022
 20
-307.3920730249712
 30
0.0
 11
705.1181699942351
 21
-748.5854504480609
 31
0.0
  0
LINE
  5
29C
330
6F
100
AcDbEntity
  8
NOTE
  6
Continuous
 62
     4
100
AcDbLine
 10
705.1181699942351
 20
-748.5854504480609
 30
0.0
 11
1158.995594313095
 21
-748.5854504480608
 31
0.0
  0
TEXT
  5
29D
330
6F
100
AcDbEntity
  8
NOTE
  6
Continuous
 62
     4
100
AcDbText
 10
729.2431459179602
 20
-605.5735210614207
 30
0.0
 40
64.0
  1
RG %%c12.7
100
AcDbText
  0
TEXT
  5
29E
330
6F
100
AcDbEntity
  8
NOTE
  6
Continuous
 62
     4
100
AcDbText
 10
720.1579055898216
 20
-718.6111401296858
 30
0.0
 40
64.0
  1
RL %%c6.35
100
AcDbText
  0
TEXT
  5
29F
330
6F
100
AcDbEntity
  8
ETC
  6
Continuous
 62
    61
100
AcDbText
 10
-1024.305733774152
 20
988.7805517685327
 30
0.0
 40
64.0
  1
PDFY-P22_28_36GMG7_6
 41
0.9
100
AcDbText
  0
LINE
  5
2A0
330
6F
100
AcDbEntity
  8
NOTE
  6
Continuous
 62
     4
100
AcDbLine
 10
-12.16365303644443
 20
-541.0311606842236
 30
0.0
 11
-32.40685967126137
 21
-541.0311606842236
 31
0.0
  0
LINE
  5
2A1
330
6F
100
AcDbEntity
  8
NOTE
  6
Continuous
 62
     4
100
AcDbLine
 10
41.68103060496785
 20
-541.0311606842236
 30
0.0
 11
21.43782397015138
 21
-541.0311606842236
 31
0.0
  0
LINE
  5
2A2
330
6F
100
AcDbEntity
  8
NOTE
  6
Continuous
 62
     4
100
AcDbLine
 10
-32.40685967126137
 20
-541.0311606842236
 30
0.0
 11
4.637085466853021
 21
-576.8877998884541
 31
0.0
  0
LINE
  5
2A3
330
6F
100
AcDbEntity
  8
NOTE
  6
Continuous
 62
     4
100
AcDbLine
 10
41.68103060496785
 20
-541.0311606842236
 30
0.0
 11
4.637085466853021
 21
-576.8877998884541
 31
0.0
  0
LINE
  5
2A4
330
6F
100
AcDbEntity
  8
NOTE
  6
Continuous
 62
     4
100
AcDbLine
 10
-12.16365303644443
 20
-541.0311606842236
 30
0.0
 11
-12.16365303644443
 21
-505.3132259135884
 31
0.0
  0
LINE
  5
2A5
330
6F
100
AcDbEntity
  8
NOTE
  6
Continuous
 62
     4
100
AcDbLine
 10
21.43782397015138
 20
-541.0311606842236
 30
0.0
 11
21.43782397015138
 21
-505.3132259135884
 31
0.0
  0
LINE
  5
2A6
330
6F
100
AcDbEntity
  8
NOTE
  6
Continuous
 62
     4
100
AcDbLine
 10
21.43782397015138
 20
-505.3132259135884
 30
0.0
 11
-12.16365303644443
 21
-505.3132259135884
 31
0.0
  0
LINE
  5
2A7
330
6F
100
AcDbEntity
  8
NOTE
  6
Continuous
 62
     4
100
AcDbLine
 10
-42.02306505123897
 20
545.1435043804337
 30
0.0
 11
-62.26627168605592
 21
545.1435043804337
 31
0.0
  0
LINE
  5
2A8
330
6F
100
AcDbEntity
  8
NOTE
  6
Continuous
 62
     4
100
AcDbLine
 10
11.82161859017333
 20
545.1435043804337
 30
0.0
 11
-8.421588044643158
 21
545.1435043804337
 31
0.0
  0
LINE
  5
2A9
330
6F
100
AcDbEntity
  8
NOTE
  6
Continuous
 62
     4
100
AcDbLine
 10
-62.26627168605592
 20
545.1435043804337
 30
0.0
 11
-25.22232654794152
 21
509.2868651762031
 31
0.0
  0
LINE
  5
2AA
330
6F
100
AcDbEntity
  8
NOTE
  6
Continuous
 62
     4
100
AcDbLine
 10
11.82161859017333
 20
545.1435043804337
 30
0.0
 11
-25.22232654794152
 21
509.2868651762031
 31
0.0
  0
LINE
  5
2AB
330
6F
100
AcDbEntity
  8
NOTE
  6
Continuous
 62
     4
100
AcDbLine
 10
-42.02306505123897
 20
545.1435043804337
 30
0.0
 11
-42.02306505123897
 21
580.8614391510682
 31
0.0
  0
LINE
  5
2AC
330
6F
100
AcDbEntity
  8
NOTE
  6
Continuous
 62
     4
100
AcDbLine
 10
-8.421588044643158
 20
545.1435043804337
 30
0.0
 11
-8.421588044643158
 21
580.8614391510682
 31
0.0
  0
LINE
  5
2AD
330
6F
100
AcDbEntity
  8
NOTE
  6
Continuous
 62
     4
100
AcDbLine
 10
-8.421588044643158
 20
580.8614391510682
 30
0.0
 11
-42.02306505123897
 21
580.8614391510682
 31
0.0
  0
LINE
  5
2AE
330
6F
100
AcDbEntity
  8
OUTLINE
  6
Continuous
 62
     3
100
AcDbLine
 10
400.0000000001
 20
-387.4750000000008
 30
0.0
 11
384.0000000001003
 21
-387.4750000000008
 31
0.0
  0
LINE
  5
2AF
330
6F
100
AcDbEntity
  8
OUTLINE
  6
Continuous
 62
     3
100
AcDbLine
 10
384.0000000001003
 20
-387.4750000000008
 30
0.0
 11
384.0000000001003
 21
-385.4750000000008
 31
0.0
  0
ARC
  5
2B0
330
6F
100
AcDbEntity
  8
OUTLINE
  6
Continuous
 62
     3
100
AcDbCircle
 10
377.0000000001003
 20
-385.4750000000008
 30
0.0
 40
7.0
100
AcDbArc
 50
0.0
 51
180.0
  0
LINE
  5
2B1
330
6F
100
AcDbEntity
  8
OUTLINE
  6
Continuous
 62
     3
100
AcDbLine
 10
370.0000000001003
 20
-385.4750000000008
 30
0.0
 11
370.0000000001003
 21
-401.4750000000008
 31
0.0
  0
ARC
  5
2B2
330
6F
100
AcDbEntity
  8
OUTLINE
  6
Continuous
 62
     3
100
AcDbCircle
 10
377.0000000001003
 20
-401.4750000000008
 30
0.0
 40
7.0
100
AcDbArc
 50
180.0
 51
0.0
  0
LINE
  5
2B3
330
6F
100
AcDbEntity
  8
OUTLINE
  6
Continuous
 62
     3
100
AcDbLine
 10
384.0000000001003
 20
-401.4750000000008
 30
0.0
 11
384.0000000001003
 21
-399.4750000000008
 31
0.0
  0
LINE
  5
2B4
330
6F
100
AcDbEntity
  8
OUTLINE
  6
Continuous
 62
     3
100
AcDbLine
 10
384.0000000001003
 20
-399.4750000000008
 30
0.0
 11
400.0000000001
 21
-399.4750000000008
 31
0.0
  0
LINE
  5
2B5
330
6F
100
AcDbEntity
  8
OUTLINE
  6
Continuous
 62
     3
100
AcDbLine
 10
400.0000000001
 20
-399.4750000000008
 30
0.0
 11
400.0000000001
 21
-418.4750000000008
 31
0.0
  0
LINE
  5
2B6
330
6F
100
AcDbEntity
  8
OUTLINE
  6
Continuous
 62
     3
100
AcDbLine
 10
400.0000000001
 20
-418.4750000000008
 30
0.0
 11
352.0500000001
 21
-418.4750000000008
 31
0.0
  0
LINE
  5
2B7
330
6F
100
AcDbEntity
  8
OUTLINE
  6
Continuous
 62
     3
100
AcDbLine
 10
352.0500000001
 20
-418.4750000000008
 30
0.0
 11
352.0500000001
 21
-419.4750000000007
 31
0.0
  0
LINE
  5
2B8
330
6F
100
AcDbEntity
  8
OUTLINE
  6
Continuous
 62
     3
100
AcDbLine
 10
352.0500000001
 20
-419.4750000000007
 30
0.0
 11
350.0000000001003
 21
-419.4750000000007
 31
0.0
  0
LINE
  5
2B9
330
6F
100
AcDbEntity
  8
OUTLINE
  6
Continuous
 62
     3
100
AcDbLine
 10
350.0000000001003
 20
-419.4750000000007
 30
0.0
 11
350.0000000001003
 21
-421.4750000000008
 31
0.0
  0
LINE
  5
2BA
330
6F
100
AcDbEntity
  8
OUTLINE
  6
Continuous
 62
     3
100
AcDbLine
 10
350.0000000001003
 20
-421.4750000000008
 30
0.0
 11
350.0000000001003
 21
-421.5250000000008
 31
0.0
  0
LINE
  5
2BB
330
6F
100
AcDbEntity
  8
OUTLINE
  6
Continuous
 62
     3
100
AcDbLine
 10
350.0000000001003
 20
-421.5250000000008
 30
0.0
 11
349.5000000001003
 21
-421.5250000000008
 31
0.0
  0
LINE
  5
2BC
330
6F
100
AcDbEntity
  8
OUTLINE
  6
Continuous
 62
     3
100
AcDbLine
 10
349.5000000001003
 20
-421.5250000000008
 30
0.0
 11
349.5000000001003
 21
-427.275000000001
 31
0.0
  0
LINE
  5
2BD
330
6F
100
AcDbEntity
  8
OUTLINE
  6
Continuous
 62
     3
100
AcDbLine
 10
349.5000000001003
 20
-427.275000000001
 30
0.0
 11
346.5413469026003
 21
-427.275000000001
 31
0.0
  0
ARC
  5
2BE
330
6F
100
AcDbEntity
  8
OUTLINE
  6
Continuous
 62
     3
100
AcDbCircle
 10
346.5413469025998
 20
-427.7750000000008
 30
0.0
 40
0.5
100
AcDbArc
 50
89.99999999994789
 51
173.6206297915455
  0
ARC
  5
2BF
330
6F
100
AcDbEntity
  8
OUTLINE
  6
Continuous
 62
     3
100
AcDbCircle
 10
342.0692109476001
 20
-427.275000000001
 30
0.0
 40
4.000000000000106
100
AcDbArc
 50
270.0
 51
353.6206297915456
  0
LINE
  5
2C0
330
6F
100
AcDbEntity
  8
OUTLINE
  6
Continuous
 62
     3
100
AcDbLine
 10
342.0692109476001
 20
-431.275000000001
 30
0.0
 11
340.9732929240747
 21
-431.275000000001
 31
0.0
  0
LINE
  5
2C1
330
6F
100
AcDbEntity
  8
OUTLINE
  6
Continuous
 62
     3
100
AcDbLine
 10
340.9732929240747
 20
-431.275000000001
 30
0.0
 11
340.4209444066071
 21
-431.6009196325999
 31
0.0
  0
ARC
  5
2C2
330
6F
100
AcDbEntity
  8
OUTLINE
  6
Continuous
 62
     3
100
AcDbCircle
 10
341.5152264404
 20
-433.275000000001
 30
0.0
 40
1.999999561499904
100
AcDbArc
 50
123.1711032206257
 51
179.0848328296842
  0
LINE
  5
2C3
330
6F
100
AcDbEntity
  8
OUTLINE
  6
Continuous
 62
     3
100
AcDbLine
 10
339.5154819999369
 20
-433.2430560046823
 30
0.0
 11
339.2151419827643
 21
-450.4495240643558
 31
0.0
  0
ARC
  5
2C4
330
6F
100
AcDbEntity
  8
OUTLINE
  6
Continuous
 62
     3
100
AcDbCircle
 10
329.2166650312004
 20
-450.275000000001
 30
0.0
 40
9.999999999999817
100
AcDbArc
 50
270.0
 51
359.0000000001024
  0
LINE
  5
2C5
330
6F
100
AcDbEntity
  8
OUTLINE
  6
Continuous
 62
     3
100
AcDbLine
 10
329.2166650312004
 20
-460.275000000001
 30
0.0
 11
329.0166650312002
 21
-460.275000000001
 31
0.0
  0
LINE
  5
2C6
330
6F
100
AcDbEntity
  8
OUTLINE
  6
Continuous
 62
     3
100
AcDbLine
 10
329.0166650312002
 20
-460.275000000001
 30
0.0
 11
329.0166650312002
 21
-465.3750000000004
 31
0.0
  0
LINE
  5
2C7
330
6F
100
AcDbEntity
  8
OUTLINE
  6
Continuous
 62
     3
100
AcDbLine
 10
329.0166650312002
 20
-465.3750000000004
 30
0.0
 11
239.9428319109004
 21
-465.3750000000004
 31
0.0
  0
LINE
  5
2C8
330
6F
100
AcDbEntity
  8
OUTLINE
  6
Continuous
 62
     3
100
AcDbLine
 10
239.9428319109004
 20
-465.3750000000004
 30
0.0
 11
237.4411688048001
 21
-500.275000000001
 31
0.0
  0
LINE
  5
2C9
330
6F
100
AcDbEntity
  8
OUTLINE
  6
Continuous
 62
     3
100
AcDbLine
 10
237.4411688048001
 20
-500.275000000001
 30
0.0
 11
42.45883119530001
 21
-500.275000000001
 31
0.0
  0
LINE
  5
2CA
330
6F
100
AcDbEntity
  8
OUTLINE
  6
Continuous
 62
     3
100
AcDbLine
 10
42.45883119530001
 20
-500.275000000001
 30
0.0
 11
39.9571680892002
 21
-465.3750000000004
 31
0.0
  0
LINE
  5
2CB
330
6F
100
AcDbEntity
  8
OUTLINE
  6
Continuous
 62
     3
100
AcDbLine
 10
39.9571680892002
 20
-465.3750000000004
 30
0.0
 11
-40.0571680890996
 21
-465.3750000000004
 31
0.0
  0
LINE
  5
2CC
330
6F
100
AcDbEntity
  8
OUTLINE
  6
Continuous
 62
     3
100
AcDbLine
 10
-40.0571680890996
 20
-465.3750000000004
 30
0.0
 11
-42.5588311951999
 21
-500.275000000001
 31
0.0
  0
LINE
  5
2CD
330
6F
100
AcDbEntity
  8
OUTLINE
  6
Continuous
 62
     3
100
AcDbLine
 10
-42.5588311951999
 20
-500.275000000001
 30
0.0
 11
-237.5411688046999
 21
-500.275000000001
 31
0.0
  0
LINE
  5
2CE
330
6F
100
AcDbEntity
  8
OUTLINE
  6
Continuous
 62
     3
100
AcDbLine
 10
-237.5411688046999
 20
-500.275000000001
 30
0.0
 11
-240.0428319107998
 21
-465.3750000000004
 31
0.0
  0
LINE
  5
2CF
330
6F
100
AcDbEntity
  8
OUTLINE
  6
Continuous
 62
     3
100
AcDbLine
 10
-240.0428319107998
 20
-465.3750000000004
 30
0.0
 11
-329.0166650311001
 21
-465.3750000000004
 31
0.0
  0
LINE
  5
2D0
330
6F
100
AcDbEntity
  8
OUTLINE
  6
Continuous
 62
     3
100
AcDbLine
 10
-329.0166650311001
 20
-465.3750000000004
 30
0.0
 11
-329.0166650311001
 21
-460.275000000001
 31
0.0
  0
LINE
  5
2D1
330
6F
100
AcDbEntity
  8
OUTLINE
  6
Continuous
 62
     3
100
AcDbLine
 10
-329.0166650311001
 20
-460.275000000001
 30
0.0
 11
-329.2166650311005
 21
-460.275000000001
 31
0.0
  0
ARC
  5
2D2
330
6F
100
AcDbEntity
  8
OUTLINE
  6
Continuous
 62
     3
100
AcDbCircle
 10
-329.2166650310999
 20
-450.275000000001
 30
0.0
 40
10.0
100
AcDbArc
 50
180.9999999998975
 51
270.0
  0
LINE
  5
2D3
330
6F
100
AcDbEntity
  8
OUTLINE
  6
Continuous
 62
     3
100
AcDbLine
 10
-339.215141982664
 20
-450.4495240643558
 30
0.0
 11
-339.5155754593099
 21
-433.2377017150315
 31
0.0
  0
ARC
  5
2D4
330
6F
100
AcDbEntity
  8
OUTLINE
  6
Continuous
 62
     3
100
AcDbCircle
 10
-341.515227352
 20
-433.275000000001
 30
0.0
 40
1.999999713500123
100
AcDbArc
 50
1.068579255370996
 51
63.2351799360612
  0
LINE
  5
2D5
330
6F
100
AcDbEntity
  8
OUTLINE
  6
Continuous
 62
     3
100
AcDbLine
 10
-340.6145686751413
 20
-431.4892752726705
 30
0.0
 11
-340.9932944028726
 21
-431.275000000001
 31
0.0
  0
LINE
  5
2D6
330
6F
100
AcDbEntity
  8
OUTLINE
  6
Continuous
 62
     3
100
AcDbLine
 10
-340.9932944028726
 20
-431.275000000001
 30
0.0
 11
-342.1692109475
 21
-431.275000000001
 31
0.0
  0
ARC
  5
2D7
330
6F
100
AcDbEntity
  8
OUTLINE
  6
Continuous
 62
     3
100
AcDbCircle
 10
-342.1692109475
 20
-427.275000000001
 30
0.0
 40
4.0
100
AcDbArc
 50
186.3793702084544
 51
270.0
  0
ARC
  5
2D8
330
6F
100
AcDbEntity
  8
OUTLINE
  6
Continuous
 62
     3
100
AcDbCircle
 10
-346.6413469024997
 20
-427.7750000000008
 30
0.0
 40
0.4999999999999698
100
AcDbArc
 50
6.379370208454482
 51
90.00000000002605
  0
LINE
  5
2D9
330
6F
100
AcDbEntity
  8
OUTLINE
  6
Continuous
 62
     3
100
AcDbLine
 10
-346.6413469024999
 20
-427.275000000001
 30
0.0
 11
-349.4999999998997
 21
-427.275000000001
 31
0.0
  0
LINE
  5
2DA
330
6F
100
AcDbEntity
  8
OUTLINE
  6
Continuous
 62
     3
100
AcDbLine
 10
-349.4999999998997
 20
-427.275000000001
 30
0.0
 11
-349.4999999999
 21
-421.5250000000008
 31
0.0
  0
LINE
  5
2DB
330
6F
100
AcDbEntity
  8
OUTLINE
  6
Continuous
 62
     3
100
AcDbLine
 10
-349.4999999999
 20
-421.5250000000008
 30
0.0
 11
-349.9999999998997
 21
-421.5250000000008
 31
0.0
  0
LINE
  5
2DC
330
6F
100
AcDbEntity
  8
OUTLINE
  6
Continuous
 62
     3
100
AcDbLine
 10
-349.9999999998997
 20
-421.5250000000008
 30
0.0
 11
-349.9999999998997
 21
-421.4750000000008
 31
0.0
  0
LINE
  5
2DD
330
6F
100
AcDbEntity
  8
OUTLINE
  6
Continuous
 62
     3
100
AcDbLine
 10
-349.9999999998997
 20
-421.4750000000008
 30
0.0
 11
-349.9999999998997
 21
-419.4750000000007
 31
0.0
  0
LINE
  5
2DE
330
6F
100
AcDbEntity
  8
OUTLINE
  6
Continuous
 62
     3
100
AcDbLine
 10
-349.9999999998997
 20
-419.4750000000007
 30
0.0
 11
-352.0499999998999
 21
-419.4750000000007
 31
0.0
  0
LINE
  5
2DF
330
6F
100
AcDbEntity
  8
OUTLINE
  6
Continuous
 62
     3
100
AcDbLine
 10
-352.0499999998999
 20
-419.4750000000007
 30
0.0
 11
-352.0499999998999
 21
-418.4750000000008
 31
0.0
  0
LINE
  5
2E0
330
6F
100
AcDbEntity
  8
OUTLINE
  6
Continuous
 62
     3
100
AcDbLine
 10
-352.0499999998999
 20
-418.4750000000008
 30
0.0
 11
-399.9999999998997
 21
-418.4750000000008
 31
0.0
  0
LINE
  5
2E1
330
6F
100
AcDbEntity
  8
OUTLINE
  6
Continuous
 62
     3
100
AcDbLine
 10
-399.9999999998997
 20
-418.4750000000008
 30
0.0
 11
-399.9999999998997
 21
-399.4750000000008
 31
0.0
  0
LINE
  5
2E2
330
6F
100
AcDbEntity
  8
OUTLINE
  6
Continuous
 62
     3
100
AcDbLine
 10
-399.9999999998997
 20
-399.4750000000008
 30
0.0
 11
-383.9999999998997
 21
-399.4750000000008
 31
0.0
  0
LINE
  5
2E3
330
6F
100
AcDbEntity
  8
OUTLINE
  6
Continuous
 62
     3
100
AcDbLine
 10
-383.9999999998997
 20
-399.4750000000008
 30
0.0
 11
-383.9999999998997
 21
-401.4750000000008
 31
0.0
  0
ARC
  5
2E4
330
6F
100
AcDbEntity
  8
OUTLINE
  6
Continuous
 62
     3
100
AcDbCircle
 10
-376.9999999998997
 20
-401.4750000000008
 30
0.0
 40
7.0
100
AcDbArc
 50
180.0
 51
0.0
  0
LINE
  5
2E5
330
6F
100
AcDbEntity
  8
OUTLINE
  6
Continuous
 62
     3
100
AcDbLine
 10
-369.9999999998997
 20
-401.4750000000008
 30
0.0
 11
-369.9999999998997
 21
-385.4750000000008
 31
0.0
  0
ARC
  5
2E6
330
6F
100
AcDbEntity
  8
OUTLINE
  6
Continuous
 62
     3
100
AcDbCircle
 10
-376.9999999998997
 20
-385.4750000000008
 30
0.0
 40
7.0
100
AcDbArc
 50
0.0
 51
180.0
  0
LINE
  5
2E7
330
6F
100
AcDbEntity
  8
OUTLINE
  6
Continuous
 62
     3
100
AcDbLine
 10
-383.9999999998997
 20
-385.4750000000008
 30
0.0
 11
-383.9999999998997
 21
-387.4750000000008
 31
0.0
  0
LINE
  5
2E8
330
6F
100
AcDbEntity
  8
OUTLINE
  6
Continuous
 62
     3
100
AcDbLine
 10
-383.9999999998997
 20
-387.4750000000008
 30
0.0
 11
-399.9999999998997
 21
-387.4750000000008
 31
0.0
  0
LINE
  5
2E9
330
6F
100
AcDbEntity
  8
OUTLINE
  6
Continuous
 62
     3
100
AcDbLine
 10
-399.9999999998997
 20
-387.4750000000008
 30
0.0
 11
-399.9999999998997
 21
-368.4750000000008
 31
0.0
  0
LINE
  5
2EA
330
6F
100
AcDbEntity
  8
OUTLINE
  6
Continuous
 62
     3
100
AcDbLine
 10
-399.9999999998997
 20
-368.4750000000008
 30
0.0
 11
-353.9999999998997
 21
-368.4750000000008
 31
0.0
  0
LINE
  5
2EB
330
6F
100
AcDbEntity
  8
OUTLINE
  6
Continuous
 62
     3
100
AcDbLine
 10
-353.9999999998997
 20
-368.4750000000008
 30
0.0
 11
-353.9999999998997
 21
-194.4750000000008
 31
0.0
  0
LINE
  5
2EC
330
6F
100
AcDbEntity
  8
OUTLINE
  6
Continuous
 62
     3
100
AcDbLine
 10
-353.9999999998997
 20
-194.4750000000008
 30
0.0
 11
-401.0000617416369
 21
-194.4750000000004
 31
0.0
  0
LINE
  5
2ED
330
6F
100
AcDbEntity
  8
OUTLINE
  6
Continuous
 62
     3
100
AcDbLine
 10
-401.0000617416369
 20
-194.4750000000004
 30
0.0
 11
-401.0000617416369
 21
455.5249999999992
 31
0.0
  0
LINE
  5
2EE
330
6F
100
AcDbEntity
  8
OUTLINE
  6
Continuous
 62
     3
100
AcDbLine
 10
-401.0000617416369
 20
455.5249999999992
 30
0.0
 11
598.999938258363
 21
455.5249999999987
 31
0.0
  0
LINE
  5
2EF
330
6F
100
AcDbEntity
  8
OUTLINE
  6
Continuous
 62
     3
100
AcDbLine
 10
598.999938258363
 20
455.5249999999987
 30
0.0
 11
598.999938258363
 21
-194.4750000000013
 31
0.0
  0
LINE
  5
2F0
330
6F
100
AcDbEntity
  8
OUTLINE
  6
Continuous
 62
     3
100
AcDbLine
 10
598.999938258363
 20
-194.4750000000013
 30
0.0
 11
408.0000000001001
 21
-194.4750000000013
 31
0.0
  0
LINE
  5
2F1
330
6F
100
AcDbEntity
  8
OUTLINE
  6
Continuous
 62
     3
100
AcDbLine
 10
408.0000000001001
 20
-194.4750000000013
 30
0.0
 11
408.0000000001001
 21
-195.9750000000008
 31
0.0
  0
ARC
  5
2F2
330
6F
100
AcDbEntity
  8
OUTLINE
  6
Continuous
 62
     3
100
AcDbCircle
 10
407.5000000001002
 20
-195.9750000000008
 30
0.0
 40
0.5
100
AcDbArc
 50
270.0
 51
0.0
  0
LINE
  5
2F3
330
6F
100
AcDbEntity
  8
OUTLINE
  6
Continuous
 62
     3
100
AcDbLine
 10
407.5000000001002
 20
-196.4750000000008
 30
0.0
 11
383.0000000001003
 21
-196.4750000000008
 31
0.0
  0
LINE
  5
2F4
330
6F
100
AcDbEntity
  8
OUTLINE
  6
Continuous
 62
     3
100
AcDbLine
 10
383.0000000001003
 20
-196.4750000000008
 30
0.0
 11
383.0000000001003
 21
-196.7250000000008
 31
0.0
  0
LINE
  5
2F5
330
6F
100
AcDbEntity
  8
OUTLINE
  6
Continuous
 62
     3
100
AcDbLine
 10
383.0000000001003
 20
-196.7250000000008
 30
0.0
 11
380.0999999999
 21
-196.7756196882919
 31
0.0
  0
LINE
  5
2F6
330
6F
100
AcDbEntity
  8
OUTLINE
  6
Continuous
 62
     3
100
AcDbLine
 10
380.0999999999
 20
-196.7756196882919
 30
0.0
 11
380.0999999999
 21
-203.6260000000007
 31
0.0
  0
LINE
  5
2F7
330
6F
100
AcDbEntity
  8
OUTLINE
  6
Continuous
 62
     3
100
AcDbLine
 10
380.0999999999
 20
-203.6260000000007
 30
0.0
 11
397.0000000001003
 21
-203.6260000000007
 31
0.0
  0
LINE
  5
2F8
330
6F
100
AcDbEntity
  8
OUTLINE
  6
Continuous
 62
     3
100
AcDbLine
 10
397.0000000001003
 20
-203.6260000000007
 30
0.0
 11
397.0000000001003
 21
-204.0260000000012
 31
0.0
  0
LINE
  5
2F9
330
6F
100
AcDbEntity
  8
OUTLINE
  6
Continuous
 62
     3
100
AcDbLine
 10
397.0000000001003
 20
-204.0260000000012
 30
0.0
 11
401.5000000001
 21
-204.0260000000012
 31
0.0
  0
LINE
  5
2FA
330
6F
100
AcDbEntity
  8
OUTLINE
  6
Continuous
 62
     3
100
AcDbLine
 10
401.5000000001
 20
-204.0260000000012
 30
0.0
 11
401.5000000001
 21
-200.6200744866005
 31
0.0
  0
LINE
  5
2FB
330
6F
100
AcDbEntity
  8
OUTLINE
  6
Continuous
 62
     3
100
AcDbLine
 10
401.5000000001
 20
-200.6200744866005
 30
0.0
 11
423.8003993682081
 21
-200.6200744866005
 31
0.0
  0
LINE
  5
2FC
330
6F
100
AcDbEntity
  8
OUTLINE
  6
Continuous
 62
     3
100
AcDbLine
 10
423.8003993682081
 20
-200.6200744866005
 30
0.0
 11
427.5000000001003
 21
-203.6260000000007
 31
0.0
  0
LINE
  5
2FD
330
6F
100
AcDbEntity
  8
OUTLINE
  6
Continuous
 62
     3
100
AcDbLine
 10
427.5000000001003
 20
-203.6260000000007
 30
0.0
 11
427.5000000001003
 21
-208.170102341001
 31
0.0
  0
LINE
  5
2FE
330
6F
100
AcDbEntity
  8
OUTLINE
  6
Continuous
 62
     3
100
AcDbLine
 10
427.5000000001003
 20
-208.170102341001
 30
0.0
 11
428.3339009920003
 21
-208.6206704366009
 31
0.0
  0
LINE
  5
2FF
330
6F
100
AcDbEntity
  8
OUTLINE
  6
Continuous
 62
     3
100
AcDbLine
 10
428.3339009920003
 20
-208.6206704366009
 30
0.0
 11
429.4962908769003
 21
-209.7511376946008
 31
0.0
  0
LINE
  5
300
330
6F
100
AcDbEntity
  8
OUTLINE
  6
Continuous
 62
     3
100
AcDbLine
 10
429.4962908769003
 20
-209.7511376946008
 30
0.0
 11
430.3298823677998
 21
-211.2104033466007
 31
0.0
  0
LINE
  5
301
330
6F
100
AcDbEntity
  8
OUTLINE
  6
Continuous
 62
     3
100
AcDbLine
 10
430.3298823677998
 20
-211.2104033466007
 30
0.0
 11
430.832016928
 21
-213.001125929201
 31
0.0
  0
LINE
  5
302
330
6F
100
AcDbEntity
  8
OUTLINE
  6
Continuous
 62
     3
100
AcDbLine
 10
430.832016928
 20
-213.001125929201
 30
0.0
 11
431.0000000001003
 21
-215.1260000000007
 31
0.0
  0
LINE
  5
303
330
6F
100
AcDbEntity
  8
OUTLINE
  6
Continuous
 62
     3
100
AcDbLine
 10
431.0000000001003
 20
-215.1260000000007
 30
0.0
 11
430.832016928
 21
-217.2508740708013
 31
0.0
  0
LINE
  5
304
330
6F
100
AcDbEntity
  8
OUTLINE
  6
Continuous
 62
     3
100
AcDbLine
 10
430.832016928
 20
-217.2508740708013
 30
0.0
 11
430.3298823677998
 21
-219.0415966534006
 31
0.0
  0
LINE
  5
305
330
6F
100
AcDbEntity
  8
OUTLINE
  6
Continuous
 62
     3
100
AcDbLine
 10
430.3298823677998
 20
-219.0415966534006
 30
0.0
 11
429.4962908769003
 21
-220.5008623054005
 31
0.0
  0
LINE
  5
306
330
6F
100
AcDbEntity
  8
OUTLINE
  6
Continuous
 62
     3
100
AcDbLine
 10
429.4962908769003
 20
-220.5008623054005
 30
0.0
 11
428.3339009920003
 21
-221.6313295634004
 31
0.0
  0
LINE
  5
307
330
6F
100
AcDbEntity
  8
OUTLINE
  6
Continuous
 62
     3
100
AcDbLine
 10
428.3339009920003
 20
-221.6313295634004
 30
0.0
 11
427.5000000001003
 21
-222.0818976590012
 31
0.0
  0
LINE
  5
308
330
6F
100
AcDbEntity
  8
OUTLINE
  6
Continuous
 62
     3
100
AcDbLine
 10
427.5000000001003
 20
-222.0818976590012
 30
0.0
 11
427.5000000001003
 21
-226.6260000000007
 31
0.0
  0
LINE
  5
309
330
6F
100
AcDbEntity
  8
OUTLINE
  6
Continuous
 62
     3
100
AcDbLine
 10
427.5000000001003
 20
-226.6260000000007
 30
0.0
 11
423.8003993682081
 21
-229.6319255134008
 31
0.0
  0
LINE
  5
30A
330
6F
100
AcDbEntity
  8
OUTLINE
  6
Continuous
 62
     3
100
AcDbLine
 10
423.8003993682081
 20
-229.6319255134008
 30
0.0
 11
401.5000000001
 21
-229.6319255134008
 31
0.0
  0
LINE
  5
30B
330
6F
100
AcDbEntity
  8
OUTLINE
  6
Continuous
 62
     3
100
AcDbLine
 10
401.5000000001
 20
-229.6319255134008
 30
0.0
 11
401.5000000001
 21
-226.226000000001
 31
0.0
  0
LINE
  5
30C
330
6F
100
AcDbEntity
  8
OUTLINE
  6
Continuous
 62
     3
100
AcDbLine
 10
401.5000000001
 20
-226.226000000001
 30
0.0
 11
397.0000000001003
 21
-226.226000000001
 31
0.0
  0
LINE
  5
30D
330
6F
100
AcDbEntity
  8
OUTLINE
  6
Continuous
 62
     3
100
AcDbLine
 10
397.0000000001003
 20
-226.226000000001
 30
0.0
 11
397.0000000001003
 21
-226.6260000000007
 31
0.0
  0
LINE
  5
30E
330
6F
100
AcDbEntity
  8
OUTLINE
  6
Continuous
 62
     3
100
AcDbLine
 10
397.0000000001003
 20
-226.6260000000007
 30
0.0
 11
380.0000000001002
 21
-226.6260000000007
 31
0.0
  0
LINE
  5
30F
330
6F
100
AcDbEntity
  8
OUTLINE
  6
Continuous
 62
     3
100
AcDbLine
 10
380.0000000001002
 20
-226.6260000000007
 30
0.0
 11
380.0000000001002
 21
-234.1260000000007
 31
0.0
  0
LINE
  5
310
330
6F
100
AcDbEntity
  8
OUTLINE
  6
Continuous
 62
     3
100
AcDbLine
 10
380.0000000001002
 20
-234.1260000000007
 30
0.0
 11
354.0000000001003
 21
-234.1260000000007
 31
0.0
  0
LINE
  5
311
330
6F
100
AcDbEntity
  8
OUTLINE
  6
Continuous
 62
     3
100
AcDbLine
 10
354.0000000001003
 20
-234.1260000000007
 30
0.0
 11
354.0000000001003
 21
-265.6260000000007
 31
0.0
  0
LINE
  5
312
330
6F
100
AcDbEntity
  8
OUTLINE
  6
Continuous
 62
     3
100
AcDbLine
 10
354.0000000001003
 20
-265.6260000000007
 30
0.0
 11
373.0000000001003
 21
-265.6260000000007
 31
0.0
  0
LINE
  5
313
330
6F
100
AcDbEntity
  8
OUTLINE
  6
Continuous
 62
     3
100
AcDbLine
 10
373.0000000001003
 20
-265.6260000000007
 30
0.0
 11
373.0000000001003
 21
-273.6260000000007
 31
0.0
  0
LINE
  5
314
330
6F
100
AcDbEntity
  8
OUTLINE
  6
Continuous
 62
     3
100
AcDbLine
 10
373.0000000001003
 20
-273.6260000000007
 30
0.0
 11
387.0000000001003
 21
-273.6260000000007
 31
0.0
  0
LINE
  5
315
330
6F
100
AcDbEntity
  8
OUTLINE
  6
Continuous
 62
     3
100
AcDbLine
 10
387.0000000001003
 20
-273.6260000000007
 30
0.0
 11
387.0000000001003
 21
-274.1860000000011
 31
0.0
  0
LINE
  5
316
330
6F
100
AcDbEntity
  8
OUTLINE
  6
Continuous
 62
     3
100
AcDbLine
 10
387.0000000001003
 20
-274.1860000000011
 30
0.0
 11
388.5000000001003
 21
-274.1860000000011
 31
0.0
  0
LINE
  5
317
330
6F
100
AcDbEntity
  8
OUTLINE
  6
Continuous
 62
     3
100
AcDbLine
 10
388.5000000001003
 20
-274.1860000000011
 30
0.0
 11
388.5000000001003
 21
-271.1260000000006
 31
0.0
  0
LINE
  5
318
330
6F
100
AcDbEntity
  8
OUTLINE
  6
Continuous
 62
     3
100
AcDbLine
 10
388.5000000001003
 20
-271.1260000000006
 30
0.0
 11
406.5000000001003
 21
-271.1260000000006
 31
0.0
  0
LINE
  5
319
330
6F
100
AcDbEntity
  8
OUTLINE
  6
Continuous
 62
     3
100
AcDbLine
 10
406.5000000001003
 20
-271.1260000000006
 30
0.0
 11
406.5000000001003
 21
-277.9820426211013
 31
0.0
  0
LINE
  5
31A
330
6F
100
AcDbEntity
  8
OUTLINE
  6
Continuous
 62
     3
100
AcDbLine
 10
406.5000000001003
 20
-277.9820426211013
 30
0.0
 11
407.2728904621
 21
-278.5016376754005
 31
0.0
  0
LINE
  5
31B
330
6F
100
AcDbEntity
  8
OUTLINE
  6
Continuous
 62
     3
100
AcDbLine
 10
407.2728904621
 20
-278.5016376754005
 30
0.0
 11
407.9776490778
 21
-279.4302123930006
 31
0.0
  0
LINE
  5
31C
330
6F
100
AcDbEntity
  8
OUTLINE
  6
Continuous
 62
     3
100
AcDbLine
 10
407.9776490778
 20
-279.4302123930006
 30
0.0
 11
408.4048089793999
 21
-280.636385824801
 31
0.0
  0
LINE
  5
31D
330
6F
100
AcDbEntity
  8
OUTLINE
  6
Continuous
 62
     3
100
AcDbLine
 10
408.4048089793999
 20
-280.636385824801
 30
0.0
 11
408.5485281374998
 21
-282.1260000000009
 31
0.0
  0
LINE
  5
31E
330
6F
100
AcDbEntity
  8
OUTLINE
  6
Continuous
 62
     3
100
AcDbLine
 10
408.5485281374998
 20
-282.1260000000009
 30
0.0
 11
408.4048089793999
 21
-283.6156141752013
 31
0.0
  0
LINE
  5
31F
330
6F
100
AcDbEntity
  8
OUTLINE
  6
Continuous
 62
     3
100
AcDbLine
 10
408.4048089793999
 20
-283.6156141752013
 30
0.0
 11
407.9776490778
 21
-284.8217876070007
 31
0.0
  0
LINE
  5
320
330
6F
100
AcDbEntity
  8
OUTLINE
  6
Continuous
 62
     3
100
AcDbLine
 10
407.9776490778
 20
-284.8217876070007
 30
0.0
 11
407.2728904621
 21
-285.7503623246007
 31
0.0
  0
LINE
  5
321
330
6F
100
AcDbEntity
  8
OUTLINE
  6
Continuous
 62
     3
100
AcDbLine
 10
407.2728904621
 20
-285.7503623246007
 30
0.0
 11
406.5000000001003
 21
-286.2699573789009
 31
0.0
  0
LINE
  5
322
330
6F
100
AcDbEntity
  8
OUTLINE
  6
Continuous
 62
     3
100
AcDbLine
 10
406.5000000001003
 20
-286.2699573789009
 30
0.0
 11
406.5000000001003
 21
-293.1260000000008
 31
0.0
  0
LINE
  5
323
330
6F
100
AcDbEntity
  8
OUTLINE
  6
Continuous
 62
     3
100
AcDbLine
 10
406.5000000001003
 20
-293.1260000000008
 30
0.0
 11
388.5000000001003
 21
-293.1260000000008
 31
0.0
  0
LINE
  5
324
330
6F
100
AcDbEntity
  8
OUTLINE
  6
Continuous
 62
     3
100
AcDbLine
 10
388.5000000001003
 20
-293.1260000000008
 30
0.0
 11
388.5000000001003
 21
-290.0660000000012
 31
0.0
  0
LINE
  5
325
330
6F
100
AcDbEntity
  8
OUTLINE
  6
Continuous
 62
     3
100
AcDbLine
 10
388.5000000001003
 20
-290.0660000000012
 30
0.0
 11
387.0000000001003
 21
-290.0660000000012
 31
0.0
  0
LINE
  5
326
330
6F
100
AcDbEntity
  8
OUTLINE
  6
Continuous
 62
     3
100
AcDbLine
 10
387.0000000001003
 20
-290.0660000000012
 30
0.0
 11
387.0000000001003
 21
-290.6260000000008
 31
0.0
  0
LINE
  5
327
330
6F
100
AcDbEntity
  8
OUTLINE
  6
Continuous
 62
     3
100
AcDbLine
 10
387.0000000001003
 20
-290.6260000000008
 30
0.0
 11
373.0000000001003
 21
-290.6260000000008
 31
0.0
  0
LINE
  5
328
330
6F
100
AcDbEntity
  8
OUTLINE
  6
Continuous
 62
     3
100
AcDbLine
 10
373.0000000001003
 20
-290.6260000000008
 30
0.0
 11
373.0000000001003
 21
-298.6260000000008
 31
0.0
  0
LINE
  5
329
330
6F
100
AcDbEntity
  8
OUTLINE
  6
Continuous
 62
     3
100
AcDbLine
 10
373.0000000001003
 20
-298.6260000000008
 30
0.0
 11
354.0000000001003
 21
-298.6260000000008
 31
0.0
  0
LINE
  5
32A
330
6F
100
AcDbEntity
  8
OUTLINE
  6
Continuous
 62
     3
100
AcDbLine
 10
354.0000000001003
 20
-298.6260000000008
 30
0.0
 11
354.0000000001003
 21
-368.4750000000008
 31
0.0
  0
LINE
  5
32B
330
6F
100
AcDbEntity
  8
OUTLINE
  6
Continuous
 62
     3
100
AcDbLine
 10
354.0000000001003
 20
-368.4750000000008
 30
0.0
 11
400.0000000001
 21
-368.4750000000008
 31
0.0
  0
LINE
  5
32C
330
6F
100
AcDbEntity
  8
OUTLINE
  6
Continuous
 62
     3
100
AcDbLine
 10
400.0000000001
 20
-368.4750000000008
 30
0.0
 11
400.0000000001
 21
-387.4750000000008
 31
0.0
  0
LINE
  5
32D
330
6F
100
AcDbEntity
  8
OUTLINE
  6
Continuous
 62
     3
100
AcDbLine
 10
400.0000000001
 20
-387.4750000000008
 30
0.0
 11
400.0000000001
 21
-387.4750000000008
 31
0.0
  0
LINE
  5
32E
330
6F
100
AcDbEntity
  8
NOTE
  6
Continuous
 62
     4
100
AcDbLine
 10
376.9999999999998
 20
-423.4749999999998
 30
0.0
 11
376.9999999999998
 21
-363.4749999999999
 31
0.0
  0
LINE
  5
32F
330
6F
100
AcDbEntity
  8
NOTE
  6
Continuous
 62
     4
100
AcDbLine
 10
356.5465625496342
 20
-393.4749999999998
 30
0.0
 11
416.9851937532326
 21
-393.4749999999998
 31
0.0
  0
LINE
  5
330
330
6F
100
AcDbEntity
  8
NOTE
  6
Continuous
 62
     4
100
AcDbLine
 10
-377.0000000000002
 20
-423.4749999999998
 30
0.0
 11
-377.0000000000002
 21
-363.4749999999999
 31
0.0
  0
LINE
  5
331
330
6F
100
AcDbEntity
  8
NOTE
  6
Continuous
 62
     4
100
AcDbLine
 10
-356.5465625496347
 20
-393.4749999999998
 30
0.0
 11
-416.9851937532333
 21
-393.4749999999998
 31
0.0
  0
CIRCLE
  5
332
330
6F
100
AcDbEntity
  8
FIX
  6
Continuous
 62
    11
100
AcDbCircle
 10
376.9999999999998
 20
-393.4749999999998
 30
0.0
 40
12.0
  0
CIRCLE
  5
333
330
6F
100
AcDbEntity
  8
FIX
  6
Continuous
 62
    11
100
AcDbCircle
 10
-377.0000000000002
 20
-393.4749999999998
 30
0.0
 40
12.0
  0
LINE
  5
334
330
6F
100
AcDbEntity
  8
SIZE
  6
Continuous
 62
    30
100
AcDbLine
 10
-400.0000000000001
 20
-438.4749999999998
 30
0.0
 11
-400.0000000000001
 21
-842.0127020625432
 31
0.0
  0
LINE
  5
335
330
6F
100
AcDbEntity
  8
SIZE
  6
Continuous
 62
    30
100
AcDbLine
 10
-377.0000000000002
 20
-451.4749999999998
 30
0.0
 11
-377.0000000000002
 21
-842.0127020625432
 31
0.0
  0
LINE
  5
336
330
6F
100
AcDbEntity
  8
SIZE
  6
Continuous
 62
    30
100
AcDbLine
 10
-377.0000000000002
 20
-822.0127020625437
 30
0.0
 11
-347.0000000000002
 21
-822.0127020625437
 31
0.0
  0
LINE
  5
337
330
6F
100
AcDbEntity
  8
SIZE
  6
Continuous
 62
    30
100
AcDbLine
 10
-400.0000000000001
 20
-822.0127020625437
 30
0.0
 11
-558.2857142857143
 21
-822.0127020625437
 31
0.0
  0
LINE
  5
338
330
6F
100
AcDbEntity
  8
SIZE
  6
Continuous
 62
    30
100
AcDbLine
 10
-377.0000000000002
 20
-822.0127020625437
 30
0.0
 11
-400.0000000000001
 21
-822.0127020625437
 31
0.0
  0
CIRCLE
  5
339
330
6F
100
AcDbEntity
  8
SIZE
  6
Continuous
 62
    30
100
AcDbCircle
 10
-377.0000000000002
 20
-822.0127020625437
 30
0.0
 40
7.5
  0
CIRCLE
  5
33A
330
6F
100
AcDbEntity
  8
SIZE
  6
Continuous
 62
    30
100
AcDbCircle
 10
-400.0000000000001
 20
-822.0127020625437
 30
0.0
 40
7.5
  0
TEXT
  5
33B
330
6F
100
AcDbEntity
  8
SIZE
  6
Continuous
 62
    30
100
AcDbText
 10
-538.2857142857143
 20
-802.0127020625434
 30
0.0
 40
40.0
  1
23
 41
0.9
 72
     1
 11
-509.1428571428572
 21
-802.0127020625434
 31
0.0
100
AcDbText
  0
POINT
  5
33C
330
6F
100
AcDbEntity
  8
DEFPOINTS
  6
Continuous
 62
    30
100
AcDbPoint
 10
-400.0000000000001
 20
-418.4749999999998
 30
0.0
  0
POINT
  5
33D
330
6F
100
AcDbEntity
  8
DEFPOINTS
  6
Continuous
 62
    30
100
AcDbPoint
 10
-377.0000000000002
 20
-431.4749999999998
 30
0.0
  0
POINT
  5
33E
330
6F
100
AcDbEntity
  8
DEFPOINTS
  6
Continuous
 62
    30
100
AcDbPoint
 10
-377.0000000000002
 20
-822.0127020625437
 30
0.0
  0
LINE
  5
33F
330
6F
100
AcDbEntity
  8
SIZE
  6
Continuous
 62
    30
100
AcDbLine
 10
-377.0000000000002
 20
-451.4749999999998
 30
0.0
 11
-377.0000000000002
 21
-842.0127020625432
 31
0.0
  0
LINE
  5
340
330
6F
100
AcDbEntity
  8
SIZE
  6
Continuous
 62
    30
100
AcDbLine
 10
376.9999999999998
 20
-451.4749999999998
 30
0.0
 11
376.9999999999998
 21
-842.0127020625432
 31
0.0
  0
LINE
  5
341
330
6F
100
AcDbEntity
  8
SIZE
  6
Continuous
 62
    30
100
AcDbLine
 10
-377.0000000000002
 20
-822.0127020625437
 30
0.0
 11
376.9999999999998
 21
-822.0127020625437
 31
0.0
  0
CIRCLE
  5
342
330
6F
100
AcDbEntity
  8
SIZE
  6
Continuous
 62
    30
100
AcDbCircle
 10
-377.0000000000002
 20
-822.0127020625437
 30
0.0
 40
7.5
  0
CIRCLE
  5
343
330
6F
100
AcDbEntity
  8
SIZE
  6
Continuous
 62
    30
100
AcDbCircle
 10
376.9999999999998
 20
-822.0127020625437
 30
0.0
 40
7.5
  0
TEXT
  5
344
330
6F
100
AcDbEntity
  8
SIZE
  6
Continuous
 62
    30
100
AcDbText
 10
-47.14285714285735
 20
-802.0127020625434
 30
0.0
 40
40.0
  1
754
 41
0.9
 72
     1
 11
-0.0000000000002274
 21
-802.0127020625434
 31
0.0
100
AcDbText
  0
POINT
  5
345
330
6F
100
AcDbEntity
  8
DEFPOINTS
  6
Continuous
 62
    30
100
AcDbPoint
 10
-377.0000000000002
 20
-431.4749999999998
 30
0.0
  0
POINT
  5
346
330
6F
100
AcDbEntity
  8
DEFPOINTS
  6
Continuous
 62
    30
100
AcDbPoint
 10
376.9999999999998
 20
-431.4749999999998
 30
0.0
  0
POINT
  5
347
330
6F
100
AcDbEntity
  8
DEFPOINTS
  6
Continuous
 62
    30
100
AcDbPoint
 10
376.9999999999998
 20
-822.0127020625437
 30
0.0
  0
LINE
  5
348
330
6F
100
AcDbEntity
  8
SIZE
  6
Continuous
 62
    30
100
AcDbLine
 10
376.9999999999998
 20
-451.4749999999998
 30
0.0
 11
376.9999999999998
 21
-842.0127020625432
 31
0.0
  0
LINE
  5
349
330
6F
100
AcDbEntity
  8
SIZE
  6
Continuous
 62
    30
100
AcDbLine
 10
399.9999999999998
 20
-438.4749999999998
 30
0.0
 11
399.9999999999998
 21
-842.0127020625432
 31
0.0
  0
LINE
  5
34A
330
6F
100
AcDbEntity
  8
SIZE
  6
Continuous
 62
    30
100
AcDbLine
 10
376.9999999999998
 20
-822.0127020625437
 30
0.0
 11
346.9999999999998
 21
-822.0127020625437
 31
0.0
  0
LINE
  5
34B
330
6F
100
AcDbEntity
  8
SIZE
  6
Continuous
 62
    30
100
AcDbLine
 10
399.9999999999998
 20
-822.0127020625437
 30
0.0
 11
558.285714285714
 21
-822.0127020625437
 31
0.0
  0
LINE
  5
34C
330
6F
100
AcDbEntity
  8
SIZE
  6
Continuous
 62
    30
100
AcDbLine
 10
376.9999999999998
 20
-822.0127020625437
 30
0.0
 11
399.9999999999998
 21
-822.0127020625437
 31
0.0
  0
CIRCLE
  5
34D
330
6F
100
AcDbEntity
  8
SIZE
  6
Continuous
 62
    30
100
AcDbCircle
 10
376.9999999999998
 20
-822.0127020625437
 30
0.0
 40
7.5
  0
CIRCLE
  5
34E
330
6F
100
AcDbEntity
  8
SIZE
  6
Continuous
 62
    30
100
AcDbCircle
 10
399.9999999999998
 20
-822.0127020625437
 30
0.0
 40
7.5
  0
TEXT
  5
34F
330
6F
100
AcDbEntity
  8
SIZE
  6
Continuous
 62
    30
100
AcDbText
 10
479.9999999999996
 20
-802.0127020625434
 30
0.0
 40
40.0
  1
23
 41
0.9
 72
     1
 11
509.1428571428568
 21
-802.0127020625434
 31
0.0
100
AcDbText
  0
POINT
  5
350
330
6F
100
AcDbEntity
  8
DEFPOINTS
  6
Continuous
 62
    30
100
AcDbPoint
 10
376.9999999999998
 20
-431.4749999999998
 30
0.0
  0
POINT
  5
351
330
6F
100
AcDbEntity
  8
DEFPOINTS
  6
Continuous
 62
    30
100
AcDbPoint
 10
399.9999999999998
 20
-418.4749999999998
 30
0.0
  0
POINT
  5
352
330
6F
100
AcDbEntity
  8
DEFPOINTS
  6
Continuous
 62
    30
100
AcDbPoint
 10
399.9999999999998
 20
-822.0127020625437
 30
0.0
  0
LINE
  5
353
330
6F
100
AcDbEntity
  8
NOTE
  6
Continuous
 62
     4
100
AcDbLine
 10
-384.2086831920474
 20
-363.2648696094143
 30
0.0
 11
-377.0000000000002
 21
-393.4749999999998
 31
0.0
  0
LINE
  5
354
330
6F
100
AcDbEntity
  8
NOTE
  6
Continuous
 62
     4
100
AcDbLine
 10
-377.0000000000002
 20
-393.4749999999998
 30
0.0
 11
-398.3479678651027
 21
-370.9166011292901
 31
0.0
  0
LINE
  5
355
330
6F
100
AcDbEntity
  8
NOTE
  6
Continuous
 62
     4
100
AcDbLine
 10
-377.0000000000002
 20
-393.4749999999998
 30
0.0
 11
-391.2783255285751
 21
-367.0907353693523
 31
0.0
  0
LINE
  5
356
330
6F
100
AcDbEntity
  8
NOTE
  6
Continuous
 62
     4
100
AcDbLine
 10
-391.2783255285751
 20
-367.0907353693523
 30
0.0
 11
-488.3780578310688
 21
-187.6645815457127
 31
0.0
  0
LINE
  5
357
330
6F
100
AcDbEntity
  8
NOTE
  6
Continuous
 62
     4
100
AcDbLine
 10
-488.3780578310688
 20
-187.6645815457127
 30
0.0
 11
-1400.695488086545
 21
-187.6645815457127
 31
0.0
  0
TEXT
  5
358
330
6F
100
AcDbEntity
  8
NOTE
  6
Continuous
 62
     4
100
AcDbText
 10
-1384.617940802538
 20
-157.6902712273372
 30
0.0
 40
64.0
  1
AH 2×2 M10ボルト用
100
AcDbText
  0
LINE
  5
359
330
6F
100
AcDbEntity
  8
BASIS
  6
DASHDOT
 62
     6
100
AcDbLine
 10
-0.0000000000001137
 20
493.5537908965316
 30
0.0
 11
-0.0000000000003411
 21
-538.3037908965316
 31
0.0
  0
LINE
  5
35A
330
6F
100
AcDbEntity
  8
BASIS
  6
DASHDOT
 62
     6
100
AcDbLine
 10
583.1417662579332
 20
0.0
 30
0.0
 11
-583.1417662579332
 21
0.0
 31
0.0
  0
CIRCLE
  5
35B
330
6F
100
AcDbEntity
  8
ARRANGE
  6
Continuous
 62
     1
100
AcDbCircle
 10
0.0
 20
0.0
 30
0.0
 40
40.0
  0
LINE
  5
35C
330
6F
100
AcDbEntity
  8
ARRANGE
  6
Continuous
 62
     1
100
AcDbLine
 10
-36.84543740734854
 20
-36.84543740734897
 30
0.0
 11
36.84543740735035
 21
36.84543740734897
 31
0.0
  0
LINE
  5
35D
330
6F
100
AcDbEntity
  8
ARRANGE
  6
Continuous
 62
     1
100
AcDbLine
 10
-36.84543740734854
 20
36.84543740734897
 30
0.0
 11
36.84543740735035
 21
-36.8454374073508
 31
0.0
  0
TEXT
  5
365
330
6F
100
AcDbEntity
  8
ETC
  6
Continuous
 62
    61
100
AcDbText
 10
-1035.819531371137
 20
887.6005556775572
 30
0.0
 40
64.0
  1
後吸込用フィルターボックス組込
 41
0.9
100
AcDbText
  0
ENDSEC
  0
SECTION
  2
OBJECTS
  0
DICTIONARY
  5
C
330
0
100
AcDbDictionary
281
     1
  3
ACAD_CIP_PREVIOUS_PRODUCT_INFO
350
35E
  3
ACAD_COLOR
350
62
  3
ACAD_DETAILVIEWSTYLE
350
69
  3
ACAD_GROUP
350
D
  3
ACAD_LAYOUT
350
61
  3
ACAD_MATERIAL
350
10
  3
ACAD_MLEADERSTYLE
350
65
  3
ACAD_MLINESTYLE
350
5E
  3
ACAD_PLOTSETTINGS
350
60
  3
ACAD_PLOTSTYLENAME
350
E
  3
ACAD_SCALELIST
350
42
  3
ACAD_SECTIONVIEWSTYLE
350
67
  3
ACAD_TABLESTYLE
350
63
  3
ACAD_VISUALSTYLE
350
29
  3
ACDB_RECOMPOSE_DATA
350
416
  3
AcDbVariableDictionary
350
37E
  3
DWGPROPS
350
417
  0
DICTIONARY
  5
368
330
54
100
AcDbDictionary
280
     1
281
     1
  3
ADSK_XREC_LAYER_RECONCILED
360
369
  0
DICTIONARY
  5
36A
330
73
100
AcDbDictionary
280
     1
281
     1
  3
ADSK_XREC_LAYER_RECONCILED
360
36B
  0
DICTIONARY
  5
36C
330
76
100
AcDbDictionary
280
     1
281
     1
  3
ADSK_XREC_LAYER_RECONCILED
360
36D
  0
DICTIONARY
  5
36E
330
77
100
AcDbDictionary
280
     1
281
     1
  3
ADSK_XREC_LAYER_RECONCILED
360
36F
  0
DICTIONARY
  5
370
330
78
100
AcDbDictionary
280
     1
281
     1
  3
ADSK_XREC_LAYER_RECONCILED
360
371
  0
DICTIONARY
  5
372
330
79
100
AcDbDictionary
280
     1
281
     1
  3
ADSK_XREC_LAYER_RECONCILED
360
373
  0
DICTIONARY
  5
374
330
7A
100
AcDbDictionary
280
     1
281
     1
  3
ADSK_XREC_LAYER_RECONCILED
360
375
  0
DICTIONARY
  5
376
330
7B
100
AcDbDictionary
280
     1
281
     1
  3
ADSK_XREC_LAYER_RECONCILED
360
377
  0
DICTIONARY
  5
378
330
7C
100
AcDbDictionary
280
     1
281
     1
  3
ADSK_XREC_LAYER_RECONCILED
360
379
  0
DICTIONARY
  5
37A
330
7D
100
AcDbDictionary
280
     1
281
     1
  3
ADSK_XREC_LAYER_RECONCILED
360
37B
  0
DICTIONARY
  5
37C
330
7E
100
AcDbDictionary
280
     1
281
     1
  3
ADSK_XREC_LAYER_RECONCILED
360
37D
  0
XRECORD
  5
35E
102
{ACAD_REACTORS
330
C
102
}
330
C
100
AcDbXrecord
280
     1
300
ACD
300
2018
300
86830ACD_2018_0F
  0
DICTIONARY
  5
62
102
{ACAD_REACTORS
330
C
102
}
330
C
100
AcDbDictionary
281
     1
  0
DICTIONARY
  5
69
102
{ACAD_REACTORS
330
C
102
}
330
C
100
AcDbDictionary
281
     1
  3
Imperial24
350
6A
  0
DICTIONARY
  5
D
102
{ACAD_REACTORS
330
C
102
}
330
C
100
AcDbDictionary
281
     1
  0
DICTIONARY
  5
61
102
{ACAD_REACTORS
330
C
102
}
330
C
100
AcDbDictionary
281
     1
  3
Model
350
72
  3
レイアウト1
350
6E
  0
DICTIONARY
  5
10
102
{ACAD_REACTORS
330
C
102
}
330
C
100
AcDbDictionary
281
     1
  3
ByBlock
350
19
  3
ByLayer
350
11
  3
Global
350
21
  0
DICTIONARY
  5
65
102
{ACAD_REACTORS
330
C
102
}
330
C
100
AcDbDictionary
281
     1
  3
Standard
350
66
  0
DICTIONARY
  5
5E
102
{ACAD_REACTORS
330
C
102
}
330
C
100
AcDbDictionary
281
     1
  3
Standard
350
5F
  0
DICTIONARY
  5
60
102
{ACAD_REACTORS
330
C
102
}
330
C
100
AcDbDictionary
281
     1
  0
ACDBDICTIONARYWDFLT
  5
E
102
{ACAD_REACTORS
330
C
102
}
330
C
100
AcDbDictionary
281
     1
  3
Normal
350
F
100
AcDbDictionaryWithDefault
340
F
  0
DICTIONARY
  5
42
102
{ACAD_REACTORS
330
C
102
}
330
C
100
AcDbDictionary
281
     1
  3
A0
350
43
  3
A1
350
44
  3
A2
350
45
  3
A3
350
46
  3
A4
350
47
  3
A5
350
48
  3
A6
350
49
  3
A7
350
4A
  3
A8
350
4B
  3
A9
350
4C
  3
B0
350
4D
  3
B1
350
4E
  3
B2
350
4F
  3
B3
350
50
  3
B4
350
51
  3
B5
350
52
  3
B6
350
53
  0
DICTIONARY
  5
67
102
{ACAD_REACTORS
330
C
102
}
330
C
100
AcDbDictionary
281
     1
  3
Imperial24
350
68
  0
DICTIONARY
  5
63
102
{ACAD_REACTORS
330
C
102
}
330
C
100
AcDbDictionary
281
     1
  3
Standard
350
64
  0
DICTIONARY
  5
29
102
{ACAD_REACTORS
330
C
102
}
330
C
100
AcDbDictionary
281
     1
  3
2dWireframe
350
2F
  3
Basic
350
2E
  3
Brighten
350
35
  3
ColorChange
350
39
  3
Conceptual
350
32
  3
Dim
350
34
  3
EdgeColorOff
350
41
  3
Facepattern
350
38
  3
Flat
350
2A
  3
FlatWithEdges
350
2B
  3
Gouraud
350
2C
  3
GouraudWithEdges
350
2D
  3
Hidden
350
31
  3
JitterOff
350
3F
  3
Linepattern
350
37
  3
OverhangOff
350
40
  3
Realistic
350
33
  3
Shaded
350
3E
  3
Shaded with edges
350
3D
  3
Shades of Gray
350
3A
  3
Sketchy
350
3B
  3
Thicken
350
36
  3
Wireframe
350
30
  3
X-Ray
350
3C
  0
XRECORD
  5
416
102
{ACAD_REACTORS
330
C
102
}
330
C
100
AcDbXrecord
280
     1
 90
        1
330
64
  0
DICTIONARY
  5
37E
102
{ACAD_REACTORS
330
C
102
}
330
C
100
AcDbDictionary
281
     1
  3
CANNOSCALE
350
383
  3
CMLEADERSTYLE
350
380
  3
CTABLESTYLE
350
37F
  3
CVIEWDETAILSTYLE
350
381
  3
CVIEWSECTIONSTYLE
350
382
  3
DIMASSOC
350
386
  3
INDEXCTL
350
385
  3
SORTENTS
350
384
  3
XCLIPFRAME
350
414
  0
XRECORD
  5
417
102
{ACAD_REACTORS
330
C
102
}
330
C
100
AcDbXrecord
280
     1
  1
DWGPROPS COOKIE
  2

  3

  4

  6

  7

  8
y_uebo
  9

300
=
301
=
302
=
303
=
304
=
305
=
306
=
307
=
308
=
309
=
 40
1.697886122685185
 41
2455902.607164352
 42
2459100.608078704
  1

 90
        0
  0
XRECORD
  5
369
102
{ACAD_REACTORS
330
368
102
}
330
368
100
AcDbXrecord
280
     1
290
     1
  0
XRECORD
  5
36B
102
{ACAD_REACTORS
330
36A
102
}
330
36A
100
AcDbXrecord
280
     1
290
     1
  0
XRECORD
  5
36D
102
{ACAD_REACTORS
330
36C
102
}
330
36C
100
AcDbXrecord
280
     1
290
     1
  0
XRECORD
  5
36F
102
{ACAD_REACTORS
330
36E
102
}
330
36E
100
AcDbXrecord
280
     1
290
     1
  0
XRECORD
  5
371
102
{ACAD_REACTORS
330
370
102
}
330
370
100
AcDbXrecord
280
     1
290
     1
  0
XRECORD
  5
373
102
{ACAD_REACTORS
330
372
102
}
330
372
100
AcDbXrecord
280
     1
290
     1
  0
XRECORD
  5
375
102
{ACAD_REACTORS
330
374
102
}
330
374
100
AcDbXrecord
280
     1
290
     1
  0
XRECORD
  5
377
102
{ACAD_REACTORS
330
376
102
}
330
376
100
AcDbXrecord
280
     1
290
     1
  0
XRECORD
  5
379
102
{ACAD_REACTORS
330
378
102
}
330
378
100
AcDbXrecord
280
     1
290
     1
  0
XRECORD
  5
37B
102
{ACAD_REACTORS
330
37A
102
}
330
37A
100
AcDbXrecord
280
     1
290
     1
  0
XRECORD
  5
37D
102
{ACAD_REACTORS
330
37C
102
}
330
37C
100
AcDbXrecord
280
     1
290
     1
  0
ACDBDETAILVIEWSTYLE
  5
6A
102
{ACAD_XDICTIONARY
360
44B
102
}
102
{ACAD_REACTORS
330
69
102
}
330
69
100
AcDbModelDocViewStyle
 70
     0
  3
Imperial24
290
     0
100
AcDbDetailViewStyle
 70
     0
 71
     0
 90
        3
 71
     1
340
55
 40
0.24
340
0
 40
0.24
300

 40
0.36
280
     3
 71
     2
340
5C
 90
       25
 71
     3
340
55
 40
0.24
 90
        1
 40
0.75
 90
        1
300
%<\AcVar ViewType \f "%tc1">% %<\AcVar ViewDetailId>%\PSCALE %<\AcVar ViewScale \f "%sn">%
 71
     4
340
5C
 90
       25
340
5C
 90
       25
280
     0
  0
LAYOUT
  5
72
102
{ACAD_XDICTIONARY
360
44F
102
}
102
{ACAD_REACTORS
330
61
102
}
330
61
100
AcDbPlotSettings
  1

  2
なし
  4
Letter_(8.50_x_11.00_Inches)
  6

 40
6.349999904632568
 41
6.349999904632568
 42
6.350006103515625
 43
6.350006103515625
 44
215.8999938964844
 45
279.3999938964844
 46
0.0
 47
0.0
 48
0.0
 49
0.0
140
0.0
141
0.0
142
1.0
143
399.3836081442593
 70
 11952
 72
     0
 73
     1
 74
     0
  7

 75
     0
147
0.0025038583948062
148
56328.53630793239
149
21569.51392213336
100
AcDbLayout
  1
Model
 70
     1
 71
     0
 10
0.0
 20
0.0
 11
12.0
 21
9.0
 12
0.0
 22
0.0
 32
0.0
 14
0.0
 24
0.0
 34
0.0
 15
0.0
 25
0.0
 35
0.0
146
0.0
 13
0.0
 23
0.0
 33
0.0
 16
1.0
 26
0.0
 36
0.0
 17
0.0
 27
1.0
 37
0.0
 76
     0
330
6F
331
81
1001
ACAD_PSEXT
1000
なし
1000
なし
1000
適切ではありません
1000
新しいプロッタ環境設定名を選択しない限り、レイアウトは印刷されません。
1070
     0
  0
LAYOUT
  5
6E
102
{ACAD_XDICTIONARY
360
44D
102
}
102
{ACAD_REACTORS
330
61
102
}
330
61
100
AcDbPlotSettings
  1

  2
OKI C931(PS)
  4

  6

 40
0.0
 41
0.0
 42
0.0
 43
0.0
 44
0.0
 45
0.0
 46
0.0
 47
0.0
 48
0.0
 49
0.0
140
0.0
141
0.0
142
1.0
143
1.0
 70
   688
 72
     0
 73
     0
 74
     5
  7

 75
    16
147
1.0
148
0.0
149
0.0
100
AcDbLayout
  1
レイアウト1
 70
     1
 71
     1
 10
0.0
 20
0.0
 11
12.0
 21
9.0
 12
0.0
 22
0.0
 32
0.0
 14
1.000000000000000E+20
 24
1.000000000000000E+20
 34
1.000000000000000E+20
 15
-1.000000000000000E+20
 25
-1.000000000000000E+20
 35
-1.000000000000000E+20
146
0.0
 13
0.0
 23
0.0
 33
0.0
 16
1.0
 26
0.0
 36
0.0
 17
0.0
 27
1.0
 37
0.0
 76
     0
330
6B
  0
MATERIAL
  5
19
102
{ACAD_XDICTIONARY
360
1A
102
}
102
{ACAD_REACTORS
330
10
102
}
330
10
100
AcDbMaterial
  1
ByBlock
 72
     0
 43
0.0208333333333333
 43
0.0
 43
0.0
 43
0.0
 43
0.0
 43
0.0208333333333333
 43
0.0
 43
0.0
 43
0.0
 43
0.0
 43
1.0
 43
0.0
 43
0.0
 43
0.0
 43
0.0
 43
1.0
 77
     0
 47
0.0208333333333333
 47
0.0
 47
0.0
 47
0.0
 47
0.0
 47
0.0208333333333333
 47
0.0
 47
0.0
 47
0.0
 47
0.0
 47
1.0
 47
0.0
 47
0.0
 47
0.0
 47
0.0
 47
1.0
171
     0
 49
0.0208333333333333
 49
0.0
 49
0.0
 49
0.0
 49
0.0
 49
0.0208333333333333
 49
0.0
 49
0.0
 49
0.0
 49
0.0
 49
1.0
 49
0.0
 49
0.0
 49
0.0
 49
0.0
 49
1.0
175
     0
142
0.0208333333333333
142
0.0
142
0.0
142
0.0
142
0.0
142
0.0208333333333333
142
0.0
142
0.0
142
0.0
142
0.0
142
1.0
142
0.0
142
0.0
142
0.0
142
0.0
142
1.0
179
     0
144
0.0208333333333333
144
0.0
144
0.0
144
0.0
144
0.0
144
0.0208333333333333
144
0.0
144
0.0
144
0.0
144
0.0
144
1.0
144
0.0
144
0.0
144
0.0
144
0.0
144
1.0
147
0.0208333333333333
147
0.0
147
0.0
147
0.0
147
0.0
147
0.0208333333333333
147
0.0
147
0.0
147
0.0
147
0.0
147
1.0
147
0.0
147
0.0
147
0.0
147
0.0
147
1.0
  0
MATERIAL
  5
11
102
{ACAD_XDICTIONARY
360
12
102
}
102
{ACAD_REACTORS
330
10
102
}
330
10
100
AcDbMaterial
  1
ByLayer
 72
     0
 43
0.0208333333333333
 43
0.0
 43
0.0
 43
0.0
 43
0.0
 43
0.0208333333333333
 43
0.0
 43
0.0
 43
0.0
 43
0.0
 43
1.0
 43
0.0
 43
0.0
 43
0.0
 43
0.0
 43
1.0
 77
     0
 47
0.0208333333333333
 47
0.0
 47
0.0
 47
0.0
 47
0.0
 47
0.0208333333333333
 47
0.0
 47
0.0
 47
0.0
 47
0.0
 47
1.0
 47
0.0
 47
0.0
 47
0.0
 47
0.0
 47
1.0
171
     0
 49
0.0208333333333333
 49
0.0
 49
0.0
 49
0.0
 49
0.0
 49
0.0208333333333333
 49
0.0
 49
0.0
 49
0.0
 49
0.0
 49
1.0
 49
0.0
 49
0.0
 49
0.0
 49
0.0
 49
1.0
175
     0
142
0.0208333333333333
142
0.0
142
0.0
142
0.0
142
0.0
142
0.0208333333333333
142
0.0
142
0.0
142
0.0
142
0.0
142
1.0
142
0.0
142
0.0
142
0.0
142
0.0
142
1.0
179
     0
144
0.0208333333333333
144
0.0
144
0.0
144
0.0
144
0.0
144
0.0208333333333333
144
0.0
144
0.0
144
0.0
144
0.0
144
1.0
144
0.0
144
0.0
144
0.0
144
0.0
144
1.0
147
0.0208333333333333
147
0.0
147
0.0
147
0.0
147
0.0
147
0.0208333333333333
147
0.0
147
0.0
147
0.0
147
0.0
147
1.0
147
0.0
147
0.0
147
0.0
147
0.0
147
1.0
  0
MATERIAL
  5
21
102
{ACAD_XDICTIONARY
360
22
102
}
102
{ACAD_REACTORS
330
10
102
}
330
10
100
AcDbMaterial
  1
Global
 72
     0
 43
0.0208333333333333
 43
0.0
 43
0.0
 43
0.0
 43
0.0
 43
0.0208333333333333
 43
0.0
 43
0.0
 43
0.0
 43
0.0
 43
1.0
 43
0.0
 43
0.0
 43
0.0
 43
0.0
 43
1.0
 77
     0
 47
0.0208333333333333
 47
0.0
 47
0.0
 47
0.0
 47
0.0
 47
0.0208333333333333
 47
0.0
 47
0.0
 47
0.0
 47
0.0
 47
1.0
 47
0.0
 47
0.0
 47
0.0
 47
0.0
 47
1.0
171
     0
 49
0.0208333333333333
 49
0.0
 49
0.0
 49
0.0
 49
0.0
 49
0.0208333333333333
 49
0.0
 49
0.0
 49
0.0
 49
0.0
 49
1.0
 49
0.0
 49
0.0
 49
0.0
 49
0.0
 49
1.0
175
     0
142
0.0208333333333333
142
0.0
142
0.0
142
0.0
142
0.0
142
0.0208333333333333
142
0.0
142
0.0
142
0.0
142
0.0
142
1.0
142
0.0
142
0.0
142
0.0
142
0.0
142
1.0
179
     0
144
0.0208333333333333
144
0.0
144
0.0
144
0.0
144
0.0
144
0.0208333333333333
144
0.0
144
0.0
144
0.0
144
0.0
144
1.0
144
0.0
144
0.0
144
0.0
144
0.0
144
1.0
147
0.0208333333333333
147
0.0
147
0.0
147
0.0
147
0.0
147
0.0208333333333333
147
0.0
147
0.0
147
0.0
147
0.0
147
1.0
147
0.0
147
0.0
147
0.0
147
0.0
147
1.0
  0
MLEADERSTYLE
  5
66
102
{ACAD_REACTORS
330
65
102
}
330
65
100
AcDbMLeaderStyle
170
     2
171
     1
172
     0
 90
        2
 40
0.0
 41
0.0
173
     1
 91
-1056964608
340
5A
 92
       -2
290
     1
 42
0.09
291
     1
 43
0.36
  3
Standard
 44
0.18
300

342
55
174
     1
178
     6
175
     1
176
     0
 93
-1056964608
 45
0.18
292
     0
297
     0
 46
0.18
 94
-1056964608
 47
1.0
 49
1.0
140
1.0
293
     1
141
0.0
294
     1
177
     0
142
1.0
295
     0
296
     0
143
0.125
1001
ACAD_MLEADERVER
1070
     2
  0
MLINESTYLE
  5
5F
102
{ACAD_REACTORS
330
5E
102
}
330
5E
100
AcDbMlineStyle
  2
STANDARD
 70
     0
  3

 62
   256
 51
90.0
 52
90.0
 71
     2
 49
0.5
 62
   256
  6
BYLAYER
 49
-0.5
 62
   256
  6
BYLAYER
  0
ACDBPLACEHOLDER
  5
F
102
{ACAD_REACTORS
330
E
102
}
330
E
  0
SCALE
  5
43
102
{ACAD_REACTORS
330
42
102
}
330
42
100
AcDbScale
 70
     0
300
1:1
140
1.0
141
1.0
290
     1
  0
SCALE
  5
44
102
{ACAD_REACTORS
330
42
102
}
330
42
100
AcDbScale
 70
     0
300
1/128" = 1'-0"
140
0.0078125
141
12.0
290
     0
  0
SCALE
  5
45
102
{ACAD_REACTORS
330
42
102
}
330
42
100
AcDbScale
 70
     0
300
1/64" = 1'-0"
140
0.015625
141
12.0
290
     0
  0
SCALE
  5
46
102
{ACAD_REACTORS
330
42
102
}
330
42
100
AcDbScale
 70
     0
300
1/32" = 1'-0"
140
0.03125
141
12.0
290
     0
  0
SCALE
  5
47
102
{ACAD_REACTORS
330
42
102
}
330
42
100
AcDbScale
 70
     0
300
1/16" = 1'-0"
140
0.0625
141
12.0
290
     0
  0
SCALE
  5
48
102
{ACAD_REACTORS
330
42
102
}
330
42
100
AcDbScale
 70
     0
300
3/32" = 1'-0"
140
0.09375
141
12.0
290
     0
  0
SCALE
  5
49
102
{ACAD_REACTORS
330
42
102
}
330
42
100
AcDbScale
 70
     0
300
1/8" = 1'-0"
140
0.125
141
12.0
290
     0
  0
SCALE
  5
4A
102
{ACAD_REACTORS
330
42
102
}
330
42
100
AcDbScale
 70
     0
300
3/16" = 1'-0"
140
0.1875
141
12.0
290
     0
  0
SCALE
  5
4B
102
{ACAD_REACTORS
330
42
102
}
330
42
100
AcDbScale
 70
     0
300
1/4" = 1'-0"
140
0.25
141
12.0
290
     0
  0
SCALE
  5
4C
102
{ACAD_REACTORS
330
42
102
}
330
42
100
AcDbScale
 70
     0
300
3/8" = 1'-0"
140
0.375
141
12.0
290
     0
  0
SCALE
  5
4D
102
{ACAD_REACTORS
330
42
102
}
330
42
100
AcDbScale
 70
     0
300
1/2" = 1'-0"
140
0.5
141
12.0
290
     0
  0
SCALE
  5
4E
102
{ACAD_REACTORS
330
42
102
}
330
42
100
AcDbScale
 70
     0
300
3/4" = 1'-0"
140
0.75
141
12.0
290
     0
  0
SCALE
  5
4F
102
{ACAD_REACTORS
330
42
102
}
330
42
100
AcDbScale
 70
     0
300
1" = 1'-0"
140
1.0
141
12.0
290
     0
  0
SCALE
  5
50
102
{ACAD_REACTORS
330
42
102
}
330
42
100
AcDbScale
 70
     0
300
1-1/2" = 1'-0"
140
1.5
141
12.0
290
     0
  0
SCALE
  5
51
102
{ACAD_REACTORS
330
42
102
}
330
42
100
AcDbScale
 70
     0
300
3" = 1'-0"
140
3.0
141
12.0
290
     0
  0
SCALE
  5
52
102
{ACAD_REACTORS
330
42
102
}
330
42
100
AcDbScale
 70
     0
300
6" = 1'-0"
140
6.0
141
12.0
290
     0
  0
SCALE
  5
53
102
{ACAD_REACTORS
330
42
102
}
330
42
100
AcDbScale
 70
     0
300
1'-0" = 1'-0"
140
12.0
141
12.0
290
     0
  0
ACDBSECTIONVIEWSTYLE
  5
68
102
{ACAD_XDICTIONARY
360
449
102
}
102
{ACAD_REACTORS
330
67
102
}
330
67
100
AcDbModelDocViewStyle
 70
     0
  3
Imperial24
290
     0
100
AcDbSectionViewStyle
 70
     0
 71
     0
 90
       78
 71
     1
340
55
 40
0.24
340
0
340
0
 40
0.24
300
I, O, Q, S, X, Z
 40
0.48
 90
        3
 40
0.18
 90
        1
 71
     2
340
5C
 90
       25
340
5C
 90
       50
 40
0.24
 40
0.0
 40
0.24
 71
     3
340
55
 40
0.24
 90
        1
 40
0.75
 90
        1
300
%<\AcVar ViewType \f "%tc1">% %<\AcVar ViewSectionStartId>%-%<\AcVar ViewSectionEndId>%\PSCALE %<\AcVar ViewScale \f "%sn">%
 71
     4
300
ANSI31
 40
1.0
 90
        0
290
     0
290
     0
 90
        6
 40
0.0
 40
1.570796326794896
 40
0.2617993877991494
 40
1.308996938995747
 40
-0.2617993877991494
 40
1.832595714594044
  0
TABLESTYLE
  5
64
102
{ACAD_XDICTIONARY
360
388
102
}
102
{ACAD_REACTORS
330
63
102
}
330
63
100
AcDbTableStyle
  3
Standard
 70
     0
 71
     0
 40
0.06
 41
0.06
280
     0
281
     0
  7
STANDARD
140
0.18
170
     2
 62
     0
 63
     7
283
     0
274
    -2
284
     1
 64
     0
275
    -2
285
     1
 65
     0
276
    -2
286
     1
 66
     0
277
    -2
287
     1
 67
     0
278
    -2
288
     1
 68
     0
279
    -2
289
     1
 69
     0
  7
STANDARD
140
0.25
170
     5
 62
     0
 63
     7
283
     0
274
    -2
284
     1
 64
     0
275
    -2
285
     1
 65
     0
276
    -2
286
     1
 66
     0
277
    -2
287
     1
 67
     0
278
    -2
288
     1
 68
     0
279
    -2
289
     1
 69
     0
  7
STANDARD
140
0.18
170
     5
 62
     0
 63
     7
283
     0
274
    -2
284
     1
 64
     0
275
    -2
285
     1
 65
     0
276
    -2
286
     1
 66
     0
277
    -2
287
     1
 67
     0
278
    -2
288
     1
 68
     0
279
    -2
289
     1
 69
     0
  0
VISUALSTYLE
  5
2F
102
{ACAD_XDICTIONARY
360
422
102
}
102
{ACAD_REACTORS
330
29
102
}
330
29
100
AcDbVisualStyle
  2

 70
     4
 71
     0
 72
     2
 73
     0
 90
        0
 40
-0.6
 41
-30.0
 62
     5
 63
     7
 74
     1
 91
        4
 64
     7
 65
   257
 75
     1
175
     1
 42
1.0
 92
        0
 66
   257
 43
1.0
 76
     1
 77
     6
 78
     2
 67
     7
 79
     5
170
     0
171
     0
290
     0
174
     0
 93
        1
 44
0.0
173
     0
291
     0
 45
0.0
1001
ACAD
1000
AcDbSavedByObjectVersion
1070
     0
  0
VISUALSTYLE
  5
2E
102
{ACAD_XDICTIONARY
360
420
102
}
102
{ACAD_REACTORS
330
29
102
}
330
29
100
AcDbVisualStyle
  2

 70
     7
 71
     1
 72
     0
 73
     1
 90
        0
 40
-0.6
 41
-30.0
 62
     5
 63
     7
 74
     0
 91
        4
 64
     7
 65
   257
 75
     1
175
     1
 42
1.0
 92
        8
 66
     7
 43
1.0
 76
     1
 77
     6
 78
     2
 67
     7
 79
     5
170
     0
171
     0
290
     0
174
     0
 93
        1
 44
0.0
173
     0
291
     1
 45
0.0
1001
ACAD
1000
AcDbSavedByObjectVersion
1070
     0
  0
VISUALSTYLE
  5
35
102
{ACAD_XDICTIONARY
360
42E
102
}
102
{ACAD_REACTORS
330
29
102
}
330
29
100
AcDbVisualStyle
  2

 70
    12
 71
     2
 72
     2
 73
     0
 90
        0
 40
-0.6
 41
-30.0
 62
     5
 63
     7
 74
     1
 91
        4
 64
     7
 65
   257
 75
     1
175
     1
 42
1.0
 92
        8
 66
     7
 43
1.0
 76
     1
 77
     6
 78
     2
 67
     7
 79
     5
170
     0
171
     0
290
     0
174
     0
 93
        1
 44
50.0
173
     0
291
     1
 45
0.0
1001
ACAD
1000
AcDbSavedByObjectVersion
1070
     0
  0
VISUALSTYLE
  5
39
102
{ACAD_XDICTIONARY
360
436
102
}
102
{ACAD_REACTORS
330
29
102
}
330
29
100
AcDbVisualStyle
  2

 70
    16
 71
     2
 72
     2
 73
     3
 90
        0
 40
-0.6
 41
-30.0
 62
     5
 63
     8
 74
     1
 91
        4
 64
     7
 65
   257
 75
     1
175
     1
 42
1.0
 92
        8
 66
     8
 43
1.0
 76
     1
 77
     6
 78
     2
 67
     7
 79
     5
170
     0
171
     0
290
     0
174
     0
 93
        1
 44
0.0
173
     0
291
     1
 45
0.0
1001
ACAD
1000
AcDbSavedByObjectVersion
1070
     0
  0
VISUALSTYLE
  5
32
102
{ACAD_XDICTIONARY
360
428
102
}
102
{ACAD_REACTORS
330
29
102
}
330
29
100
AcDbVisualStyle
  2

 70
     9
 71
     3
 72
     2
 73
     0
 90
        0
 40
-0.6
 41
-30.0
 62
     5
 63
     7
 74
     2
 91
        2
 64
     7
 65
   257
 75
     1
175
     1
 42
179.0
 92
        8
 66
     7
 43
1.0
 76
     1
 77
     6
 78
     2
 67
     7
 79
     3
170
     0
171
     0
290
     0
174
     0
 93
        1
 44
0.0
173
     0
291
     0
 45
0.0
1001
ACAD
1000
AcDbSavedByObjectVersion
1070
     0
  0
VISUALSTYLE
  5
34
102
{ACAD_XDICTIONARY
360
42C
102
}
102
{ACAD_REACTORS
330
29
102
}
330
29
100
AcDbVisualStyle
  2

 70
    11
 71
     2
 72
     2
 73
     0
 90
        0
 40
-0.6
 41
-30.0
 62
     5
 63
     7
 74
     1
 91
        4
 64
     7
 65
   257
 75
     1
175
     1
 42
1.0
 92
        8
 66
     7
 43
1.0
 76
     1
 77
     6
 78
     2
 67
     7
 79
     5
170
     0
171
     0
290
     0
174
     0
 93
        1
 44
-50.0
173
     0
291
     1
 45
0.0
1001
ACAD
1000
AcDbSavedByObjectVersion
1070
     0
  0
VISUALSTYLE
  5
41
102
{ACAD_XDICTIONARY
360
446
102
}
102
{ACAD_REACTORS
330
29
102
}
330
29
100
AcDbVisualStyle
  2

 70
    22
 71
     2
 72
     2
 73
     0
 90
        0
 40
-0.6
 41
-30.0
 62
     5
 63
     7
 74
     1
 91
        4
 64
     7
 65
   257
 75
     1
175
     1
 42
1.0
 92
        8
 66
     7
 43
1.0
 76
     1
 77
     6
 78
     2
 67
     7
 79
     5
170
     0
171
     0
290
     0
174
     0
 93
        1
 44
0.0
173
     0
291
     1
 45
0.0
1001
ACAD
1000
AcDbSavedByObjectVersion
1070
     0
  0
VISUALSTYLE
  5
38
102
{ACAD_XDICTIONARY
360
434
102
}
102
{ACAD_REACTORS
330
29
102
}
330
29
100
AcDbVisualStyle
  2

 70
    15
 71
     2
 72
     2
 73
     0
 90
        0
 40
-0.6
 41
-30.0
 62
     5
 63
     7
 74
     1
 91
        4
 64
     7
 65
   257
 75
     1
175
     1
 42
1.0
 92
        8
 66
     7
 43
1.0
 76
     1
 77
     6
 78
     2
 67
     7
 79
     5
170
     0
171
     0
290
     0
174
     0
 93
        1
 44
0.0
173
     0
291
     1
 45
0.0
1001
ACAD
1000
AcDbSavedByObjectVersion
1070
     0
  0
VISUALSTYLE
  5
2A
102
{ACAD_XDICTIONARY
360
418
102
}
102
{ACAD_REACTORS
330
29
102
}
330
29
100
AcDbVisualStyle
  2

 70
     0
 71
     2
 72
     1
 73
     1
 90
        2
 40
-0.6
 41
30.0
 62
     5
 63
     7
 74
     0
 91
        0
 64
     7
 65
   257
 75
     1
175
     1
 42
1.0
 92
        8
 66
     7
 43
1.0
 76
     1
 77
     6
 78
     2
 67
     7
 79
     5
170
     0
171
     0
290
     0
174
     0
 93
       13
 44
0.0
173
     0
291
     1
 45
0.0
1001
ACAD
1000
AcDbSavedByObjectVersion
1070
     0
  0
VISUALSTYLE
  5
2B
102
{ACAD_XDICTIONARY
360
41A
102
}
102
{ACAD_REACTORS
330
29
102
}
330
29
100
AcDbVisualStyle
  2

 70
     1
 71
     2
 72
     1
 73
     1
 90
        2
 40
-0.6
 41
30.0
 62
     5
 63
     7
 74
     1
 91
        0
 64
     7
 65
   257
 75
     1
175
     1
 42
1.0
 92
        0
 66
   257
 43
1.0
 76
     1
 77
     6
 78
     2
 67
     7
 79
     5
170
     0
171
     0
290
     0
174
     0
 93
       13
 44
0.0
173
     0
291
     1
 45
0.0
1001
ACAD
1000
AcDbSavedByObjectVersion
1070
     0
  0
VISUALSTYLE
  5
2C
102
{ACAD_XDICTIONARY
360
41C
102
}
102
{ACAD_REACTORS
330
29
102
}
330
29
100
AcDbVisualStyle
  2

 70
     2
 71
     2
 72
     2
 73
     1
 90
        2
 40
-0.6
 41
30.0
 62
     5
 63
     7
 74
     0
 91
        0
 64
     7
 65
   257
 75
     1
175
     1
 42
1.0
 92
        0
 66
     7
 43
1.0
 76
     1
 77
     6
 78
     2
 67
     7
 79
     5
170
     0
171
     0
290
     0
174
     0
 93
       13
 44
0.0
173
     0
291
     1
 45
0.0
1001
ACAD
1000
AcDbSavedByObjectVersion
1070
     0
  0
VISUALSTYLE
  5
2D
102
{ACAD_XDICTIONARY
360
41E
102
}
102
{ACAD_REACTORS
330
29
102
}
330
29
100
AcDbVisualStyle
  2

 70
     3
 71
     2
 72
     2
 73
     1
 90
        2
 40
-0.6
 41
30.0
 62
     5
 63
     7
 74
     1
 91
        0
 64
     7
 65
   257
 75
     1
175
     1
 42
1.0
 92
        0
 66
   257
 43
1.0
 76
     1
 77
     6
 78
     2
 67
     7
 79
     5
170
     0
171
     0
290
     0
174
     0
 93
       13
 44
0.0
173
     0
291
     1
 45
0.0
1001
ACAD
1000
AcDbSavedByObjectVersion
1070
     0
  0
VISUALSTYLE
  5
31
102
{ACAD_XDICTIONARY
360
426
102
}
102
{ACAD_REACTORS
330
29
102
}
330
29
100
AcDbVisualStyle
  2

 70
     6
 71
     1
 72
     2
 73
     2
 90
        0
 40
-0.6
 41
-30.0
 62
     5
 63
     7
 74
     2
 91
        2
 64
     7
 65
   257
 75
     2
175
     1
 42
40.0
 92
        0
 66
   257
 43
1.0
 76
     1
 77
     6
 78
     2
 67
     7
 79
     3
170
     0
171
     0
290
     0
174
     0
 93
        1
 44
0.0
173
     0
291
     0
 45
0.0
1001
ACAD
1000
AcDbSavedByObjectVersion
1070
     0
  0
VISUALSTYLE
  5
3F
102
{ACAD_XDICTIONARY
360
442
102
}
102
{ACAD_REACTORS
330
29
102
}
330
29
100
AcDbVisualStyle
  2

 70
    20
 71
     2
 72
     2
 73
     0
 90
        0
 40
-0.6
 41
-30.0
 62
     5
 63
     7
 74
     1
 91
        4
 64
     7
 65
   257
 75
     1
175
     1
 42
1.0
 92
       10
 66
     7
 43
1.0
 76
     1
 77
     6
 78
     2
 67
     7
 79
     5
170
     0
171
     0
290
     0
174
     0
 93
        1
 44
0.0
173
     0
291
     1
 45
0.0
1001
ACAD
1000
AcDbSavedByObjectVersion
1070
     0
  0
VISUALSTYLE
  5
37
102
{ACAD_XDICTIONARY
360
432
102
}
102
{ACAD_REACTORS
330
29
102
}
330
29
100
AcDbVisualStyle
  2

 70
    14
 71
     2
 72
     2
 73
     0
 90
        0
 40
-0.6
 41
-30.0
 62
     5
 63
     7
 74
     1
 91
        4
 64
     7
 65
   257
 75
     7
175
     7
 42
1.0
 92
        8
 66
     7
 43
1.0
 76
     1
 77
     6
 78
     2
 67
     7
 79
     5
170
     0
171
     0
290
     0
174
     0
 93
        1
 44
0.0
173
     0
291
     1
 45
0.0
1001
ACAD
1000
AcDbSavedByObjectVersion
1070
     0
  0
VISUALSTYLE
  5
40
102
{ACAD_XDICTIONARY
360
444
102
}
102
{ACAD_REACTORS
330
29
102
}
330
29
100
AcDbVisualStyle
  2

 70
    21
 71
     2
 72
     2
 73
     0
 90
        0
 40
-0.6
 41
-30.0
 62
     5
 63
     7
 74
     1
 91
        4
 64
     7
 65
   257
 75
     1
175
     1
 42
1.0
 92
        9
 66
     7
 43
1.0
 76
     1
 77
     6
 78
     2
 67
     7
 79
     5
170
     0
171
     0
290
     0
174
     0
 93
        1
 44
0.0
173
     0
291
     1
 45
0.0
1001
ACAD
1000
AcDbSavedByObjectVersion
1070
     0
  0
VISUALSTYLE
  5
33
102
{ACAD_XDICTIONARY
360
42A
102
}
102
{ACAD_REACTORS
330
29
102
}
330
29
100
AcDbVisualStyle
  2

 70
     8
 71
     2
 72
     3
 73
     0
 90
        2
 40
-0.6
 41
30.0
 62
     5
 63
     7
 74
     0
 91
        0
 64
     7
 65
   257
 75
     1
175
     1
 42
1.0
 92
        8
 66
   257
 43
1.0
 76
     1
 77
     6
 78
     2
 67
     7
 79
     3
170
     0
171
     0
290
     0
174
     0
 93
       13
 44
0.0
173
     0
291
     0
 45
0.0
1001
ACAD
1000
AcDbSavedByObjectVersion
1070
     0
  0
VISUALSTYLE
  5
3E
102
{ACAD_XDICTIONARY
360
440
102
}
102
{ACAD_REACTORS
330
29
102
}
330
29
100
AcDbVisualStyle
  2

 70
    27
 71
     2
 72
     2
 73
     1
 90
        2
 40
-0.6
 41
30.0
 62
     5
 63
     7
 74
     0
 91
        4
 64
     7
 65
   257
 75
     1
175
     1
 42
1.0
 92
        8
 66
   257
 43
1.0
 76
     1
 77
     6
 78
     2
 67
     8
 79
     3
170
     0
171
     0
290
     0
174
     0
 93
        5
 44
0.0
173
     0
291
     0
 45
0.0
1001
ACAD
1000
AcDbSavedByObjectVersion
1070
     0
  0
VISUALSTYLE
  5
3D
102
{ACAD_XDICTIONARY
360
43E
102
}
102
{ACAD_REACTORS
330
29
102
}
330
29
100
AcDbVisualStyle
  2

 70
    26
 71
     2
 72
     2
 73
     1
 90
        2
 40
-0.6
 41
30.0
 62
     5
 63
     7
 74
     1
 91
        2
 64
     7
 65
   257
 75
     2
175
     1
 42
1.0
 92
        8
 66
   257
 43
1.0
 76
     1
 77
     6
 78
     2
 67
     7
 79
     3
170
     0
171
     0
290
     0
174
     0
 93
        5
 44
0.0
173
     0
291
     0
 45
0.0
1001
ACAD
1000
AcDbSavedByObjectVersion
1070
     0
  0
VISUALSTYLE
  5
3A
102
{ACAD_XDICTIONARY
360
438
102
}
102
{ACAD_REACTORS
330
29
102
}
330
29
100
AcDbVisualStyle
  2

 70
    23
 71
     2
 72
     2
 73
     3
 90
        0
 40
-0.6
 41
-30.0
 62
     5
 63
     7
 74
     2
 91
        2
 64
     7
 65
     7
 75
     1
175
     1
 42
40.0
 92
        8
 66
     7
 43
1.0
 76
     1
 77
     6
 78
     2
 67
     7
 79
     3
170
     0
171
     0
290
     0
174
     0
 93
        1
 44
0.0
173
     0
291
     0
 45
0.0
1001
ACAD
1000
AcDbSavedByObjectVersion
1070
     0
  0
VISUALSTYLE
  5
3B
102
{ACAD_XDICTIONARY
360
43A
102
}
102
{ACAD_REACTORS
330
29
102
}
330
29
100
AcDbVisualStyle
  2

 70
    24
 71
     1
 72
     2
 73
     2
 90
        0
 40
-0.6
 41
-30.0
 62
     5
 63
     7
 74
     2
 91
        2
 64
     7
 65
     7
 75
     1
175
     1
 42
40.0
 92
       11
 66
     7
 43
1.0
 76
     1
 77
     6
 78
     2
 67
     7
 79
     6
170
     0
171
     0
290
     0
174
     0
 93
        1
 44
0.0
173
     0
291
     0
 45
0.0
1001
ACAD
1000
AcDbSavedByObjectVersion
1070
     0
  0
VISUALSTYLE
  5
36
102
{ACAD_XDICTIONARY
360
430
102
}
102
{ACAD_REACTORS
330
29
102
}
330
29
100
AcDbVisualStyle
  2

 70
    13
 71
     2
 72
     2
 73
     0
 90
        0
 40
-0.6
 41
-30.0
 62
     5
 63
     7
 74
     1
 91
        4
 64
     7
 65
   257
 75
     1
175
     1
 42
1.0
 92
       12
 66
     7
 43
1.0
 76
     1
 77
     6
 78
     2
 67
     7
 79
     5
170
     0
171
     0
290
     0
174
     0
 93
        1
 44
0.0
173
     0
291
     1
 45
0.0
1001
ACAD
1000
AcDbSavedByObjectVersion
1070
     0
  0
VISUALSTYLE
  5
30
102
{ACAD_XDICTIONARY
360
424
102
}
102
{ACAD_REACTORS
330
29
102
}
330
29
100
AcDbVisualStyle
  2

 70
     5
 71
     0
 72
     2
 73
     0
 90
        0
 40
-0.6
 41
-30.0
 62
     5
 63
     7
 74
     1
 91
        4
 64
     7
 65
   257
 75
     1
175
     1
 42
1.0
 92
        0
 66
   257
 43
1.0
 76
     1
 77
     6
 78
     2
 67
     7
 79
     3
170
     0
171
     0
290
     0
174
     0
 93
        1
 44
0.0
173
     0
291
     0
 45
0.0
1001
ACAD
1000
AcDbSavedByObjectVersion
1070
     0
  0
VISUALSTYLE
  5
3C
102
{ACAD_XDICTIONARY
360
43C
102
}
102
{ACAD_REACTORS
330
29
102
}
330
29
100
AcDbVisualStyle
  2

 70
    25
 71
     2
 72
     2
 73
     1
 90
        1
 40
0.5
 41
-30.0
 62
     5
 63
     7
 74
     1
 91
        0
 64
     7
 65
   257
 75
     1
175
     1
 42
1.0
 92
        8
 66
     7
 43
1.0
 76
     1
 77
     6
 78
     2
 67
     7
 79
     3
170
     0
171
     0
290
     0
174
     0
 93
       13
 44
0.0
173
     0
291
     0
 45
0.0
1001
ACAD
1000
AcDbSavedByObjectVersion
1070
     0
  0
DICTIONARYVAR
  5
383
102
{ACAD_REACTORS
330
37E
102
}
330
37E
100
DictionaryVariables
280
     0
  1
1:1
  0
DICTIONARYVAR
  5
380
102
{ACAD_REACTORS
330
37E
102
}
330
37E
100
DictionaryVariables
280
     0
  1
STANDARD
  0
DICTIONARYVAR
  5
37F
102
{ACAD_REACTORS
330
37E
102
}
330
37E
100
DictionaryVariables
280
     0
  1
STANDARD
  0
DICTIONARYVAR
  5
381
102
{ACAD_REACTORS
330
37E
102
}
330
37E
100
DictionaryVariables
280
     0
  1
Imperial24
  0
DICTIONARYVAR
  5
382
102
{ACAD_REACTORS
330
37E
102
}
330
37E
100
DictionaryVariables
280
     0
  1
Imperial24
  0
DICTIONARYVAR
  5
386
102
{ACAD_REACTORS
330
37E
102
}
330
37E
100
DictionaryVariables
280
     0
  1
1
  0
DICTIONARYVAR
  5
385
102
{ACAD_REACTORS
330
37E
102
}
330
37E
100
DictionaryVariables
280
     0
  1
0
  0
DICTIONARYVAR
  5
384
102
{ACAD_REACTORS
330
37E
102
}
330
37E
100
DictionaryVariables
280
     0
  1
127
  0
DICTIONARYVAR
  5
414
102
{ACAD_REACTORS
330
37E
102
}
330
37E
100
DictionaryVariables
280
     0
  1
2
  0
DICTIONARY
  5
44B
330
6A
100
AcDbDictionary
280
     1
281
     1
  3
ACAD_XREC_ROUNDTRIP
360
44C
  0
DICTIONARY
  5
44F
330
72
100
AcDbDictionary
280
     1
281
     1
  3
ACAD_XREC_ROUNDTRIP
360
450
  0
DICTIONARY
  5
44D
330
6E
100
AcDbDictionary
280
     1
281
     1
  3
ACAD_XREC_ROUNDTRIP
360
44E
  0
DICTIONARY
  5
1A
330
19
100
AcDbDictionary
280
     1
281
     1
  3
ACAD_XREC_ROUNDTRIP
360
38D
  3
BUMPTILE
360
1C
  3
DIFFUSETILE
360
1B
  3
OPACITYTILE
360
1F
  3
REFLECTIONTILE
360
1E
  3
REFRACTIONTILE
360
20
  3
SPECULARTILE
360
1D
  0
DICTIONARY
  5
12
330
11
100
AcDbDictionary
280
     1
281
     1
  3
ACAD_XREC_ROUNDTRIP
360
38C
  3
BUMPTILE
360
14
  3
DIFFUSETILE
360
13
  3
OPACITYTILE
360
17
  3
REFLECTIONTILE
360
16
  3
REFRACTIONTILE
360
18
  3
SPECULARTILE
360
15
  0
DICTIONARY
  5
22
330
21
100
AcDbDictionary
280
     1
281
     1
  3
ACAD_XREC_ROUNDTRIP
360
38E
  3
BUMPTILE
360
24
  3
DIFFUSETILE
360
23
  3
OPACITYTILE
360
27
  3
REFLECTIONTILE
360
26
  3
REFRACTIONTILE
360
28
  3
SPECULARTILE
360
25
  0
DICTIONARY
  5
449
330
68
100
AcDbDictionary
280
     1
281
     1
  3
ACAD_XREC_ROUNDTRIP
360
44A
  0
DICTIONARY
  5
388
330
64
100
AcDbDictionary
280
     1
281
     1
  3
ACAD_ROUNDTRIP_2008_TABLESTYLE_CELLSTYLEMAP
360
415
  3
ACAD_XREC_ROUNDTRIP
360
448
  0
DICTIONARY
  5
422
330
2F
100
AcDbDictionary
280
     1
281
     1
  3
ACAD_XREC_ROUNDTRIP
360
423
  0
DICTIONARY
  5
420
330
2E
100
AcDbDictionary
280
     1
281
     1
  3
ACAD_XREC_ROUNDTRIP
360
421
  0
DICTIONARY
  5
42E
330
35
100
AcDbDictionary
280
     1
281
     1
  3
ACAD_XREC_ROUNDTRIP
360
42F
  0
DICTIONARY
  5
436
330
39
100
AcDbDictionary
280
     1
281
     1
  3
ACAD_XREC_ROUNDTRIP
360
437
  0
DICTIONARY
  5
428
330
32
100
AcDbDictionary
280
     1
281
     1
  3
ACAD_XREC_ROUNDTRIP
360
429
  0
DICTIONARY
  5
42C
330
34
100
AcDbDictionary
280
     1
281
     1
  3
ACAD_XREC_ROUNDTRIP
360
42D
  0
DICTIONARY
  5
446
330
41
100
AcDbDictionary
280
     1
281
     1
  3
ACAD_XREC_ROUNDTRIP
360
447
  0
DICTIONARY
  5
434
330
38
100
AcDbDictionary
280
     1
281
     1
  3
ACAD_XREC_ROUNDTRIP
360
435
  0
DICTIONARY
  5
418
330
2A
100
AcDbDictionary
280
     1
281
     1
  3
ACAD_XREC_ROUNDTRIP
360
419
  0
DICTIONARY
  5
41A
330
2B
100
AcDbDictionary
280
     1
281
     1
  3
ACAD_XREC_ROUNDTRIP
360
41B
  0
DICTIONARY
  5
41C
330
2C
100
AcDbDictionary
280
     1
281
     1
  3
ACAD_XREC_ROUNDTRIP
360
41D
  0
DICTIONARY
  5
41E
330
2D
100
AcDbDictionary
280
     1
281
     1
  3
ACAD_XREC_ROUNDTRIP
360
41F
  0
DICTIONARY
  5
426
330
31
100
AcDbDictionary
280
     1
281
     1
  3
ACAD_XREC_ROUNDTRIP
360
427
  0
DICTIONARY
  5
442
330
3F
100
AcDbDictionary
280
     1
281
     1
  3
ACAD_XREC_ROUNDTRIP
360
443
  0
DICTIONARY
  5
432
330
37
100
AcDbDictionary
280
     1
281
     1
  3
ACAD_XREC_ROUNDTRIP
360
433
  0
DICTIONARY
  5
444
330
40
100
AcDbDictionary
280
     1
281
     1
  3
ACAD_XREC_ROUNDTRIP
360
445
  0
DICTIONARY
  5
42A
330
33
100
AcDbDictionary
280
     1
281
     1
  3
ACAD_XREC_ROUNDTRIP
360
42B
  0
DICTIONARY
  5
440
330
3E
100
AcDbDictionary
280
     1
281
     1
  3
ACAD_XREC_ROUNDTRIP
360
441
  0
DICTIONARY
  5
43E
330
3D
100
AcDbDictionary
280
     1
281
     1
  3
ACAD_XREC_ROUNDTRIP
360
43F
  0
DICTIONARY
  5
438
330
3A
100
AcDbDictionary
280
     1
281
     1
  3
ACAD_XREC_ROUNDTRIP
360
439
  0
DICTIONARY
  5
43A
330
3B
100
AcDbDictionary
280
     1
281
     1
  3
ACAD_XREC_ROUNDTRIP
360
43B
  0
DICTIONARY
  5
430
330
36
100
AcDbDictionary
280
     1
281
     1
  3
ACAD_XREC_ROUNDTRIP
360
431
  0
DICTIONARY
  5
424
330
30
100
AcDbDictionary
280
     1
281
     1
  3
ACAD_XREC_ROUNDTRIP
360
425
  0
DICTIONARY
  5
43C
330
3C
100
AcDbDictionary
280
     1
281
     1
  3
ACAD_XREC_ROUNDTRIP
360
43D
  0
XRECORD
  5
44C
102
{ACAD_REACTORS
330
44B
102
}
330
44B
100
AcDbXrecord
280
     1
102
DISPLAYNAME
  1
Imperial24
102
FLAGS
 90
        0
  0
XRECORD
  5
450
102
{ACAD_REACTORS
330
44F
102
}
330
44F
100
AcDbXrecord
280
     1
102
SHADEPLOT
 70
     0
102
SHADEPLOTRESLEVEL
 70
     2
102
SHADEPLOTCUSTOMDPI
 70
   300
  0
XRECORD
  5
44E
102
{ACAD_REACTORS
330
44D
102
}
330
44D
100
AcDbXrecord
280
     1
102
SHADEPLOT
 70
     0
102
SHADEPLOTRESLEVEL
 70
     2
102
SHADEPLOTCUSTOMDPI
 70
   300
  0
XRECORD
  5
38D
102
{ACAD_REACTORS
330
1A
102
}
330
1A
100
AcDbXrecord
280
     1
102
MATERIAL
148
0.0
149
0.0
149
0.0
 93
        0
 94
      127
282
     0
 72
     0
 77
     0
171
     0
175
     0
179
     0
273
     0
  0
XRECORD
  5
1C
102
{ACAD_REACTORS
330
1A
102
}
330
1A
100
AcDbXrecord
280
     1
270
     1
271
     1
  0
XRECORD
  5
1B
102
{ACAD_REACTORS
330
1A
102
}
330
1A
100
AcDbXrecord
280
     1
270
     1
271
     1
  0
XRECORD
  5
1F
102
{ACAD_REACTORS
330
1A
102
}
330
1A
100
AcDbXrecord
280
     1
270
     1
271
     1
  0
XRECORD
  5
1E
102
{ACAD_REACTORS
330
1A
102
}
330
1A
100
AcDbXrecord
280
     1
270
     1
271
     1
  0
XRECORD
  5
20
102
{ACAD_REACTORS
330
1A
102
}
330
1A
100
AcDbXrecord
280
     1
270
     1
271
     1
  0
XRECORD
  5
1D
102
{ACAD_REACTORS
330
1A
102
}
330
1A
100
AcDbXrecord
280
     1
270
     1
271
     1
  0
XRECORD
  5
38C
102
{ACAD_REACTORS
330
12
102
}
330
12
100
AcDbXrecord
280
     1
102
MATERIAL
148
0.0
149
0.0
149
0.0
 93
        0
 94
      127
282
     0
 72
     0
 77
     0
171
     0
175
     0
179
     0
273
     0
  0
XRECORD
  5
14
102
{ACAD_REACTORS
330
12
102
}
330
12
100
AcDbXrecord
280
     1
270
     1
271
     1
  0
XRECORD
  5
13
102
{ACAD_REACTORS
330
12
102
}
330
12
100
AcDbXrecord
280
     1
270
     1
271
     1
  0
XRECORD
  5
17
102
{ACAD_REACTORS
330
12
102
}
330
12
100
AcDbXrecord
280
     1
270
     1
271
     1
  0
XRECORD
  5
16
102
{ACAD_REACTORS
330
12
102
}
330
12
100
AcDbXrecord
280
     1
270
     1
271
     1
  0
XRECORD
  5
18
102
{ACAD_REACTORS
330
12
102
}
330
12
100
AcDbXrecord
280
     1
270
     1
271
     1
  0
XRECORD
  5
15
102
{ACAD_REACTORS
330
12
102
}
330
12
100
AcDbXrecord
280
     1
270
     1
271
     1
  0
XRECORD
  5
38E
102
{ACAD_REACTORS
330
22
102
}
330
22
100
AcDbXrecord
280
     1
102
MATERIAL
148
0.0
149
0.0
149
0.0
 93
        0
 94
      127
282
     0
 72
     0
 77
     0
171
     0
175
     0
179
     0
273
     0
  0
XRECORD
  5
24
102
{ACAD_REACTORS
330
22
102
}
330
22
100
AcDbXrecord
280
     1
270
     1
271
     1
  0
XRECORD
  5
23
102
{ACAD_REACTORS
330
22
102
}
330
22
100
AcDbXrecord
280
     1
270
     1
271
     1
  0
XRECORD
  5
27
102
{ACAD_REACTORS
330
22
102
}
330
22
100
AcDbXrecord
280
     1
270
     1
271
     1
  0
XRECORD
  5
26
102
{ACAD_REACTORS
330
22
102
}
330
22
100
AcDbXrecord
280
     1
270
     1
271
     1
  0
XRECORD
  5
28
102
{ACAD_REACTORS
330
22
102
}
330
22
100
AcDbXrecord
280
     1
270
     1
271
     1
  0
XRECORD
  5
25
102
{ACAD_REACTORS
330
22
102
}
330
22
100
AcDbXrecord
280
     1
270
     1
271
     1
  0
XRECORD
  5
44A
102
{ACAD_REACTORS
330
449
102
}
330
449
100
AcDbXrecord
280
     1
102
DISPLAYNAME
  1
Imperial24
102
FLAGS
 90
        0
  0
CELLSTYLEMAP
  5
415
102
{ACAD_REACTORS
330
388
102
}
330
388
100
AcDbCellStyleMap
 90
        3
300
CELLSTYLE
  1
TABLEFORMAT_BEGIN
 90
        5
170
     1
 91
        0
 92
    32768
 62
   257
 93
        1
300
CONTENTFORMAT
  1
CONTENTFORMAT_BEGIN
 90
        0
 91
        0
 92
      512
 93
        0
300

 40
0.0
140
1.0
 94
        5
 62
     0
340
55
144
0.25
309
CONTENTFORMAT_END
171
     1
301
MARGIN
  1
CELLMARGIN_BEGIN
 40
0.06
 40
0.06
 40
0.06
 40
0.06
 40
0.18
 40
0.18
309
CELLMARGIN_END
 94
        6
 95
        1
302
GRIDFORMAT
  1
GRIDFORMAT_BEGIN
 90
        0
 91
        1
 62
     0
 92
       -2
340
0
 93
        0
 40
0.045
309
GRIDFORMAT_END
 95
        2
302
GRIDFORMAT
  1
GRIDFORMAT_BEGIN
 90
        0
 91
        1
 62
     0
 92
       -2
340
0
 93
        0
 40
0.045
309
GRIDFORMAT_END
 95
        4
302
GRIDFORMAT
  1
GRIDFORMAT_BEGIN
 90
        0
 91
        1
 62
     0
 92
       -2
340
0
 93
        0
 40
0.045
309
GRIDFORMAT_END
 95
        8
302
GRIDFORMAT
  1
GRIDFORMAT_BEGIN
 90
        0
 91
        1
 62
     0
 92
       -2
340
0
 93
        0
 40
0.045
309
GRIDFORMAT_END
 95
       16
302
GRIDFORMAT
  1
GRIDFORMAT_BEGIN
 90
        0
 91
        1
 62
     0
 92
       -2
340
0
 93
        0
 40
0.045
309
GRIDFORMAT_END
 95
       32
302
GRIDFORMAT
  1
GRIDFORMAT_BEGIN
 90
        0
 91
        1
 62
     0
 92
       -2
340
0
 93
        0
 40
0.045
309
GRIDFORMAT_END
309
TABLEFORMAT_END
  1
CELLSTYLE_BEGIN
 90
        1
 91
        1
300
_TITLE
309
CELLSTYLE_END
300
CELLSTYLE
  1
TABLEFORMAT_BEGIN
 90
        5
170
     1
 91
        0
 92
        0
 62
   257
 93
        1
300
CONTENTFORMAT
  1
CONTENTFORMAT_BEGIN
 90
        0
 91
        0
 92
      512
 93
        0
300

 40
0.0
140
1.0
 94
        5
 62
     0
340
55
144
0.18
309
CONTENTFORMAT_END
171
     1
301
MARGIN
  1
CELLMARGIN_BEGIN
 40
0.06
 40
0.06
 40
0.06
 40
0.06
 40
0.18
 40
0.18
309
CELLMARGIN_END
 94
        6
 95
        1
302
GRIDFORMAT
  1
GRIDFORMAT_BEGIN
 90
        0
 91
        1
 62
     0
 92
       -2
340
0
 93
        0
 40
0.045
309
GRIDFORMAT_END
 95
        2
302
GRIDFORMAT
  1
GRIDFORMAT_BEGIN
 90
        0
 91
        1
 62
     0
 92
       -2
340
0
 93
        0
 40
0.045
309
GRIDFORMAT_END
 95
        4
302
GRIDFORMAT
  1
GRIDFORMAT_BEGIN
 90
        0
 91
        1
 62
     0
 92
       -2
340
0
 93
        0
 40
0.045
309
GRIDFORMAT_END
 95
        8
302
GRIDFORMAT
  1
GRIDFORMAT_BEGIN
 90
        0
 91
        1
 62
     0
 92
       -2
340
0
 93
        0
 40
0.045
309
GRIDFORMAT_END
 95
       16
302
GRIDFORMAT
  1
GRIDFORMAT_BEGIN
 90
        0
 91
        1
 62
     0
 92
       -2
340
0
 93
        0
 40
0.045
309
GRIDFORMAT_END
 95
       32
302
GRIDFORMAT
  1
GRIDFORMAT_BEGIN
 90
        0
 91
        1
 62
     0
 92
       -2
340
0
 93
        0
 40
0.045
309
GRIDFORMAT_END
309
TABLEFORMAT_END
  1
CELLSTYLE_BEGIN
 90
        2
 91
        1
300
_HEADER
309
CELLSTYLE_END
300
CELLSTYLE
  1
TABLEFORMAT_BEGIN
 90
        5
170
     1
 91
        0
 92
        0
 62
   257
 93
        1
300
CONTENTFORMAT
  1
CONTENTFORMAT_BEGIN
 90
        0
 91
        0
 92
      512
 93
        0
300

 40
0.0
140
1.0
 94
        2
 62
     0
340
55
144
0.18
309
CONTENTFORMAT_END
171
     1
301
MARGIN
  1
CELLMARGIN_BEGIN
 40
0.06
 40
0.06
 40
0.06
 40
0.06
 40
0.18
 40
0.18
309
CELLMARGIN_END
 94
        6
 95
        1
302
GRIDFORMAT
  1
GRIDFORMAT_BEGIN
 90
        0
 91
        1
 62
     0
 92
       -2
340
0
 93
        0
 40
0.045
309
GRIDFORMAT_END
 95
        2
302
GRIDFORMAT
  1
GRIDFORMAT_BEGIN
 90
        0
 91
        1
 62
     0
 92
       -2
340
0
 93
        0
 40
0.045
309
GRIDFORMAT_END
 95
        4
302
GRIDFORMAT
  1
GRIDFORMAT_BEGIN
 90
        0
 91
        1
 62
     0
 92
       -2
340
0
 93
        0
 40
0.045
309
GRIDFORMAT_END
 95
        8
302
GRIDFORMAT
  1
GRIDFORMAT_BEGIN
 90
        0
 91
        1
 62
     0
 92
       -2
340
0
 93
        0
 40
0.045
309
GRIDFORMAT_END
 95
       16
302
GRIDFORMAT
  1
GRIDFORMAT_BEGIN
 90
        0
 91
        1
 62
     0
 92
       -2
340
0
 93
        0
 40
0.045
309
GRIDFORMAT_END
 95
       32
302
GRIDFORMAT
  1
GRIDFORMAT_BEGIN
 90
        0
 91
        1
 62
     0
 92
       -2
340
0
 93
        0
 40
0.045
309
GRIDFORMAT_END
309
TABLEFORMAT_END
  1
CELLSTYLE_BEGIN
 90
        3
 91
        2
300
_DATA
309
CELLSTYLE_END
  0
XRECORD
  5
448
102
{ACAD_REACTORS
330
388
102
}
330
388
100
AcDbXrecord
280
     1
102
ACAD_ROUNDTRIP_PRE2007_TABLESTYLE
 90
      512
 91
        0
  1

 92
      512
 93
        0
  2

 94
      512
 95
        0
  3

  0
XRECORD
  5
423
102
{ACAD_REACTORS
330
422
102
}
330
422
100
AcDbXrecord
280
     1
102
RTVSPost2010Prop28
280
     1
102
RTVSPost2010PropOp28
 70
     1
102
RTVSPost2010Prop29
280
     1
102
RTVSPost2010PropOp29
 70
     1
102
RTVSPost2010Prop30
280
     0
102
RTVSPost2010PropOp30
 70
     1
102
RTVSPost2010Prop31
280
     0
102
RTVSPost2010PropOp31
 70
     1
102
RTVSPost2010Prop32
280
     0
102
RTVSPost2010PropOp32
 70
     1
102
RTVSPost2010Prop33
280
     0
102
RTVSPost2010PropOp33
 70
     1
102
RTVSPost2010Prop34
280
     0
102
RTVSPost2010PropOp34
 70
     1
102
RTVSPost2010Prop35
280
     0
102
RTVSPost2010PropOp35
 70
     1
102
RTVSPost2010Prop36
280
     0
102
RTVSPost2010PropOp36
 70
     1
102
RTVSPost2010Prop37
 90
       50
102
RTVSPost2010PropOp37
 70
     1
102
RTVSPost2010Prop38
140
0.0
102
RTVSPost2010PropOp38
 70
     1
102
RTVSPost2010Prop39
140
1.0
102
RTVSPost2010PropOp39
 70
     1
102
RTVSPost2010Prop40
 90
        0
102
RTVSPost2010PropOp40
 70
     1
102
RTVSPost2010Prop41ColorIndex
 90
       18
102
RTVSPost2010Prop41ColorRGB
 90
        0
102
RTVSPost2010PropOp41
 70
     1
102
RTVSPost2010Prop42
 90
       50
102
RTVSPost2010PropOp42
 70
     1
102
RTVSPost2010Prop43
 90
        3
102
RTVSPost2010PropOp43
 70
     1
102
RTVSPost2010Prop44ColorIndex
 90
        5
102
RTVSPost2010Prop44ColorRGB
 90
      255
102
RTVSPost2010PropOp44
 70
     1
102
RTVSPost2010Prop45
280
     0
102
RTVSPost2010PropOp45
 70
     1
102
RTVSPost2010Prop46
 90
       50
102
RTVSPost2010PropOp46
 70
     1
102
RTVSPost2010Prop47
 90
       50
102
RTVSPost2010PropOp47
 70
     1
102
RTVSPost2010Prop48
 90
       50
102
RTVSPost2010PropOp48
 70
     1
102
RTVSPost2010Prop49
280
     0
102
RTVSPost2010PropOp49
 70
     1
102
RTVSPost2010Prop50
 90
       50
102
RTVSPost2010PropOp50
 70
     1
102
RTVSPost2010Prop51ColorIndex
 90
      256
102
RTVSPost2010Prop51ColorRGB
 90
-16777216
102
RTVSPost2010PropOp51
 70
     0
102
RTVSPost2010Prop52
140
1.0
102
RTVSPost2010PropOp52
 70
     0
102
RTVSPost2010Prop53
 90
        2
102
RTVSPost2010PropOp53
 70
     1
102
RTVSPost2010Prop54
  1
strokes_ogs.tif
102
RTVSPost2010PropOp54
 70
     1
102
RTVSPost2010Prop55
280
     0
102
RTVSPost2010PropOp55
 70
     1
102
RTVSPost2010Prop56
140
1.0
102
RTVSPost2010PropOp56
 70
     1
102
RTVSPost2010Prop57
140
1.0
102
RTVSPost2010PropOp57
 70
     1
102
RTVSPropertyOp0
 70
     1
102
RTVSPropertyOp1
 70
     1
102
RTVSPropertyOp2
 70
     1
102
RTVSPropertyOp3
 70
     1
102
RTVSPropertyOp4
 70
     1
102
RTVSPropertyOp5
 70
     1
102
RTVSPropertyOp6
 70
     1
102
RTVSPropertyOp7
 70
     1
102
RTVSPropertyOp8
 70
     1
102
RTVSPropertyOp9
 70
     1
102
RTVSPropertyOp10
 70
     1
102
RTVSPropertyOp11
 70
     1
102
RTVSPropertyOp12
 70
     1
102
RTVSPropertyOp13
 70
     1
102
RTVSPropertyOp14
 70
     1
102
RTVSPropertyOp15
 70
     1
102
RTVSPropertyOp16
 70
     1
102
RTVSPropertyOp17
 70
     1
102
RTVSPropertyOp18
 70
     1
102
RTVSPropertyOp19
 70
     1
102
RTVSPropertyOp20
 70
     1
102
RTVSPropertyOp21
 70
     1
102
RTVSPropertyOp22
 70
     1
102
RTVSPropertyOp23
 70
     1
102
RTVSPropertyOp24
 70
     1
102
RTVSPropertyOp25
 70
     1
102
RTVSPropertyOp26
 70
     1
102
RTVSPropertyOp27
 70
     1
102
RTVSPropertyOp28
 70
     1
102
RTVSPropertyOp29
 70
     1
102
RTVSPropertyOp30
 70
     1
102
RTVSPropertyOp31
 70
     1
102
RTVSPropertyOp32
 70
     1
102
RTVSPropertyOp33
 70
     1
102
RTVSPropertyOp34
 70
     1
102
RTVSPropertyOp35
 70
     1
102
RTVSPropertyOp36
 70
     1
102
RTVSPropertyOp37
 70
     1
102
RTVSPropertyOp38
 70
     1
102
RTVSPropertyOp39
 70
     1
102
RTVSPropertyOp40
 70
     1
102
RTVSPropertyOp41
 70
     1
102
RTVSPropertyOp42
 70
     1
102
RTVSPropertyOp43
 70
     1
102
RTVSPropertyOp44
 70
     1
102
RTVSPropertyOp45
 70
     1
102
RTVSPropertyOp46
 70
     1
102
RTVSPropertyOp47
 70
     1
102
RTVSPropertyOp48
 70
     1
102
RTVSPropertyOp49
 70
     1
102
RTVSPropertyOp50
 70
     1
102
RTVSPropertyOp51
 70
     0
102
RTVSPropertyOp52
 70
     0
102
RTVSPropertyOp53
 70
     1
102
RTVSPropertyOp54
 70
     1
102
RTVSPropertyOp55
 70
     1
102
RTVSPropertyOp56
 70
     1
102
RTVSPropertyOp57
 70
     1
102
RTVSPropertyOp58
 70
     1
102
RTVSPropertyOp59
 70
     1
102
RTVSPropertyOp60
 70
     1
102
RTVSPropertyOp61
 70
     1
102
RTVSPropertyOp62
 70
     1
  0
XRECORD
  5
421
102
{ACAD_REACTORS
330
420
102
}
330
420
100
AcDbXrecord
280
     1
102
RTVSPost2010Prop28
280
     0
102
RTVSPost2010PropOp28
 70
     1
102
RTVSPost2010Prop29
280
     1
102
RTVSPost2010PropOp29
 70
     1
102
RTVSPost2010Prop30
280
     1
102
RTVSPost2010PropOp30
 70
     1
102
RTVSPost2010Prop31
280
     0
102
RTVSPost2010PropOp31
 70
     1
102
RTVSPost2010Prop32
280
     0
102
RTVSPost2010PropOp32
 70
     1
102
RTVSPost2010Prop33
280
     0
102
RTVSPost2010PropOp33
 70
     1
102
RTVSPost2010Prop34
280
     0
102
RTVSPost2010PropOp34
 70
     1
102
RTVSPost2010Prop35
280
     0
102
RTVSPost2010PropOp35
 70
     1
102
RTVSPost2010Prop36
280
     0
102
RTVSPost2010PropOp36
 70
     1
102
RTVSPost2010Prop37
 90
       50
102
RTVSPost2010PropOp37
 70
     1
102
RTVSPost2010Prop38
140
0.0
102
RTVSPost2010PropOp38
 70
     1
102
RTVSPost2010Prop39
140
1.0
102
RTVSPost2010PropOp39
 70
     1
102
RTVSPost2010Prop40
 90
        0
102
RTVSPost2010PropOp40
 70
     1
102
RTVSPost2010Prop41ColorIndex
 90
       18
102
RTVSPost2010Prop41ColorRGB
 90
        0
102
RTVSPost2010PropOp41
 70
     1
102
RTVSPost2010Prop42
 90
       50
102
RTVSPost2010PropOp42
 70
     1
102
RTVSPost2010Prop43
 90
        3
102
RTVSPost2010PropOp43
 70
     1
102
RTVSPost2010Prop44ColorIndex
 90
        5
102
RTVSPost2010Prop44ColorRGB
 90
      255
102
RTVSPost2010PropOp44
 70
     1
102
RTVSPost2010Prop45
280
     0
102
RTVSPost2010PropOp45
 70
     1
102
RTVSPost2010Prop46
 90
       50
102
RTVSPost2010PropOp46
 70
     1
102
RTVSPost2010Prop47
 90
       50
102
RTVSPost2010PropOp47
 70
     1
102
RTVSPost2010Prop48
 90
       50
102
RTVSPost2010PropOp48
 70
     1
102
RTVSPost2010Prop49
280
     0
102
RTVSPost2010PropOp49
 70
     1
102
RTVSPost2010Prop50
 90
       50
102
RTVSPost2010PropOp50
 70
     1
102
RTVSPost2010Prop51ColorIndex
 90
      256
102
RTVSPost2010Prop51ColorRGB
 90
-16777216
102
RTVSPost2010PropOp51
 70
     0
102
RTVSPost2010Prop52
140
1.0
102
RTVSPost2010PropOp52
 70
     0
102
RTVSPost2010Prop53
 90
        2
102
RTVSPost2010PropOp53
 70
     1
102
RTVSPost2010Prop54
  1
strokes_ogs.tif
102
RTVSPost2010PropOp54
 70
     1
102
RTVSPost2010Prop55
280
     0
102
RTVSPost2010PropOp55
 70
     1
102
RTVSPost2010Prop56
140
1.0
102
RTVSPost2010PropOp56
 70
     1
102
RTVSPost2010Prop57
140
1.0
102
RTVSPost2010PropOp57
 70
     1
102
RTVSPropertyOp0
 70
     1
102
RTVSPropertyOp1
 70
     1
102
RTVSPropertyOp2
 70
     1
102
RTVSPropertyOp3
 70
     1
102
RTVSPropertyOp4
 70
     1
102
RTVSPropertyOp5
 70
     1
102
RTVSPropertyOp6
 70
     1
102
RTVSPropertyOp7
 70
     1
102
RTVSPropertyOp8
 70
     1
102
RTVSPropertyOp9
 70
     1
102
RTVSPropertyOp10
 70
     1
102
RTVSPropertyOp11
 70
     1
102
RTVSPropertyOp12
 70
     1
102
RTVSPropertyOp13
 70
     1
102
RTVSPropertyOp14
 70
     1
102
RTVSPropertyOp15
 70
     1
102
RTVSPropertyOp16
 70
     1
102
RTVSPropertyOp17
 70
     1
102
RTVSPropertyOp18
 70
     1
102
RTVSPropertyOp19
 70
     1
102
RTVSPropertyOp20
 70
     1
102
RTVSPropertyOp21
 70
     1
102
RTVSPropertyOp22
 70
     1
102
RTVSPropertyOp23
 70
     1
102
RTVSPropertyOp24
 70
     1
102
RTVSPropertyOp25
 70
     1
102
RTVSPropertyOp26
 70
     1
102
RTVSPropertyOp27
 70
     1
102
RTVSPropertyOp28
 70
     1
102
RTVSPropertyOp29
 70
     1
102
RTVSPropertyOp30
 70
     1
102
RTVSPropertyOp31
 70
     1
102
RTVSPropertyOp32
 70
     1
102
RTVSPropertyOp33
 70
     1
102
RTVSPropertyOp34
 70
     1
102
RTVSPropertyOp35
 70
     1
102
RTVSPropertyOp36
 70
     1
102
RTVSPropertyOp37
 70
     1
102
RTVSPropertyOp38
 70
     1
102
RTVSPropertyOp39
 70
     1
102
RTVSPropertyOp40
 70
     1
102
RTVSPropertyOp41
 70
     1
102
RTVSPropertyOp42
 70
     1
102
RTVSPropertyOp43
 70
     1
102
RTVSPropertyOp44
 70
     1
102
RTVSPropertyOp45
 70
     1
102
RTVSPropertyOp46
 70
     1
102
RTVSPropertyOp47
 70
     1
102
RTVSPropertyOp48
 70
     1
102
RTVSPropertyOp49
 70
     1
102
RTVSPropertyOp50
 70
     1
102
RTVSPropertyOp51
 70
     0
102
RTVSPropertyOp52
 70
     0
102
RTVSPropertyOp53
 70
     1
102
RTVSPropertyOp54
 70
     1
102
RTVSPropertyOp55
 70
     1
102
RTVSPropertyOp56
 70
     1
102
RTVSPropertyOp57
 70
     1
102
RTVSPropertyOp58
 70
     1
102
RTVSPropertyOp59
 70
     1
102
RTVSPropertyOp60
 70
     1
102
RTVSPropertyOp61
 70
     1
102
RTVSPropertyOp62
 70
     1
  0
XRECORD
  5
42F
102
{ACAD_REACTORS
330
42E
102
}
330
42E
100
AcDbXrecord
280
     1
102
RTVSPost2010Prop28
280
     0
102
RTVSPost2010PropOp28
 70
     1
102
RTVSPost2010Prop29
280
     1
102
RTVSPost2010PropOp29
 70
     1
102
RTVSPost2010Prop30
280
     1
102
RTVSPost2010PropOp30
 70
     1
102
RTVSPost2010Prop31
280
     0
102
RTVSPost2010PropOp31
 70
     1
102
RTVSPost2010Prop32
280
     0
102
RTVSPost2010PropOp32
 70
     1
102
RTVSPost2010Prop33
280
     0
102
RTVSPost2010PropOp33
 70
     1
102
RTVSPost2010Prop34
280
     0
102
RTVSPost2010PropOp34
 70
     1
102
RTVSPost2010Prop35
280
     0
102
RTVSPost2010PropOp35
 70
     1
102
RTVSPost2010Prop36
280
     0
102
RTVSPost2010PropOp36
 70
     1
102
RTVSPost2010Prop37
 90
       50
102
RTVSPost2010PropOp37
 70
     1
102
RTVSPost2010Prop38
140
0.0
102
RTVSPost2010PropOp38
 70
     1
102
RTVSPost2010Prop39
140
1.0
102
RTVSPost2010PropOp39
 70
     1
102
RTVSPost2010Prop40
 90
        0
102
RTVSPost2010PropOp40
 70
     1
102
RTVSPost2010Prop41ColorIndex
 90
       18
102
RTVSPost2010Prop41ColorRGB
 90
        0
102
RTVSPost2010PropOp41
 70
     1
102
RTVSPost2010Prop42
 90
       50
102
RTVSPost2010PropOp42
 70
     1
102
RTVSPost2010Prop43
 90
        3
102
RTVSPost2010PropOp43
 70
     1
102
RTVSPost2010Prop44ColorIndex
 90
        5
102
RTVSPost2010Prop44ColorRGB
 90
      255
102
RTVSPost2010PropOp44
 70
     1
102
RTVSPost2010Prop45
280
     0
102
RTVSPost2010PropOp45
 70
     1
102
RTVSPost2010Prop46
 90
       50
102
RTVSPost2010PropOp46
 70
     1
102
RTVSPost2010Prop47
 90
       50
102
RTVSPost2010PropOp47
 70
     1
102
RTVSPost2010Prop48
 90
       50
102
RTVSPost2010PropOp48
 70
     1
102
RTVSPost2010Prop49
280
     0
102
RTVSPost2010PropOp49
 70
     1
102
RTVSPost2010Prop50
 90
       50
102
RTVSPost2010PropOp50
 70
     1
102
RTVSPost2010Prop51ColorIndex
 90
      256
102
RTVSPost2010Prop51ColorRGB
 90
-16777216
102
RTVSPost2010PropOp51
 70
     0
102
RTVSPost2010Prop52
140
1.0
102
RTVSPost2010PropOp52
 70
     0
102
RTVSPost2010Prop53
 90
        2
102
RTVSPost2010PropOp53
 70
     1
102
RTVSPost2010Prop54
  1
strokes_ogs.tif
102
RTVSPost2010PropOp54
 70
     1
102
RTVSPost2010Prop55
280
     0
102
RTVSPost2010PropOp55
 70
     1
102
RTVSPost2010Prop56
140
1.0
102
RTVSPost2010PropOp56
 70
     1
102
RTVSPost2010Prop57
140
1.0
102
RTVSPost2010PropOp57
 70
     1
102
RTVSPropertyOp0
 70
     1
102
RTVSPropertyOp1
 70
     1
102
RTVSPropertyOp2
 70
     1
102
RTVSPropertyOp3
 70
     1
102
RTVSPropertyOp4
 70
     1
102
RTVSPropertyOp5
 70
     1
102
RTVSPropertyOp6
 70
     1
102
RTVSPropertyOp7
 70
     1
102
RTVSPropertyOp8
 70
     1
102
RTVSPropertyOp9
 70
     1
102
RTVSPropertyOp10
 70
     1
102
RTVSPropertyOp11
 70
     1
102
RTVSPropertyOp12
 70
     1
102
RTVSPropertyOp13
 70
     1
102
RTVSPropertyOp14
 70
     1
102
RTVSPropertyOp15
 70
     1
102
RTVSPropertyOp16
 70
     1
102
RTVSPropertyOp17
 70
     1
102
RTVSPropertyOp18
 70
     1
102
RTVSPropertyOp19
 70
     1
102
RTVSPropertyOp20
 70
     1
102
RTVSPropertyOp21
 70
     1
102
RTVSPropertyOp22
 70
     1
102
RTVSPropertyOp23
 70
     1
102
RTVSPropertyOp24
 70
     1
102
RTVSPropertyOp25
 70
     1
102
RTVSPropertyOp26
 70
     1
102
RTVSPropertyOp27
 70
     1
102
RTVSPropertyOp28
 70
     1
102
RTVSPropertyOp29
 70
     1
102
RTVSPropertyOp30
 70
     1
102
RTVSPropertyOp31
 70
     1
102
RTVSPropertyOp32
 70
     1
102
RTVSPropertyOp33
 70
     1
102
RTVSPropertyOp34
 70
     1
102
RTVSPropertyOp35
 70
     1
102
RTVSPropertyOp36
 70
     1
102
RTVSPropertyOp37
 70
     1
102
RTVSPropertyOp38
 70
     1
102
RTVSPropertyOp39
 70
     1
102
RTVSPropertyOp40
 70
     1
102
RTVSPropertyOp41
 70
     1
102
RTVSPropertyOp42
 70
     1
102
RTVSPropertyOp43
 70
     1
102
RTVSPropertyOp44
 70
     1
102
RTVSPropertyOp45
 70
     1
102
RTVSPropertyOp46
 70
     1
102
RTVSPropertyOp47
 70
     1
102
RTVSPropertyOp48
 70
     1
102
RTVSPropertyOp49
 70
     1
102
RTVSPropertyOp50
 70
     1
102
RTVSPropertyOp51
 70
     0
102
RTVSPropertyOp52
 70
     0
102
RTVSPropertyOp53
 70
     1
102
RTVSPropertyOp54
 70
     1
102
RTVSPropertyOp55
 70
     1
102
RTVSPropertyOp56
 70
     1
102
RTVSPropertyOp57
 70
     1
102
RTVSPropertyOp58
 70
     1
102
RTVSPropertyOp59
 70
     1
102
RTVSPropertyOp60
 70
     1
102
RTVSPropertyOp61
 70
     1
102
RTVSPropertyOp62
 70
     1
  0
XRECORD
  5
437
102
{ACAD_REACTORS
330
436
102
}
330
436
100
AcDbXrecord
280
     1
102
RTVSPost2010Prop28
280
     0
102
RTVSPost2010PropOp28
 70
     1
102
RTVSPost2010Prop29
280
     1
102
RTVSPost2010PropOp29
 70
     1
102
RTVSPost2010Prop30
280
     1
102
RTVSPost2010PropOp30
 70
     1
102
RTVSPost2010Prop31
280
     0
102
RTVSPost2010PropOp31
 70
     1
102
RTVSPost2010Prop32
280
     0
102
RTVSPost2010PropOp32
 70
     1
102
RTVSPost2010Prop33
280
     0
102
RTVSPost2010PropOp33
 70
     1
102
RTVSPost2010Prop34
280
     0
102
RTVSPost2010PropOp34
 70
     1
102
RTVSPost2010Prop35
280
     0
102
RTVSPost2010PropOp35
 70
     1
102
RTVSPost2010Prop36
280
     0
102
RTVSPost2010PropOp36
 70
     1
102
RTVSPost2010Prop37
 90
       50
102
RTVSPost2010PropOp37
 70
     1
102
RTVSPost2010Prop38
140
0.0
102
RTVSPost2010PropOp38
 70
     1
102
RTVSPost2010Prop39
140
1.0
102
RTVSPost2010PropOp39
 70
     1
102
RTVSPost2010Prop40
 90
        0
102
RTVSPost2010PropOp40
 70
     1
102
RTVSPost2010Prop41ColorIndex
 90
       18
102
RTVSPost2010Prop41ColorRGB
 90
        0
102
RTVSPost2010PropOp41
 70
     1
102
RTVSPost2010Prop42
 90
       50
102
RTVSPost2010PropOp42
 70
     1
102
RTVSPost2010Prop43
 90
        3
102
RTVSPost2010PropOp43
 70
     1
102
RTVSPost2010Prop44ColorIndex
 90
        5
102
RTVSPost2010Prop44ColorRGB
 90
      255
102
RTVSPost2010PropOp44
 70
     1
102
RTVSPost2010Prop45
280
     0
102
RTVSPost2010PropOp45
 70
     1
102
RTVSPost2010Prop46
 90
       50
102
RTVSPost2010PropOp46
 70
     1
102
RTVSPost2010Prop47
 90
       50
102
RTVSPost2010PropOp47
 70
     1
102
RTVSPost2010Prop48
 90
       50
102
RTVSPost2010PropOp48
 70
     1
102
RTVSPost2010Prop49
280
     0
102
RTVSPost2010PropOp49
 70
     1
102
RTVSPost2010Prop50
 90
       50
102
RTVSPost2010PropOp50
 70
     1
102
RTVSPost2010Prop51ColorIndex
 90
      256
102
RTVSPost2010Prop51ColorRGB
 90
-16777216
102
RTVSPost2010PropOp51
 70
     0
102
RTVSPost2010Prop52
140
1.0
102
RTVSPost2010PropOp52
 70
     0
102
RTVSPost2010Prop53
 90
        2
102
RTVSPost2010PropOp53
 70
     1
102
RTVSPost2010Prop54
  1
strokes_ogs.tif
102
RTVSPost2010PropOp54
 70
     1
102
RTVSPost2010Prop55
280
     0
102
RTVSPost2010PropOp55
 70
     1
102
RTVSPost2010Prop56
140
1.0
102
RTVSPost2010PropOp56
 70
     1
102
RTVSPost2010Prop57
140
1.0
102
RTVSPost2010PropOp57
 70
     1
102
RTVSPropertyOp0
 70
     1
102
RTVSPropertyOp1
 70
     1
102
RTVSPropertyOp2
 70
     1
102
RTVSPropertyOp3
 70
     1
102
RTVSPropertyOp4
 70
     1
102
RTVSPropertyOp5
 70
     1
102
RTVSPropertyOp6
 70
     1
102
RTVSPropertyOp7
 70
     1
102
RTVSPropertyOp8
 70
     1
102
RTVSPropertyOp9
 70
     1
102
RTVSPropertyOp10
 70
     1
102
RTVSPropertyOp11
 70
     1
102
RTVSPropertyOp12
 70
     1
102
RTVSPropertyOp13
 70
     1
102
RTVSPropertyOp14
 70
     1
102
RTVSPropertyOp15
 70
     1
102
RTVSPropertyOp16
 70
     1
102
RTVSPropertyOp17
 70
     1
102
RTVSPropertyOp18
 70
     1
102
RTVSPropertyOp19
 70
     1
102
RTVSPropertyOp20
 70
     1
102
RTVSPropertyOp21
 70
     1
102
RTVSPropertyOp22
 70
     1
102
RTVSPropertyOp23
 70
     1
102
RTVSPropertyOp24
 70
     1
102
RTVSPropertyOp25
 70
     1
102
RTVSPropertyOp26
 70
     1
102
RTVSPropertyOp27
 70
     1
102
RTVSPropertyOp28
 70
     1
102
RTVSPropertyOp29
 70
     1
102
RTVSPropertyOp30
 70
     1
102
RTVSPropertyOp31
 70
     1
102
RTVSPropertyOp32
 70
     1
102
RTVSPropertyOp33
 70
     1
102
RTVSPropertyOp34
 70
     1
102
RTVSPropertyOp35
 70
     1
102
RTVSPropertyOp36
 70
     1
102
RTVSPropertyOp37
 70
     1
102
RTVSPropertyOp38
 70
     1
102
RTVSPropertyOp39
 70
     1
102
RTVSPropertyOp40
 70
     1
102
RTVSPropertyOp41
 70
     1
102
RTVSPropertyOp42
 70
     1
102
RTVSPropertyOp43
 70
     1
102
RTVSPropertyOp44
 70
     1
102
RTVSPropertyOp45
 70
     1
102
RTVSPropertyOp46
 70
     1
102
RTVSPropertyOp47
 70
     1
102
RTVSPropertyOp48
 70
     1
102
RTVSPropertyOp49
 70
     1
102
RTVSPropertyOp50
 70
     1
102
RTVSPropertyOp51
 70
     0
102
RTVSPropertyOp52
 70
     0
102
RTVSPropertyOp53
 70
     1
102
RTVSPropertyOp54
 70
     1
102
RTVSPropertyOp55
 70
     1
102
RTVSPropertyOp56
 70
     1
102
RTVSPropertyOp57
 70
     1
102
RTVSPropertyOp58
 70
     1
102
RTVSPropertyOp59
 70
     1
102
RTVSPropertyOp60
 70
     1
102
RTVSPropertyOp61
 70
     1
102
RTVSPropertyOp62
 70
     1
  0
XRECORD
  5
429
102
{ACAD_REACTORS
330
428
102
}
330
428
100
AcDbXrecord
280
     1
102
RTVSPost2010Prop28
280
     0
102
RTVSPost2010PropOp28
 70
     1
102
RTVSPost2010Prop29
280
     1
102
RTVSPost2010PropOp29
 70
     1
102
RTVSPost2010Prop30
280
     1
102
RTVSPost2010PropOp30
 70
     1
102
RTVSPost2010Prop31
280
     0
102
RTVSPost2010PropOp31
 70
     1
102
RTVSPost2010Prop32
280
     0
102
RTVSPost2010PropOp32
 70
     1
102
RTVSPost2010Prop33
280
     0
102
RTVSPost2010PropOp33
 70
     1
102
RTVSPost2010Prop34
280
     0
102
RTVSPost2010PropOp34
 70
     1
102
RTVSPost2010Prop35
280
     0
102
RTVSPost2010PropOp35
 70
     1
102
RTVSPost2010Prop36
280
     0
102
RTVSPost2010PropOp36
 70
     1
102
RTVSPost2010Prop37
 90
       50
102
RTVSPost2010PropOp37
 70
     1
102
RTVSPost2010Prop38
140
0.0
102
RTVSPost2010PropOp38
 70
     1
102
RTVSPost2010Prop39
140
1.0
102
RTVSPost2010PropOp39
 70
     1
102
RTVSPost2010Prop40
 90
        0
102
RTVSPost2010PropOp40
 70
     1
102
RTVSPost2010Prop41ColorIndex
 90
       18
102
RTVSPost2010Prop41ColorRGB
 90
        0
102
RTVSPost2010PropOp41
 70
     1
102
RTVSPost2010Prop42
 90
       50
102
RTVSPost2010PropOp42
 70
     1
102
RTVSPost2010Prop43
 90
        3
102
RTVSPost2010PropOp43
 70
     1
102
RTVSPost2010Prop44ColorIndex
 90
        5
102
RTVSPost2010Prop44ColorRGB
 90
      255
102
RTVSPost2010PropOp44
 70
     1
102
RTVSPost2010Prop45
280
     0
102
RTVSPost2010PropOp45
 70
     1
102
RTVSPost2010Prop46
 90
       50
102
RTVSPost2010PropOp46
 70
     1
102
RTVSPost2010Prop47
 90
       50
102
RTVSPost2010PropOp47
 70
     1
102
RTVSPost2010Prop48
 90
       50
102
RTVSPost2010PropOp48
 70
     1
102
RTVSPost2010Prop49
280
     0
102
RTVSPost2010PropOp49
 70
     1
102
RTVSPost2010Prop50
 90
       50
102
RTVSPost2010PropOp50
 70
     1
102
RTVSPost2010Prop51ColorIndex
 90
      256
102
RTVSPost2010Prop51ColorRGB
 90
-16777216
102
RTVSPost2010PropOp51
 70
     0
102
RTVSPost2010Prop52
140
1.0
102
RTVSPost2010PropOp52
 70
     0
102
RTVSPost2010Prop53
 90
        2
102
RTVSPost2010PropOp53
 70
     1
102
RTVSPost2010Prop54
  1
strokes_ogs.tif
102
RTVSPost2010PropOp54
 70
     1
102
RTVSPost2010Prop55
280
     0
102
RTVSPost2010PropOp55
 70
     1
102
RTVSPost2010Prop56
140
1.0
102
RTVSPost2010PropOp56
 70
     1
102
RTVSPost2010Prop57
140
1.0
102
RTVSPost2010PropOp57
 70
     1
102
RTVSPropertyOp0
 70
     1
102
RTVSPropertyOp1
 70
     1
102
RTVSPropertyOp2
 70
     1
102
RTVSPropertyOp3
 70
     1
102
RTVSPropertyOp4
 70
     1
102
RTVSPropertyOp5
 70
     1
102
RTVSPropertyOp6
 70
     1
102
RTVSPropertyOp7
 70
     1
102
RTVSPropertyOp8
 70
     1
102
RTVSPropertyOp9
 70
     1
102
RTVSPropertyOp10
 70
     1
102
RTVSPropertyOp11
 70
     1
102
RTVSPropertyOp12
 70
     1
102
RTVSPropertyOp13
 70
     1
102
RTVSPropertyOp14
 70
     1
102
RTVSPropertyOp15
 70
     1
102
RTVSPropertyOp16
 70
     1
102
RTVSPropertyOp17
 70
     1
102
RTVSPropertyOp18
 70
     1
102
RTVSPropertyOp19
 70
     1
102
RTVSPropertyOp20
 70
     1
102
RTVSPropertyOp21
 70
     1
102
RTVSPropertyOp22
 70
     1
102
RTVSPropertyOp23
 70
     1
102
RTVSPropertyOp24
 70
     1
102
RTVSPropertyOp25
 70
     1
102
RTVSPropertyOp26
 70
     1
102
RTVSPropertyOp27
 70
     1
102
RTVSPropertyOp28
 70
     1
102
RTVSPropertyOp29
 70
     1
102
RTVSPropertyOp30
 70
     1
102
RTVSPropertyOp31
 70
     1
102
RTVSPropertyOp32
 70
     1
102
RTVSPropertyOp33
 70
     1
102
RTVSPropertyOp34
 70
     1
102
RTVSPropertyOp35
 70
     1
102
RTVSPropertyOp36
 70
     1
102
RTVSPropertyOp37
 70
     1
102
RTVSPropertyOp38
 70
     1
102
RTVSPropertyOp39
 70
     1
102
RTVSPropertyOp40
 70
     1
102
RTVSPropertyOp41
 70
     1
102
RTVSPropertyOp42
 70
     1
102
RTVSPropertyOp43
 70
     1
102
RTVSPropertyOp44
 70
     1
102
RTVSPropertyOp45
 70
     1
102
RTVSPropertyOp46
 70
     1
102
RTVSPropertyOp47
 70
     1
102
RTVSPropertyOp48
 70
     1
102
RTVSPropertyOp49
 70
     1
102
RTVSPropertyOp50
 70
     1
102
RTVSPropertyOp51
 70
     0
102
RTVSPropertyOp52
 70
     0
102
RTVSPropertyOp53
 70
     1
102
RTVSPropertyOp54
 70
     1
102
RTVSPropertyOp55
 70
     1
102
RTVSPropertyOp56
 70
     1
102
RTVSPropertyOp57
 70
     1
102
RTVSPropertyOp58
 70
     1
102
RTVSPropertyOp59
 70
     1
102
RTVSPropertyOp60
 70
     1
102
RTVSPropertyOp61
 70
     1
102
RTVSPropertyOp62
 70
     1
  0
XRECORD
  5
42D
102
{ACAD_REACTORS
330
42C
102
}
330
42C
100
AcDbXrecord
280
     1
102
RTVSPost2010Prop28
280
     0
102
RTVSPost2010PropOp28
 70
     1
102
RTVSPost2010Prop29
280
     1
102
RTVSPost2010PropOp29
 70
     1
102
RTVSPost2010Prop30
280
     1
102
RTVSPost2010PropOp30
 70
     1
102
RTVSPost2010Prop31
280
     0
102
RTVSPost2010PropOp31
 70
     1
102
RTVSPost2010Prop32
280
     0
102
RTVSPost2010PropOp32
 70
     1
102
RTVSPost2010Prop33
280
     0
102
RTVSPost2010PropOp33
 70
     1
102
RTVSPost2010Prop34
280
     0
102
RTVSPost2010PropOp34
 70
     1
102
RTVSPost2010Prop35
280
     0
102
RTVSPost2010PropOp35
 70
     1
102
RTVSPost2010Prop36
280
     0
102
RTVSPost2010PropOp36
 70
     1
102
RTVSPost2010Prop37
 90
       50
102
RTVSPost2010PropOp37
 70
     1
102
RTVSPost2010Prop38
140
0.0
102
RTVSPost2010PropOp38
 70
     1
102
RTVSPost2010Prop39
140
1.0
102
RTVSPost2010PropOp39
 70
     1
102
RTVSPost2010Prop40
 90
        0
102
RTVSPost2010PropOp40
 70
     1
102
RTVSPost2010Prop41ColorIndex
 90
       18
102
RTVSPost2010Prop41ColorRGB
 90
        0
102
RTVSPost2010PropOp41
 70
     1
102
RTVSPost2010Prop42
 90
       50
102
RTVSPost2010PropOp42
 70
     1
102
RTVSPost2010Prop43
 90
        3
102
RTVSPost2010PropOp43
 70
     1
102
RTVSPost2010Prop44ColorIndex
 90
        5
102
RTVSPost2010Prop44ColorRGB
 90
      255
102
RTVSPost2010PropOp44
 70
     1
102
RTVSPost2010Prop45
280
     0
102
RTVSPost2010PropOp45
 70
     1
102
RTVSPost2010Prop46
 90
       50
102
RTVSPost2010PropOp46
 70
     1
102
RTVSPost2010Prop47
 90
       50
102
RTVSPost2010PropOp47
 70
     1
102
RTVSPost2010Prop48
 90
       50
102
RTVSPost2010PropOp48
 70
     1
102
RTVSPost2010Prop49
280
     0
102
RTVSPost2010PropOp49
 70
     1
102
RTVSPost2010Prop50
 90
       50
102
RTVSPost2010PropOp50
 70
     1
102
RTVSPost2010Prop51ColorIndex
 90
      256
102
RTVSPost2010Prop51ColorRGB
 90
-16777216
102
RTVSPost2010PropOp51
 70
     0
102
RTVSPost2010Prop52
140
1.0
102
RTVSPost2010PropOp52
 70
     0
102
RTVSPost2010Prop53
 90
        2
102
RTVSPost2010PropOp53
 70
     1
102
RTVSPost2010Prop54
  1
strokes_ogs.tif
102
RTVSPost2010PropOp54
 70
     1
102
RTVSPost2010Prop55
280
     0
102
RTVSPost2010PropOp55
 70
     1
102
RTVSPost2010Prop56
140
1.0
102
RTVSPost2010PropOp56
 70
     1
102
RTVSPost2010Prop57
140
1.0
102
RTVSPost2010PropOp57
 70
     1
102
RTVSPropertyOp0
 70
     1
102
RTVSPropertyOp1
 70
     1
102
RTVSPropertyOp2
 70
     1
102
RTVSPropertyOp3
 70
     1
102
RTVSPropertyOp4
 70
     1
102
RTVSPropertyOp5
 70
     1
102
RTVSPropertyOp6
 70
     1
102
RTVSPropertyOp7
 70
     1
102
RTVSPropertyOp8
 70
     1
102
RTVSPropertyOp9
 70
     1
102
RTVSPropertyOp10
 70
     1
102
RTVSPropertyOp11
 70
     1
102
RTVSPropertyOp12
 70
     1
102
RTVSPropertyOp13
 70
     1
102
RTVSPropertyOp14
 70
     1
102
RTVSPropertyOp15
 70
     1
102
RTVSPropertyOp16
 70
     1
102
RTVSPropertyOp17
 70
     1
102
RTVSPropertyOp18
 70
     1
102
RTVSPropertyOp19
 70
     1
102
RTVSPropertyOp20
 70
     1
102
RTVSPropertyOp21
 70
     1
102
RTVSPropertyOp22
 70
     1
102
RTVSPropertyOp23
 70
     1
102
RTVSPropertyOp24
 70
     1
102
RTVSPropertyOp25
 70
     1
102
RTVSPropertyOp26
 70
     1
102
RTVSPropertyOp27
 70
     1
102
RTVSPropertyOp28
 70
     1
102
RTVSPropertyOp29
 70
     1
102
RTVSPropertyOp30
 70
     1
102
RTVSPropertyOp31
 70
     1
102
RTVSPropertyOp32
 70
     1
102
RTVSPropertyOp33
 70
     1
102
RTVSPropertyOp34
 70
     1
102
RTVSPropertyOp35
 70
     1
102
RTVSPropertyOp36
 70
     1
102
RTVSPropertyOp37
 70
     1
102
RTVSPropertyOp38
 70
     1
102
RTVSPropertyOp39
 70
     1
102
RTVSPropertyOp40
 70
     1
102
RTVSPropertyOp41
 70
     1
102
RTVSPropertyOp42
 70
     1
102
RTVSPropertyOp43
 70
     1
102
RTVSPropertyOp44
 70
     1
102
RTVSPropertyOp45
 70
     1
102
RTVSPropertyOp46
 70
     1
102
RTVSPropertyOp47
 70
     1
102
RTVSPropertyOp48
 70
     1
102
RTVSPropertyOp49
 70
     1
102
RTVSPropertyOp50
 70
     1
102
RTVSPropertyOp51
 70
     0
102
RTVSPropertyOp52
 70
     0
102
RTVSPropertyOp53
 70
     1
102
RTVSPropertyOp54
 70
     1
102
RTVSPropertyOp55
 70
     1
102
RTVSPropertyOp56
 70
     1
102
RTVSPropertyOp57
 70
     1
102
RTVSPropertyOp58
 70
     1
102
RTVSPropertyOp59
 70
     1
102
RTVSPropertyOp60
 70
     1
102
RTVSPropertyOp61
 70
     1
102
RTVSPropertyOp62
 70
     1
  0
XRECORD
  5
447
102
{ACAD_REACTORS
330
446
102
}
330
446
100
AcDbXrecord
280
     1
102
RTVSPost2010Prop28
280
     0
102
RTVSPost2010PropOp28
 70
     1
102
RTVSPost2010Prop29
280
     1
102
RTVSPost2010PropOp29
 70
     1
102
RTVSPost2010Prop30
280
     1
102
RTVSPost2010PropOp30
 70
     1
102
RTVSPost2010Prop31
280
     0
102
RTVSPost2010PropOp31
 70
     1
102
RTVSPost2010Prop32
280
     0
102
RTVSPost2010PropOp32
 70
     1
102
RTVSPost2010Prop33
280
     0
102
RTVSPost2010PropOp33
 70
     1
102
RTVSPost2010Prop34
280
     0
102
RTVSPost2010PropOp34
 70
     1
102
RTVSPost2010Prop35
280
     0
102
RTVSPost2010PropOp35
 70
     1
102
RTVSPost2010Prop36
280
     0
102
RTVSPost2010PropOp36
 70
     1
102
RTVSPost2010Prop37
 90
       50
102
RTVSPost2010PropOp37
 70
     0
102
RTVSPost2010Prop38
140
0.0
102
RTVSPost2010PropOp38
 70
     0
102
RTVSPost2010Prop39
140
1.0
102
RTVSPost2010PropOp39
 70
     0
102
RTVSPost2010Prop40
 90
        0
102
RTVSPost2010PropOp40
 70
     0
102
RTVSPost2010Prop41ColorIndex
 90
       18
102
RTVSPost2010Prop41ColorRGB
 90
        0
102
RTVSPost2010PropOp41
 70
     0
102
RTVSPost2010Prop42
 90
       50
102
RTVSPost2010PropOp42
 70
     0
102
RTVSPost2010Prop43
 90
        3
102
RTVSPost2010PropOp43
 70
     0
102
RTVSPost2010Prop44ColorIndex
 90
        5
102
RTVSPost2010Prop44ColorRGB
 90
      255
102
RTVSPost2010PropOp44
 70
     0
102
RTVSPost2010Prop45
280
     0
102
RTVSPost2010PropOp45
 70
     1
102
RTVSPost2010Prop46
 90
       50
102
RTVSPost2010PropOp46
 70
     0
102
RTVSPost2010Prop47
 90
       50
102
RTVSPost2010PropOp47
 70
     0
102
RTVSPost2010Prop48
 90
       50
102
RTVSPost2010PropOp48
 70
     0
102
RTVSPost2010Prop49
280
     0
102
RTVSPost2010PropOp49
 70
     1
102
RTVSPost2010Prop50
 90
       50
102
RTVSPost2010PropOp50
 70
     0
102
RTVSPost2010Prop51ColorIndex
 90
      256
102
RTVSPost2010Prop51ColorRGB
 90
-16777216
102
RTVSPost2010PropOp51
 70
     0
102
RTVSPost2010Prop52
140
1.0
102
RTVSPost2010PropOp52
 70
     0
102
RTVSPost2010Prop53
 90
        2
102
RTVSPost2010PropOp53
 70
     0
102
RTVSPost2010Prop54
  1
strokes_ogs.tif
102
RTVSPost2010PropOp54
 70
     0
102
RTVSPost2010Prop55
280
     0
102
RTVSPost2010PropOp55
 70
     1
102
RTVSPost2010Prop56
140
1.0
102
RTVSPost2010PropOp56
 70
     0
102
RTVSPost2010Prop57
140
1.0
102
RTVSPost2010PropOp57
 70
     0
102
RTVSPropertyOp0
 70
     0
102
RTVSPropertyOp1
 70
     0
102
RTVSPropertyOp2
 70
     0
102
RTVSPropertyOp3
 70
     0
102
RTVSPropertyOp4
 70
     0
102
RTVSPropertyOp5
 70
     0
102
RTVSPropertyOp6
 70
     0
102
RTVSPropertyOp7
 70
     0
102
RTVSPropertyOp8
 70
     0
102
RTVSPropertyOp9
 70
     0
102
RTVSPropertyOp10
 70
     0
102
RTVSPropertyOp11
 70
     0
102
RTVSPropertyOp12
 70
     0
102
RTVSPropertyOp13
 70
     0
102
RTVSPropertyOp14
 70
     2
102
RTVSPropertyOp15
 70
     0
102
RTVSPropertyOp16
 70
     0
102
RTVSPropertyOp17
 70
     0
102
RTVSPropertyOp18
 70
     0
102
RTVSPropertyOp19
 70
     0
102
RTVSPropertyOp20
 70
     0
102
RTVSPropertyOp21
 70
     0
102
RTVSPropertyOp22
 70
     0
102
RTVSPropertyOp23
 70
     0
102
RTVSPropertyOp24
 70
     0
102
RTVSPropertyOp25
 70
     0
102
RTVSPropertyOp26
 70
     0
102
RTVSPropertyOp27
 70
     0
102
RTVSPropertyOp28
 70
     1
102
RTVSPropertyOp29
 70
     1
102
RTVSPropertyOp30
 70
     1
102
RTVSPropertyOp31
 70
     1
102
RTVSPropertyOp32
 70
     1
102
RTVSPropertyOp33
 70
     1
102
RTVSPropertyOp34
 70
     1
102
RTVSPropertyOp35
 70
     1
102
RTVSPropertyOp36
 70
     1
102
RTVSPropertyOp37
 70
     0
102
RTVSPropertyOp38
 70
     0
102
RTVSPropertyOp39
 70
     0
102
RTVSPropertyOp40
 70
     0
102
RTVSPropertyOp41
 70
     0
102
RTVSPropertyOp42
 70
     0
102
RTVSPropertyOp43
 70
     0
102
RTVSPropertyOp44
 70
     0
102
RTVSPropertyOp45
 70
     1
102
RTVSPropertyOp46
 70
     0
102
RTVSPropertyOp47
 70
     0
102
RTVSPropertyOp48
 70
     0
102
RTVSPropertyOp49
 70
     1
102
RTVSPropertyOp50
 70
     0
102
RTVSPropertyOp51
 70
     0
102
RTVSPropertyOp52
 70
     0
102
RTVSPropertyOp53
 70
     0
102
RTVSPropertyOp54
 70
     0
102
RTVSPropertyOp55
 70
     1
102
RTVSPropertyOp56
 70
     0
102
RTVSPropertyOp57
 70
     0
102
RTVSPropertyOp58
 70
     0
102
RTVSPropertyOp59
 70
     0
102
RTVSPropertyOp60
 70
     0
102
RTVSPropertyOp61
 70
     0
102
RTVSPropertyOp62
 70
     0
  0
XRECORD
  5
435
102
{ACAD_REACTORS
330
434
102
}
330
434
100
AcDbXrecord
280
     1
102
RTVSPost2010Prop28
280
     0
102
RTVSPost2010PropOp28
 70
     1
102
RTVSPost2010Prop29
280
     1
102
RTVSPost2010PropOp29
 70
     1
102
RTVSPost2010Prop30
280
     1
102
RTVSPost2010PropOp30
 70
     1
102
RTVSPost2010Prop31
280
     0
102
RTVSPost2010PropOp31
 70
     1
102
RTVSPost2010Prop32
280
     0
102
RTVSPost2010PropOp32
 70
     1
102
RTVSPost2010Prop33
280
     0
102
RTVSPost2010PropOp33
 70
     1
102
RTVSPost2010Prop34
280
     0
102
RTVSPost2010PropOp34
 70
     1
102
RTVSPost2010Prop35
280
     0
102
RTVSPost2010PropOp35
 70
     1
102
RTVSPost2010Prop36
280
     0
102
RTVSPost2010PropOp36
 70
     1
102
RTVSPost2010Prop37
 90
       50
102
RTVSPost2010PropOp37
 70
     1
102
RTVSPost2010Prop38
140
0.0
102
RTVSPost2010PropOp38
 70
     1
102
RTVSPost2010Prop39
140
1.0
102
RTVSPost2010PropOp39
 70
     1
102
RTVSPost2010Prop40
 90
        0
102
RTVSPost2010PropOp40
 70
     1
102
RTVSPost2010Prop41ColorIndex
 90
       18
102
RTVSPost2010Prop41ColorRGB
 90
        0
102
RTVSPost2010PropOp41
 70
     1
102
RTVSPost2010Prop42
 90
       50
102
RTVSPost2010PropOp42
 70
     1
102
RTVSPost2010Prop43
 90
        3
102
RTVSPost2010PropOp43
 70
     1
102
RTVSPost2010Prop44ColorIndex
 90
        5
102
RTVSPost2010Prop44ColorRGB
 90
      255
102
RTVSPost2010PropOp44
 70
     1
102
RTVSPost2010Prop45
280
     0
102
RTVSPost2010PropOp45
 70
     1
102
RTVSPost2010Prop46
 90
       50
102
RTVSPost2010PropOp46
 70
     1
102
RTVSPost2010Prop47
 90
       50
102
RTVSPost2010PropOp47
 70
     1
102
RTVSPost2010Prop48
 90
       50
102
RTVSPost2010PropOp48
 70
     1
102
RTVSPost2010Prop49
280
     0
102
RTVSPost2010PropOp49
 70
     1
102
RTVSPost2010Prop50
 90
       50
102
RTVSPost2010PropOp50
 70
     1
102
RTVSPost2010Prop51ColorIndex
 90
      256
102
RTVSPost2010Prop51ColorRGB
 90
-16777216
102
RTVSPost2010PropOp51
 70
     0
102
RTVSPost2010Prop52
140
1.0
102
RTVSPost2010PropOp52
 70
     0
102
RTVSPost2010Prop53
 90
        2
102
RTVSPost2010PropOp53
 70
     1
102
RTVSPost2010Prop54
  1
strokes_ogs.tif
102
RTVSPost2010PropOp54
 70
     1
102
RTVSPost2010Prop55
280
     0
102
RTVSPost2010PropOp55
 70
     1
102
RTVSPost2010Prop56
140
1.0
102
RTVSPost2010PropOp56
 70
     1
102
RTVSPost2010Prop57
140
1.0
102
RTVSPost2010PropOp57
 70
     1
102
RTVSPropertyOp0
 70
     1
102
RTVSPropertyOp1
 70
     1
102
RTVSPropertyOp2
 70
     1
102
RTVSPropertyOp3
 70
     1
102
RTVSPropertyOp4
 70
     1
102
RTVSPropertyOp5
 70
     1
102
RTVSPropertyOp6
 70
     1
102
RTVSPropertyOp7
 70
     1
102
RTVSPropertyOp8
 70
     1
102
RTVSPropertyOp9
 70
     1
102
RTVSPropertyOp10
 70
     1
102
RTVSPropertyOp11
 70
     1
102
RTVSPropertyOp12
 70
     1
102
RTVSPropertyOp13
 70
     1
102
RTVSPropertyOp14
 70
     1
102
RTVSPropertyOp15
 70
     1
102
RTVSPropertyOp16
 70
     1
102
RTVSPropertyOp17
 70
     1
102
RTVSPropertyOp18
 70
     1
102
RTVSPropertyOp19
 70
     1
102
RTVSPropertyOp20
 70
     1
102
RTVSPropertyOp21
 70
     1
102
RTVSPropertyOp22
 70
     1
102
RTVSPropertyOp23
 70
     1
102
RTVSPropertyOp24
 70
     1
102
RTVSPropertyOp25
 70
     1
102
RTVSPropertyOp26
 70
     1
102
RTVSPropertyOp27
 70
     1
102
RTVSPropertyOp28
 70
     1
102
RTVSPropertyOp29
 70
     1
102
RTVSPropertyOp30
 70
     1
102
RTVSPropertyOp31
 70
     1
102
RTVSPropertyOp32
 70
     1
102
RTVSPropertyOp33
 70
     1
102
RTVSPropertyOp34
 70
     1
102
RTVSPropertyOp35
 70
     1
102
RTVSPropertyOp36
 70
     1
102
RTVSPropertyOp37
 70
     1
102
RTVSPropertyOp38
 70
     1
102
RTVSPropertyOp39
 70
     1
102
RTVSPropertyOp40
 70
     1
102
RTVSPropertyOp41
 70
     1
102
RTVSPropertyOp42
 70
     1
102
RTVSPropertyOp43
 70
     1
102
RTVSPropertyOp44
 70
     1
102
RTVSPropertyOp45
 70
     1
102
RTVSPropertyOp46
 70
     1
102
RTVSPropertyOp47
 70
     1
102
RTVSPropertyOp48
 70
     1
102
RTVSPropertyOp49
 70
     1
102
RTVSPropertyOp50
 70
     1
102
RTVSPropertyOp51
 70
     0
102
RTVSPropertyOp52
 70
     0
102
RTVSPropertyOp53
 70
     1
102
RTVSPropertyOp54
 70
     1
102
RTVSPropertyOp55
 70
     1
102
RTVSPropertyOp56
 70
     1
102
RTVSPropertyOp57
 70
     1
102
RTVSPropertyOp58
 70
     1
102
RTVSPropertyOp59
 70
     1
102
RTVSPropertyOp60
 70
     1
102
RTVSPropertyOp61
 70
     1
102
RTVSPropertyOp62
 70
     1
  0
XRECORD
  5
419
102
{ACAD_REACTORS
330
418
102
}
330
418
100
AcDbXrecord
280
     1
102
RTVSPost2010Prop28
280
     0
102
RTVSPost2010PropOp28
 70
     1
102
RTVSPost2010Prop29
280
     1
102
RTVSPost2010PropOp29
 70
     1
102
RTVSPost2010Prop30
280
     1
102
RTVSPost2010PropOp30
 70
     1
102
RTVSPost2010Prop31
280
     0
102
RTVSPost2010PropOp31
 70
     1
102
RTVSPost2010Prop32
280
     0
102
RTVSPost2010PropOp32
 70
     1
102
RTVSPost2010Prop33
280
     0
102
RTVSPost2010PropOp33
 70
     1
102
RTVSPost2010Prop34
280
     0
102
RTVSPost2010PropOp34
 70
     1
102
RTVSPost2010Prop35
280
     0
102
RTVSPost2010PropOp35
 70
     1
102
RTVSPost2010Prop36
280
     0
102
RTVSPost2010PropOp36
 70
     1
102
RTVSPost2010Prop37
 90
       50
102
RTVSPost2010PropOp37
 70
     1
102
RTVSPost2010Prop38
140
0.0
102
RTVSPost2010PropOp38
 70
     1
102
RTVSPost2010Prop39
140
1.0
102
RTVSPost2010PropOp39
 70
     1
102
RTVSPost2010Prop40
 90
        0
102
RTVSPost2010PropOp40
 70
     1
102
RTVSPost2010Prop41ColorIndex
 90
       18
102
RTVSPost2010Prop41ColorRGB
 90
        0
102
RTVSPost2010PropOp41
 70
     1
102
RTVSPost2010Prop42
 90
       50
102
RTVSPost2010PropOp42
 70
     1
102
RTVSPost2010Prop43
 90
        3
102
RTVSPost2010PropOp43
 70
     1
102
RTVSPost2010Prop44ColorIndex
 90
        5
102
RTVSPost2010Prop44ColorRGB
 90
      255
102
RTVSPost2010PropOp44
 70
     1
102
RTVSPost2010Prop45
280
     0
102
RTVSPost2010PropOp45
 70
     1
102
RTVSPost2010Prop46
 90
       50
102
RTVSPost2010PropOp46
 70
     1
102
RTVSPost2010Prop47
 90
       50
102
RTVSPost2010PropOp47
 70
     1
102
RTVSPost2010Prop48
 90
       50
102
RTVSPost2010PropOp48
 70
     1
102
RTVSPost2010Prop49
280
     0
102
RTVSPost2010PropOp49
 70
     1
102
RTVSPost2010Prop50
 90
       50
102
RTVSPost2010PropOp50
 70
     1
102
RTVSPost2010Prop51ColorIndex
 90
      256
102
RTVSPost2010Prop51ColorRGB
 90
-16777216
102
RTVSPost2010PropOp51
 70
     0
102
RTVSPost2010Prop52
140
1.0
102
RTVSPost2010PropOp52
 70
     0
102
RTVSPost2010Prop53
 90
        2
102
RTVSPost2010PropOp53
 70
     1
102
RTVSPost2010Prop54
  1
strokes_ogs.tif
102
RTVSPost2010PropOp54
 70
     1
102
RTVSPost2010Prop55
280
     0
102
RTVSPost2010PropOp55
 70
     1
102
RTVSPost2010Prop56
140
1.0
102
RTVSPost2010PropOp56
 70
     1
102
RTVSPost2010Prop57
140
1.0
102
RTVSPost2010PropOp57
 70
     1
102
RTVSPropertyOp0
 70
     1
102
RTVSPropertyOp1
 70
     1
102
RTVSPropertyOp2
 70
     1
102
RTVSPropertyOp3
 70
     1
102
RTVSPropertyOp4
 70
     1
102
RTVSPropertyOp5
 70
     1
102
RTVSPropertyOp6
 70
     1
102
RTVSPropertyOp7
 70
     1
102
RTVSPropertyOp8
 70
     1
102
RTVSPropertyOp9
 70
     1
102
RTVSPropertyOp10
 70
     1
102
RTVSPropertyOp11
 70
     1
102
RTVSPropertyOp12
 70
     1
102
RTVSPropertyOp13
 70
     1
102
RTVSPropertyOp14
 70
     1
102
RTVSPropertyOp15
 70
     1
102
RTVSPropertyOp16
 70
     1
102
RTVSPropertyOp17
 70
     1
102
RTVSPropertyOp18
 70
     1
102
RTVSPropertyOp19
 70
     1
102
RTVSPropertyOp20
 70
     1
102
RTVSPropertyOp21
 70
     1
102
RTVSPropertyOp22
 70
     1
102
RTVSPropertyOp23
 70
     1
102
RTVSPropertyOp24
 70
     1
102
RTVSPropertyOp25
 70
     1
102
RTVSPropertyOp26
 70
     1
102
RTVSPropertyOp27
 70
     1
102
RTVSPropertyOp28
 70
     1
102
RTVSPropertyOp29
 70
     1
102
RTVSPropertyOp30
 70
     1
102
RTVSPropertyOp31
 70
     1
102
RTVSPropertyOp32
 70
     1
102
RTVSPropertyOp33
 70
     1
102
RTVSPropertyOp34
 70
     1
102
RTVSPropertyOp35
 70
     1
102
RTVSPropertyOp36
 70
     1
102
RTVSPropertyOp37
 70
     1
102
RTVSPropertyOp38
 70
     1
102
RTVSPropertyOp39
 70
     1
102
RTVSPropertyOp40
 70
     1
102
RTVSPropertyOp41
 70
     1
102
RTVSPropertyOp42
 70
     1
102
RTVSPropertyOp43
 70
     1
102
RTVSPropertyOp44
 70
     1
102
RTVSPropertyOp45
 70
     1
102
RTVSPropertyOp46
 70
     1
102
RTVSPropertyOp47
 70
     1
102
RTVSPropertyOp48
 70
     1
102
RTVSPropertyOp49
 70
     1
102
RTVSPropertyOp50
 70
     1
102
RTVSPropertyOp51
 70
     0
102
RTVSPropertyOp52
 70
     0
102
RTVSPropertyOp53
 70
     1
102
RTVSPropertyOp54
 70
     1
102
RTVSPropertyOp55
 70
     1
102
RTVSPropertyOp56
 70
     1
102
RTVSPropertyOp57
 70
     1
102
RTVSPropertyOp58
 70
     1
102
RTVSPropertyOp59
 70
     1
102
RTVSPropertyOp60
 70
     1
102
RTVSPropertyOp61
 70
     1
102
RTVSPropertyOp62
 70
     1
  0
XRECORD
  5
41B
102
{ACAD_REACTORS
330
41A
102
}
330
41A
100
AcDbXrecord
280
     1
102
RTVSPost2010Prop28
280
     0
102
RTVSPost2010PropOp28
 70
     1
102
RTVSPost2010Prop29
280
     1
102
RTVSPost2010PropOp29
 70
     1
102
RTVSPost2010Prop30
280
     1
102
RTVSPost2010PropOp30
 70
     1
102
RTVSPost2010Prop31
280
     0
102
RTVSPost2010PropOp31
 70
     1
102
RTVSPost2010Prop32
280
     0
102
RTVSPost2010PropOp32
 70
     1
102
RTVSPost2010Prop33
280
     0
102
RTVSPost2010PropOp33
 70
     1
102
RTVSPost2010Prop34
280
     0
102
RTVSPost2010PropOp34
 70
     1
102
RTVSPost2010Prop35
280
     0
102
RTVSPost2010PropOp35
 70
     1
102
RTVSPost2010Prop36
280
     0
102
RTVSPost2010PropOp36
 70
     1
102
RTVSPost2010Prop37
 90
       50
102
RTVSPost2010PropOp37
 70
     1
102
RTVSPost2010Prop38
140
0.0
102
RTVSPost2010PropOp38
 70
     1
102
RTVSPost2010Prop39
140
1.0
102
RTVSPost2010PropOp39
 70
     1
102
RTVSPost2010Prop40
 90
        0
102
RTVSPost2010PropOp40
 70
     1
102
RTVSPost2010Prop41ColorIndex
 90
       18
102
RTVSPost2010Prop41ColorRGB
 90
        0
102
RTVSPost2010PropOp41
 70
     1
102
RTVSPost2010Prop42
 90
       50
102
RTVSPost2010PropOp42
 70
     1
102
RTVSPost2010Prop43
 90
        3
102
RTVSPost2010PropOp43
 70
     1
102
RTVSPost2010Prop44ColorIndex
 90
        5
102
RTVSPost2010Prop44ColorRGB
 90
      255
102
RTVSPost2010PropOp44
 70
     1
102
RTVSPost2010Prop45
280
     0
102
RTVSPost2010PropOp45
 70
     1
102
RTVSPost2010Prop46
 90
       50
102
RTVSPost2010PropOp46
 70
     1
102
RTVSPost2010Prop47
 90
       50
102
RTVSPost2010PropOp47
 70
     1
102
RTVSPost2010Prop48
 90
       50
102
RTVSPost2010PropOp48
 70
     1
102
RTVSPost2010Prop49
280
     0
102
RTVSPost2010PropOp49
 70
     1
102
RTVSPost2010Prop50
 90
       50
102
RTVSPost2010PropOp50
 70
     1
102
RTVSPost2010Prop51ColorIndex
 90
      256
102
RTVSPost2010Prop51ColorRGB
 90
-16777216
102
RTVSPost2010PropOp51
 70
     0
102
RTVSPost2010Prop52
140
1.0
102
RTVSPost2010PropOp52
 70
     0
102
RTVSPost2010Prop53
 90
        2
102
RTVSPost2010PropOp53
 70
     1
102
RTVSPost2010Prop54
  1
strokes_ogs.tif
102
RTVSPost2010PropOp54
 70
     1
102
RTVSPost2010Prop55
280
     0
102
RTVSPost2010PropOp55
 70
     1
102
RTVSPost2010Prop56
140
1.0
102
RTVSPost2010PropOp56
 70
     1
102
RTVSPost2010Prop57
140
1.0
102
RTVSPost2010PropOp57
 70
     1
102
RTVSPropertyOp0
 70
     1
102
RTVSPropertyOp1
 70
     1
102
RTVSPropertyOp2
 70
     1
102
RTVSPropertyOp3
 70
     1
102
RTVSPropertyOp4
 70
     1
102
RTVSPropertyOp5
 70
     1
102
RTVSPropertyOp6
 70
     1
102
RTVSPropertyOp7
 70
     1
102
RTVSPropertyOp8
 70
     1
102
RTVSPropertyOp9
 70
     1
102
RTVSPropertyOp10
 70
     1
102
RTVSPropertyOp11
 70
     1
102
RTVSPropertyOp12
 70
     1
102
RTVSPropertyOp13
 70
     1
102
RTVSPropertyOp14
 70
     1
102
RTVSPropertyOp15
 70
     1
102
RTVSPropertyOp16
 70
     1
102
RTVSPropertyOp17
 70
     1
102
RTVSPropertyOp18
 70
     1
102
RTVSPropertyOp19
 70
     1
102
RTVSPropertyOp20
 70
     1
102
RTVSPropertyOp21
 70
     1
102
RTVSPropertyOp22
 70
     1
102
RTVSPropertyOp23
 70
     1
102
RTVSPropertyOp24
 70
     1
102
RTVSPropertyOp25
 70
     1
102
RTVSPropertyOp26
 70
     1
102
RTVSPropertyOp27
 70
     1
102
RTVSPropertyOp28
 70
     1
102
RTVSPropertyOp29
 70
     1
102
RTVSPropertyOp30
 70
     1
102
RTVSPropertyOp31
 70
     1
102
RTVSPropertyOp32
 70
     1
102
RTVSPropertyOp33
 70
     1
102
RTVSPropertyOp34
 70
     1
102
RTVSPropertyOp35
 70
     1
102
RTVSPropertyOp36
 70
     1
102
RTVSPropertyOp37
 70
     1
102
RTVSPropertyOp38
 70
     1
102
RTVSPropertyOp39
 70
     1
102
RTVSPropertyOp40
 70
     1
102
RTVSPropertyOp41
 70
     1
102
RTVSPropertyOp42
 70
     1
102
RTVSPropertyOp43
 70
     1
102
RTVSPropertyOp44
 70
     1
102
RTVSPropertyOp45
 70
     1
102
RTVSPropertyOp46
 70
     1
102
RTVSPropertyOp47
 70
     1
102
RTVSPropertyOp48
 70
     1
102
RTVSPropertyOp49
 70
     1
102
RTVSPropertyOp50
 70
     1
102
RTVSPropertyOp51
 70
     0
102
RTVSPropertyOp52
 70
     0
102
RTVSPropertyOp53
 70
     1
102
RTVSPropertyOp54
 70
     1
102
RTVSPropertyOp55
 70
     1
102
RTVSPropertyOp56
 70
     1
102
RTVSPropertyOp57
 70
     1
102
RTVSPropertyOp58
 70
     1
102
RTVSPropertyOp59
 70
     1
102
RTVSPropertyOp60
 70
     1
102
RTVSPropertyOp61
 70
     1
102
RTVSPropertyOp62
 70
     1
  0
XRECORD
  5
41D
102
{ACAD_REACTORS
330
41C
102
}
330
41C
100
AcDbXrecord
280
     1
102
RTVSPost2010Prop28
280
     0
102
RTVSPost2010PropOp28
 70
     1
102
RTVSPost2010Prop29
280
     1
102
RTVSPost2010PropOp29
 70
     1
102
RTVSPost2010Prop30
280
     1
102
RTVSPost2010PropOp30
 70
     1
102
RTVSPost2010Prop31
280
     0
102
RTVSPost2010PropOp31
 70
     1
102
RTVSPost2010Prop32
280
     0
102
RTVSPost2010PropOp32
 70
     1
102
RTVSPost2010Prop33
280
     0
102
RTVSPost2010PropOp33
 70
     1
102
RTVSPost2010Prop34
280
     0
102
RTVSPost2010PropOp34
 70
     1
102
RTVSPost2010Prop35
280
     0
102
RTVSPost2010PropOp35
 70
     1
102
RTVSPost2010Prop36
280
     0
102
RTVSPost2010PropOp36
 70
     1
102
RTVSPost2010Prop37
 90
       50
102
RTVSPost2010PropOp37
 70
     1
102
RTVSPost2010Prop38
140
0.0
102
RTVSPost2010PropOp38
 70
     1
102
RTVSPost2010Prop39
140
1.0
102
RTVSPost2010PropOp39
 70
     1
102
RTVSPost2010Prop40
 90
        0
102
RTVSPost2010PropOp40
 70
     1
102
RTVSPost2010Prop41ColorIndex
 90
       18
102
RTVSPost2010Prop41ColorRGB
 90
        0
102
RTVSPost2010PropOp41
 70
     1
102
RTVSPost2010Prop42
 90
       50
102
RTVSPost2010PropOp42
 70
     1
102
RTVSPost2010Prop43
 90
        3
102
RTVSPost2010PropOp43
 70
     1
102
RTVSPost2010Prop44ColorIndex
 90
        5
102
RTVSPost2010Prop44ColorRGB
 90
      255
102
RTVSPost2010PropOp44
 70
     1
102
RTVSPost2010Prop45
280
     0
102
RTVSPost2010PropOp45
 70
     1
102
RTVSPost2010Prop46
 90
       50
102
RTVSPost2010PropOp46
 70
     1
102
RTVSPost2010Prop47
 90
       50
102
RTVSPost2010PropOp47
 70
     1
102
RTVSPost2010Prop48
 90
       50
102
RTVSPost2010PropOp48
 70
     1
102
RTVSPost2010Prop49
280
     0
102
RTVSPost2010PropOp49
 70
     1
102
RTVSPost2010Prop50
 90
       50
102
RTVSPost2010PropOp50
 70
     1
102
RTVSPost2010Prop51ColorIndex
 90
      256
102
RTVSPost2010Prop51ColorRGB
 90
-16777216
102
RTVSPost2010PropOp51
 70
     0
102
RTVSPost2010Prop52
140
1.0
102
RTVSPost2010PropOp52
 70
     0
102
RTVSPost2010Prop53
 90
        2
102
RTVSPost2010PropOp53
 70
     1
102
RTVSPost2010Prop54
  1
strokes_ogs.tif
102
RTVSPost2010PropOp54
 70
     1
102
RTVSPost2010Prop55
280
     0
102
RTVSPost2010PropOp55
 70
     1
102
RTVSPost2010Prop56
140
1.0
102
RTVSPost2010PropOp56
 70
     1
102
RTVSPost2010Prop57
140
1.0
102
RTVSPost2010PropOp57
 70
     1
102
RTVSPropertyOp0
 70
     1
102
RTVSPropertyOp1
 70
     1
102
RTVSPropertyOp2
 70
     1
102
RTVSPropertyOp3
 70
     1
102
RTVSPropertyOp4
 70
     1
102
RTVSPropertyOp5
 70
     1
102
RTVSPropertyOp6
 70
     1
102
RTVSPropertyOp7
 70
     1
102
RTVSPropertyOp8
 70
     1
102
RTVSPropertyOp9
 70
     1
102
RTVSPropertyOp10
 70
     1
102
RTVSPropertyOp11
 70
     1
102
RTVSPropertyOp12
 70
     1
102
RTVSPropertyOp13
 70
     1
102
RTVSPropertyOp14
 70
     1
102
RTVSPropertyOp15
 70
     1
102
RTVSPropertyOp16
 70
     1
102
RTVSPropertyOp17
 70
     1
102
RTVSPropertyOp18
 70
     1
102
RTVSPropertyOp19
 70
     1
102
RTVSPropertyOp20
 70
     1
102
RTVSPropertyOp21
 70
     1
102
RTVSPropertyOp22
 70
     1
102
RTVSPropertyOp23
 70
     1
102
RTVSPropertyOp24
 70
     1
102
RTVSPropertyOp25
 70
     1
102
RTVSPropertyOp26
 70
     1
102
RTVSPropertyOp27
 70
     1
102
RTVSPropertyOp28
 70
     1
102
RTVSPropertyOp29
 70
     1
102
RTVSPropertyOp30
 70
     1
102
RTVSPropertyOp31
 70
     1
102
RTVSPropertyOp32
 70
     1
102
RTVSPropertyOp33
 70
     1
102
RTVSPropertyOp34
 70
     1
102
RTVSPropertyOp35
 70
     1
102
RTVSPropertyOp36
 70
     1
102
RTVSPropertyOp37
 70
     1
102
RTVSPropertyOp38
 70
     1
102
RTVSPropertyOp39
 70
     1
102
RTVSPropertyOp40
 70
     1
102
RTVSPropertyOp41
 70
     1
102
RTVSPropertyOp42
 70
     1
102
RTVSPropertyOp43
 70
     1
102
RTVSPropertyOp44
 70
     1
102
RTVSPropertyOp45
 70
     1
102
RTVSPropertyOp46
 70
     1
102
RTVSPropertyOp47
 70
     1
102
RTVSPropertyOp48
 70
     1
102
RTVSPropertyOp49
 70
     1
102
RTVSPropertyOp50
 70
     1
102
RTVSPropertyOp51
 70
     0
102
RTVSPropertyOp52
 70
     0
102
RTVSPropertyOp53
 70
     1
102
RTVSPropertyOp54
 70
     1
102
RTVSPropertyOp55
 70
     1
102
RTVSPropertyOp56
 70
     1
102
RTVSPropertyOp57
 70
     1
102
RTVSPropertyOp58
 70
     1
102
RTVSPropertyOp59
 70
     1
102
RTVSPropertyOp60
 70
     1
102
RTVSPropertyOp61
 70
     1
102
RTVSPropertyOp62
 70
     1
  0
XRECORD
  5
41F
102
{ACAD_REACTORS
330
41E
102
}
330
41E
100
AcDbXrecord
280
     1
102
RTVSPost2010Prop28
280
     0
102
RTVSPost2010PropOp28
 70
     1
102
RTVSPost2010Prop29
280
     1
102
RTVSPost2010PropOp29
 70
     1
102
RTVSPost2010Prop30
280
     1
102
RTVSPost2010PropOp30
 70
     1
102
RTVSPost2010Prop31
280
     0
102
RTVSPost2010PropOp31
 70
     1
102
RTVSPost2010Prop32
280
     0
102
RTVSPost2010PropOp32
 70
     1
102
RTVSPost2010Prop33
280
     0
102
RTVSPost2010PropOp33
 70
     1
102
RTVSPost2010Prop34
280
     0
102
RTVSPost2010PropOp34
 70
     1
102
RTVSPost2010Prop35
280
     0
102
RTVSPost2010PropOp35
 70
     1
102
RTVSPost2010Prop36
280
     0
102
RTVSPost2010PropOp36
 70
     1
102
RTVSPost2010Prop37
 90
       50
102
RTVSPost2010PropOp37
 70
     1
102
RTVSPost2010Prop38
140
0.0
102
RTVSPost2010PropOp38
 70
     1
102
RTVSPost2010Prop39
140
1.0
102
RTVSPost2010PropOp39
 70
     1
102
RTVSPost2010Prop40
 90
        0
102
RTVSPost2010PropOp40
 70
     1
102
RTVSPost2010Prop41ColorIndex
 90
       18
102
RTVSPost2010Prop41ColorRGB
 90
        0
102
RTVSPost2010PropOp41
 70
     1
102
RTVSPost2010Prop42
 90
       50
102
RTVSPost2010PropOp42
 70
     1
102
RTVSPost2010Prop43
 90
        3
102
RTVSPost2010PropOp43
 70
     1
102
RTVSPost2010Prop44ColorIndex
 90
        5
102
RTVSPost2010Prop44ColorRGB
 90
      255
102
RTVSPost2010PropOp44
 70
     1
102
RTVSPost2010Prop45
280
     0
102
RTVSPost2010PropOp45
 70
     1
102
RTVSPost2010Prop46
 90
       50
102
RTVSPost2010PropOp46
 70
     1
102
RTVSPost2010Prop47
 90
       50
102
RTVSPost2010PropOp47
 70
     1
102
RTVSPost2010Prop48
 90
       50
102
RTVSPost2010PropOp48
 70
     1
102
RTVSPost2010Prop49
280
     0
102
RTVSPost2010PropOp49
 70
     1
102
RTVSPost2010Prop50
 90
       50
102
RTVSPost2010PropOp50
 70
     1
102
RTVSPost2010Prop51ColorIndex
 90
      256
102
RTVSPost2010Prop51ColorRGB
 90
-16777216
102
RTVSPost2010PropOp51
 70
     0
102
RTVSPost2010Prop52
140
1.0
102
RTVSPost2010PropOp52
 70
     0
102
RTVSPost2010Prop53
 90
        2
102
RTVSPost2010PropOp53
 70
     1
102
RTVSPost2010Prop54
  1
strokes_ogs.tif
102
RTVSPost2010PropOp54
 70
     1
102
RTVSPost2010Prop55
280
     0
102
RTVSPost2010PropOp55
 70
     1
102
RTVSPost2010Prop56
140
1.0
102
RTVSPost2010PropOp56
 70
     1
102
RTVSPost2010Prop57
140
1.0
102
RTVSPost2010PropOp57
 70
     1
102
RTVSPropertyOp0
 70
     1
102
RTVSPropertyOp1
 70
     1
102
RTVSPropertyOp2
 70
     1
102
RTVSPropertyOp3
 70
     1
102
RTVSPropertyOp4
 70
     1
102
RTVSPropertyOp5
 70
     1
102
RTVSPropertyOp6
 70
     1
102
RTVSPropertyOp7
 70
     1
102
RTVSPropertyOp8
 70
     1
102
RTVSPropertyOp9
 70
     1
102
RTVSPropertyOp10
 70
     1
102
RTVSPropertyOp11
 70
     1
102
RTVSPropertyOp12
 70
     1
102
RTVSPropertyOp13
 70
     1
102
RTVSPropertyOp14
 70
     1
102
RTVSPropertyOp15
 70
     1
102
RTVSPropertyOp16
 70
     1
102
RTVSPropertyOp17
 70
     1
102
RTVSPropertyOp18
 70
     1
102
RTVSPropertyOp19
 70
     1
102
RTVSPropertyOp20
 70
     1
102
RTVSPropertyOp21
 70
     1
102
RTVSPropertyOp22
 70
     1
102
RTVSPropertyOp23
 70
     1
102
RTVSPropertyOp24
 70
     1
102
RTVSPropertyOp25
 70
     1
102
RTVSPropertyOp26
 70
     1
102
RTVSPropertyOp27
 70
     1
102
RTVSPropertyOp28
 70
     1
102
RTVSPropertyOp29
 70
     1
102
RTVSPropertyOp30
 70
     1
102
RTVSPropertyOp31
 70
     1
102
RTVSPropertyOp32
 70
     1
102
RTVSPropertyOp33
 70
     1
102
RTVSPropertyOp34
 70
     1
102
RTVSPropertyOp35
 70
     1
102
RTVSPropertyOp36
 70
     1
102
RTVSPropertyOp37
 70
     1
102
RTVSPropertyOp38
 70
     1
102
RTVSPropertyOp39
 70
     1
102
RTVSPropertyOp40
 70
     1
102
RTVSPropertyOp41
 70
     1
102
RTVSPropertyOp42
 70
     1
102
RTVSPropertyOp43
 70
     1
102
RTVSPropertyOp44
 70
     1
102
RTVSPropertyOp45
 70
     1
102
RTVSPropertyOp46
 70
     1
102
RTVSPropertyOp47
 70
     1
102
RTVSPropertyOp48
 70
     1
102
RTVSPropertyOp49
 70
     1
102
RTVSPropertyOp50
 70
     1
102
RTVSPropertyOp51
 70
     0
102
RTVSPropertyOp52
 70
     0
102
RTVSPropertyOp53
 70
     1
102
RTVSPropertyOp54
 70
     1
102
RTVSPropertyOp55
 70
     1
102
RTVSPropertyOp56
 70
     1
102
RTVSPropertyOp57
 70
     1
102
RTVSPropertyOp58
 70
     1
102
RTVSPropertyOp59
 70
     1
102
RTVSPropertyOp60
 70
     1
102
RTVSPropertyOp61
 70
     1
102
RTVSPropertyOp62
 70
     1
  0
XRECORD
  5
427
102
{ACAD_REACTORS
330
426
102
}
330
426
100
AcDbXrecord
280
     1
102
RTVSPost2010Prop28
280
     0
102
RTVSPost2010PropOp28
 70
     1
102
RTVSPost2010Prop29
280
     1
102
RTVSPost2010PropOp29
 70
     1
102
RTVSPost2010Prop30
280
     1
102
RTVSPost2010PropOp30
 70
     1
102
RTVSPost2010Prop31
280
     0
102
RTVSPost2010PropOp31
 70
     1
102
RTVSPost2010Prop32
280
     0
102
RTVSPost2010PropOp32
 70
     1
102
RTVSPost2010Prop33
280
     0
102
RTVSPost2010PropOp33
 70
     1
102
RTVSPost2010Prop34
280
     0
102
RTVSPost2010PropOp34
 70
     1
102
RTVSPost2010Prop35
280
     0
102
RTVSPost2010PropOp35
 70
     1
102
RTVSPost2010Prop36
280
     0
102
RTVSPost2010PropOp36
 70
     1
102
RTVSPost2010Prop37
 90
       50
102
RTVSPost2010PropOp37
 70
     1
102
RTVSPost2010Prop38
140
0.0
102
RTVSPost2010PropOp38
 70
     1
102
RTVSPost2010Prop39
140
1.0
102
RTVSPost2010PropOp39
 70
     1
102
RTVSPost2010Prop40
 90
        0
102
RTVSPost2010PropOp40
 70
     1
102
RTVSPost2010Prop41ColorIndex
 90
       18
102
RTVSPost2010Prop41ColorRGB
 90
        0
102
RTVSPost2010PropOp41
 70
     1
102
RTVSPost2010Prop42
 90
       50
102
RTVSPost2010PropOp42
 70
     1
102
RTVSPost2010Prop43
 90
        3
102
RTVSPost2010PropOp43
 70
     1
102
RTVSPost2010Prop44ColorIndex
 90
        5
102
RTVSPost2010Prop44ColorRGB
 90
      255
102
RTVSPost2010PropOp44
 70
     1
102
RTVSPost2010Prop45
280
     0
102
RTVSPost2010PropOp45
 70
     1
102
RTVSPost2010Prop46
 90
       50
102
RTVSPost2010PropOp46
 70
     1
102
RTVSPost2010Prop47
 90
       50
102
RTVSPost2010PropOp47
 70
     1
102
RTVSPost2010Prop48
 90
       50
102
RTVSPost2010PropOp48
 70
     1
102
RTVSPost2010Prop49
280
     0
102
RTVSPost2010PropOp49
 70
     1
102
RTVSPost2010Prop50
 90
       50
102
RTVSPost2010PropOp50
 70
     1
102
RTVSPost2010Prop51ColorIndex
 90
      256
102
RTVSPost2010Prop51ColorRGB
 90
-16777216
102
RTVSPost2010PropOp51
 70
     0
102
RTVSPost2010Prop52
140
1.0
102
RTVSPost2010PropOp52
 70
     0
102
RTVSPost2010Prop53
 90
        2
102
RTVSPost2010PropOp53
 70
     1
102
RTVSPost2010Prop54
  1
strokes_ogs.tif
102
RTVSPost2010PropOp54
 70
     1
102
RTVSPost2010Prop55
280
     0
102
RTVSPost2010PropOp55
 70
     1
102
RTVSPost2010Prop56
140
1.0
102
RTVSPost2010PropOp56
 70
     1
102
RTVSPost2010Prop57
140
1.0
102
RTVSPost2010PropOp57
 70
     1
102
RTVSPropertyOp0
 70
     1
102
RTVSPropertyOp1
 70
     1
102
RTVSPropertyOp2
 70
     1
102
RTVSPropertyOp3
 70
     1
102
RTVSPropertyOp4
 70
     1
102
RTVSPropertyOp5
 70
     1
102
RTVSPropertyOp6
 70
     1
102
RTVSPropertyOp7
 70
     1
102
RTVSPropertyOp8
 70
     1
102
RTVSPropertyOp9
 70
     1
102
RTVSPropertyOp10
 70
     1
102
RTVSPropertyOp11
 70
     1
102
RTVSPropertyOp12
 70
     1
102
RTVSPropertyOp13
 70
     1
102
RTVSPropertyOp14
 70
     1
102
RTVSPropertyOp15
 70
     1
102
RTVSPropertyOp16
 70
     1
102
RTVSPropertyOp17
 70
     1
102
RTVSPropertyOp18
 70
     1
102
RTVSPropertyOp19
 70
     1
102
RTVSPropertyOp20
 70
     1
102
RTVSPropertyOp21
 70
     1
102
RTVSPropertyOp22
 70
     1
102
RTVSPropertyOp23
 70
     1
102
RTVSPropertyOp24
 70
     1
102
RTVSPropertyOp25
 70
     1
102
RTVSPropertyOp26
 70
     1
102
RTVSPropertyOp27
 70
     1
102
RTVSPropertyOp28
 70
     1
102
RTVSPropertyOp29
 70
     1
102
RTVSPropertyOp30
 70
     1
102
RTVSPropertyOp31
 70
     1
102
RTVSPropertyOp32
 70
     1
102
RTVSPropertyOp33
 70
     1
102
RTVSPropertyOp34
 70
     1
102
RTVSPropertyOp35
 70
     1
102
RTVSPropertyOp36
 70
     1
102
RTVSPropertyOp37
 70
     1
102
RTVSPropertyOp38
 70
     1
102
RTVSPropertyOp39
 70
     1
102
RTVSPropertyOp40
 70
     1
102
RTVSPropertyOp41
 70
     1
102
RTVSPropertyOp42
 70
     1
102
RTVSPropertyOp43
 70
     1
102
RTVSPropertyOp44
 70
     1
102
RTVSPropertyOp45
 70
     1
102
RTVSPropertyOp46
 70
     1
102
RTVSPropertyOp47
 70
     1
102
RTVSPropertyOp48
 70
     1
102
RTVSPropertyOp49
 70
     1
102
RTVSPropertyOp50
 70
     1
102
RTVSPropertyOp51
 70
     0
102
RTVSPropertyOp52
 70
     0
102
RTVSPropertyOp53
 70
     1
102
RTVSPropertyOp54
 70
     1
102
RTVSPropertyOp55
 70
     1
102
RTVSPropertyOp56
 70
     1
102
RTVSPropertyOp57
 70
     1
102
RTVSPropertyOp58
 70
     1
102
RTVSPropertyOp59
 70
     1
102
RTVSPropertyOp60
 70
     1
102
RTVSPropertyOp61
 70
     1
102
RTVSPropertyOp62
 70
     1
  0
XRECORD
  5
443
102
{ACAD_REACTORS
330
442
102
}
330
442
100
AcDbXrecord
280
     1
102
RTVSPost2010Prop28
280
     0
102
RTVSPost2010PropOp28
 70
     1
102
RTVSPost2010Prop29
280
     1
102
RTVSPost2010PropOp29
 70
     1
102
RTVSPost2010Prop30
280
     1
102
RTVSPost2010PropOp30
 70
     1
102
RTVSPost2010Prop31
280
     0
102
RTVSPost2010PropOp31
 70
     1
102
RTVSPost2010Prop32
280
     0
102
RTVSPost2010PropOp32
 70
     1
102
RTVSPost2010Prop33
280
     0
102
RTVSPost2010PropOp33
 70
     1
102
RTVSPost2010Prop34
280
     0
102
RTVSPost2010PropOp34
 70
     1
102
RTVSPost2010Prop35
280
     0
102
RTVSPost2010PropOp35
 70
     1
102
RTVSPost2010Prop36
280
     0
102
RTVSPost2010PropOp36
 70
     1
102
RTVSPost2010Prop37
 90
       50
102
RTVSPost2010PropOp37
 70
     0
102
RTVSPost2010Prop38
140
0.0
102
RTVSPost2010PropOp38
 70
     0
102
RTVSPost2010Prop39
140
1.0
102
RTVSPost2010PropOp39
 70
     0
102
RTVSPost2010Prop40
 90
        0
102
RTVSPost2010PropOp40
 70
     0
102
RTVSPost2010Prop41ColorIndex
 90
       18
102
RTVSPost2010Prop41ColorRGB
 90
        0
102
RTVSPost2010PropOp41
 70
     0
102
RTVSPost2010Prop42
 90
       50
102
RTVSPost2010PropOp42
 70
     0
102
RTVSPost2010Prop43
 90
        3
102
RTVSPost2010PropOp43
 70
     0
102
RTVSPost2010Prop44ColorIndex
 90
        5
102
RTVSPost2010Prop44ColorRGB
 90
      255
102
RTVSPost2010PropOp44
 70
     0
102
RTVSPost2010Prop45
280
     0
102
RTVSPost2010PropOp45
 70
     1
102
RTVSPost2010Prop46
 90
       50
102
RTVSPost2010PropOp46
 70
     0
102
RTVSPost2010Prop47
 90
       50
102
RTVSPost2010PropOp47
 70
     0
102
RTVSPost2010Prop48
 90
       50
102
RTVSPost2010PropOp48
 70
     0
102
RTVSPost2010Prop49
280
     0
102
RTVSPost2010PropOp49
 70
     1
102
RTVSPost2010Prop50
 90
       50
102
RTVSPost2010PropOp50
 70
     0
102
RTVSPost2010Prop51ColorIndex
 90
      256
102
RTVSPost2010Prop51ColorRGB
 90
-16777216
102
RTVSPost2010PropOp51
 70
     0
102
RTVSPost2010Prop52
140
1.0
102
RTVSPost2010PropOp52
 70
     0
102
RTVSPost2010Prop53
 90
        2
102
RTVSPost2010PropOp53
 70
     0
102
RTVSPost2010Prop54
  1
strokes_ogs.tif
102
RTVSPost2010PropOp54
 70
     0
102
RTVSPost2010Prop55
280
     0
102
RTVSPost2010PropOp55
 70
     1
102
RTVSPost2010Prop56
140
1.0
102
RTVSPost2010PropOp56
 70
     0
102
RTVSPost2010Prop57
140
1.0
102
RTVSPost2010PropOp57
 70
     0
102
RTVSPropertyOp0
 70
     0
102
RTVSPropertyOp1
 70
     0
102
RTVSPropertyOp2
 70
     0
102
RTVSPropertyOp3
 70
     0
102
RTVSPropertyOp4
 70
     0
102
RTVSPropertyOp5
 70
     0
102
RTVSPropertyOp6
 70
     0
102
RTVSPropertyOp7
 70
     0
102
RTVSPropertyOp8
 70
     0
102
RTVSPropertyOp9
 70
     0
102
RTVSPropertyOp10
 70
     0
102
RTVSPropertyOp11
 70
     0
102
RTVSPropertyOp12
 70
     0
102
RTVSPropertyOp13
 70
     0
102
RTVSPropertyOp14
 70
     2
102
RTVSPropertyOp15
 70
     0
102
RTVSPropertyOp16
 70
     0
102
RTVSPropertyOp17
 70
     0
102
RTVSPropertyOp18
 70
     0
102
RTVSPropertyOp19
 70
     0
102
RTVSPropertyOp20
 70
     0
102
RTVSPropertyOp21
 70
     0
102
RTVSPropertyOp22
 70
     0
102
RTVSPropertyOp23
 70
     0
102
RTVSPropertyOp24
 70
     0
102
RTVSPropertyOp25
 70
     0
102
RTVSPropertyOp26
 70
     0
102
RTVSPropertyOp27
 70
     0
102
RTVSPropertyOp28
 70
     1
102
RTVSPropertyOp29
 70
     1
102
RTVSPropertyOp30
 70
     1
102
RTVSPropertyOp31
 70
     1
102
RTVSPropertyOp32
 70
     1
102
RTVSPropertyOp33
 70
     1
102
RTVSPropertyOp34
 70
     1
102
RTVSPropertyOp35
 70
     1
102
RTVSPropertyOp36
 70
     1
102
RTVSPropertyOp37
 70
     0
102
RTVSPropertyOp38
 70
     0
102
RTVSPropertyOp39
 70
     0
102
RTVSPropertyOp40
 70
     0
102
RTVSPropertyOp41
 70
     0
102
RTVSPropertyOp42
 70
     0
102
RTVSPropertyOp43
 70
     0
102
RTVSPropertyOp44
 70
     0
102
RTVSPropertyOp45
 70
     1
102
RTVSPropertyOp46
 70
     0
102
RTVSPropertyOp47
 70
     0
102
RTVSPropertyOp48
 70
     0
102
RTVSPropertyOp49
 70
     1
102
RTVSPropertyOp50
 70
     0
102
RTVSPropertyOp51
 70
     0
102
RTVSPropertyOp52
 70
     0
102
RTVSPropertyOp53
 70
     0
102
RTVSPropertyOp54
 70
     0
102
RTVSPropertyOp55
 70
     1
102
RTVSPropertyOp56
 70
     0
102
RTVSPropertyOp57
 70
     0
102
RTVSPropertyOp58
 70
     0
102
RTVSPropertyOp59
 70
     0
102
RTVSPropertyOp60
 70
     0
102
RTVSPropertyOp61
 70
     0
102
RTVSPropertyOp62
 70
     0
  0
XRECORD
  5
433
102
{ACAD_REACTORS
330
432
102
}
330
432
100
AcDbXrecord
280
     1
102
RTVSPost2010Prop28
280
     0
102
RTVSPost2010PropOp28
 70
     1
102
RTVSPost2010Prop29
280
     1
102
RTVSPost2010PropOp29
 70
     1
102
RTVSPost2010Prop30
280
     1
102
RTVSPost2010PropOp30
 70
     1
102
RTVSPost2010Prop31
280
     0
102
RTVSPost2010PropOp31
 70
     1
102
RTVSPost2010Prop32
280
     0
102
RTVSPost2010PropOp32
 70
     1
102
RTVSPost2010Prop33
280
     0
102
RTVSPost2010PropOp33
 70
     1
102
RTVSPost2010Prop34
280
     0
102
RTVSPost2010PropOp34
 70
     1
102
RTVSPost2010Prop35
280
     0
102
RTVSPost2010PropOp35
 70
     1
102
RTVSPost2010Prop36
280
     0
102
RTVSPost2010PropOp36
 70
     1
102
RTVSPost2010Prop37
 90
       50
102
RTVSPost2010PropOp37
 70
     1
102
RTVSPost2010Prop38
140
0.0
102
RTVSPost2010PropOp38
 70
     1
102
RTVSPost2010Prop39
140
1.0
102
RTVSPost2010PropOp39
 70
     1
102
RTVSPost2010Prop40
 90
        0
102
RTVSPost2010PropOp40
 70
     1
102
RTVSPost2010Prop41ColorIndex
 90
       18
102
RTVSPost2010Prop41ColorRGB
 90
        0
102
RTVSPost2010PropOp41
 70
     1
102
RTVSPost2010Prop42
 90
       50
102
RTVSPost2010PropOp42
 70
     1
102
RTVSPost2010Prop43
 90
        3
102
RTVSPost2010PropOp43
 70
     1
102
RTVSPost2010Prop44ColorIndex
 90
        5
102
RTVSPost2010Prop44ColorRGB
 90
      255
102
RTVSPost2010PropOp44
 70
     1
102
RTVSPost2010Prop45
280
     0
102
RTVSPost2010PropOp45
 70
     1
102
RTVSPost2010Prop46
 90
       50
102
RTVSPost2010PropOp46
 70
     1
102
RTVSPost2010Prop47
 90
       50
102
RTVSPost2010PropOp47
 70
     1
102
RTVSPost2010Prop48
 90
       50
102
RTVSPost2010PropOp48
 70
     1
102
RTVSPost2010Prop49
280
     0
102
RTVSPost2010PropOp49
 70
     1
102
RTVSPost2010Prop50
 90
       50
102
RTVSPost2010PropOp50
 70
     1
102
RTVSPost2010Prop51ColorIndex
 90
      256
102
RTVSPost2010Prop51ColorRGB
 90
-16777216
102
RTVSPost2010PropOp51
 70
     0
102
RTVSPost2010Prop52
140
1.0
102
RTVSPost2010PropOp52
 70
     0
102
RTVSPost2010Prop53
 90
        2
102
RTVSPost2010PropOp53
 70
     1
102
RTVSPost2010Prop54
  1
strokes_ogs.tif
102
RTVSPost2010PropOp54
 70
     1
102
RTVSPost2010Prop55
280
     0
102
RTVSPost2010PropOp55
 70
     1
102
RTVSPost2010Prop56
140
1.0
102
RTVSPost2010PropOp56
 70
     1
102
RTVSPost2010Prop57
140
1.0
102
RTVSPost2010PropOp57
 70
     1
102
RTVSPropertyOp0
 70
     1
102
RTVSPropertyOp1
 70
     1
102
RTVSPropertyOp2
 70
     1
102
RTVSPropertyOp3
 70
     1
102
RTVSPropertyOp4
 70
     1
102
RTVSPropertyOp5
 70
     1
102
RTVSPropertyOp6
 70
     1
102
RTVSPropertyOp7
 70
     1
102
RTVSPropertyOp8
 70
     1
102
RTVSPropertyOp9
 70
     1
102
RTVSPropertyOp10
 70
     1
102
RTVSPropertyOp11
 70
     1
102
RTVSPropertyOp12
 70
     1
102
RTVSPropertyOp13
 70
     1
102
RTVSPropertyOp14
 70
     1
102
RTVSPropertyOp15
 70
     1
102
RTVSPropertyOp16
 70
     1
102
RTVSPropertyOp17
 70
     1
102
RTVSPropertyOp18
 70
     1
102
RTVSPropertyOp19
 70
     1
102
RTVSPropertyOp20
 70
     1
102
RTVSPropertyOp21
 70
     1
102
RTVSPropertyOp22
 70
     1
102
RTVSPropertyOp23
 70
     1
102
RTVSPropertyOp24
 70
     1
102
RTVSPropertyOp25
 70
     1
102
RTVSPropertyOp26
 70
     1
102
RTVSPropertyOp27
 70
     1
102
RTVSPropertyOp28
 70
     1
102
RTVSPropertyOp29
 70
     1
102
RTVSPropertyOp30
 70
     1
102
RTVSPropertyOp31
 70
     1
102
RTVSPropertyOp32
 70
     1
102
RTVSPropertyOp33
 70
     1
102
RTVSPropertyOp34
 70
     1
102
RTVSPropertyOp35
 70
     1
102
RTVSPropertyOp36
 70
     1
102
RTVSPropertyOp37
 70
     1
102
RTVSPropertyOp38
 70
     1
102
RTVSPropertyOp39
 70
     1
102
RTVSPropertyOp40
 70
     1
102
RTVSPropertyOp41
 70
     1
102
RTVSPropertyOp42
 70
     1
102
RTVSPropertyOp43
 70
     1
102
RTVSPropertyOp44
 70
     1
102
RTVSPropertyOp45
 70
     1
102
RTVSPropertyOp46
 70
     1
102
RTVSPropertyOp47
 70
     1
102
RTVSPropertyOp48
 70
     1
102
RTVSPropertyOp49
 70
     1
102
RTVSPropertyOp50
 70
     1
102
RTVSPropertyOp51
 70
     0
102
RTVSPropertyOp52
 70
     0
102
RTVSPropertyOp53
 70
     1
102
RTVSPropertyOp54
 70
     1
102
RTVSPropertyOp55
 70
     1
102
RTVSPropertyOp56
 70
     1
102
RTVSPropertyOp57
 70
     1
102
RTVSPropertyOp58
 70
     1
102
RTVSPropertyOp59
 70
     1
102
RTVSPropertyOp60
 70
     1
102
RTVSPropertyOp61
 70
     1
102
RTVSPropertyOp62
 70
     1
  0
XRECORD
  5
445
102
{ACAD_REACTORS
330
444
102
}
330
444
100
AcDbXrecord
280
     1
102
RTVSPost2010Prop28
280
     0
102
RTVSPost2010PropOp28
 70
     1
102
RTVSPost2010Prop29
280
     1
102
RTVSPost2010PropOp29
 70
     1
102
RTVSPost2010Prop30
280
     1
102
RTVSPost2010PropOp30
 70
     1
102
RTVSPost2010Prop31
280
     0
102
RTVSPost2010PropOp31
 70
     1
102
RTVSPost2010Prop32
280
     0
102
RTVSPost2010PropOp32
 70
     1
102
RTVSPost2010Prop33
280
     0
102
RTVSPost2010PropOp33
 70
     1
102
RTVSPost2010Prop34
280
     0
102
RTVSPost2010PropOp34
 70
     1
102
RTVSPost2010Prop35
280
     0
102
RTVSPost2010PropOp35
 70
     1
102
RTVSPost2010Prop36
280
     0
102
RTVSPost2010PropOp36
 70
     1
102
RTVSPost2010Prop37
 90
       50
102
RTVSPost2010PropOp37
 70
     0
102
RTVSPost2010Prop38
140
0.0
102
RTVSPost2010PropOp38
 70
     0
102
RTVSPost2010Prop39
140
1.0
102
RTVSPost2010PropOp39
 70
     0
102
RTVSPost2010Prop40
 90
        0
102
RTVSPost2010PropOp40
 70
     0
102
RTVSPost2010Prop41ColorIndex
 90
       18
102
RTVSPost2010Prop41ColorRGB
 90
        0
102
RTVSPost2010PropOp41
 70
     0
102
RTVSPost2010Prop42
 90
       50
102
RTVSPost2010PropOp42
 70
     0
102
RTVSPost2010Prop43
 90
        3
102
RTVSPost2010PropOp43
 70
     0
102
RTVSPost2010Prop44ColorIndex
 90
        5
102
RTVSPost2010Prop44ColorRGB
 90
      255
102
RTVSPost2010PropOp44
 70
     0
102
RTVSPost2010Prop45
280
     0
102
RTVSPost2010PropOp45
 70
     1
102
RTVSPost2010Prop46
 90
       50
102
RTVSPost2010PropOp46
 70
     0
102
RTVSPost2010Prop47
 90
       50
102
RTVSPost2010PropOp47
 70
     0
102
RTVSPost2010Prop48
 90
       50
102
RTVSPost2010PropOp48
 70
     0
102
RTVSPost2010Prop49
280
     0
102
RTVSPost2010PropOp49
 70
     1
102
RTVSPost2010Prop50
 90
       50
102
RTVSPost2010PropOp50
 70
     0
102
RTVSPost2010Prop51ColorIndex
 90
      256
102
RTVSPost2010Prop51ColorRGB
 90
-16777216
102
RTVSPost2010PropOp51
 70
     0
102
RTVSPost2010Prop52
140
1.0
102
RTVSPost2010PropOp52
 70
     0
102
RTVSPost2010Prop53
 90
        2
102
RTVSPost2010PropOp53
 70
     0
102
RTVSPost2010Prop54
  1
strokes_ogs.tif
102
RTVSPost2010PropOp54
 70
     0
102
RTVSPost2010Prop55
280
     0
102
RTVSPost2010PropOp55
 70
     1
102
RTVSPost2010Prop56
140
1.0
102
RTVSPost2010PropOp56
 70
     0
102
RTVSPost2010Prop57
140
1.0
102
RTVSPost2010PropOp57
 70
     0
102
RTVSPropertyOp0
 70
     0
102
RTVSPropertyOp1
 70
     0
102
RTVSPropertyOp2
 70
     0
102
RTVSPropertyOp3
 70
     0
102
RTVSPropertyOp4
 70
     0
102
RTVSPropertyOp5
 70
     0
102
RTVSPropertyOp6
 70
     0
102
RTVSPropertyOp7
 70
     0
102
RTVSPropertyOp8
 70
     0
102
RTVSPropertyOp9
 70
     0
102
RTVSPropertyOp10
 70
     0
102
RTVSPropertyOp11
 70
     0
102
RTVSPropertyOp12
 70
     0
102
RTVSPropertyOp13
 70
     0
102
RTVSPropertyOp14
 70
     2
102
RTVSPropertyOp15
 70
     0
102
RTVSPropertyOp16
 70
     0
102
RTVSPropertyOp17
 70
     0
102
RTVSPropertyOp18
 70
     0
102
RTVSPropertyOp19
 70
     0
102
RTVSPropertyOp20
 70
     0
102
RTVSPropertyOp21
 70
     0
102
RTVSPropertyOp22
 70
     0
102
RTVSPropertyOp23
 70
     0
102
RTVSPropertyOp24
 70
     0
102
RTVSPropertyOp25
 70
     0
102
RTVSPropertyOp26
 70
     0
102
RTVSPropertyOp27
 70
     0
102
RTVSPropertyOp28
 70
     1
102
RTVSPropertyOp29
 70
     1
102
RTVSPropertyOp30
 70
     1
102
RTVSPropertyOp31
 70
     1
102
RTVSPropertyOp32
 70
     1
102
RTVSPropertyOp33
 70
     1
102
RTVSPropertyOp34
 70
     1
102
RTVSPropertyOp35
 70
     1
102
RTVSPropertyOp36
 70
     1
102
RTVSPropertyOp37
 70
     0
102
RTVSPropertyOp38
 70
     0
102
RTVSPropertyOp39
 70
     0
102
RTVSPropertyOp40
 70
     0
102
RTVSPropertyOp41
 70
     0
102
RTVSPropertyOp42
 70
     0
102
RTVSPropertyOp43
 70
     0
102
RTVSPropertyOp44
 70
     0
102
RTVSPropertyOp45
 70
     1
102
RTVSPropertyOp46
 70
     0
102
RTVSPropertyOp47
 70
     0
102
RTVSPropertyOp48
 70
     0
102
RTVSPropertyOp49
 70
     1
102
RTVSPropertyOp50
 70
     0
102
RTVSPropertyOp51
 70
     0
102
RTVSPropertyOp52
 70
     0
102
RTVSPropertyOp53
 70
     0
102
RTVSPropertyOp54
 70
     0
102
RTVSPropertyOp55
 70
     1
102
RTVSPropertyOp56
 70
     0
102
RTVSPropertyOp57
 70
     0
102
RTVSPropertyOp58
 70
     0
102
RTVSPropertyOp59
 70
     0
102
RTVSPropertyOp60
 70
     0
102
RTVSPropertyOp61
 70
     0
102
RTVSPropertyOp62
 70
     0
  0
XRECORD
  5
42B
102
{ACAD_REACTORS
330
42A
102
}
330
42A
100
AcDbXrecord
280
     1
102
RTVSPost2010Prop28
280
     0
102
RTVSPost2010PropOp28
 70
     1
102
RTVSPost2010Prop29
280
     1
102
RTVSPost2010PropOp29
 70
     1
102
RTVSPost2010Prop30
280
     1
102
RTVSPost2010PropOp30
 70
     1
102
RTVSPost2010Prop31
280
     0
102
RTVSPost2010PropOp31
 70
     1
102
RTVSPost2010Prop32
280
     0
102
RTVSPost2010PropOp32
 70
     1
102
RTVSPost2010Prop33
280
     0
102
RTVSPost2010PropOp33
 70
     1
102
RTVSPost2010Prop34
280
     0
102
RTVSPost2010PropOp34
 70
     1
102
RTVSPost2010Prop35
280
     0
102
RTVSPost2010PropOp35
 70
     1
102
RTVSPost2010Prop36
280
     0
102
RTVSPost2010PropOp36
 70
     1
102
RTVSPost2010Prop37
 90
       50
102
RTVSPost2010PropOp37
 70
     1
102
RTVSPost2010Prop38
140
0.0
102
RTVSPost2010PropOp38
 70
     1
102
RTVSPost2010Prop39
140
1.0
102
RTVSPost2010PropOp39
 70
     1
102
RTVSPost2010Prop40
 90
        0
102
RTVSPost2010PropOp40
 70
     1
102
RTVSPost2010Prop41ColorIndex
 90
       18
102
RTVSPost2010Prop41ColorRGB
 90
        0
102
RTVSPost2010PropOp41
 70
     1
102
RTVSPost2010Prop42
 90
       50
102
RTVSPost2010PropOp42
 70
     1
102
RTVSPost2010Prop43
 90
        3
102
RTVSPost2010PropOp43
 70
     1
102
RTVSPost2010Prop44ColorIndex
 90
        5
102
RTVSPost2010Prop44ColorRGB
 90
      255
102
RTVSPost2010PropOp44
 70
     1
102
RTVSPost2010Prop45
280
     0
102
RTVSPost2010PropOp45
 70
     1
102
RTVSPost2010Prop46
 90
       50
102
RTVSPost2010PropOp46
 70
     1
102
RTVSPost2010Prop47
 90
       50
102
RTVSPost2010PropOp47
 70
     1
102
RTVSPost2010Prop48
 90
       50
102
RTVSPost2010PropOp48
 70
     1
102
RTVSPost2010Prop49
280
     0
102
RTVSPost2010PropOp49
 70
     1
102
RTVSPost2010Prop50
 90
       50
102
RTVSPost2010PropOp50
 70
     1
102
RTVSPost2010Prop51ColorIndex
 90
      256
102
RTVSPost2010Prop51ColorRGB
 90
-16777216
102
RTVSPost2010PropOp51
 70
     0
102
RTVSPost2010Prop52
140
1.0
102
RTVSPost2010PropOp52
 70
     0
102
RTVSPost2010Prop53
 90
        2
102
RTVSPost2010PropOp53
 70
     1
102
RTVSPost2010Prop54
  1
strokes_ogs.tif
102
RTVSPost2010PropOp54
 70
     1
102
RTVSPost2010Prop55
280
     0
102
RTVSPost2010PropOp55
 70
     1
102
RTVSPost2010Prop56
140
1.0
102
RTVSPost2010PropOp56
 70
     1
102
RTVSPost2010Prop57
140
1.0
102
RTVSPost2010PropOp57
 70
     1
102
RTVSPropertyOp0
 70
     1
102
RTVSPropertyOp1
 70
     1
102
RTVSPropertyOp2
 70
     1
102
RTVSPropertyOp3
 70
     1
102
RTVSPropertyOp4
 70
     1
102
RTVSPropertyOp5
 70
     1
102
RTVSPropertyOp6
 70
     1
102
RTVSPropertyOp7
 70
     1
102
RTVSPropertyOp8
 70
     1
102
RTVSPropertyOp9
 70
     1
102
RTVSPropertyOp10
 70
     1
102
RTVSPropertyOp11
 70
     1
102
RTVSPropertyOp12
 70
     1
102
RTVSPropertyOp13
 70
     1
102
RTVSPropertyOp14
 70
     1
102
RTVSPropertyOp15
 70
     1
102
RTVSPropertyOp16
 70
     1
102
RTVSPropertyOp17
 70
     1
102
RTVSPropertyOp18
 70
     1
102
RTVSPropertyOp19
 70
     1
102
RTVSPropertyOp20
 70
     1
102
RTVSPropertyOp21
 70
     1
102
RTVSPropertyOp22
 70
     1
102
RTVSPropertyOp23
 70
     1
102
RTVSPropertyOp24
 70
     1
102
RTVSPropertyOp25
 70
     1
102
RTVSPropertyOp26
 70
     1
102
RTVSPropertyOp27
 70
     1
102
RTVSPropertyOp28
 70
     1
102
RTVSPropertyOp29
 70
     1
102
RTVSPropertyOp30
 70
     1
102
RTVSPropertyOp31
 70
     1
102
RTVSPropertyOp32
 70
     1
102
RTVSPropertyOp33
 70
     1
102
RTVSPropertyOp34
 70
     1
102
RTVSPropertyOp35
 70
     1
102
RTVSPropertyOp36
 70
     1
102
RTVSPropertyOp37
 70
     1
102
RTVSPropertyOp38
 70
     1
102
RTVSPropertyOp39
 70
     1
102
RTVSPropertyOp40
 70
     1
102
RTVSPropertyOp41
 70
     1
102
RTVSPropertyOp42
 70
     1
102
RTVSPropertyOp43
 70
     1
102
RTVSPropertyOp44
 70
     1
102
RTVSPropertyOp45
 70
     1
102
RTVSPropertyOp46
 70
     1
102
RTVSPropertyOp47
 70
     1
102
RTVSPropertyOp48
 70
     1
102
RTVSPropertyOp49
 70
     1
102
RTVSPropertyOp50
 70
     1
102
RTVSPropertyOp51
 70
     0
102
RTVSPropertyOp52
 70
     0
102
RTVSPropertyOp53
 70
     1
102
RTVSPropertyOp54
 70
     1
102
RTVSPropertyOp55
 70
     1
102
RTVSPropertyOp56
 70
     1
102
RTVSPropertyOp57
 70
     1
102
RTVSPropertyOp58
 70
     1
102
RTVSPropertyOp59
 70
     1
102
RTVSPropertyOp60
 70
     1
102
RTVSPropertyOp61
 70
     1
102
RTVSPropertyOp62
 70
     1
  0
XRECORD
  5
441
102
{ACAD_REACTORS
330
440
102
}
330
440
100
AcDbXrecord
280
     1
102
RTVSPost2010Prop28
280
     0
102
RTVSPost2010PropOp28
 70
     1
102
RTVSPost2010Prop29
280
     1
102
RTVSPost2010PropOp29
 70
     1
102
RTVSPost2010Prop30
280
     1
102
RTVSPost2010PropOp30
 70
     1
102
RTVSPost2010Prop31
280
     0
102
RTVSPost2010PropOp31
 70
     1
102
RTVSPost2010Prop32
280
     0
102
RTVSPost2010PropOp32
 70
     1
102
RTVSPost2010Prop33
280
     0
102
RTVSPost2010PropOp33
 70
     1
102
RTVSPost2010Prop34
280
     0
102
RTVSPost2010PropOp34
 70
     1
102
RTVSPost2010Prop35
280
     0
102
RTVSPost2010PropOp35
 70
     1
102
RTVSPost2010Prop36
280
     0
102
RTVSPost2010PropOp36
 70
     1
102
RTVSPost2010Prop37
 90
       50
102
RTVSPost2010PropOp37
 70
     1
102
RTVSPost2010Prop38
140
0.0
102
RTVSPost2010PropOp38
 70
     1
102
RTVSPost2010Prop39
140
1.0
102
RTVSPost2010PropOp39
 70
     1
102
RTVSPost2010Prop40
 90
        0
102
RTVSPost2010PropOp40
 70
     1
102
RTVSPost2010Prop41ColorIndex
 90
       18
102
RTVSPost2010Prop41ColorRGB
 90
        0
102
RTVSPost2010PropOp41
 70
     1
102
RTVSPost2010Prop42
 90
       50
102
RTVSPost2010PropOp42
 70
     1
102
RTVSPost2010Prop43
 90
        3
102
RTVSPost2010PropOp43
 70
     1
102
RTVSPost2010Prop44ColorIndex
 90
        5
102
RTVSPost2010Prop44ColorRGB
 90
      255
102
RTVSPost2010PropOp44
 70
     1
102
RTVSPost2010Prop45
280
     0
102
RTVSPost2010PropOp45
 70
     1
102
RTVSPost2010Prop46
 90
       50
102
RTVSPost2010PropOp46
 70
     1
102
RTVSPost2010Prop47
 90
       50
102
RTVSPost2010PropOp47
 70
     1
102
RTVSPost2010Prop48
 90
       50
102
RTVSPost2010PropOp48
 70
     1
102
RTVSPost2010Prop49
280
     0
102
RTVSPost2010PropOp49
 70
     1
102
RTVSPost2010Prop50
 90
       50
102
RTVSPost2010PropOp50
 70
     1
102
RTVSPost2010Prop51ColorIndex
 90
      256
102
RTVSPost2010Prop51ColorRGB
 90
-16777216
102
RTVSPost2010PropOp51
 70
     0
102
RTVSPost2010Prop52
140
1.0
102
RTVSPost2010PropOp52
 70
     0
102
RTVSPost2010Prop53
 90
        2
102
RTVSPost2010PropOp53
 70
     1
102
RTVSPost2010Prop54
  1
strokes_ogs.tif
102
RTVSPost2010PropOp54
 70
     1
102
RTVSPost2010Prop55
280
     0
102
RTVSPost2010PropOp55
 70
     1
102
RTVSPost2010Prop56
140
1.0
102
RTVSPost2010PropOp56
 70
     1
102
RTVSPost2010Prop57
140
1.0
102
RTVSPost2010PropOp57
 70
     1
102
RTVSPropertyOp0
 70
     1
102
RTVSPropertyOp1
 70
     1
102
RTVSPropertyOp2
 70
     1
102
RTVSPropertyOp3
 70
     1
102
RTVSPropertyOp4
 70
     1
102
RTVSPropertyOp5
 70
     1
102
RTVSPropertyOp6
 70
     1
102
RTVSPropertyOp7
 70
     1
102
RTVSPropertyOp8
 70
     1
102
RTVSPropertyOp9
 70
     1
102
RTVSPropertyOp10
 70
     1
102
RTVSPropertyOp11
 70
     1
102
RTVSPropertyOp12
 70
     1
102
RTVSPropertyOp13
 70
     1
102
RTVSPropertyOp14
 70
     1
102
RTVSPropertyOp15
 70
     1
102
RTVSPropertyOp16
 70
     1
102
RTVSPropertyOp17
 70
     1
102
RTVSPropertyOp18
 70
     1
102
RTVSPropertyOp19
 70
     1
102
RTVSPropertyOp20
 70
     1
102
RTVSPropertyOp21
 70
     1
102
RTVSPropertyOp22
 70
     1
102
RTVSPropertyOp23
 70
     1
102
RTVSPropertyOp24
 70
     1
102
RTVSPropertyOp25
 70
     1
102
RTVSPropertyOp26
 70
     1
102
RTVSPropertyOp27
 70
     1
102
RTVSPropertyOp28
 70
     1
102
RTVSPropertyOp29
 70
     1
102
RTVSPropertyOp30
 70
     1
102
RTVSPropertyOp31
 70
     1
102
RTVSPropertyOp32
 70
     1
102
RTVSPropertyOp33
 70
     1
102
RTVSPropertyOp34
 70
     1
102
RTVSPropertyOp35
 70
     1
102
RTVSPropertyOp36
 70
     1
102
RTVSPropertyOp37
 70
     1
102
RTVSPropertyOp38
 70
     1
102
RTVSPropertyOp39
 70
     1
102
RTVSPropertyOp40
 70
     1
102
RTVSPropertyOp41
 70
     1
102
RTVSPropertyOp42
 70
     1
102
RTVSPropertyOp43
 70
     1
102
RTVSPropertyOp44
 70
     1
102
RTVSPropertyOp45
 70
     1
102
RTVSPropertyOp46
 70
     1
102
RTVSPropertyOp47
 70
     1
102
RTVSPropertyOp48
 70
     1
102
RTVSPropertyOp49
 70
     1
102
RTVSPropertyOp50
 70
     1
102
RTVSPropertyOp51
 70
     0
102
RTVSPropertyOp52
 70
     0
102
RTVSPropertyOp53
 70
     1
102
RTVSPropertyOp54
 70
     1
102
RTVSPropertyOp55
 70
     1
102
RTVSPropertyOp56
 70
     1
102
RTVSPropertyOp57
 70
     1
102
RTVSPropertyOp58
 70
     1
102
RTVSPropertyOp59
 70
     1
102
RTVSPropertyOp60
 70
     1
102
RTVSPropertyOp61
 70
     1
102
RTVSPropertyOp62
 70
     1
  0
XRECORD
  5
43F
102
{ACAD_REACTORS
330
43E
102
}
330
43E
100
AcDbXrecord
280
     1
102
RTVSPost2010Prop28
280
     0
102
RTVSPost2010PropOp28
 70
     1
102
RTVSPost2010Prop29
280
     1
102
RTVSPost2010PropOp29
 70
     1
102
RTVSPost2010Prop30
280
     1
102
RTVSPost2010PropOp30
 70
     1
102
RTVSPost2010Prop31
280
     0
102
RTVSPost2010PropOp31
 70
     1
102
RTVSPost2010Prop32
280
     0
102
RTVSPost2010PropOp32
 70
     1
102
RTVSPost2010Prop33
280
     0
102
RTVSPost2010PropOp33
 70
     1
102
RTVSPost2010Prop34
280
     0
102
RTVSPost2010PropOp34
 70
     1
102
RTVSPost2010Prop35
280
     0
102
RTVSPost2010PropOp35
 70
     1
102
RTVSPost2010Prop36
280
     0
102
RTVSPost2010PropOp36
 70
     1
102
RTVSPost2010Prop37
 90
       50
102
RTVSPost2010PropOp37
 70
     1
102
RTVSPost2010Prop38
140
0.0
102
RTVSPost2010PropOp38
 70
     1
102
RTVSPost2010Prop39
140
1.0
102
RTVSPost2010PropOp39
 70
     1
102
RTVSPost2010Prop40
 90
        0
102
RTVSPost2010PropOp40
 70
     1
102
RTVSPost2010Prop41ColorIndex
 90
       18
102
RTVSPost2010Prop41ColorRGB
 90
        0
102
RTVSPost2010PropOp41
 70
     1
102
RTVSPost2010Prop42
 90
       50
102
RTVSPost2010PropOp42
 70
     1
102
RTVSPost2010Prop43
 90
        3
102
RTVSPost2010PropOp43
 70
     1
102
RTVSPost2010Prop44ColorIndex
 90
        5
102
RTVSPost2010Prop44ColorRGB
 90
      255
102
RTVSPost2010PropOp44
 70
     1
102
RTVSPost2010Prop45
280
     0
102
RTVSPost2010PropOp45
 70
     1
102
RTVSPost2010Prop46
 90
       50
102
RTVSPost2010PropOp46
 70
     1
102
RTVSPost2010Prop47
 90
       50
102
RTVSPost2010PropOp47
 70
     1
102
RTVSPost2010Prop48
 90
       50
102
RTVSPost2010PropOp48
 70
     1
102
RTVSPost2010Prop49
280
     0
102
RTVSPost2010PropOp49
 70
     1
102
RTVSPost2010Prop50
 90
       50
102
RTVSPost2010PropOp50
 70
     1
102
RTVSPost2010Prop51ColorIndex
 90
      256
102
RTVSPost2010Prop51ColorRGB
 90
-16777216
102
RTVSPost2010PropOp51
 70
     0
102
RTVSPost2010Prop52
140
1.0
102
RTVSPost2010PropOp52
 70
     0
102
RTVSPost2010Prop53
 90
        2
102
RTVSPost2010PropOp53
 70
     1
102
RTVSPost2010Prop54
  1
strokes_ogs.tif
102
RTVSPost2010PropOp54
 70
     1
102
RTVSPost2010Prop55
280
     0
102
RTVSPost2010PropOp55
 70
     1
102
RTVSPost2010Prop56
140
1.0
102
RTVSPost2010PropOp56
 70
     1
102
RTVSPost2010Prop57
140
1.0
102
RTVSPost2010PropOp57
 70
     1
102
RTVSPropertyOp0
 70
     1
102
RTVSPropertyOp1
 70
     1
102
RTVSPropertyOp2
 70
     1
102
RTVSPropertyOp3
 70
     1
102
RTVSPropertyOp4
 70
     1
102
RTVSPropertyOp5
 70
     1
102
RTVSPropertyOp6
 70
     1
102
RTVSPropertyOp7
 70
     1
102
RTVSPropertyOp8
 70
     1
102
RTVSPropertyOp9
 70
     1
102
RTVSPropertyOp10
 70
     1
102
RTVSPropertyOp11
 70
     1
102
RTVSPropertyOp12
 70
     1
102
RTVSPropertyOp13
 70
     1
102
RTVSPropertyOp14
 70
     1
102
RTVSPropertyOp15
 70
     1
102
RTVSPropertyOp16
 70
     1
102
RTVSPropertyOp17
 70
     1
102
RTVSPropertyOp18
 70
     1
102
RTVSPropertyOp19
 70
     1
102
RTVSPropertyOp20
 70
     1
102
RTVSPropertyOp21
 70
     1
102
RTVSPropertyOp22
 70
     1
102
RTVSPropertyOp23
 70
     1
102
RTVSPropertyOp24
 70
     1
102
RTVSPropertyOp25
 70
     1
102
RTVSPropertyOp26
 70
     1
102
RTVSPropertyOp27
 70
     1
102
RTVSPropertyOp28
 70
     1
102
RTVSPropertyOp29
 70
     1
102
RTVSPropertyOp30
 70
     1
102
RTVSPropertyOp31
 70
     1
102
RTVSPropertyOp32
 70
     1
102
RTVSPropertyOp33
 70
     1
102
RTVSPropertyOp34
 70
     1
102
RTVSPropertyOp35
 70
     1
102
RTVSPropertyOp36
 70
     1
102
RTVSPropertyOp37
 70
     1
102
RTVSPropertyOp38
 70
     1
102
RTVSPropertyOp39
 70
     1
102
RTVSPropertyOp40
 70
     1
102
RTVSPropertyOp41
 70
     1
102
RTVSPropertyOp42
 70
     1
102
RTVSPropertyOp43
 70
     1
102
RTVSPropertyOp44
 70
     1
102
RTVSPropertyOp45
 70
     1
102
RTVSPropertyOp46
 70
     1
102
RTVSPropertyOp47
 70
     1
102
RTVSPropertyOp48
 70
     1
102
RTVSPropertyOp49
 70
     1
102
RTVSPropertyOp50
 70
     1
102
RTVSPropertyOp51
 70
     0
102
RTVSPropertyOp52
 70
     0
102
RTVSPropertyOp53
 70
     1
102
RTVSPropertyOp54
 70
     1
102
RTVSPropertyOp55
 70
     1
102
RTVSPropertyOp56
 70
     1
102
RTVSPropertyOp57
 70
     1
102
RTVSPropertyOp58
 70
     1
102
RTVSPropertyOp59
 70
     1
102
RTVSPropertyOp60
 70
     1
102
RTVSPropertyOp61
 70
     1
102
RTVSPropertyOp62
 70
     1
  0
XRECORD
  5
439
102
{ACAD_REACTORS
330
438
102
}
330
438
100
AcDbXrecord
280
     1
102
RTVSPost2010Prop28
280
     0
102
RTVSPost2010PropOp28
 70
     1
102
RTVSPost2010Prop29
280
     1
102
RTVSPost2010PropOp29
 70
     1
102
RTVSPost2010Prop30
280
     1
102
RTVSPost2010PropOp30
 70
     1
102
RTVSPost2010Prop31
280
     0
102
RTVSPost2010PropOp31
 70
     1
102
RTVSPost2010Prop32
280
     0
102
RTVSPost2010PropOp32
 70
     1
102
RTVSPost2010Prop33
280
     0
102
RTVSPost2010PropOp33
 70
     1
102
RTVSPost2010Prop34
280
     0
102
RTVSPost2010PropOp34
 70
     1
102
RTVSPost2010Prop35
280
     0
102
RTVSPost2010PropOp35
 70
     1
102
RTVSPost2010Prop36
280
     0
102
RTVSPost2010PropOp36
 70
     1
102
RTVSPost2010Prop37
 90
       50
102
RTVSPost2010PropOp37
 70
     1
102
RTVSPost2010Prop38
140
0.0
102
RTVSPost2010PropOp38
 70
     1
102
RTVSPost2010Prop39
140
1.0
102
RTVSPost2010PropOp39
 70
     1
102
RTVSPost2010Prop40
 90
        0
102
RTVSPost2010PropOp40
 70
     1
102
RTVSPost2010Prop41ColorIndex
 90
       18
102
RTVSPost2010Prop41ColorRGB
 90
        0
102
RTVSPost2010PropOp41
 70
     1
102
RTVSPost2010Prop42
 90
       50
102
RTVSPost2010PropOp42
 70
     1
102
RTVSPost2010Prop43
 90
        3
102
RTVSPost2010PropOp43
 70
     1
102
RTVSPost2010Prop44ColorIndex
 90
        5
102
RTVSPost2010Prop44ColorRGB
 90
      255
102
RTVSPost2010PropOp44
 70
     1
102
RTVSPost2010Prop45
280
     0
102
RTVSPost2010PropOp45
 70
     1
102
RTVSPost2010Prop46
 90
       50
102
RTVSPost2010PropOp46
 70
     1
102
RTVSPost2010Prop47
 90
       50
102
RTVSPost2010PropOp47
 70
     1
102
RTVSPost2010Prop48
 90
       50
102
RTVSPost2010PropOp48
 70
     1
102
RTVSPost2010Prop49
280
     0
102
RTVSPost2010PropOp49
 70
     1
102
RTVSPost2010Prop50
 90
       50
102
RTVSPost2010PropOp50
 70
     1
102
RTVSPost2010Prop51ColorIndex
 90
      256
102
RTVSPost2010Prop51ColorRGB
 90
-16777216
102
RTVSPost2010PropOp51
 70
     0
102
RTVSPost2010Prop52
140
1.0
102
RTVSPost2010PropOp52
 70
     0
102
RTVSPost2010Prop53
 90
        2
102
RTVSPost2010PropOp53
 70
     1
102
RTVSPost2010Prop54
  1
strokes_ogs.tif
102
RTVSPost2010PropOp54
 70
     1
102
RTVSPost2010Prop55
280
     0
102
RTVSPost2010PropOp55
 70
     1
102
RTVSPost2010Prop56
140
1.0
102
RTVSPost2010PropOp56
 70
     1
102
RTVSPost2010Prop57
140
1.0
102
RTVSPost2010PropOp57
 70
     1
102
RTVSPropertyOp0
 70
     1
102
RTVSPropertyOp1
 70
     1
102
RTVSPropertyOp2
 70
     1
102
RTVSPropertyOp3
 70
     1
102
RTVSPropertyOp4
 70
     1
102
RTVSPropertyOp5
 70
     1
102
RTVSPropertyOp6
 70
     1
102
RTVSPropertyOp7
 70
     1
102
RTVSPropertyOp8
 70
     1
102
RTVSPropertyOp9
 70
     1
102
RTVSPropertyOp10
 70
     1
102
RTVSPropertyOp11
 70
     1
102
RTVSPropertyOp12
 70
     1
102
RTVSPropertyOp13
 70
     1
102
RTVSPropertyOp14
 70
     1
102
RTVSPropertyOp15
 70
     1
102
RTVSPropertyOp16
 70
     1
102
RTVSPropertyOp17
 70
     1
102
RTVSPropertyOp18
 70
     1
102
RTVSPropertyOp19
 70
     1
102
RTVSPropertyOp20
 70
     1
102
RTVSPropertyOp21
 70
     1
102
RTVSPropertyOp22
 70
     1
102
RTVSPropertyOp23
 70
     1
102
RTVSPropertyOp24
 70
     1
102
RTVSPropertyOp25
 70
     1
102
RTVSPropertyOp26
 70
     1
102
RTVSPropertyOp27
 70
     1
102
RTVSPropertyOp28
 70
     1
102
RTVSPropertyOp29
 70
     1
102
RTVSPropertyOp30
 70
     1
102
RTVSPropertyOp31
 70
     1
102
RTVSPropertyOp32
 70
     1
102
RTVSPropertyOp33
 70
     1
102
RTVSPropertyOp34
 70
     1
102
RTVSPropertyOp35
 70
     1
102
RTVSPropertyOp36
 70
     1
102
RTVSPropertyOp37
 70
     1
102
RTVSPropertyOp38
 70
     1
102
RTVSPropertyOp39
 70
     1
102
RTVSPropertyOp40
 70
     1
102
RTVSPropertyOp41
 70
     1
102
RTVSPropertyOp42
 70
     1
102
RTVSPropertyOp43
 70
     1
102
RTVSPropertyOp44
 70
     1
102
RTVSPropertyOp45
 70
     1
102
RTVSPropertyOp46
 70
     1
102
RTVSPropertyOp47
 70
     1
102
RTVSPropertyOp48
 70
     1
102
RTVSPropertyOp49
 70
     1
102
RTVSPropertyOp50
 70
     1
102
RTVSPropertyOp51
 70
     0
102
RTVSPropertyOp52
 70
     0
102
RTVSPropertyOp53
 70
     1
102
RTVSPropertyOp54
 70
     1
102
RTVSPropertyOp55
 70
     1
102
RTVSPropertyOp56
 70
     1
102
RTVSPropertyOp57
 70
     1
102
RTVSPropertyOp58
 70
     1
102
RTVSPropertyOp59
 70
     1
102
RTVSPropertyOp60
 70
     1
102
RTVSPropertyOp61
 70
     1
102
RTVSPropertyOp62
 70
     1
  0
XRECORD
  5
43B
102
{ACAD_REACTORS
330
43A
102
}
330
43A
100
AcDbXrecord
280
     1
102
RTVSPost2010Prop28
280
     0
102
RTVSPost2010PropOp28
 70
     1
102
RTVSPost2010Prop29
280
     1
102
RTVSPost2010PropOp29
 70
     1
102
RTVSPost2010Prop30
280
     1
102
RTVSPost2010PropOp30
 70
     1
102
RTVSPost2010Prop31
280
     0
102
RTVSPost2010PropOp31
 70
     1
102
RTVSPost2010Prop32
280
     0
102
RTVSPost2010PropOp32
 70
     1
102
RTVSPost2010Prop33
280
     0
102
RTVSPost2010PropOp33
 70
     1
102
RTVSPost2010Prop34
280
     0
102
RTVSPost2010PropOp34
 70
     1
102
RTVSPost2010Prop35
280
     0
102
RTVSPost2010PropOp35
 70
     1
102
RTVSPost2010Prop36
280
     0
102
RTVSPost2010PropOp36
 70
     1
102
RTVSPost2010Prop37
 90
       50
102
RTVSPost2010PropOp37
 70
     1
102
RTVSPost2010Prop38
140
0.0
102
RTVSPost2010PropOp38
 70
     1
102
RTVSPost2010Prop39
140
1.0
102
RTVSPost2010PropOp39
 70
     1
102
RTVSPost2010Prop40
 90
        0
102
RTVSPost2010PropOp40
 70
     1
102
RTVSPost2010Prop41ColorIndex
 90
       18
102
RTVSPost2010Prop41ColorRGB
 90
        0
102
RTVSPost2010PropOp41
 70
     1
102
RTVSPost2010Prop42
 90
       50
102
RTVSPost2010PropOp42
 70
     1
102
RTVSPost2010Prop43
 90
        3
102
RTVSPost2010PropOp43
 70
     1
102
RTVSPost2010Prop44ColorIndex
 90
        5
102
RTVSPost2010Prop44ColorRGB
 90
      255
102
RTVSPost2010PropOp44
 70
     1
102
RTVSPost2010Prop45
280
     0
102
RTVSPost2010PropOp45
 70
     1
102
RTVSPost2010Prop46
 90
       50
102
RTVSPost2010PropOp46
 70
     1
102
RTVSPost2010Prop47
 90
       50
102
RTVSPost2010PropOp47
 70
     1
102
RTVSPost2010Prop48
 90
       50
102
RTVSPost2010PropOp48
 70
     1
102
RTVSPost2010Prop49
280
     0
102
RTVSPost2010PropOp49
 70
     1
102
RTVSPost2010Prop50
 90
       50
102
RTVSPost2010PropOp50
 70
     1
102
RTVSPost2010Prop51ColorIndex
 90
      256
102
RTVSPost2010Prop51ColorRGB
 90
-16777216
102
RTVSPost2010PropOp51
 70
     0
102
RTVSPost2010Prop52
140
1.0
102
RTVSPost2010PropOp52
 70
     0
102
RTVSPost2010Prop53
 90
        2
102
RTVSPost2010PropOp53
 70
     1
102
RTVSPost2010Prop54
  1
strokes_ogs.tif
102
RTVSPost2010PropOp54
 70
     1
102
RTVSPost2010Prop55
280
     0
102
RTVSPost2010PropOp55
 70
     1
102
RTVSPost2010Prop56
140
1.0
102
RTVSPost2010PropOp56
 70
     1
102
RTVSPost2010Prop57
140
1.0
102
RTVSPost2010PropOp57
 70
     1
102
RTVSPropertyOp0
 70
     1
102
RTVSPropertyOp1
 70
     1
102
RTVSPropertyOp2
 70
     1
102
RTVSPropertyOp3
 70
     1
102
RTVSPropertyOp4
 70
     1
102
RTVSPropertyOp5
 70
     1
102
RTVSPropertyOp6
 70
     1
102
RTVSPropertyOp7
 70
     1
102
RTVSPropertyOp8
 70
     1
102
RTVSPropertyOp9
 70
     1
102
RTVSPropertyOp10
 70
     1
102
RTVSPropertyOp11
 70
     1
102
RTVSPropertyOp12
 70
     1
102
RTVSPropertyOp13
 70
     1
102
RTVSPropertyOp14
 70
     1
102
RTVSPropertyOp15
 70
     1
102
RTVSPropertyOp16
 70
     1
102
RTVSPropertyOp17
 70
     1
102
RTVSPropertyOp18
 70
     1
102
RTVSPropertyOp19
 70
     1
102
RTVSPropertyOp20
 70
     1
102
RTVSPropertyOp21
 70
     1
102
RTVSPropertyOp22
 70
     1
102
RTVSPropertyOp23
 70
     1
102
RTVSPropertyOp24
 70
     1
102
RTVSPropertyOp25
 70
     1
102
RTVSPropertyOp26
 70
     1
102
RTVSPropertyOp27
 70
     1
102
RTVSPropertyOp28
 70
     1
102
RTVSPropertyOp29
 70
     1
102
RTVSPropertyOp30
 70
     1
102
RTVSPropertyOp31
 70
     1
102
RTVSPropertyOp32
 70
     1
102
RTVSPropertyOp33
 70
     1
102
RTVSPropertyOp34
 70
     1
102
RTVSPropertyOp35
 70
     1
102
RTVSPropertyOp36
 70
     1
102
RTVSPropertyOp37
 70
     1
102
RTVSPropertyOp38
 70
     1
102
RTVSPropertyOp39
 70
     1
102
RTVSPropertyOp40
 70
     1
102
RTVSPropertyOp41
 70
     1
102
RTVSPropertyOp42
 70
     1
102
RTVSPropertyOp43
 70
     1
102
RTVSPropertyOp44
 70
     1
102
RTVSPropertyOp45
 70
     1
102
RTVSPropertyOp46
 70
     1
102
RTVSPropertyOp47
 70
     1
102
RTVSPropertyOp48
 70
     1
102
RTVSPropertyOp49
 70
     1
102
RTVSPropertyOp50
 70
     1
102
RTVSPropertyOp51
 70
     0
102
RTVSPropertyOp52
 70
     0
102
RTVSPropertyOp53
 70
     1
102
RTVSPropertyOp54
 70
     1
102
RTVSPropertyOp55
 70
     1
102
RTVSPropertyOp56
 70
     1
102
RTVSPropertyOp57
 70
     1
102
RTVSPropertyOp58
 70
     1
102
RTVSPropertyOp59
 70
     1
102
RTVSPropertyOp60
 70
     1
102
RTVSPropertyOp61
 70
     1
102
RTVSPropertyOp62
 70
     1
  0
XRECORD
  5
431
102
{ACAD_REACTORS
330
430
102
}
330
430
100
AcDbXrecord
280
     1
102
RTVSPost2010Prop28
280
     0
102
RTVSPost2010PropOp28
 70
     1
102
RTVSPost2010Prop29
280
     1
102
RTVSPost2010PropOp29
 70
     1
102
RTVSPost2010Prop30
280
     1
102
RTVSPost2010PropOp30
 70
     1
102
RTVSPost2010Prop31
280
     0
102
RTVSPost2010PropOp31
 70
     1
102
RTVSPost2010Prop32
280
     0
102
RTVSPost2010PropOp32
 70
     1
102
RTVSPost2010Prop33
280
     0
102
RTVSPost2010PropOp33
 70
     1
102
RTVSPost2010Prop34
280
     0
102
RTVSPost2010PropOp34
 70
     1
102
RTVSPost2010Prop35
280
     0
102
RTVSPost2010PropOp35
 70
     1
102
RTVSPost2010Prop36
280
     0
102
RTVSPost2010PropOp36
 70
     1
102
RTVSPost2010Prop37
 90
       50
102
RTVSPost2010PropOp37
 70
     1
102
RTVSPost2010Prop38
140
0.0
102
RTVSPost2010PropOp38
 70
     1
102
RTVSPost2010Prop39
140
1.0
102
RTVSPost2010PropOp39
 70
     1
102
RTVSPost2010Prop40
 90
        0
102
RTVSPost2010PropOp40
 70
     1
102
RTVSPost2010Prop41ColorIndex
 90
       18
102
RTVSPost2010Prop41ColorRGB
 90
        0
102
RTVSPost2010PropOp41
 70
     1
102
RTVSPost2010Prop42
 90
       50
102
RTVSPost2010PropOp42
 70
     1
102
RTVSPost2010Prop43
 90
        3
102
RTVSPost2010PropOp43
 70
     1
102
RTVSPost2010Prop44ColorIndex
 90
        5
102
RTVSPost2010Prop44ColorRGB
 90
      255
102
RTVSPost2010PropOp44
 70
     1
102
RTVSPost2010Prop45
280
     0
102
RTVSPost2010PropOp45
 70
     1
102
RTVSPost2010Prop46
 90
       50
102
RTVSPost2010PropOp46
 70
     1
102
RTVSPost2010Prop47
 90
       50
102
RTVSPost2010PropOp47
 70
     1
102
RTVSPost2010Prop48
 90
       50
102
RTVSPost2010PropOp48
 70
     1
102
RTVSPost2010Prop49
280
     0
102
RTVSPost2010PropOp49
 70
     1
102
RTVSPost2010Prop50
 90
       50
102
RTVSPost2010PropOp50
 70
     1
102
RTVSPost2010Prop51ColorIndex
 90
      256
102
RTVSPost2010Prop51ColorRGB
 90
-16777216
102
RTVSPost2010PropOp51
 70
     0
102
RTVSPost2010Prop52
140
1.0
102
RTVSPost2010PropOp52
 70
     0
102
RTVSPost2010Prop53
 90
        2
102
RTVSPost2010PropOp53
 70
     1
102
RTVSPost2010Prop54
  1
strokes_ogs.tif
102
RTVSPost2010PropOp54
 70
     1
102
RTVSPost2010Prop55
280
     0
102
RTVSPost2010PropOp55
 70
     1
102
RTVSPost2010Prop56
140
1.0
102
RTVSPost2010PropOp56
 70
     1
102
RTVSPost2010Prop57
140
1.0
102
RTVSPost2010PropOp57
 70
     1
102
RTVSPropertyOp0
 70
     1
102
RTVSPropertyOp1
 70
     1
102
RTVSPropertyOp2
 70
     1
102
RTVSPropertyOp3
 70
     1
102
RTVSPropertyOp4
 70
     1
102
RTVSPropertyOp5
 70
     1
102
RTVSPropertyOp6
 70
     1
102
RTVSPropertyOp7
 70
     1
102
RTVSPropertyOp8
 70
     1
102
RTVSPropertyOp9
 70
     1
102
RTVSPropertyOp10
 70
     1
102
RTVSPropertyOp11
 70
     1
102
RTVSPropertyOp12
 70
     1
102
RTVSPropertyOp13
 70
     1
102
RTVSPropertyOp14
 70
     1
102
RTVSPropertyOp15
 70
     1
102
RTVSPropertyOp16
 70
     1
102
RTVSPropertyOp17
 70
     1
102
RTVSPropertyOp18
 70
     1
102
RTVSPropertyOp19
 70
     1
102
RTVSPropertyOp20
 70
     1
102
RTVSPropertyOp21
 70
     1
102
RTVSPropertyOp22
 70
     1
102
RTVSPropertyOp23
 70
     1
102
RTVSPropertyOp24
 70
     1
102
RTVSPropertyOp25
 70
     1
102
RTVSPropertyOp26
 70
     1
102
RTVSPropertyOp27
 70
     1
102
RTVSPropertyOp28
 70
     1
102
RTVSPropertyOp29
 70
     1
102
RTVSPropertyOp30
 70
     1
102
RTVSPropertyOp31
 70
     1
102
RTVSPropertyOp32
 70
     1
102
RTVSPropertyOp33
 70
     1
102
RTVSPropertyOp34
 70
     1
102
RTVSPropertyOp35
 70
     1
102
RTVSPropertyOp36
 70
     1
102
RTVSPropertyOp37
 70
     1
102
RTVSPropertyOp38
 70
     1
102
RTVSPropertyOp39
 70
     1
102
RTVSPropertyOp40
 70
     1
102
RTVSPropertyOp41
 70
     1
102
RTVSPropertyOp42
 70
     1
102
RTVSPropertyOp43
 70
     1
102
RTVSPropertyOp44
 70
     1
102
RTVSPropertyOp45
 70
     1
102
RTVSPropertyOp46
 70
     1
102
RTVSPropertyOp47
 70
     1
102
RTVSPropertyOp48
 70
     1
102
RTVSPropertyOp49
 70
     1
102
RTVSPropertyOp50
 70
     1
102
RTVSPropertyOp51
 70
     0
102
RTVSPropertyOp52
 70
     0
102
RTVSPropertyOp53
 70
     1
102
RTVSPropertyOp54
 70
     1
102
RTVSPropertyOp55
 70
     1
102
RTVSPropertyOp56
 70
     1
102
RTVSPropertyOp57
 70
     1
102
RTVSPropertyOp58
 70
     1
102
RTVSPropertyOp59
 70
     1
102
RTVSPropertyOp60
 70
     1
102
RTVSPropertyOp61
 70
     1
102
RTVSPropertyOp62
 70
     1
  0
XRECORD
  5
425
102
{ACAD_REACTORS
330
424
102
}
330
424
100
AcDbXrecord
280
     1
102
RTVSPost2010Prop28
280
     0
102
RTVSPost2010PropOp28
 70
     1
102
RTVSPost2010Prop29
280
     1
102
RTVSPost2010PropOp29
 70
     1
102
RTVSPost2010Prop30
280
     1
102
RTVSPost2010PropOp30
 70
     1
102
RTVSPost2010Prop31
280
     0
102
RTVSPost2010PropOp31
 70
     1
102
RTVSPost2010Prop32
280
     0
102
RTVSPost2010PropOp32
 70
     1
102
RTVSPost2010Prop33
280
     0
102
RTVSPost2010PropOp33
 70
     1
102
RTVSPost2010Prop34
280
     0
102
RTVSPost2010PropOp34
 70
     1
102
RTVSPost2010Prop35
280
     0
102
RTVSPost2010PropOp35
 70
     1
102
RTVSPost2010Prop36
280
     0
102
RTVSPost2010PropOp36
 70
     1
102
RTVSPost2010Prop37
 90
       50
102
RTVSPost2010PropOp37
 70
     1
102
RTVSPost2010Prop38
140
0.0
102
RTVSPost2010PropOp38
 70
     1
102
RTVSPost2010Prop39
140
1.0
102
RTVSPost2010PropOp39
 70
     1
102
RTVSPost2010Prop40
 90
        0
102
RTVSPost2010PropOp40
 70
     1
102
RTVSPost2010Prop41ColorIndex
 90
       18
102
RTVSPost2010Prop41ColorRGB
 90
        0
102
RTVSPost2010PropOp41
 70
     1
102
RTVSPost2010Prop42
 90
       50
102
RTVSPost2010PropOp42
 70
     1
102
RTVSPost2010Prop43
 90
        3
102
RTVSPost2010PropOp43
 70
     1
102
RTVSPost2010Prop44ColorIndex
 90
        5
102
RTVSPost2010Prop44ColorRGB
 90
      255
102
RTVSPost2010PropOp44
 70
     1
102
RTVSPost2010Prop45
280
     0
102
RTVSPost2010PropOp45
 70
     1
102
RTVSPost2010Prop46
 90
       50
102
RTVSPost2010PropOp46
 70
     1
102
RTVSPost2010Prop47
 90
       50
102
RTVSPost2010PropOp47
 70
     1
102
RTVSPost2010Prop48
 90
       50
102
RTVSPost2010PropOp48
 70
     1
102
RTVSPost2010Prop49
280
     0
102
RTVSPost2010PropOp49
 70
     1
102
RTVSPost2010Prop50
 90
       50
102
RTVSPost2010PropOp50
 70
     1
102
RTVSPost2010Prop51ColorIndex
 90
      256
102
RTVSPost2010Prop51ColorRGB
 90
-16777216
102
RTVSPost2010PropOp51
 70
     0
102
RTVSPost2010Prop52
140
1.0
102
RTVSPost2010PropOp52
 70
     0
102
RTVSPost2010Prop53
 90
        2
102
RTVSPost2010PropOp53
 70
     1
102
RTVSPost2010Prop54
  1
strokes_ogs.tif
102
RTVSPost2010PropOp54
 70
     1
102
RTVSPost2010Prop55
280
     0
102
RTVSPost2010PropOp55
 70
     1
102
RTVSPost2010Prop56
140
1.0
102
RTVSPost2010PropOp56
 70
     1
102
RTVSPost2010Prop57
140
1.0
102
RTVSPost2010PropOp57
 70
     1
102
RTVSPropertyOp0
 70
     1
102
RTVSPropertyOp1
 70
     1
102
RTVSPropertyOp2
 70
     1
102
RTVSPropertyOp3
 70
     1
102
RTVSPropertyOp4
 70
     1
102
RTVSPropertyOp5
 70
     1
102
RTVSPropertyOp6
 70
     1
102
RTVSPropertyOp7
 70
     1
102
RTVSPropertyOp8
 70
     1
102
RTVSPropertyOp9
 70
     1
102
RTVSPropertyOp10
 70
     1
102
RTVSPropertyOp11
 70
     1
102
RTVSPropertyOp12
 70
     1
102
RTVSPropertyOp13
 70
     1
102
RTVSPropertyOp14
 70
     1
102
RTVSPropertyOp15
 70
     1
102
RTVSPropertyOp16
 70
     1
102
RTVSPropertyOp17
 70
     1
102
RTVSPropertyOp18
 70
     1
102
RTVSPropertyOp19
 70
     1
102
RTVSPropertyOp20
 70
     1
102
RTVSPropertyOp21
 70
     1
102
RTVSPropertyOp22
 70
     1
102
RTVSPropertyOp23
 70
     1
102
RTVSPropertyOp24
 70
     1
102
RTVSPropertyOp25
 70
     1
102
RTVSPropertyOp26
 70
     1
102
RTVSPropertyOp27
 70
     1
102
RTVSPropertyOp28
 70
     1
102
RTVSPropertyOp29
 70
     1
102
RTVSPropertyOp30
 70
     1
102
RTVSPropertyOp31
 70
     1
102
RTVSPropertyOp32
 70
     1
102
RTVSPropertyOp33
 70
     1
102
RTVSPropertyOp34
 70
     1
102
RTVSPropertyOp35
 70
     1
102
RTVSPropertyOp36
 70
     1
102
RTVSPropertyOp37
 70
     1
102
RTVSPropertyOp38
 70
     1
102
RTVSPropertyOp39
 70
     1
102
RTVSPropertyOp40
 70
     1
102
RTVSPropertyOp41
 70
     1
102
RTVSPropertyOp42
 70
     1
102
RTVSPropertyOp43
 70
     1
102
RTVSPropertyOp44
 70
     1
102
RTVSPropertyOp45
 70
     1
102
RTVSPropertyOp46
 70
     1
102
RTVSPropertyOp47
 70
     1
102
RTVSPropertyOp48
 70
     1
102
RTVSPropertyOp49
 70
     1
102
RTVSPropertyOp50
 70
     1
102
RTVSPropertyOp51
 70
     0
102
RTVSPropertyOp52
 70
     0
102
RTVSPropertyOp53
 70
     1
102
RTVSPropertyOp54
 70
     1
102
RTVSPropertyOp55
 70
     1
102
RTVSPropertyOp56
 70
     1
102
RTVSPropertyOp57
 70
     1
102
RTVSPropertyOp58
 70
     1
102
RTVSPropertyOp59
 70
     1
102
RTVSPropertyOp60
 70
     1
102
RTVSPropertyOp61
 70
     1
102
RTVSPropertyOp62
 70
     1
  0
XRECORD
  5
43D
102
{ACAD_REACTORS
330
43C
102
}
330
43C
100
AcDbXrecord
280
     1
102
RTVSPost2010Prop28
280
     0
102
RTVSPost2010PropOp28
 70
     1
102
RTVSPost2010Prop29
280
     1
102
RTVSPost2010PropOp29
 70
     1
102
RTVSPost2010Prop30
280
     1
102
RTVSPost2010PropOp30
 70
     1
102
RTVSPost2010Prop31
280
     0
102
RTVSPost2010PropOp31
 70
     1
102
RTVSPost2010Prop32
280
     0
102
RTVSPost2010PropOp32
 70
     1
102
RTVSPost2010Prop33
280
     0
102
RTVSPost2010PropOp33
 70
     1
102
RTVSPost2010Prop34
280
     0
102
RTVSPost2010PropOp34
 70
     1
102
RTVSPost2010Prop35
280
     0
102
RTVSPost2010PropOp35
 70
     1
102
RTVSPost2010Prop36
280
     0
102
RTVSPost2010PropOp36
 70
     1
102
RTVSPost2010Prop37
 90
       50
102
RTVSPost2010PropOp37
 70
     1
102
RTVSPost2010Prop38
140
0.0
102
RTVSPost2010PropOp38
 70
     1
102
RTVSPost2010Prop39
140
1.0
102
RTVSPost2010PropOp39
 70
     1
102
RTVSPost2010Prop40
 90
        0
102
RTVSPost2010PropOp40
 70
     1
102
RTVSPost2010Prop41ColorIndex
 90
       18
102
RTVSPost2010Prop41ColorRGB
 90
        0
102
RTVSPost2010PropOp41
 70
     1
102
RTVSPost2010Prop42
 90
       50
102
RTVSPost2010PropOp42
 70
     1
102
RTVSPost2010Prop43
 90
        3
102
RTVSPost2010PropOp43
 70
     1
102
RTVSPost2010Prop44ColorIndex
 90
        5
102
RTVSPost2010Prop44ColorRGB
 90
      255
102
RTVSPost2010PropOp44
 70
     1
102
RTVSPost2010Prop45
280
     0
102
RTVSPost2010PropOp45
 70
     1
102
RTVSPost2010Prop46
 90
       50
102
RTVSPost2010PropOp46
 70
     1
102
RTVSPost2010Prop47
 90
       50
102
RTVSPost2010PropOp47
 70
     1
102
RTVSPost2010Prop48
 90
       50
102
RTVSPost2010PropOp48
 70
     1
102
RTVSPost2010Prop49
280
     0
102
RTVSPost2010PropOp49
 70
     1
102
RTVSPost2010Prop50
 90
       50
102
RTVSPost2010PropOp50
 70
     1
102
RTVSPost2010Prop51ColorIndex
 90
      256
102
RTVSPost2010Prop51ColorRGB
 90
-16777216
102
RTVSPost2010PropOp51
 70
     0
102
RTVSPost2010Prop52
140
1.0
102
RTVSPost2010PropOp52
 70
     0
102
RTVSPost2010Prop53
 90
        2
102
RTVSPost2010PropOp53
 70
     1
102
RTVSPost2010Prop54
  1
strokes_ogs.tif
102
RTVSPost2010PropOp54
 70
     1
102
RTVSPost2010Prop55
280
     0
102
RTVSPost2010PropOp55
 70
     1
102
RTVSPost2010Prop56
140
1.0
102
RTVSPost2010PropOp56
 70
     1
102
RTVSPost2010Prop57
140
1.0
102
RTVSPost2010PropOp57
 70
     1
102
RTVSPropertyOp0
 70
     1
102
RTVSPropertyOp1
 70
     1
102
RTVSPropertyOp2
 70
     1
102
RTVSPropertyOp3
 70
     1
102
RTVSPropertyOp4
 70
     1
102
RTVSPropertyOp5
 70
     1
102
RTVSPropertyOp6
 70
     1
102
RTVSPropertyOp7
 70
     1
102
RTVSPropertyOp8
 70
     1
102
RTVSPropertyOp9
 70
     1
102
RTVSPropertyOp10
 70
     1
102
RTVSPropertyOp11
 70
     1
102
RTVSPropertyOp12
 70
     1
102
RTVSPropertyOp13
 70
     1
102
RTVSPropertyOp14
 70
     1
102
RTVSPropertyOp15
 70
     1
102
RTVSPropertyOp16
 70
     1
102
RTVSPropertyOp17
 70
     1
102
RTVSPropertyOp18
 70
     1
102
RTVSPropertyOp19
 70
     1
102
RTVSPropertyOp20
 70
     1
102
RTVSPropertyOp21
 70
     1
102
RTVSPropertyOp22
 70
     1
102
RTVSPropertyOp23
 70
     1
102
RTVSPropertyOp24
 70
     1
102
RTVSPropertyOp25
 70
     1
102
RTVSPropertyOp26
 70
     1
102
RTVSPropertyOp27
 70
     1
102
RTVSPropertyOp28
 70
     1
102
RTVSPropertyOp29
 70
     1
102
RTVSPropertyOp30
 70
     1
102
RTVSPropertyOp31
 70
     1
102
RTVSPropertyOp32
 70
     1
102
RTVSPropertyOp33
 70
     1
102
RTVSPropertyOp34
 70
     1
102
RTVSPropertyOp35
 70
     1
102
RTVSPropertyOp36
 70
     1
102
RTVSPropertyOp37
 70
     1
102
RTVSPropertyOp38
 70
     1
102
RTVSPropertyOp39
 70
     1
102
RTVSPropertyOp40
 70
     1
102
RTVSPropertyOp41
 70
     1
102
RTVSPropertyOp42
 70
     1
102
RTVSPropertyOp43
 70
     1
102
RTVSPropertyOp44
 70
     1
102
RTVSPropertyOp45
 70
     1
102
RTVSPropertyOp46
 70
     1
102
RTVSPropertyOp47
 70
     1
102
RTVSPropertyOp48
 70
     1
102
RTVSPropertyOp49
 70
     1
102
RTVSPropertyOp50
 70
     1
102
RTVSPropertyOp51
 70
     0
102
RTVSPropertyOp52
 70
     0
102
RTVSPropertyOp53
 70
     1
102
RTVSPropertyOp54
 70
     1
102
RTVSPropertyOp55
 70
     1
102
RTVSPropertyOp56
 70
     1
102
RTVSPropertyOp57
 70
     1
102
RTVSPropertyOp58
 70
     1
102
RTVSPropertyOp59
 70
     1
102
RTVSPropertyOp60
 70
     1
102
RTVSPropertyOp61
 70
     1
102
RTVSPropertyOp62
 70
     1
  0
ENDSEC
  0
EOF
