  0
SECTION
  2
HEADER
  9
$ACADVER
  1
AC1015
  9
$ACADMAINTVER
 70
    20
  9
$DWGCODEPAGE
  3
ANSI_932
  9
$INSBASE
 10
0.0
 20
0.0
 30
0.0
  9
$EXTMIN
 10
-1384.677785408613
 20
-706.7318236798865
 30
0.0
  9
$EXTMAX
 10
1235.863694694028
 20
791.2001942433078
 30
0.0
  9
$LIMMIN
 10
-4267.152221060483
 20
-2696.083210198413
  9
$LIMMAX
 10
7190.717422586465
 20
5141.155363923066
  9
$ORTHOMODE
 70
     0
  9
$REGENMODE
 70
     1
  9
$FILLMODE
 70
     1
  9
$QTEXTMODE
 70
     0
  9
$MIRRTEXT
 70
     0
  9
$LTSCALE
 40
20.0
  9
$ATTMODE
 70
     1
  9
$TEXTSIZE
 40
53.0
  9
$TRACEWID
 40
0.05
  9
$TEXTSTYLE
  7
KAIGAI_STANDARD_1
  9
$CLAYER
  8
NOTE
  9
$CELTYPE
  6
CONTINUOUS
  9
$CECOLOR
 62
     7
  9
$CELTSCALE
 40
1.0
  9
$DISPSILH
 70
     0
  9
$DIMSCALE
 40
1.0
  9
$DIMASZ
 40
30.0
  9
$DIMEXO
 40
20.0
  9
$DIMDLI
 40
80.0
  9
$DIMRND
 40
0.0
  9
$DIMDLE
 40
0.0
  9
$DIMEXE
 40
20.0
  9
$DIMTP
 40
0.0
  9
$DIMTM
 40
0.0
  9
$DIMTXT
 40
40.0
  9
$DIMCEN
 40
0.09
  9
$DIMTSZ
 40
0.0
  9
$DIMTOL
 70
     0
  9
$DIMLIM
 70
     0
  9
$DIMTIH
 70
     0
  9
$DIMTOH
 70
     0
  9
$DIMSE1
 70
     0
  9
$DIMSE2
 70
     0
  9
$DIMTAD
 70
     1
  9
$DIMZIN
 70
     8
  9
$DIMBLK
  1

  9
$DIMASO
 70
     1
  9
$DIMSHO
 70
     0
  9
$DIMPOST
  1

  9
$DIMAPOST
  1

  9
$DIMALT
 70
     0
  9
$DIMALTD
 70
     2
  9
$DIMALTF
 40
25.4
  9
$DIMLFAC
 40
1.0
  9
$DIMTOFL
 70
     1
  9
$DIMTVP
 40
0.0
  9
$DIMTIX
 70
     0
  9
$DIMSOXD
 70
     0
  9
$DIMSAH
 70
     0
  9
$DIMBLK1
  1

  9
$DIMBLK2
  1

  9
$DIMSTYLE
  2
Standard
  9
$DIMCLRD
 70
     0
  9
$DIMCLRE
 70
     0
  9
$DIMCLRT
 70
     0
  9
$DIMTFAC
 40
1.0
  9
$DIMGAP
 40
0.09
  9
$DIMJUST
 70
     0
  9
$DIMSD1
 70
     0
  9
$DIMSD2
 70
     0
  9
$DIMTOLJ
 70
     1
  9
$DIMTZIN
 70
     0
  9
$DIMALTZ
 70
     0
  9
$DIMALTTZ
 70
     0
  9
$DIMUPT
 70
     0
  9
$DIMDEC
 70
     4
  9
$DIMTDEC
 70
     4
  9
$DIMALTU
 70
     2
  9
$DIMALTTD
 70
     2
  9
$DIMTXSTY
  7
STANDARD
  9
$DIMAUNIT
 70
     0
  9
$DIMADEC
 70
     0
  9
$DIMALTRND
 40
0.0
  9
$DIMAZIN
 70
     0
  9
$DIMDSEP
 70
    46
  9
$DIMATFIT
 70
     3
  9
$DIMFRAC
 70
     0
  9
$DIMLDRBLK
  1

  9
$DIMLUNIT
 70
     2
  9
$DIMLWD
 70
    -2
  9
$DIMLWE
 70
    -2
  9
$DIMTMOVE
 70
     0
  9
$LUNITS
 70
     2
  9
$LUPREC
 70
     4
  9
$SKETCHINC
 40
0.1
  9
$FILLETRAD
 40
0.0
  9
$AUNITS
 70
     1
  9
$AUPREC
 70
     3
  9
$MENU
  1
ACAD
  9
$ELEVATION
 40
0.0
  9
$PELEVATION
 40
0.0
  9
$THICKNESS
 40
0.0
  9
$LIMCHECK
 70
     0
  9
$CHAMFERA
 40
0.0
  9
$CHAMFERB
 40
0.0
  9
$CHAMFERC
 40
0.0
  9
$CHAMFERD
 40
0.0
  9
$SKPOLY
 70
     0
  9
$TDCREATE
 40
2455902.607164352
  9
$TDUCREATE
 40
2455902.232164352
  9
$TDUPDATE
 40
2459096.573680556
  9
$TDUUPDATE
 40
2459096.198680556
  9
$TDINDWG
 40
1.6397462500
  9
$TDUSRTIMER
 40
1.6397426389
  9
$USRTIMER
 70
     1
  9
$ANGBASE
 50
0.0
  9
$ANGDIR
 70
     0
  9
$PDMODE
 70
     3
  9
$PDSIZE
 40
-2.0
  9
$PLINEWID
 40
0.0
  9
$SPLFRAME
 70
     0
  9
$SPLINETYPE
 70
     6
  9
$SPLINESEGS
 70
     8
  9
$HANDSEED
  5
870
  9
$SURFTAB1
 70
     6
  9
$SURFTAB2
 70
     6
  9
$SURFTYPE
 70
     6
  9
$SURFU
 70
     6
  9
$SURFV
 70
     6
  9
$UCSBASE
  2

  9
$UCSNAME
  2

  9
$UCSORG
 10
0.0
 20
0.0
 30
0.0
  9
$UCSXDIR
 10
1.0
 20
0.0
 30
0.0
  9
$UCSYDIR
 10
0.0
 20
1.0
 30
0.0
  9
$UCSORTHOREF
  2

  9
$UCSORTHOVIEW
 70
     0
  9
$UCSORGTOP
 10
0.0
 20
0.0
 30
0.0
  9
$UCSORGBOTTOM
 10
0.0
 20
0.0
 30
0.0
  9
$UCSORGLEFT
 10
0.0
 20
0.0
 30
0.0
  9
$UCSORGRIGHT
 10
0.0
 20
0.0
 30
0.0
  9
$UCSORGFRONT
 10
0.0
 20
0.0
 30
0.0
  9
$UCSORGBACK
 10
0.0
 20
0.0
 30
0.0
  9
$PUCSBASE
  2

  9
$PUCSNAME
  2

  9
$PUCSORG
 10
0.0
 20
0.0
 30
0.0
  9
$PUCSXDIR
 10
1.0
 20
0.0
 30
0.0
  9
$PUCSYDIR
 10
0.0
 20
1.0
 30
0.0
  9
$PUCSORTHOREF
  2

  9
$PUCSORTHOVIEW
 70
     0
  9
$PUCSORGTOP
 10
0.0
 20
0.0
 30
0.0
  9
$PUCSORGBOTTOM
 10
0.0
 20
0.0
 30
0.0
  9
$PUCSORGLEFT
 10
0.0
 20
0.0
 30
0.0
  9
$PUCSORGRIGHT
 10
0.0
 20
0.0
 30
0.0
  9
$PUCSORGFRONT
 10
0.0
 20
0.0
 30
0.0
  9
$PUCSORGBACK
 10
0.0
 20
0.0
 30
0.0
  9
$USERI1
 70
     0
  9
$USERI2
 70
     0
  9
$USERI3
 70
     0
  9
$USERI4
 70
     0
  9
$USERI5
 70
     0
  9
$USERR1
 40
20.0
  9
$USERR2
 40
0.0
  9
$USERR3
 40
0.0
  9
$USERR4
 40
0.0
  9
$USERR5
 40
0.0
  9
$WORLDVIEW
 70
     1
  9
$SHADEDGE
 70
     3
  9
$SHADEDIF
 70
    70
  9
$TILEMODE
 70
     1
  9
$MAXACTVP
 70
    64
  9
$PINSBASE
 10
0.0
 20
0.0
 30
0.0
  9
$PLIMCHECK
 70
     0
  9
$PEXTMIN
 10
1.000000000000000E+20
 20
1.000000000000000E+20
 30
1.000000000000000E+20
  9
$PEXTMAX
 10
-1.000000000000000E+20
 20
-1.000000000000000E+20
 30
-1.000000000000000E+20
  9
$PLIMMIN
 10
0.0
 20
0.0
  9
$PLIMMAX
 10
12.0
 20
9.0
  9
$UNITMODE
 70
     0
  9
$VISRETAIN
 70
     1
  9
$PLINEGEN
 70
     0
  9
$PSLTSCALE
 70
     1
  9
$TREEDEPTH
 70
  3020
  9
$CMLSTYLE
  2
Standard
  9
$CMLJUST
 70
     0
  9
$CMLSCALE
 40
1.0
  9
$PROXYGRAPHICS
 70
     1
  9
$MEASUREMENT
 70
     0
  9
$CELWEIGHT
370
    -1
  9
$ENDCAPS
280
     0
  9
$JOINSTYLE
280
     0
  9
$LWDISPLAY
290
     0
  9
$INSUNITS
 70
     0
  9
$HYPERLINKBASE
  1

  9
$STYLESHEET
  1

  9
$XEDIT
290
     1
  9
$CEPSNTYPE
380
     0
  9
$PSTYLEMODE
290
     1
  9
$FINGERPRINTGUID
  2
{F1D0E454-94A9-1D45-9991-0FF2853C4473}
  9
$VERSIONGUID
  2
{B034ABCD-8A31-974C-9DE1-2A4611D2237C}
  9
$EXTNAMES
290
     1
  9
$PSVPSCALE
 40
0.0
  9
$OLESTARTUP
290
     0
  0
ENDSEC
  0
SECTION
  2
CLASSES
  0
CLASS
  1
ACDBDICTIONARYWDFLT
  2
AcDbDictionaryWithDefault
  3
ObjectDBX Classes
 90
        0
280
     0
281
     0
  0
CLASS
  1
MATERIAL
  2
AcDbMaterial
  3
ObjectDBX Classes
 90
     1153
280
     0
281
     0
  0
CLASS
  1
VISUALSTYLE
  2
AcDbVisualStyle
  3
ObjectDBX Classes
 90
     4095
280
     0
281
     0
  0
CLASS
  1
SCALE
  2
AcDbScale
  3
ObjectDBX Classes
 90
     1153
280
     0
281
     0
  0
CLASS
  1
TABLESTYLE
  2
AcDbTableStyle
  3
ObjectDBX Classes
 90
     4095
280
     0
281
     0
  0
CLASS
  1
MLEADERSTYLE
  2
AcDbMLeaderStyle
  3
ACDB_MLEADERSTYLE_CLASS
 90
     4095
280
     0
281
     0
  0
CLASS
  1
ACDBSECTIONVIEWSTYLE
  2
AcDbSectionViewStyle
  3
ObjectDBX Classes
 90
     1025
280
     0
281
     0
  0
CLASS
  1
ACDBDETAILVIEWSTYLE
  2
AcDbDetailViewStyle
  3
ObjectDBX Classes
 90
     1025
280
     0
281
     0
  0
CLASS
  1
DICTIONARYVAR
  2
AcDbDictionaryVar
  3
ObjectDBX Classes
 90
        0
280
     0
281
     0
  0
CLASS
  1
CELLSTYLEMAP
  2
AcDbCellStyleMap
  3
ObjectDBX Classes
 90
     1152
280
     0
281
     0
  0
CLASS
  1
ACDBPLACEHOLDER
  2
AcDbPlaceHolder
  3
ObjectDBX Classes
 90
        0
280
     0
281
     0
  0
CLASS
  1
LAYOUT
  2
AcDbLayout
  3
ObjectDBX Classes
 90
        0
280
     0
281
     0
  0
ENDSEC
  0
SECTION
  2
TABLES
  0
TABLE
  2
VPORT
  5
8
330
0
100
AcDbSymbolTable
 70
     1
  0
VPORT
  5
81
330
8
100
AcDbSymbolTableRecord
100
AcDbViewportTableRecord
  2
*ACTIVE
 70
     0
 10
0.0
 20
0.0
 11
1.0
 21
1.0
 12
-74.56425993081348
 22
166.6058736140843
 13
0.0
 23
0.0
 14
50.0
 24
50.0
 15
100.0
 25
100.0
 16
0.0
 26
0.0
 36
1.0
 17
0.0
 27
0.0
 37
0.0
 40
1244.817457582271
 41
2.49628252788104
 42
50.0
 43
0.0
 44
0.0
 50
0.0
 51
0.0
 71
     0
 72
  1000
 73
     1
 74
     0
 75
     0
 76
     0
 77
     0
 78
     0
281
     0
 65
     1
110
0.0
120
0.0
130
0.0
111
1.0
121
0.0
131
0.0
112
0.0
122
1.0
132
0.0
 79
     0
146
0.0
1001
ACAD_NAV_VCDISPLAY
1070
     3
  0
ENDTAB
  0
TABLE
  2
LTYPE
  5
5
330
0
100
AcDbSymbolTable
 70
     3
  0
LTYPE
  5
5A
330
5
100
AcDbSymbolTableRecord
100
AcDbLinetypeTableRecord
  2
ByBlock
 70
     0
  3

 72
    65
 73
     0
 40
0.0
  0
LTYPE
  5
5B
330
5
100
AcDbSymbolTableRecord
100
AcDbLinetypeTableRecord
  2
ByLayer
 70
     0
  3

 72
    65
 73
     0
 40
0.0
  0
LTYPE
  5
5C
330
5
100
AcDbSymbolTableRecord
100
AcDbLinetypeTableRecord
  2
CONTINUOUS
 70
     0
  3
実線
 72
    65
 73
     0
 40
0.0
  0
LTYPE
  5
75
330
5
100
AcDbSymbolTableRecord
100
AcDbLinetypeTableRecord
  2
DASHDOT
 70
     0
  3
____ _ ____ _ ____ _ ____ _ ____ _ ____ _ ____
 72
    65
 73
     4
 40
5.5
 49
4.0
 74
     0
 49
-0.6
 74
     0
 49
0.3
 74
     0
 49
-0.6
 74
     0
  0
ENDTAB
  0
TABLE
  2
LAYER
  5
2
330
0
100
AcDbSymbolTable
 70
    12
  0
LAYER
  5
54
102
{ACAD_XDICTIONARY
360
7CA
102
}
330
2
100
AcDbSymbolTableRecord
100
AcDbLayerTableRecord
  2
0
 70
     0
 62
     7
  6
CONTINUOUS
370
    -3
390
F
  0
LAYER
  5
73
102
{ACAD_XDICTIONARY
360
7CC
102
}
330
2
100
AcDbSymbolTableRecord
100
AcDbLayerTableRecord
  2
NOTE
 70
     0
 62
     4
  6
CONTINUOUS
370
    -3
390
F
  0
LAYER
  5
76
102
{ACAD_XDICTIONARY
360
7CE
102
}
330
2
100
AcDbSymbolTableRecord
100
AcDbLayerTableRecord
  2
OUTLINE
 70
     0
 62
     3
  6
CONTINUOUS
370
    -3
390
F
  0
LAYER
  5
77
102
{ACAD_XDICTIONARY
360
7D0
102
}
330
2
100
AcDbSymbolTableRecord
100
AcDbLayerTableRecord
  2
DETAIL
 70
     0
 62
     5
  6
CONTINUOUS
370
    -3
390
F
  0
LAYER
  5
78
102
{ACAD_XDICTIONARY
360
7D2
102
}
330
2
100
AcDbSymbolTableRecord
100
AcDbLayerTableRecord
  2
BASIS
 70
     0
 62
     6
  6
DASHDOT
370
    -3
390
F
  0
LAYER
  5
79
102
{ACAD_XDICTIONARY
360
7D4
102
}
330
2
100
AcDbSymbolTableRecord
100
AcDbLayerTableRecord
  2
SIZE
 70
     0
 62
    30
  6
CONTINUOUS
370
    -3
390
F
  0
LAYER
  5
7A
102
{ACAD_XDICTIONARY
360
7D6
102
}
330
2
100
AcDbSymbolTableRecord
100
AcDbLayerTableRecord
  2
ARRANGE
 70
     0
 62
     1
  6
CONTINUOUS
370
    -3
390
F
  0
LAYER
  5
7B
102
{ACAD_XDICTIONARY
360
7D8
102
}
330
2
100
AcDbSymbolTableRecord
100
AcDbLayerTableRecord
  2
FIX
 70
     0
 62
    11
  6
CONTINUOUS
370
    -3
390
F
  0
LAYER
  5
7C
102
{ACAD_XDICTIONARY
360
7DA
102
}
330
2
100
AcDbSymbolTableRecord
100
AcDbLayerTableRecord
  2
SERVICESPACE
 70
     0
 62
     2
  6
DASHDOT
370
    -3
390
F
  0
LAYER
  5
7D
102
{ACAD_XDICTIONARY
360
7DC
102
}
330
2
100
AcDbSymbolTableRecord
100
AcDbLayerTableRecord
  2
ETC
 70
     0
 62
    61
  6
CONTINUOUS
370
    -3
390
F
  0
LAYER
  5
7E
102
{ACAD_XDICTIONARY
360
7DE
102
}
330
2
100
AcDbSymbolTableRecord
100
AcDbLayerTableRecord
  2
SYMBOLLINE
 70
     0
 62
    15
  6
CONTINUOUS
370
    -3
390
F
  0
LAYER
  5
7F
330
2
100
AcDbSymbolTableRecord
100
AcDbLayerTableRecord
  2
DEFPOINTS
 70
     0
 62
     7
  6
CONTINUOUS
290
     0
370
    -3
390
F
  0
ENDTAB
  0
TABLE
  2
STYLE
  5
3
330
0
100
AcDbSymbolTable
 70
     3
  0
STYLE
  5
55
330
3
100
AcDbSymbolTableRecord
100
AcDbTextStyleTableRecord
  2
STANDARD
 70
     0
 40
0.0
 41
0.9
 50
0.0
 71
     0
 42
64.0
  3
SIMPLEX
  4
BIGFONT
  0
STYLE
  5
59
330
3
100
AcDbSymbolTableRecord
100
AcDbTextStyleTableRecord
  2
Annotative
 70
     0
 40
0.0
 41
1.0
 50
0.0
 71
     0
 42
0.2
  3
txt
  4

1001
AcadAnnotative
1000
AnnotativeData
1002
{
1070
     1
1070
     1
1002
}
  0
STYLE
  5
74
330
3
100
AcDbSymbolTableRecord
100
AcDbTextStyleTableRecord
  2
KAIGAI_STANDARD_1
 70
     0
 40
53.0
 41
0.51
 50
0.0
 71
     0
 42
53.0
  3
MONOTXT.shx
  4
BIGFONT.shx
  0
ENDTAB
  0
TABLE
  2
VIEW
  5
6
330
0
100
AcDbSymbolTable
 70
     1
  0
VIEW
  5
80
330
6
100
AcDbSymbolTableRecord
100
AcDbViewTableRecord
  2
ALL
 70
     0
 40
9000.0
 10
241.506647
 20
0.0
 41
12483.01
 11
0.0
 21
0.0
 31
1.0
 12
0.0
 22
0.0
 32
0.0
 42
50.0
 43
0.0
 44
0.0
 50
0.0
 71
     0
281
     0
 72
     0
  0
ENDTAB
  0
TABLE
  2
UCS
  5
7
330
0
100
AcDbSymbolTable
 70
     0
  0
ENDTAB
  0
TABLE
  2
APPID
  5
9
330
0
100
AcDbSymbolTable
 70
     5
  0
APPID
  5
56
330
9
100
AcDbSymbolTableRecord
100
AcDbRegAppTableRecord
  2
ACAD
 70
     0
  0
APPID
  5
5D
330
9
100
AcDbSymbolTableRecord
100
AcDbRegAppTableRecord
  2
AcadAnnotative
 70
     0
  0
APPID
  5
7C8
330
9
100
AcDbSymbolTableRecord
100
AcDbRegAppTableRecord
  2
ACAD_EXEMPT_FROM_CAD_STANDARDS
 70
     0
  0
APPID
  5
7EA
330
9
100
AcDbSymbolTableRecord
100
AcDbRegAppTableRecord
  2
ACAD_NAV_VCDISPLAY
 70
     0
  0
APPID
  5
823
330
9
100
AcDbSymbolTableRecord
100
AcDbRegAppTableRecord
  2
ACAD_MLEADERVER
 70
     0
  0
ENDTAB
  0
TABLE
  2
DIMSTYLE
  5
A
330
0
100
AcDbSymbolTable
 70
     2
100
AcDbDimStyleTable
 71
     0
  0
DIMSTYLE
105
57
330
A
100
AcDbSymbolTableRecord
100
AcDbDimStyleTableRecord
  2
Standard
 70
     0
340
55
  0
DIMSTYLE
105
58
330
A
100
AcDbSymbolTableRecord
100
AcDbDimStyleTableRecord
  2
Annotative
 70
     0
340
55
1001
AcadAnnotative
1000
AnnotativeData
1002
{
1070
     1
1070
     1
1002
}
  0
ENDTAB
  0
TABLE
  2
BLOCK_RECORD
  5
1
330
0
100
AcDbSymbolTable
 70
     0
  0
BLOCK_RECORD
  5
6F
330
1
100
AcDbSymbolTableRecord
100
AcDbBlockTableRecord
  2
*Model_Space
340
72
  0
BLOCK_RECORD
  5
6B
330
1
100
AcDbSymbolTableRecord
100
AcDbBlockTableRecord
  2
*Paper_Space
340
6E
  0
ENDTAB
  0
ENDSEC
  0
SECTION
  2
BLOCKS
  0
BLOCK
  5
70
330
6F
100
AcDbEntity
  8
0
100
AcDbBlockBegin
  2
*Model_Space
 70
     0
 10
0.0
 20
0.0
 30
0.0
  3
*Model_Space
  1

  0
ENDBLK
  5
71
330
6F
100
AcDbEntity
  8
0
100
AcDbBlockEnd
  0
BLOCK
  5
6C
330
6B
100
AcDbEntity
 67
     1
  8
0
100
AcDbBlockBegin
  2
*Paper_Space
 70
     0
 10
0.0
 20
0.0
 30
0.0
  3
*Paper_Space
  1

  0
ENDBLK
  5
6D
330
6B
100
AcDbEntity
 67
     1
  8
0
100
AcDbBlockEnd
  0
ENDSEC
  0
SECTION
  2
ENTITIES
  0
LWPOLYLINE
  5
86
330
6F
100
AcDbEntity
  8
DETAIL
  6
Continuous
 62
     5
100
AcDbPolyline
 90
        7
 70
     0
 43
0.0
 10
175.2370776912003
 20
-45.85691856479934
 10
174.9074023664989
 20
-45.92876469309884
 10
174.5960422459002
 20
-46.0199465500991
 10
174.3101136865998
 20
-46.12856421169906
 10
174.0548158760985
 20
-46.25234196289921
 10
173.8308291803996
 20
-46.39094139939925
 10
173.6427599471981
 20
-46.5418964533992
  0
LWPOLYLINE
  5
8F
330
6F
100
AcDbEntity
  8
DETAIL
  6
Continuous
 62
     5
100
AcDbPolyline
 90
        5
 70
     0
 43
0.0
 10
174.9074023664989
 20
-45.22906892739911
 10
175.2370776912003
 20
-45.15722279909915
 10
175.5827042493993
 20
-45.10505781649908
 10
175.9396138635993
 20
-45.07340504039894
 10
176.3000000000002
 20
-45.06287253979917
  0
LWPOLYLINE
  5
96
330
6F
100
AcDbEntity
  8
DETAIL
  6
Continuous
 62
     5
100
AcDbPolyline
 90
       18
 70
     0
 43
0.0
 10
329.2166650310983
 20
-218.7587796450989
 10
330.1390297541993
 20
-218.7158634846992
 10
331.053528229998
 20
-218.5880428969995
 10
331.9523613325991
 20
-218.3764080088995
 10
332.8278634741991
 20
-218.0827636824993
 10
333.6725680855989
 20
-217.7096142290993
 10
334.4792712331992
 20
-217.2601419902994
 10
335.2410930781998
 20
-216.7381802197992
 10
335.9515365432991
 20
-216.1481803852994
 10
336.6045427237996
 20
-215.4951742065991
 10
337.1945425598997
 20
-214.7847307429993
 10
337.7165043312989
 20
-214.0229088989991
 10
338.165976570698
 20
-213.216205751899
 10
338.5391260240003
 20
-212.3715011403992
 10
338.8327703506992
 20
-211.4959989991994
 10
339.0444052362992
 20
-210.5971658939989
 10
339.1722258269993
 20
-209.6826674211988
 10
339.2151419826996
 20
-208.7603026934994
  0
LWPOLYLINE
  5
AA
330
6F
100
AcDbEntity
  8
DETAIL
  6
Continuous
 62
     5
100
AcDbPolyline
 90
        8
 70
     0
 43
0.0
 10
179.9999999999991
 20
-177.3883802023993
 10
180.3263154804999
 20
-177.3780111685992
 10
180.6470476126986
 20
-177.3470814842994
 10
180.9567085809003
 20
-177.2961203649993
 10
181.2499999999991
 20
-177.2259997695992
 10
181.5219035724993
 20
-177.1379194807991
 10
181.7677669528993
 20
-177.0333865768989
 10
181.983383350699
 20
-176.914189644799
  0
LWPOLYLINE
  5
B4
330
6F
100
AcDbEntity
  8
DETAIL
  6
Continuous
 62
     5
100
AcDbPolyline
 90
        8
 70
     0
 43
0.0
 10
179.9999999999991
 20
-176.688684436599
 10
180.3263154804999
 20
-176.678315402899
 10
180.6470476126986
 20
-176.6473857185992
 10
180.9567085809003
 20
-176.5964245992991
 10
181.2499999999991
 20
-176.526304003899
 10
181.5219035724993
 20
-176.4382237150994
 10
181.7677669528993
 20
-176.3336908111992
 10
181.983383350699
 20
-176.2144938790989
  0
LWPOLYLINE
  5
BE
330
6F
100
AcDbEntity
  8
DETAIL
  6
Continuous
 62
     5
100
AcDbPolyline
 90
       10
 70
     0
 43
0.0
 10
177.9999999999991
 20
-174.964332101099
 10
177.6736845193999
 20
-174.9747011348991
 10
177.3529523871993
 20
-175.0056308191988
 10
177.0432914190996
 20
-175.0565919384989
 10
176.7499999999991
 20
-175.1267125338991
 10
176.4780964274005
 20
-175.2147928226991
 10
176.2322330469987
 20
-175.3193257265992
 10
176.016616649199
 20
-175.4385226586992
 10
175.8349364904979
 20
-175.570344126399
 10
175.6903011687
 20
-175.712534627899
  0
LINE
  5
CA
330
6F
100
AcDbEntity
  8
DETAIL
  6
Continuous
 62
     5
100
AcDbLine
 10
349.9999999999992
 20
-245.3999999999992
 30
0.0
 11
350.0500000000001
 21
-245.3999999999992
 31
0.0
  0
LINE
  5
CB
330
6F
100
AcDbEntity
  8
DETAIL
  6
Continuous
 62
     5
100
AcDbLine
 10
349.9999999999992
 20
-240.2999999999993
 30
0.0
 11
350.0500000000001
 21
-240.2999999999993
 31
0.0
  0
LINE
  5
CC
330
6F
100
AcDbEntity
  8
DETAIL
  6
Continuous
 62
     5
100
AcDbLine
 10
352.0500000000001
 20
-240.2999999999993
 30
0.0
 11
389.9999999999991
 21
-240.2999999999993
 31
0.0
  0
LINE
  5
CD
330
6F
100
AcDbEntity
  8
DETAIL
  6
Continuous
 62
     5
100
AcDbLine
 10
352.0500000000001
 20
-240.0285398163992
 30
0.0
 11
350.0500000000001
 21
-240.0285398163992
 31
0.0
  0
LINE
  5
CE
330
6F
100
AcDbEntity
  8
DETAIL
  6
Continuous
 62
     5
100
AcDbLine
 10
353.9999999999992
 20
-240.0285398162992
 30
0.0
 11
-350.0000000000008
 21
-240.0285398162992
 31
0.0
  0
LINE
  5
CF
330
6F
100
AcDbEntity
  8
DETAIL
  6
Continuous
 62
     5
100
AcDbLine
 10
-349.0000000000009
 20
-239.9999999999991
 30
0.0
 11
353.9999999999992
 21
-239.9999999999991
 31
0.0
  0
LINE
  5
D0
330
6F
100
AcDbEntity
  8
DETAIL
  6
Continuous
 62
     5
100
AcDbLine
 10
349.3999999999988
 20
-239.9999999999991
 30
0.0
 11
349.9999999999992
 21
-239.9999999999991
 31
0.0
  0
LINE
  5
D1
330
6F
100
AcDbEntity
  8
DETAIL
  6
Continuous
 62
     5
100
AcDbLine
 10
348.9999999999991
 20
-239.9999999999991
 30
0.0
 11
353.9999999999992
 21
-239.9999999999991
 31
0.0
  0
LINE
  5
D2
330
6F
100
AcDbEntity
  8
DETAIL
  6
Continuous
 62
     5
100
AcDbLine
 10
344.4999999999991
 20
-233.9999999999991
 30
0.0
 11
-344.5000000000009
 21
-233.9999999999991
 31
0.0
  0
LINE
  5
D3
330
6F
100
AcDbEntity
  8
DETAIL
  6
Continuous
 62
     5
100
AcDbLine
 10
-32.35000000000127
 20
-226.4999999999991
 30
0.0
 11
-31.550000000002
 21
-226.4999999999991
 31
0.0
  0
LINE
  5
D4
330
6F
100
AcDbEntity
  8
DETAIL
  6
Continuous
 62
     5
100
AcDbLine
 10
312.6499999999987
 20
-226.4999999999991
 30
0.0
 11
313.449999999998
 21
-226.4999999999991
 31
0.0
  0
LINE
  5
D5
330
6F
100
AcDbEntity
  8
DETAIL
  6
Continuous
 62
     5
100
AcDbLine
 10
317.3499999999994
 20
-226.4999999999991
 30
0.0
 11
316.5500000000002
 21
-226.4999999999991
 31
0.0
  0
LINE
  5
D6
330
6F
100
AcDbEntity
  8
DETAIL
  6
Continuous
 62
     5
100
AcDbLine
 10
-27.65000000000056
 20
-226.4999999999991
 30
0.0
 11
-28.44999999999983
 21
-226.4999999999991
 31
0.0
  0
LINE
  5
D7
330
6F
100
AcDbEntity
  8
DETAIL
  6
Continuous
 62
     5
100
AcDbLine
 10
-329.0166650312012
 20
-224.1245319446989
 30
0.0
 11
329.0166650310994
 21
-224.1245319446989
 31
0.0
  0
LINE
  5
D8
330
6F
100
AcDbEntity
  8
DETAIL
  6
Continuous
 62
     5
100
AcDbLine
 10
329.0166650310994
 20
-218.7587796450989
 30
0.0
 11
329.2166650310983
 21
-218.7587796450989
 31
0.0
  0
LINE
  5
D9
330
6F
100
AcDbEntity
  8
DETAIL
  6
Continuous
 62
     5
100
AcDbLine
 10
329.0166650310994
 20
-208.8008105292993
 30
0.0
 11
193.5310000163472
 21
-208.8008105294184
 31
0.0
  0
LINE
  5
DA
330
6F
100
AcDbEntity
  8
DETAIL
  6
Continuous
 62
     5
100
AcDbLine
 10
76.36899998339959
 20
-208.8008105292993
 30
0.0
 11
-86.46899998349455
 21
-208.8008105293257
 31
0.0
  0
LINE
  5
DB
330
6F
100
AcDbEntity
  8
DETAIL
  6
Continuous
 62
     5
100
AcDbLine
 10
329.0166650310975
 20
-208.8008105292993
 30
0.0
 11
243.5310000166
 21
-208.8008105292993
 31
0.0
  0
LINE
  5
DC
330
6F
100
AcDbEntity
  8
DETAIL
  6
Continuous
 62
     5
100
AcDbLine
 10
86.3689999836488
 20
-208.8008105294175
 30
0.0
 11
-76.46899998339995
 21
-208.8008105292993
 31
0.0
  0
LINE
  5
DD
330
6F
100
AcDbEntity
  8
DETAIL
  6
Continuous
 62
     5
100
AcDbLine
 10
-193.6310000166004
 20
-208.8008105292993
 30
0.0
 11
-329.0166650312012
 21
-208.8008105292993
 31
0.0
  0
LINE
  5
DE
330
6F
100
AcDbEntity
  8
DETAIL
  6
Continuous
 62
     5
100
AcDbLine
 10
349.9999999999992
 20
-206.9999999999991
 30
0.0
 11
349.4999999999992
 21
-206.9999999999991
 31
0.0
  0
LINE
  5
DF
330
6F
100
AcDbEntity
  8
DETAIL
  6
Continuous
 62
     5
100
AcDbLine
 10
353.9999999999992
 20
-200.2999999999993
 30
0.0
 11
389.9999999999991
 21
-200.2999999999993
 31
0.0
  0
LINE
  5
E0
330
6F
100
AcDbEntity
  8
DETAIL
  6
Continuous
 62
     5
100
AcDbLine
 10
-190.1737628133005
 20
-183.9999999999991
 30
0.0
 11
-89.92623718680169
 21
-183.9999999999991
 31
0.0
  0
LINE
  5
E1
330
6F
100
AcDbEntity
  8
DETAIL
  6
Continuous
 62
     5
100
AcDbLine
 10
89.82623718669945
 20
-183.9999999999991
 30
0.0
 11
190.0737628131983
 21
-183.9999999999991
 31
0.0
  0
LINE
  5
E2
330
6F
100
AcDbEntity
  8
DETAIL
  6
Continuous
 62
     5
100
AcDbLine
 10
177.9999999999991
 20
-177.3883802023993
 30
0.0
 11
179.9999999999991
 21
-177.3883802023993
 31
0.0
  0
LINE
  5
E3
330
6F
100
AcDbEntity
  8
DETAIL
  6
Continuous
 62
     5
100
AcDbLine
 10
353.9999999999992
 20
-177.1999999999989
 30
0.0
 11
379.9999999999991
 21
-177.1999999999989
 31
0.0
  0
LINE
  5
E4
330
6F
100
AcDbEntity
  8
DETAIL
  6
Continuous
 62
     5
100
AcDbLine
 10
177.9999999999991
 20
-176.688684436599
 30
0.0
 11
179.9999999999991
 21
-176.688684436599
 31
0.0
  0
LINE
  5
E5
330
6F
100
AcDbEntity
  8
DETAIL
  6
Continuous
 62
     5
100
AcDbLine
 10
182.1847952726994
 20
-176.0632741807994
 30
0.0
 11
181.9999999999991
 21
-176.0632741807994
 31
0.0
  0
LINE
  5
E6
330
6F
100
AcDbEntity
  8
DETAIL
  6
Continuous
 62
     5
100
AcDbLine
 10
179.9999999999991
 20
-174.964332101099
 30
0.0
 11
177.9999999999991
 21
-174.964332101099
 31
0.0
  0
LINE
  5
E7
330
6F
100
AcDbEntity
  8
DETAIL
  6
Continuous
 62
     5
100
AcDbLine
 10
421.4999999999988
 20
-174.9499999999988
 30
0.0
 11
403.4999999999991
 21
-174.9499999999988
 31
0.0
  0
LINE
  5
E8
330
6F
100
AcDbEntity
  8
DETAIL
  6
Continuous
 62
     5
100
AcDbLine
 10
379.9999999999991
 20
-171.4790561913992
 30
0.0
 11
395.2209438086002
 21
-171.4790561913992
 31
0.0
  0
LINE
  5
E9
330
6F
100
AcDbEntity
  8
DETAIL
  6
Continuous
 62
     5
100
AcDbLine
 10
396.9999999999992
 20
-169.2999999999992
 30
0.0
 11
401.4999999999989
 21
-169.2999999999992
 31
0.0
  0
LINE
  5
EA
330
6F
100
AcDbEntity
  8
DETAIL
  6
Continuous
 62
     5
100
AcDbLine
 10
421.4999999999988
 20
-166.5749999999989
 30
0.0
 11
403.4999999999991
 21
-166.5749999999989
 31
0.0
  0
LINE
  5
EB
330
6F
100
AcDbEntity
  8
DETAIL
  6
Continuous
 62
     5
100
AcDbLine
 10
379.9999999999991
 20
-164.8395280956993
 30
0.0
 11
395.2209438086002
 21
-164.8395280956993
 31
0.0
  0
LINE
  5
EC
330
6F
100
AcDbEntity
  8
DETAIL
  6
Continuous
 62
     5
100
AcDbLine
 10
379.9999999999991
 20
-151.5604719042994
 30
0.0
 11
395.2209438086002
 21
-151.5604719042994
 31
0.0
  0
LINE
  5
ED
330
6F
100
AcDbEntity
  8
DETAIL
  6
Continuous
 62
     5
100
AcDbLine
 10
421.4999999999988
 20
-149.8249999999989
 30
0.0
 11
403.4999999999991
 21
-149.8249999999989
 31
0.0
  0
LINE
  5
EE
330
6F
100
AcDbEntity
  8
DETAIL
  6
Continuous
 62
     5
100
AcDbLine
 10
396.9999999999992
 20
-147.0999999999994
 30
0.0
 11
401.4999999999989
 21
-147.0999999999994
 31
0.0
  0
LINE
  5
EF
330
6F
100
AcDbEntity
  8
DETAIL
  6
Continuous
 62
     5
100
AcDbLine
 10
379.9999999999991
 20
-144.9209438085991
 30
0.0
 11
395.2209438086002
 21
-144.9209438085991
 31
0.0
  0
LINE
  5
F0
330
6F
100
AcDbEntity
  8
DETAIL
  6
Continuous
 62
     5
100
AcDbLine
 10
353.9999999999992
 20
-141.6999999999989
 30
0.0
 11
372.9999999999991
 21
-141.6999999999989
 31
0.0
  0
LINE
  5
F1
330
6F
100
AcDbEntity
  8
DETAIL
  6
Continuous
 62
     5
100
AcDbLine
 10
421.4999999999988
 20
-141.4499999999989
 30
0.0
 11
403.4999999999991
 21
-141.4499999999989
 31
0.0
  0
LINE
  5
F2
330
6F
100
AcDbEntity
  8
DETAIL
  6
Continuous
 62
     5
100
AcDbLine
 10
372.9999999999991
 20
-139.1999999999989
 30
0.0
 11
379.9999999999991
 21
-139.1999999999989
 31
0.0
  0
LINE
  5
F3
330
6F
100
AcDbEntity
  8
DETAIL
  6
Continuous
 62
     5
100
AcDbLine
 10
404.7982940777991
 20
-137.9017059221992
 30
0.0
 11
390.2017059220988
 21
-137.9017059221992
 31
0.0
  0
LINE
  5
F4
330
6F
100
AcDbEntity
  8
DETAIL
  6
Continuous
 62
     5
100
AcDbLine
 10
372.9999999999991
 20
-135.0149545761992
 30
0.0
 11
385.6850454237001
 21
-135.0149545761992
 31
0.0
  0
LINE
  5
F5
330
6F
100
AcDbEntity
  8
DETAIL
  6
Continuous
 62
     5
100
AcDbLine
 10
386.9999999999992
 20
-133.1399999999994
 30
0.0
 11
388.4999999999991
 21
-133.1399999999994
 31
0.0
  0
LINE
  5
F6
330
6F
100
AcDbEntity
  8
DETAIL
  6
Continuous
 62
     5
100
AcDbLine
 10
404.7982940777991
 20
-131.5508529610988
 30
0.0
 11
390.2017059220988
 21
-131.5508529610988
 31
0.0
  0
LINE
  5
F7
330
6F
100
AcDbEntity
  8
DETAIL
  6
Continuous
 62
     5
100
AcDbLine
 10
372.9999999999991
 20
-130.1074772880993
 30
0.0
 11
385.6850454237001
 21
-130.1074772880993
 31
0.0
  0
LINE
  5
F8
330
6F
100
AcDbEntity
  8
DETAIL
  6
Continuous
 62
     5
100
AcDbLine
 10
-196.335111960102
 20
-178.8054097012991
 30
0.0
 11
-85.3355519966017
 21
-180.2031819377989
 31
0.0
  0
LINE
  5
F9
330
6F
100
AcDbEntity
  8
DETAIL
  6
Continuous
 62
     5
100
AcDbLine
 10
88.42877352340019
 20
-182.8950289998993
 30
0.0
 11
176.1764705881987
 21
-183.9999999999991
 31
0.0
  0
LWPOLYLINE
  5
FA
330
6F
100
AcDbEntity
  8
DETAIL
  6
Continuous
 62
     5
100
AcDbPolyline
 90
        8
 70
     0
 43
0.0
 10
179.9999999999991
 20
-78.48721767209919
 10
180.3263154804999
 20
-78.47684863829909
 10
180.6470476126986
 20
-78.44591895409938
 10
180.9567085809003
 20
-78.39495783479923
 10
181.2499999999991
 20
-78.32483723929906
 10
181.5219035724993
 20
-78.2367569505991
 10
181.7677669528993
 20
-78.13222404659882
 10
181.983383350699
 20
-78.01302711449898
  0
LWPOLYLINE
  5
104
330
6F
100
AcDbEntity
  8
DETAIL
  6
Continuous
 62
     5
100
AcDbPolyline
 90
        8
 70
     0
 43
0.0
 10
179.9999999999991
 20
-77.78752190639898
 10
180.3263154804999
 20
-77.77715287259889
 10
180.6470476126986
 20
-77.74622318829916
 10
180.9567085809003
 20
-77.695262068999
 10
181.2499999999991
 20
-77.62514147359887
 10
181.5219035724993
 20
-77.53706118479931
 10
181.7677669528993
 20
-77.43252828089906
 10
181.983383350699
 20
-77.31333134879924
  0
LWPOLYLINE
  5
10E
330
6F
100
AcDbEntity
  8
DETAIL
  6
Continuous
 62
     5
100
AcDbPolyline
 90
       10
 70
     0
 43
0.0
 10
177.9999999999991
 20
-76.06316957089894
 10
177.6736845193999
 20
-76.07353860459898
 10
177.3529523871993
 20
-76.10446828889917
 10
177.0432914190996
 20
-76.15542940819887
 10
176.7499999999991
 20
-76.22555000369901
 10
176.4780964274005
 20
-76.31363029239945
 10
176.2322330469987
 20
-76.41816319629923
 10
176.016616649199
 20
-76.53736012839907
 10
175.8349364904979
 20
-76.66918159619945
 10
175.6903011687
 20
-76.81137209769895
  0
LWPOLYLINE
  5
11A
330
6F
100
AcDbEntity
  8
DETAIL
  6
Continuous
 62
     5
100
AcDbPolyline
 90
        4
 70
     0
 43
0.0
 10
176.3000000000002
 20
-45.76256830549936
 10
175.9396138635993
 20
-45.77310080609914
 10
175.5827042493993
 20
-45.80475358219882
 10
175.2370776912003
 20
-45.85691856479934
  0
LINE
  5
120
330
6F
100
AcDbEntity
  8
DETAIL
  6
Continuous
 62
     5
100
AcDbLine
 10
353.9825475935004
 20
-60.75650151579885
 30
0.0
 11
382.9999999999992
 21
-60.24999999999909
 31
0.0
  0
LINE
  5
121
330
6F
100
AcDbEntity
  8
DETAIL
  6
Continuous
 62
     5
100
AcDbLine
 10
372.9999999999991
 20
-120.2925227118994
 30
0.0
 11
385.6850454237001
 21
-120.2925227118994
 31
0.0
  0
LINE
  5
122
330
6F
100
AcDbEntity
  8
DETAIL
  6
Continuous
 62
     5
100
AcDbLine
 10
404.7982940777991
 20
-118.849147038899
 30
0.0
 11
390.2017059220988
 21
-118.849147038899
 31
0.0
  0
LINE
  5
123
330
6F
100
AcDbEntity
  8
DETAIL
  6
Continuous
 62
     5
100
AcDbLine
 10
386.9999999999992
 20
-117.2599999999992
 30
0.0
 11
388.4999999999991
 21
-117.2599999999992
 31
0.0
  0
LINE
  5
124
330
6F
100
AcDbEntity
  8
DETAIL
  6
Continuous
 62
     5
100
AcDbLine
 10
372.9999999999991
 20
-115.385045423799
 30
0.0
 11
385.6850454237001
 21
-115.385045423799
 31
0.0
  0
LINE
  5
125
330
6F
100
AcDbEntity
  8
DETAIL
  6
Continuous
 62
     5
100
AcDbLine
 10
404.7982940777991
 20
-112.498294077799
 30
0.0
 11
390.2017059220988
 21
-112.498294077799
 31
0.0
  0
LINE
  5
126
330
6F
100
AcDbEntity
  8
DETAIL
  6
Continuous
 62
     5
100
AcDbLine
 10
353.9999999999992
 20
-108.6999999999989
 30
0.0
 11
372.9999999999991
 21
-108.6999999999989
 31
0.0
  0
LINE
  5
127
330
6F
100
AcDbEntity
  8
DETAIL
  6
Continuous
 62
     5
100
AcDbLine
 10
221.3769037773991
 20
-105.3862952847994
 30
0.0
 11
185.9999999999991
 21
-105.3862952847994
 31
0.0
  0
LINE
  5
128
330
6F
100
AcDbEntity
  8
DETAIL
  6
Continuous
 62
     5
100
AcDbLine
 10
184.9999999999991
 20
-104.4858912404988
 30
0.0
 11
185.8000000000002
 21
-104.4858912404988
 31
0.0
  0
LINE
  5
129
330
6F
100
AcDbEntity
  8
DETAIL
  6
Continuous
 62
     5
100
AcDbLine
 10
185.9999999999991
 20
-99.22246040959908
 30
0.0
 11
185.8000000000002
 21
-99.22246040959908
 31
0.0
  0
LINE
  5
12A
330
6F
100
AcDbEntity
  8
DETAIL
  6
Continuous
 62
     5
100
AcDbLine
 10
185.9999999999991
 20
-96.94234415659913
 30
0.0
 11
185.8000000000002
 21
-96.94234415659913
 31
0.0
  0
LINE
  5
12B
330
6F
100
AcDbEntity
  8
DETAIL
  6
Continuous
 62
     5
100
AcDbLine
 10
353.9999999999992
 20
-92.9999999999991
 30
0.0
 11
349.9999999999992
 21
-92.9999999999991
 31
0.0
  0
LINE
  5
12C
330
6F
100
AcDbEntity
  8
DETAIL
  6
Continuous
 62
     5
100
AcDbLine
 10
185.9999999999991
 20
-89.33234415659899
 30
0.0
 11
185.8000000000002
 21
-89.33234415659899
 31
0.0
  0
LINE
  5
12D
330
6F
100
AcDbEntity
  8
DETAIL
  6
Continuous
 62
     5
100
AcDbLine
 10
185.9999999999991
 20
-87.05222790359949
 30
0.0
 11
185.8000000000002
 21
-87.05222790359949
 31
0.0
  0
LINE
  5
12E
330
6F
100
AcDbEntity
  8
DETAIL
  6
Continuous
 62
     5
100
AcDbLine
 10
185.9999999999991
 20
-79.44222790359891
 30
0.0
 11
185.8000000000002
 21
-79.44222790359891
 31
0.0
  0
LINE
  5
12F
330
6F
100
AcDbEntity
  8
DETAIL
  6
Continuous
 62
     5
100
AcDbLine
 10
177.9999999999991
 20
-78.48721767209919
 30
0.0
 11
179.9999999999991
 21
-78.48721767209919
 31
0.0
  0
LINE
  5
130
330
6F
100
AcDbEntity
  8
DETAIL
  6
Continuous
 62
     5
100
AcDbLine
 10
351.4999999999992
 20
-77.99999999999909
 30
0.0
 11
349.9999999999992
 21
-77.99999999999909
 31
0.0
  0
LINE
  5
131
330
6F
100
AcDbEntity
  8
DETAIL
  6
Continuous
 62
     5
100
AcDbLine
 10
177.9999999999991
 20
-77.78752190639898
 30
0.0
 11
179.9999999999991
 21
-77.78752190639898
 31
0.0
  0
LINE
  5
132
330
6F
100
AcDbEntity
  8
DETAIL
  6
Continuous
 62
     5
100
AcDbLine
 10
185.9999999999991
 20
-77.16211165049934
 30
0.0
 11
185.8000000000002
 21
-77.16211165049934
 31
0.0
  0
LINE
  5
133
330
6F
100
AcDbEntity
  8
DETAIL
  6
Continuous
 62
     5
100
AcDbLine
 10
182.1847952726994
 20
-77.16211165049934
 30
0.0
 11
181.9999999999991
 21
-77.16211165049934
 31
0.0
  0
LINE
  5
134
330
6F
100
AcDbEntity
  8
DETAIL
  6
Continuous
 62
     5
100
AcDbLine
 10
179.9999999999991
 20
-76.06316957089894
 30
0.0
 11
177.9999999999991
 21
-76.06316957089894
 31
0.0
  0
LINE
  5
135
330
6F
100
AcDbEntity
  8
DETAIL
  6
Continuous
 62
     5
100
AcDbLine
 10
352.9999999999991
 20
-71.49999999999909
 30
0.0
 11
351.4999999999992
 21
-71.49999999999909
 31
0.0
  0
LINE
  5
136
330
6F
100
AcDbEntity
  8
DETAIL
  6
Continuous
 62
     5
100
AcDbLine
 10
185.9999999999991
 20
-69.55211165049921
 30
0.0
 11
185.8000000000002
 21
-69.55211165049921
 31
0.0
  0
LINE
  5
137
330
6F
100
AcDbEntity
  8
DETAIL
  6
Continuous
 62
     5
100
AcDbLine
 10
185.9999999999991
 20
-67.27199539749928
 30
0.0
 11
185.8000000000002
 21
-67.27199539749928
 31
0.0
  0
LINE
  5
138
330
6F
100
AcDbEntity
  8
DETAIL
  6
Continuous
 62
     5
100
AcDbLine
 10
382.9999999999992
 20
-59.99999999999909
 30
0.0
 11
407.4999999999991
 21
-59.99999999999909
 31
0.0
  0
LINE
  5
139
330
6F
100
AcDbEntity
  8
DETAIL
  6
Continuous
 62
     5
100
AcDbLine
 10
185.9999999999991
 20
-59.66199539749914
 30
0.0
 11
185.8000000000002
 21
-59.66199539749914
 31
0.0
  0
LINE
  5
13A
330
6F
100
AcDbEntity
  8
DETAIL
  6
Continuous
 62
     5
100
AcDbLine
 10
352.9999999999991
 20
-58.59198596449914
 30
0.0
 11
351.4999999999992
 21
-58.59198596449914
 31
0.0
  0
LINE
  5
13B
330
6F
100
AcDbEntity
  8
DETAIL
  6
Continuous
 62
     5
100
AcDbLine
 10
185.9999999999991
 20
-57.38187914449918
 30
0.0
 11
185.8000000000002
 21
-57.38187914449918
 31
0.0
  0
LINE
  5
13C
330
6F
100
AcDbEntity
  8
DETAIL
  6
Continuous
 62
     5
100
AcDbLine
 10
352.9999999999991
 20
-56.59198596449915
 30
0.0
 11
351.4999999999992
 21
-56.59198596449915
 31
0.0
  0
LINE
  5
13D
330
6F
100
AcDbEntity
  8
DETAIL
  6
Continuous
 62
     5
100
AcDbLine
 10
176.3000000000002
 20
-45.76256830549936
 30
0.0
 11
178.8125363825993
 21
-45.76256830549936
 31
0.0
  0
LINE
  5
13E
330
6F
100
AcDbEntity
  8
DETAIL
  6
Continuous
 62
     5
100
AcDbLine
 10
176.3000000000002
 20
-45.06287253979917
 30
0.0
 11
177.5148694913996
 21
-45.06287253979917
 31
0.0
  0
LINE
  5
13F
330
6F
100
AcDbEntity
  8
DETAIL
  6
Continuous
 62
     5
100
AcDbLine
 10
175.9999999999991
 20
-44.57806291949919
 30
0.0
 11
176.5592450247995
 21
-44.57806291949919
 31
0.0
  0
LINE
  5
140
330
6F
100
AcDbEntity
  8
DETAIL
  6
Continuous
 62
     5
100
AcDbLine
 10
175.4935932697999
 20
-44.08114134519927
 30
0.0
 11
174.9999999999991
 21
-44.08114134519927
 31
0.0
  0
LINE
  5
141
330
6F
100
AcDbEntity
  8
DETAIL
  6
Continuous
 62
     5
100
AcDbLine
 10
170.3075461766993
 20
-41.82301084199933
 30
0.0
 11
109.5924538232002
 21
-41.82301084199933
 31
0.0
  0
LINE
  5
142
330
6F
100
AcDbEntity
  8
DETAIL
  6
Continuous
 62
     5
100
AcDbLine
 10
-109.6924538233006
 20
-41.82301084199933
 30
0.0
 11
-170.4075461767997
 21
-41.82301084199933
 31
0.0
  0
LINE
  5
143
330
6F
100
AcDbEntity
  8
DETAIL
  6
Continuous
 62
     5
100
AcDbLine
 10
162.1857517530998
 20
-39.08114134519929
 30
0.0
 11
117.714248246798
 21
-39.08114134519929
 31
0.0
  0
LINE
  5
144
330
6F
100
AcDbEntity
  8
DETAIL
  6
Continuous
 62
     5
100
AcDbLine
 10
-117.8142482469002
 20
-39.08114134519929
 30
0.0
 11
-162.285751753202
 21
-39.08114134519929
 31
0.0
  0
LINE
  5
145
330
6F
100
AcDbEntity
  8
DETAIL
  6
Continuous
 62
     5
100
AcDbLine
 10
397.4999999999992
 20
-29.99999999999909
 30
0.0
 11
399.9999999999992
 21
-29.99999999999909
 31
0.0
  0
LINE
  5
146
330
6F
100
AcDbEntity
  8
DETAIL
  6
Continuous
 62
     5
100
AcDbLine
 10
382.9999999999992
 20
-27.99999999999909
 30
0.0
 11
397.4999999999992
 21
-27.99999999999909
 31
0.0
  0
LINE
  5
147
330
6F
100
AcDbEntity
  8
DETAIL
  6
Continuous
 62
     5
100
AcDbLine
 10
399.9999999999992
 20
-27.99999999999909
 30
0.0
 11
407.4999999999991
 21
-27.99999999999909
 31
0.0
  0
LINE
  5
148
330
6F
100
AcDbEntity
  8
DETAIL
  6
Continuous
 62
     5
100
AcDbLine
 10
329.0166650310994
 20
-27.83998285069902
 30
0.0
 11
192.9209470887699
 21
-27.83998285053713
 31
0.0
  0
LINE
  5
149
330
6F
100
AcDbEntity
  8
DETAIL
  6
Continuous
 62
     5
100
AcDbLine
 10
76.97905291089864
 20
-27.83998285069902
 30
0.0
 11
-87.07905291075894
 21
-27.83998285081271
 31
0.0
  0
LINE
  5
14A
330
6F
100
AcDbEntity
  8
DETAIL
  6
Continuous
 62
     5
100
AcDbLine
 10
329.0166650310975
 20
-27.83998285069902
 30
0.0
 11
242.9209470889991
 21
-27.83998285069902
 31
0.0
  0
LINE
  5
14B
330
6F
100
AcDbEntity
  8
DETAIL
  6
Continuous
 62
     5
100
AcDbLine
 10
86.97905291065856
 20
-27.83998285087091
 30
0.0
 11
-77.07905291100086
 21
-27.83998285069902
 31
0.0
  0
LINE
  5
14C
330
6F
100
AcDbEntity
  8
DETAIL
  6
Continuous
 62
     5
100
AcDbLine
 10
-193.0209470893414
 20
-27.83998285087091
 30
0.0
 11
-329.0166650312012
 21
-27.83998285069902
 31
0.0
  0
LINE
  5
14D
330
6F
100
AcDbEntity
  8
DETAIL
  6
Continuous
 62
     5
100
AcDbLine
 10
349.4999999999992
 20
-26.99999999999909
 30
0.0
 11
349.9999999999992
 21
-26.99999999999909
 31
0.0
  0
LINE
  5
14E
330
6F
100
AcDbEntity
  8
DETAIL
  6
Continuous
 62
     5
100
AcDbLine
 10
349.9999999999992
 20
-26.39999999999918
 30
0.0
 11
349.4999999999992
 21
-26.39999999999918
 31
0.0
  0
LINE
  5
14F
330
6F
100
AcDbEntity
  8
DETAIL
  6
Continuous
 62
     5
100
AcDbLine
 10
351.699999999998
 20
-20.49999999999909
 30
0.0
 11
397.3000000000001
 21
-20.49999999999909
 31
0.0
  0
LINE
  5
150
330
6F
100
AcDbEntity
  8
DETAIL
  6
Continuous
 62
     5
100
AcDbLine
 10
329.2166650310983
 20
-18.24122035499931
 30
0.0
 11
329.0166650310994
 21
-18.24122035499931
 31
0.0
  0
LINE
  5
151
330
6F
100
AcDbEntity
  8
DETAIL
  6
Continuous
 62
     5
100
AcDbLine
 10
351.699999999998
 20
-17.99999999999909
 30
0.0
 11
397.3000000000001
 21
-17.99999999999909
 31
0.0
  0
LINE
  5
152
330
6F
100
AcDbEntity
  8
DETAIL
  6
Continuous
 62
     5
100
AcDbLine
 10
352.9999999999991
 20
-16.49999999999909
 30
0.0
 11
349.9999999999992
 21
-16.49999999999909
 31
0.0
  0
LINE
  5
153
330
6F
100
AcDbEntity
  8
DETAIL
  6
Continuous
 62
     5
100
AcDbLine
 10
329.0166650310994
 20
-12.44083232309913
 30
0.0
 11
-329.0166650312012
 21
-12.44083232309913
 31
0.0
  0
LINE
  5
154
330
6F
100
AcDbEntity
  8
DETAIL
  6
Continuous
 62
     5
100
AcDbLine
 10
-344.5000000000009
 20
-2.999999999999089
 30
0.0
 11
344.4999999999991
 21
-2.999999999999089
 31
0.0
  0
LINE
  5
155
330
6F
100
AcDbEntity
  8
DETAIL
  6
Continuous
 62
     5
100
AcDbLine
 10
-350.0000000000008
 20
0.0000000000009095
 30
0.0
 11
349.9999999999992
 21
0.0000000000009095
 31
0.0
  0
LINE
  5
156
330
6F
100
AcDbEntity
  8
DETAIL
  6
Continuous
 62
     5
100
AcDbLine
 10
353.9825475935004
 20
-27.24349848419933
 30
0.0
 11
382.9999999999992
 21
-27.74999999999909
 31
0.0
  0
LINE
  5
157
330
6F
100
AcDbEntity
  8
DETAIL
  6
Continuous
 62
     5
100
AcDbLine
 10
175.7776887780991
 20
-44.55617622069893
 30
0.0
 11
175.9999999999991
 21
-44.57806291949919
 31
0.0
  0
LWPOLYLINE
  5
158
330
6F
100
AcDbEntity
  8
DETAIL
  6
Continuous
 62
     5
100
AcDbPolyline
 90
       23
 70
     0
 43
0.0
 10
-193.6310000166004
 20
-208.8008105292993
 10
-190.7462360743002
 20
-210.1714822134991
 10
-187.5781586654002
 20
-211.5382168675992
 10
-184.0665287682013
 20
-212.8694528791994
 10
-180.152261345801
 20
-214.1269369490992
 10
-175.7765728028016
 20
-215.2652310598992
 10
-170.8716449112007
 20
-216.2440252277992
 10
-165.3851991680994
 20
-217.0296104064992
 10
-159.390157053901
 20
-217.5980807814994
 10
-153.0721003341996
 20
-217.9586161921989
 10
-146.5910397597008
 20
-218.149906629299
 10
-140.050000000002
 20
-218.2088645075992
 10
-133.5089602403995
 20
-218.149906629299
 10
-127.0278996659008
 20
-217.9586161921989
 10
-120.7098429462012
 20
-217.5980807814994
 10
-114.7148008319009
 20
-217.0296104064992
 10
-109.2283550888996
 20
-216.2440252277992
 10
-104.3234271973006
 20
-215.2652310598992
 10
-99.94773865429943
 20
-214.1269369490992
 10
-96.03347123190088
 20
-212.8694528791994
 10
-92.52184133470199
 20
-211.5382168675992
 10
-89.353763925802
 20
-210.1714822134991
 10
-86.46899998339995
 20
-208.8008105292993
  0
LINE
  5
171
330
6F
100
AcDbEntity
  8
DETAIL
  6
Continuous
 62
     5
100
AcDbLine
 10
178.0130255876001
 20
-76.06316957089894
 30
0.0
 11
177.9746951671995
 21
-76.07842020919907
 31
0.0
  0
LINE
  5
172
330
6F
100
AcDbEntity
  8
DETAIL
  6
Continuous
 62
     5
100
AcDbLine
 10
336.3605285840995
 20
-10.93564555329884
 30
0.0
 11
332.1482317183992
 21
-12.50949535889913
 31
0.0
  0
LWPOLYLINE
  5
173
330
6F
100
AcDbEntity
  8
DETAIL
  6
Continuous
 62
     5
100
AcDbPolyline
 90
        4
 70
     0
 43
0.0
 10
332.1482317183992
 20
-12.50949535889913
 10
331.7855317451986
 20
-12.64446978749946
 10
331.4084314943002
 20
-12.78378157669886
 10
331.014140582699
 20
-12.92859046959893
  0
LWPOLYLINE
  5
179
330
6F
100
AcDbEntity
  8
DETAIL
  6
Continuous
 62
     5
100
AcDbPolyline
 90
        3
 70
     0
 43
0.0
 10
329.7117450987979
 20
-13.40463028719932
 10
329.2405040729982
 20
-13.57758700199883
 10
329.0166650310994
 20
-13.6602552416989
  0
LINE
  5
17E
330
6F
100
AcDbEntity
  8
DETAIL
  6
Continuous
 62
     5
100
AcDbLine
 10
331.014140582699
 20
-12.92859046959893
 30
0.0
 11
329.7117450987979
 21
-13.40463028719932
 31
0.0
  0
LWPOLYLINE
  5
17F
330
6F
100
AcDbEntity
  8
DETAIL
  6
Continuous
 62
     5
100
AcDbPolyline
 90
        5
 70
     0
 43
0.0
 10
329.713553211598
 20
-223.5960341773989
 10
331.0146427187983
 20
-224.0715923647995
 10
331.4090017993994
 20
-224.2164284849991
 10
331.7860419278995
 20
-224.3557187748994
 10
332.1482312659
 20
-224.4905044967991
  0
LWPOLYLINE
  5
186
330
6F
100
AcDbEntity
  8
DETAIL
  6
Continuous
 62
     5
100
AcDbPolyline
 90
        3
 70
     0
 43
0.0
 10
329.0166650310994
 20
-223.3397444242992
 10
329.2422763033982
 20
-223.4230636470993
 10
329.713553211598
 20
-223.5960341773989
  0
LINE
  5
18B
330
6F
100
AcDbEntity
  8
DETAIL
  6
Continuous
 62
     5
100
AcDbLine
 10
332.1482312659
 20
-224.4905044967991
 30
0.0
 11
336.3605285840995
 21
-226.0643544466993
 31
0.0
  0
LINE
  5
18C
330
6F
100
AcDbEntity
  8
DETAIL
  6
Continuous
 62
     5
100
AcDbLine
 10
180.0253048327004
 20
-174.9795827393991
 30
0.0
 11
179.9869744122998
 21
-174.964332101099
 31
0.0
  0
LWPOLYLINE
  5
18D
330
6F
100
AcDbEntity
  8
DETAIL
  6
Continuous
 62
     5
100
AcDbPolyline
 90
       23
 70
     0
 43
0.0
 10
86.36899998339961
 20
-208.8008105292993
 10
89.25376392569978
 20
-210.1714822134991
 10
92.42184133459977
 20
-211.5382168675992
 10
95.93347123179865
 20
-212.8694528791994
 10
99.84773865419905
 20
-214.1269369490992
 10
104.2234271971983
 20
-215.2652310598992
 10
109.1283550887992
 20
-216.2440252277992
 10
114.6148008319005
 20
-217.0296104064992
 10
120.6098429460989
 20
-217.5980807814994
 10
126.9278996658004
 20
-217.9586161921989
 10
133.4089602402992
 20
-218.149906629299
 10
139.949999999998
 20
-218.2088645075992
 10
146.4910397596004
 20
-218.149906629299
 10
152.9721003340991
 20
-217.9586161921989
 10
159.2901570537988
 20
-217.5980807814994
 10
165.2851991680991
 20
-217.0296104064992
 10
170.7716449111003
 20
-216.2440252277992
 10
175.6765728026994
 20
-215.2652310598992
 10
180.0522613457006
 20
-214.1269369490992
 10
183.9665287680991
 20
-212.8694528791994
 10
187.478158665298
 20
-211.5382168675992
 10
190.646236074198
 20
-210.1714822134991
 10
193.5310000166
 20
-208.8008105292993
  0
LWPOLYLINE
  5
1A6
330
6F
100
AcDbEntity
  8
DETAIL
  6
Continuous
 62
     5
100
AcDbPolyline
 90
       30
 70
     0
 43
0.0
 10
-193.6310000166004
 20
-208.8008105292993
 10
-191.3948059687018
 20
-210.4095783001994
 10
-189.0013435786995
 20
-212.014332211299
 10
-186.4264496615005
 20
-213.594036115599
 10
-183.6439363131021
 20
-215.1245069018992
 10
-180.6282752368015
 20
-216.5794112995991
 10
-177.3570978512007
 20
-217.9267759506993
 10
-173.8049193607011
 20
-219.1404107196991
 10
-169.9476050750008
 20
-220.1956107060992
 10
-165.7778995030012
 20
-221.0736913249994
 10
-161.3426994632018
 20
-221.7610883205989
 10
-156.7259717455008
 20
-222.262441571399
 10
-152.0068585332001
 20
-222.6008104314992
 10
-147.2367318101014
 20
-222.8056011452991
 10
-142.446586364701
 20
-222.9012643311989
 10
-137.6534136354012
 20
-222.9012643311989
 10
-132.8632681899007
 20
-222.8056011452991
 10
-128.0931414669021
 20
-222.6008104314992
 10
-123.3740282544995
 20
-222.262441571399
 10
-118.7573005368003
 20
-221.7610883205989
 10
-114.322100497101
 20
-221.0736913249994
 10
-110.1523949249995
 20
-220.1956107060992
 10
-106.295080639401
 20
-219.1404107196991
 10
-102.7429021488015
 20
-217.9267759506993
 10
-99.47172476330068
 20
-216.5794112995991
 10
-96.45606368700008
 20
-215.1245069018992
 10
-93.67355033859984
 20
-213.594036115599
 10
-91.09865642140084
 20
-212.014332211299
 10
-88.70519403130034
 20
-210.4095783001994
 10
-86.46899998339995
 20
-208.8008105292993
  0
LINE
  5
1C6
330
6F
100
AcDbEntity
  8
DETAIL
  6
Continuous
 62
     5
100
AcDbLine
 10
177.9746951671995
 20
-76.07842020919907
 30
0.0
 11
177.7943690621005
 21
-76.18494645489909
 31
0.0
  0
LINE
  5
1C7
330
6F
100
AcDbEntity
  8
DETAIL
  6
Continuous
 62
     5
100
AcDbLine
 10
178.0130255876001
 20
-174.964332101099
 30
0.0
 11
177.9746951671995
 21
-174.9795827393991
 31
0.0
  0
LINE
  5
1C8
330
6F
100
AcDbEntity
  8
DETAIL
  6
Continuous
 62
     5
100
AcDbLine
 10
180.0253048327004
 20
-76.07842020919907
 30
0.0
 11
179.9869744122998
 21
-76.06316957089894
 31
0.0
  0
LINE
  5
1C9
330
6F
100
AcDbEntity
  8
DETAIL
  6
Continuous
 62
     5
100
AcDbLine
 10
185.9999999999991
 20
-105.8315239700991
 30
0.0
 11
185.8263518223002
 21
-105.753290829899
 31
0.0
  0
LWPOLYLINE
  5
1CA
330
6F
100
AcDbEntity
  8
DETAIL
  6
Continuous
 62
     5
100
AcDbPolyline
 90
       23
 70
     0
 43
0.0
 10
-87.07905291100088
 20
-27.83998285069902
 10
-89.95941952440167
 20
-26.49229740359897
 10
-93.12189474610113
 20
-25.14830192609907
 10
-96.62498691130078
 20
-23.83864644069945
 10
-100.5257382021
 20
-22.60043705999943
 10
-104.8793077481996
 20
-21.4777381517988
 10
-109.7478272608014
 20
-20.50975007689885
 10
-115.1741511950995
 20
-19.72943460339911
 10
-121.0788078017003
 20
-19.16048772969907
 10
-127.2832779851005
 20
-18.79523709389923
 10
-133.6387644978012
 20
-18.59873446899928
 10
-140.050000000002
 20
-18.53758870399905
 10
-146.4612355023009
 20
-18.59873446899928
 10
-152.8167220150017
 20
-18.79523709389923
 10
-159.0211921983018
 20
-19.16048772969907
 10
-164.9258488050009
 20
-19.72943460339911
 10
-170.3521727393008
 20
-20.50975007689885
 10
-175.2206922519008
 20
-21.4777381517988
 10
-179.5742617980004
 20
-22.60043705999943
 10
-183.4750130886996
 20
-23.83864644069945
 10
-186.978105253901
 20
-25.14830192609907
 10
-190.1405804757004
 20
-26.49229740359897
 10
-193.0209470891013
 20
-27.83998285069902
  0
LWPOLYLINE
  5
1E3
330
6F
100
AcDbEntity
  8
DETAIL
  6
Continuous
 62
     5
100
AcDbPolyline
 90
       30
 70
     0
 43
0.0
 10
-87.07905291100088
 20
-27.83998285069902
 10
-89.31105727510203
 20
-26.25875875869906
 10
-91.69974585070212
 20
-24.68130461129931
 10
-94.26874337540084
 20
-23.12799814289883
 10
-97.04329967330068
 20
-21.62228729739945
 10
-100.0479685904019
 20
-20.18977718799943
 10
-103.3034066833997
 20
-18.86148752129884
 10
-106.8328512538019
 20
-17.66295074689924
 10
-110.6571741590005
 20
-16.61814709579903
 10
-114.7793530736007
 20
-15.74553170799936
 10
-119.1502641776014
 20
-15.05851559729945
 10
-123.688965290602
 20
-14.55320115959921
 10
-128.3217684622004
 20
-14.20854493359911
 10
-133.0014391249014
 20
-13.99774296239911
 10
-137.6995445484998
 20
-13.89849488089931
 10
-142.4004554516004
 20
-13.89849488089931
 10
-147.0985608752007
 20
-13.99774296239911
 10
-151.7782315378016
 20
-14.20854493359911
 10
-156.4110347095001
 20
-14.55320115959921
 10
-160.9497358225008
 20
-15.05851559729945
 10
-165.3206469263996
 20
-15.74553170799936
 10
-169.4428258411017
 20
-16.61814709579903
 10
-173.2671487463003
 20
-17.66295074689924
 10
-176.7965933166006
 20
-18.86148752129884
 10
-180.0520314097002
 20
-20.18977718799943
 10
-183.0567003267015
 20
-21.62228729739945
 10
-185.8312566246995
 20
-23.12799814289883
 10
-188.4002541494001
 20
-24.68130461129931
 10
-190.7889427250002
 20
-26.25875875869906
 10
-193.0209470891013
 20
-27.83998285069902
  0
LWPOLYLINE
  5
203
330
6F
100
AcDbEntity
  8
DETAIL
  6
Continuous
 62
     5
100
AcDbPolyline
 90
       30
 70
     0
 43
0.0
 10
86.36899998339961
 20
-208.8008105292993
 10
88.60519403129819
 20
-210.4095783001994
 10
90.99865642130046
 20
-212.014332211299
 10
93.57355033849943
 20
-213.594036115599
 10
96.35606368689787
 20
-215.1245069018992
 10
99.37172476319849
 20
-216.5794112995991
 10
102.6429021487992
 20
-217.9267759506993
 10
106.1950806392988
 20
-219.1404107196991
 10
110.052394924999
 20
-220.1956107060992
 10
114.2221004969988
 20
-221.0736913249994
 10
118.6573005367981
 20
-221.7610883205989
 10
123.2740282544992
 20
-222.262441571399
 10
127.9931414667999
 20
-222.6008104314992
 10
132.7632681898985
 20
-222.8056011452991
 10
137.553413635399
 20
-222.9012643311989
 10
142.3465863645988
 20
-222.9012643311989
 10
147.1367318100992
 20
-222.8056011452991
 10
151.9068585330979
 20
-222.6008104314992
 10
156.6259717455004
 20
-222.262441571399
 10
161.2426994631996
 20
-221.7610883205989
 10
165.677899502899
 20
-221.0736913249994
 10
169.8476050750005
 20
-220.1956107060992
 10
173.7049193605988
 20
-219.1404107196991
 10
177.2570978511985
 20
-217.9267759506993
 10
180.5282752366993
 20
-216.5794112995991
 10
183.5439363129999
 20
-215.1245069018992
 10
186.3264496614001
 20
-213.594036115599
 10
188.9013435785991
 20
-212.014332211299
 10
191.2948059686996
 20
-210.4095783001994
 10
193.5310000166
 20
-208.8008105292993
  0
LWPOLYLINE
  5
223
330
6F
100
AcDbEntity
  8
DETAIL
  6
Continuous
 62
     5
100
AcDbPolyline
 90
        4
 70
     0
 43
0.0
 10
177.7943690621005
 20
-76.18494645489909
 10
177.6603746777991
 20
-76.30648137199933
 10
177.5778613433986
 20
-76.43835444159916
 10
177.5500000000002
 20
-76.57549785579885
  0
LWPOLYLINE
  5
229
330
6F
100
AcDbEntity
  8
DETAIL
  6
Continuous
 62
     5
100
AcDbPolyline
 90
        4
 70
     0
 43
0.0
 10
356.8597939494984
 20
-20.55857878679944
 10
356.8974099354992
 20
-20.5290486262993
 10
356.9473934278985
 20
-20.50737848739936
 10
357.0012142086989
 20
-20.50000068309919
  0
LWPOLYLINE
  5
22F
330
6F
100
AcDbEntity
  8
DETAIL
  6
Continuous
 62
     5
100
AcDbPolyline
 90
        4
 70
     0
 43
0.0
 10
181.983383350699
 20
-77.31333134879924
 10
182.1650635093982
 20
-77.18150988109937
 10
182.3096988311999
 20
-77.03931937959895
 10
182.3895009559992
 20
-76.92534573859939
  0
LWPOLYLINE
  5
235
330
6F
100
AcDbEntity
  8
DETAIL
  6
Continuous
 62
     5
100
AcDbPolyline
 90
        6
 70
     0
 43
0.0
 10
181.983383350699
 20
-78.01302711449898
 10
182.1650635093982
 20
-77.8812056467991
 10
182.3096988311999
 20
-77.73901514529916
 10
182.4148145656991
 20
-77.58888852889914
 10
182.4786121533989
 20
-77.43339450569918
 10
182.4999999999991
 20
-77.27519362149904
  0
LWPOLYLINE
  5
23D
330
6F
100
AcDbEntity
  8
DETAIL
  6
Continuous
 62
     5
100
AcDbPolyline
 90
        4
 70
     0
 43
0.0
 10
181.983383350699
 20
-176.2144938790989
 10
182.1650635093982
 20
-176.0826724112994
 10
182.3096988311999
 20
-175.940481909799
 10
182.3895009559992
 20
-175.8265082688994
  0
LWPOLYLINE
  5
243
330
6F
100
AcDbEntity
  8
DETAIL
  6
Continuous
 62
     5
100
AcDbPolyline
 90
        6
 70
     0
 43
0.0
 10
181.983383350699
 20
-176.914189644799
 10
182.1650635093982
 20
-176.7823681769991
 10
182.3096988311999
 20
-176.6401776754992
 10
182.4148145656991
 20
-176.4900510591991
 10
182.4786121533989
 20
-176.3345570358992
 10
182.4999999999991
 20
-176.1763561516991
  0
LINE
  5
24B
330
6F
100
AcDbEntity
  8
DETAIL
  6
Continuous
 62
     5
100
AcDbLine
 10
177.9746951671995
 20
-174.9795827393991
 30
0.0
 11
177.7943690621005
 21
-175.0861089851992
 31
0.0
  0
LWPOLYLINE
  5
24C
330
6F
100
AcDbEntity
  8
DETAIL
  6
Continuous
 62
     5
100
AcDbPolyline
 90
        6
 70
     0
 43
0.0
 10
427.4999999999988
 20
-165.1558976589994
 10
428.3339009918988
 20
-164.7053295633991
 10
429.4962908768002
 20
-163.5748623053991
 10
430.3298823676986
 20
-162.1155966534989
 10
430.8320169279004
 20
-160.324874070899
 10
430.9999999999988
 20
-158.1999999999989
  0
LWPOLYLINE
  5
254
330
6F
100
AcDbEntity
  8
DETAIL
  6
Continuous
 62
     5
100
AcDbPolyline
 90
       23
 70
     0
 43
0.0
 10
192.9209470889991
 20
-27.83998285069902
 10
190.0405804755983
 20
-26.49229740359897
 10
186.8781052538988
 20
-25.14830192609907
 10
183.3750130886992
 20
-23.83864644069945
 10
179.4742617979
 20
-22.60043705999943
 10
175.1206922518004
 20
-21.4777381517988
 10
170.2521727391986
 20
-20.50975007689885
 10
164.8258488049005
 20
-19.72943460339911
 10
158.9211921982996
 20
-19.16048772969907
 10
152.7167220148994
 20
-18.79523709389923
 10
146.3612355021987
 20
-18.59873446899928
 10
139.949999999998
 20
-18.53758870399905
 10
133.538764497699
 20
-18.59873446899928
 10
127.1832779849983
 20
-18.79523709389923
 10
120.9788078016981
 20
-19.16048772969907
 10
115.0741511949991
 20
-19.72943460339911
 10
109.6478272606991
 20
-20.50975007689885
 10
104.7793077480992
 20
-21.4777381517988
 10
100.4257382019996
 20
-22.60043705999943
 10
96.52498691130041
 20
-23.83864644069945
 10
93.02189474609892
 20
-25.14830192609907
 10
89.85941952429948
 20
-26.49229740359897
 10
86.97905291089865
 20
-27.83998285069902
  0
LWPOLYLINE
  5
26D
330
6F
100
AcDbEntity
  8
DETAIL
  6
Continuous
 62
     5
100
AcDbPolyline
 90
        6
 70
     0
 43
0.0
 10
427.4999999999988
 20
-151.2441023409992
 10
428.3339009918988
 20
-151.6946704365991
 10
429.4962908768002
 20
-152.8251376945991
 10
430.3298823676986
 20
-154.284403346599
 10
430.8320169279004
 20
-156.0751259291992
 10
430.9999999999988
 20
-158.1999999999989
  0
LWPOLYLINE
  5
275
330
6F
100
AcDbEntity
  8
DETAIL
  6
Continuous
 62
     5
100
AcDbPolyline
 90
        9
 70
     0
 43
0.0
 10
185.8263518223002
 20
-105.753290829899
 10
185.657979856599
 20
-105.652820652399
 10
185.4999999999991
 20
-105.5311321407989
 10
185.3572123903004
 20
-105.3898887067989
 10
185.2339555568004
 20
-105.2313479283993
 10
185.1339745962004
 20
-105.058292954599
 10
185.0603073791981
 20
-104.8739479410992
 10
185.0151922470003
 20
-104.681880085599
 10
184.9999999999991
 20
-104.4858912404988
  0
LWPOLYLINE
  5
280
330
6F
100
AcDbEntity
  8
DETAIL
  6
Continuous
 62
     5
100
AcDbPolyline
 90
        9
 70
     0
 43
0.0
 10
182.1650635093982
 20
-175.570344126399
 10
181.983383350699
 20
-175.4385226586992
 10
181.7677669528993
 20
-175.3193257265992
 10
181.5219035724993
 20
-175.2147928226991
 10
181.2499999999991
 20
-175.1267125338991
 10
180.9567085809003
 20
-175.0565919384989
 10
180.6470476126986
 20
-175.0056308191988
 10
180.3263154804999
 20
-174.9747011348991
 10
179.9999999999991
 20
-174.964332101099
  0
LWPOLYLINE
  5
28B
330
6F
100
AcDbEntity
  8
DETAIL
  6
Continuous
 62
     5
100
AcDbPolyline
 90
        5
 70
     0
 43
0.0
 10
173.6427599471981
 20
-46.5418964533992
 10
173.4945523459982
 20
-46.70175983519948
 10
173.3869934350996
 20
-46.86928599029942
 10
173.3217268976996
 20
-47.04227099309901
 10
173.3000000000002
 20
-47.2169971661992
  0
LINE
  5
292
330
6F
100
AcDbEntity
  8
DETAIL
  6
Continuous
 62
     5
100
AcDbLine
 10
356.8591869262991
 20
-20.55918969209916
 30
0.0
 11
351.5590649934992
 21
-25.85931162479937
 31
0.0
  0
LWPOLYLINE
  5
293
330
6F
100
AcDbEntity
  8
DETAIL
  6
Continuous
 62
     5
100
AcDbPolyline
 90
        4
 70
     0
 43
0.0
 10
177.7943690621005
 20
-175.0861089851992
 10
177.6603746777991
 20
-175.2076439021994
 10
177.5778613433986
 20
-175.3395169718992
 10
177.5500000000002
 20
-175.4766603859989
  0
LWPOLYLINE
  5
299
330
6F
100
AcDbEntity
  8
DETAIL
  6
Continuous
 62
     5
100
AcDbPolyline
 90
        5
 70
     0
 43
0.0
 10
406.4999999999987
 20
-129.3439573788992
 10
407.2728904619989
 20
-128.8243623245987
 10
407.9776490776994
 20
-127.895787606999
 10
408.4048089793005
 20
-126.6896141751995
 10
408.5485281373992
 20
-125.1999999999989
  0
LWPOLYLINE
  5
2A0
330
6F
100
AcDbEntity
  8
DETAIL
  6
Continuous
 62
     5
100
AcDbPolyline
 90
        5
 70
     0
 43
0.0
 10
406.4999999999987
 20
-121.0560426210991
 10
407.2728904619989
 20
-121.5756376753988
 10
407.9776490776994
 20
-122.5042123929988
 10
408.4048089793005
 20
-123.7103858247992
 10
408.5485281373992
 20
-125.1999999999989
  0
LWPOLYLINE
  5
2A7
330
6F
100
AcDbEntity
  8
DETAIL
  6
Continuous
 62
     5
100
AcDbPolyline
 90
       30
 70
     0
 43
0.0
 10
192.9209470889991
 20
-27.83998285069902
 10
190.6889427248979
 20
-26.25875875869906
 10
188.3002541492978
 20
-24.68130461129931
 10
185.7312566245991
 20
-23.12799814289883
 10
182.9567003266993
 20
-21.62228729739945
 10
179.952031409598
 20
-20.18977718799943
 10
176.6965933166002
 20
-18.86148752129884
 10
173.167148746198
 20
-17.66295074689924
 10
169.3428258409994
 20
-16.61814709579903
 10
165.2206469263992
 20
-15.74553170799936
 10
160.8497358223984
 20
-15.05851559729945
 10
156.3110347094998
 20
-14.55320115959921
 10
151.6782315377994
 20
-14.20854493359911
 10
146.9985608750984
 20
-13.99774296239911
 10
142.3004554515
 20
-13.89849488089931
 10
137.5995445483995
 20
-13.89849488089931
 10
132.9014391247992
 20
-13.99774296239911
 10
128.2217684621983
 20
-14.20854493359911
 10
123.5889652904998
 20
-14.55320115959921
 10
119.0502641774992
 20
-15.05851559729945
 10
114.6793530736004
 20
-15.74553170799936
 10
110.5571741588983
 20
-16.61814709579903
 10
106.7328512536996
 20
-17.66295074689924
 10
103.2034066833994
 20
-18.86148752129884
 10
99.94796859029976
 20
-20.18977718799943
 10
96.94329967329849
 20
-21.62228729739945
 10
94.16874337530044
 20
-23.12799814289883
 10
91.59974585059988
 20
-24.68130461129931
 10
89.21105727499979
 20
-26.25875875869906
 10
86.97905291089865
 20
-27.83998285069902
  0
LWPOLYLINE
  5
2C7
330
6F
100
AcDbEntity
  8
DETAIL
  6
Continuous
 62
     5
100
AcDbPolyline
 90
        9
 70
     0
 43
0.0
 10
182.1650635093982
 20
-76.66918159619945
 10
181.983383350699
 20
-76.53736012839907
 10
181.7677669528993
 20
-76.41816319629923
 10
181.5219035724993
 20
-76.31363029239945
 10
181.2499999999991
 20
-76.22555000369901
 10
180.9567085809003
 20
-76.15542940819887
 10
180.6470476126986
 20
-76.10446828889917
 10
180.3263154804999
 20
-76.07353860459898
 10
179.9999999999991
 20
-76.06316957089894
  0
LWPOLYLINE
  5
2D2
330
6F
100
AcDbEntity
  8
DETAIL
  6
Continuous
 62
     5
100
AcDbPolyline
 90
       13
 70
     0
 43
0.0
 10
177.7494927173984
 20
-175.1268125031992
 10
177.7943690621005
 20
-175.1675160211989
 10
177.9746951671995
 20
-175.2740422668994
 10
178.1944231620991
 20
-175.361466097399
 10
178.4451090230004
 20
-175.4264278639993
 10
178.7171190329982
 20
-175.466431122299
 10
178.9999999999991
 20
-175.4799385696992
 10
179.2828809668981
 20
-175.466431122299
 10
179.5548909768994
 20
-175.4264278639993
 10
179.805576837799
 20
-175.361466097399
 10
180.0253048327004
 20
-175.2740422668994
 10
180.2056309377994
 20
-175.1675160211989
 10
180.2505072824978
 20
-175.1268125031992
  0
LWPOLYLINE
  5
2E1
330
6F
100
AcDbEntity
  8
DETAIL
  6
Continuous
 62
     5
100
AcDbPolyline
 90
        3
 70
     0
 43
0.0
 10
180.339625322099
 20
-175.2076439021994
 10
180.2056309377994
 20
-175.0861089851992
 10
180.0253048327004
 20
-174.9795827393991
  0
LWPOLYLINE
  5
2E6
330
6F
100
AcDbEntity
  8
DETAIL
  6
Continuous
 62
     5
100
AcDbPolyline
 90
       13
 70
     0
 43
0.0
 10
177.7494927173984
 20
-76.22564997289919
 10
177.7943690621005
 20
-76.2663534908988
 10
177.9746951671995
 20
-76.37287973659931
 10
178.1944231620991
 20
-76.46030356719894
 10
178.4451090230004
 20
-76.52526533379933
 10
178.7171190329982
 20
-76.56526859209906
 10
178.9999999999991
 20
-76.57877603939913
 10
179.2828809668981
 20
-76.56526859209906
 10
179.5548909768994
 20
-76.52526533379933
 10
179.805576837799
 20
-76.46030356719894
 10
180.0253048327004
 20
-76.37287973659931
 10
180.2056309377994
 20
-76.2663534908988
 10
180.2505072824978
 20
-76.22564997289919
  0
LWPOLYLINE
  5
2F5
330
6F
100
AcDbEntity
  8
DETAIL
  6
Continuous
 62
     5
100
AcDbPolyline
 90
        3
 70
     0
 43
0.0
 10
180.339625322099
 20
-76.30648137199933
 10
180.2056309377994
 20
-76.18494645489909
 10
180.0253048327004
 20
-76.07842020919907
  0
LWPOLYLINE
  5
2FA
330
6F
100
AcDbEntity
  8
DETAIL
  6
Continuous
 62
     5
100
AcDbPolyline
 90
        4
 70
     0
 43
0.0
 10
175.6903011687
 20
-76.81137209769895
 10
175.585185434199
 20
-76.96149871409942
 10
175.5213878464991
 20
-77.11699273729937
 10
175.4999999999991
 20
-77.27519362149904
  0
LWPOLYLINE
  5
300
330
6F
100
AcDbEntity
  8
DETAIL
  6
Continuous
 62
     5
100
AcDbPolyline
 90
        4
 70
     0
 43
0.0
 10
175.6903011687
 20
-175.712534627899
 10
175.585185434199
 20
-175.8626612442994
 10
175.5213878464991
 20
-176.0181552674994
 10
175.4999999999991
 20
-176.1763561516991
  0
LWPOLYLINE
  5
306
330
6F
100
AcDbEntity
  8
DETAIL
  6
Continuous
 62
     5
100
AcDbPolyline
 90
        5
 70
     0
 43
0.0
 10
390.2017059220988
 20
-112.498294077799
 10
389.4446509003984
 20
-113.3459165967988
 10
388.9161367735005
 20
-114.1466171866991
 10
388.6036586076998
 20
-114.9168793468989
 10
388.4999999842994
 20
-115.6737204439991
  0
LINE
  5
30D
330
6F
100
AcDbEntity
  8
DETAIL
  6
Continuous
 62
     5
100
AcDbLine
 10
388.4999999999991
 20
-114.1999999999989
 30
0.0
 11
390.2017059220988
 21
-112.498294077799
 31
0.0
  0
LINE
  5
30E
330
6F
100
AcDbEntity
  8
DETAIL
  6
Continuous
 62
     5
100
AcDbLine
 10
385.6850454237001
 20
-135.0149545761992
 30
0.0
 11
386.9999999999992
 21
-133.6999999999989
 31
0.0
  0
LINE
  5
30F
330
6F
100
AcDbEntity
  8
DETAIL
  6
Continuous
 62
     5
100
AcDbLine
 10
404.7982940777991
 20
-137.9017059221992
 30
0.0
 11
406.4999999999987
 21
-136.1999999999989
 31
0.0
  0
LINE
  5
310
330
6F
100
AcDbEntity
  8
DETAIL
  6
Continuous
 62
     5
100
AcDbLine
 10
401.4999999999989
 20
-143.4499999999989
 30
0.0
 11
403.4999999999991
 21
-141.4499999999989
 31
0.0
  0
LINE
  5
311
330
6F
100
AcDbEntity
  8
DETAIL
  6
Continuous
 62
     5
100
AcDbLine
 10
395.2209438086002
 20
-171.4790561913992
 30
0.0
 11
396.9999999999992
 21
-169.6999999999989
 31
0.0
  0
LINE
  5
312
330
6F
100
AcDbEntity
  8
DETAIL
  6
Continuous
 62
     5
100
AcDbLine
 10
423.4999999999988
 20
-172.9499999999989
 30
0.0
 11
427.4999999999988
 21
-169.6999999999989
 31
0.0
  0
LINE
  5
313
330
6F
100
AcDbEntity
  8
DETAIL
  6
Continuous
 62
     5
100
AcDbLine
 10
423.4999999999988
 20
-143.4499999999989
 30
0.0
 11
427.4999999999988
 21
-146.6999999999989
 31
0.0
  0
LINE
  5
314
330
6F
100
AcDbEntity
  8
DETAIL
  6
Continuous
 62
     5
100
AcDbLine
 10
401.4999999999989
 20
-172.9499999999989
 30
0.0
 11
403.4999999999991
 21
-174.9499999999988
 31
0.0
  0
LINE
  5
315
330
6F
100
AcDbEntity
  8
DETAIL
  6
Continuous
 62
     5
100
AcDbLine
 10
395.2209438086002
 20
-144.9209438085991
 30
0.0
 11
396.9999999999992
 21
-146.6999999999989
 31
0.0
  0
LINE
  5
316
330
6F
100
AcDbEntity
  8
DETAIL
  6
Continuous
 62
     5
100
AcDbLine
 10
388.4999999999991
 20
-136.1999999999989
 30
0.0
 11
390.2017059220988
 21
-137.9017059221992
 31
0.0
  0
LINE
  5
317
330
6F
100
AcDbEntity
  8
DETAIL
  6
Continuous
 62
     5
100
AcDbLine
 10
385.6850454237001
 20
-115.385045423799
 30
0.0
 11
386.9999999999992
 21
-116.6999999999989
 31
0.0
  0
LINE
  5
318
330
6F
100
AcDbEntity
  8
DETAIL
  6
Continuous
 62
     5
100
AcDbLine
 10
421.4999999999988
 20
-141.4499999999989
 30
0.0
 11
423.4999999999988
 21
-143.4499999999989
 31
0.0
  0
LINE
  5
319
330
6F
100
AcDbEntity
  8
DETAIL
  6
Continuous
 62
     5
100
AcDbLine
 10
404.7982940777991
 20
-112.498294077799
 30
0.0
 11
406.4999999999987
 21
-114.1999999999989
 31
0.0
  0
LWPOLYLINE
  5
31A
330
6F
100
AcDbEntity
  8
DETAIL
  6
Continuous
 62
     5
100
AcDbPolyline
 90
        6
 70
     0
 43
0.0
 10
395.2209438086002
 20
-164.8395280956993
 10
395.8831797002996
 20
-165.5643858603989
 10
396.3793907371992
 20
-166.2449274380992
 10
396.7254353278995
 20
-166.895332767499
 10
396.9314086932
 20
-167.5303436515991
 10
396.9999999999992
 20
-168.1592921434994
  0
LWPOLYLINE
  5
322
330
6F
100
AcDbEntity
  8
DETAIL
  6
Continuous
 62
     5
100
AcDbPolyline
 90
        5
 70
     0
 43
0.0
 10
175.0992600285981
 20
-44.08334191529911
 10
175.2178349557989
 20
-44.24839364939908
 10
175.3769287009991
 20
-44.38754017429892
 10
175.5656412725993
 20
-44.4912481422989
 10
175.7776887780991
 20
-44.55617622069893
  0
LWPOLYLINE
  5
329
330
6F
100
AcDbEntity
  8
DETAIL
  6
Continuous
 62
     5
100
AcDbPolyline
 90
       11
 70
     0
 43
0.0
 10
175.6104990438989
 20
-175.8265082688994
 10
175.6903011687
 20
-175.940481909799
 10
175.8349364904979
 20
-176.0826724112994
 10
176.016616649199
 20
-176.2144938790989
 10
176.2322330469987
 20
-176.3336908111992
 10
176.4780964274005
 20
-176.4382237150994
 10
176.7499999999991
 20
-176.526304003899
 10
177.0432914190996
 20
-176.5964245992991
 10
177.3529523871993
 20
-176.6473857185992
 10
177.6736845193999
 20
-176.678315402899
 10
177.9999999999991
 20
-176.688684436599
  0
LWPOLYLINE
  5
336
330
6F
100
AcDbEntity
  8
DETAIL
  6
Continuous
 62
     5
100
AcDbPolyline
 90
        3
 70
     0
 43
0.0
 10
182.4148145656991
 20
-175.8626612442994
 10
182.3096988311999
 20
-175.712534627899
 10
182.1650635093982
 20
-175.570344126399
  0
LWPOLYLINE
  5
33B
330
6F
100
AcDbEntity
  8
DETAIL
  6
Continuous
 62
     5
100
AcDbPolyline
 90
       11
 70
     0
 43
0.0
 10
175.6104990438989
 20
-76.92534573859939
 10
175.6903011687
 20
-77.03931937959895
 10
175.8349364904979
 20
-77.18150988109937
 10
176.016616649199
 20
-77.31333134879924
 10
176.2322330469987
 20
-77.43252828089906
 10
176.4780964274005
 20
-77.53706118479931
 10
176.7499999999991
 20
-77.62514147359887
 10
177.0432914190996
 20
-77.695262068999
 10
177.3529523871993
 20
-77.74622318829916
 10
177.6736845193999
 20
-77.77715287259889
 10
177.9999999999991
 20
-77.78752190639898
  0
LWPOLYLINE
  5
348
330
6F
100
AcDbEntity
  8
DETAIL
  6
Continuous
 62
     5
100
AcDbPolyline
 90
        3
 70
     0
 43
0.0
 10
182.4148145656991
 20
-76.96149871409942
 10
182.3096988311999
 20
-76.81137209769895
 10
182.1650635093982
 20
-76.66918159619945
  0
LINE
  5
34D
330
6F
100
AcDbEntity
  8
DETAIL
  6
Continuous
 62
     5
100
AcDbLine
 10
173.3000000000002
 20
-183.9637777777989
 30
0.0
 11
173.3000000000002
 21
-46.5173014004995
 31
0.0
  0
LINE
  5
34E
330
6F
100
AcDbEntity
  8
DETAIL
  6
Continuous
 62
     5
100
AcDbLine
 10
174.9999999999991
 20
-44.08114134519927
 30
0.0
 11
174.9999999999991
 21
-45.20888912939881
 31
0.0
  0
LINE
  5
34F
330
6F
100
AcDbEntity
  8
DETAIL
  6
Continuous
 62
     5
100
AcDbLine
 10
181.9999999999991
 20
-76.54941665189927
 30
0.0
 11
181.9999999999991
 21
-77.30127482539909
 31
0.0
  0
LINE
  5
350
330
6F
100
AcDbEntity
  8
DETAIL
  6
Continuous
 62
     5
100
AcDbLine
 10
181.9999999999991
 20
-175.4505791820992
 30
0.0
 11
181.9999999999991
 21
-176.2024373555991
 31
0.0
  0
LINE
  5
351
330
6F
100
AcDbEntity
  8
DETAIL
  6
Continuous
 62
     5
100
AcDbLine
 10
184.9999999999991
 20
-183.9999999999991
 30
0.0
 11
184.9999999999991
 21
-49.39364870219923
 31
0.0
  0
LINE
  5
352
330
6F
100
AcDbEntity
  8
DETAIL
  6
Continuous
 62
     5
100
AcDbLine
 10
185.8000000000002
 20
-49.92996652469901
 30
0.0
 11
185.8000000000002
 21
-104.4858912404988
 31
0.0
  0
LINE
  5
353
330
6F
100
AcDbEntity
  8
DETAIL
  6
Continuous
 62
     5
100
AcDbLine
 10
185.9999999999991
 20
-183.9999999999991
 30
0.0
 11
185.9999999999991
 21
-106.1294401102991
 31
0.0
  0
LINE
  5
354
330
6F
100
AcDbEntity
  8
DETAIL
  6
Continuous
 62
     5
100
AcDbLine
 10
185.9999999999991
 20
-106.1294401102991
 30
0.0
 11
185.9999999999991
 21
-105.8315239700991
 31
0.0
  0
LINE
  5
355
330
6F
100
AcDbEntity
  8
DETAIL
  6
Continuous
 62
     5
100
AcDbLine
 10
185.9999999999991
 20
-105.7151619314991
 30
0.0
 11
185.9999999999991
 21
-50.07000803239908
 31
0.0
  0
LWPOLYLINE
  5
356
330
6F
100
AcDbEntity
  8
DETAIL
  6
Continuous
 62
     5
100
AcDbPolyline
 90
       10
 70
     0
 43
0.0
 10
173.3000000000002
 20
-46.5173014004995
 10
173.3217268976996
 20
-46.34257522739882
 10
173.3869934350996
 20
-46.16959022459922
 10
173.4945523459982
 20
-46.00206406949928
 10
173.6427599471981
 20
-45.84220068769901
 10
173.8308291803996
 20
-45.69124563369951
 10
174.0548158760985
 20
-45.55264619719944
 10
174.3101136865998
 20
-45.42886844599888
 10
174.5960422459002
 20
-45.3202507843989
 10
174.9074023664989
 20
-45.22906892739911
  0
LWPOLYLINE
  5
362
330
6F
100
AcDbEntity
  8
DETAIL
  6
Continuous
 62
     5
100
AcDbPolyline
 90
        5
 70
     0
 43
0.0
 10
390.2017059220988
 20
-131.5508529610988
 10
389.4446508759984
 20
-132.3984755113988
 10
388.9161367417992
 20
-133.1991761291992
 10
388.6036585841985
 20
-133.9694383164992
 10
388.4999999999991
 20
-134.7262794415992
  0
LWPOLYLINE
  5
369
330
6F
100
AcDbEntity
  8
DETAIL
  6
Continuous
 62
     5
100
AcDbPolyline
 90
        4
 70
     0
 43
0.0
 10
403.4999999999991
 20
-141.4499999999989
 10
402.5947087036993
 20
-142.4503022140989
 10
401.9348696733003
 20
-143.3925951023993
 10
401.4999999999989
 20
-144.3014026045994
  0
LWPOLYLINE
  5
36F
330
6F
100
AcDbEntity
  8
DETAIL
  6
Continuous
 62
     5
100
AcDbPolyline
 90
        4
 70
     0
 43
0.0
 10
403.4999999999991
 20
-166.5749999999989
 10
402.5947087036993
 20
-167.5753022140989
 10
401.9348696733003
 20
-168.5175951023993
 10
401.4999999999989
 20
-169.4264026045994
  0
LINE
  5
375
330
6F
100
AcDbEntity
  8
DETAIL
  6
Continuous
 62
     5
100
AcDbLine
 10
421.4999999999988
 20
-174.9499999999988
 30
0.0
 11
423.4999999999988
 21
-172.9499999999989
 31
0.0
  0
LWPOLYLINE
  5
376
330
6F
100
AcDbEntity
  8
DETAIL
  6
Continuous
 62
     5
100
AcDbPolyline
 90
        6
 70
     0
 43
0.0
 10
395.2209438086002
 20
-144.9209438085991
 10
395.8803832811982
 20
-145.6424042690992
 10
396.3766404608987
 20
-146.3219943217991
 10
396.7241646533993
 20
-146.9737924971991
 10
396.9311087916004
 20
-147.6103817918992
 10
396.9999999999992
 20
-148.2407078564992
  0
LWPOLYLINE
  5
37E
330
6F
100
AcDbEntity
  8
DETAIL
  6
Continuous
 62
     5
100
AcDbPolyline
 90
        4
 70
     0
 43
0.0
 10
421.4999999999988
 20
-166.5749999999989
 10
422.4052912961988
 20
-167.5753022140989
 10
423.0651303265995
 20
-168.5175951023993
 10
423.4999999999988
 20
-169.4264026045994
  0
LWPOLYLINE
  5
384
330
6F
100
AcDbEntity
  8
DETAIL
  6
Continuous
 62
     5
100
AcDbPolyline
 90
        4
 70
     0
 43
0.0
 10
421.4999999999988
 20
-141.4499999999989
 10
422.4052912961988
 20
-142.4503022140989
 10
423.0651303265995
 20
-143.3925951023993
 10
423.4999999999988
 20
-144.3014026045994
  0
LWPOLYLINE
  5
38A
330
6F
100
AcDbEntity
  8
DETAIL
  6
Continuous
 62
     5
100
AcDbPolyline
 90
        5
 70
     0
 43
0.0
 10
404.7982940777991
 20
-131.5508529610988
 10
405.5553491238978
 20
-132.3984755113988
 10
406.0838632581988
 20
-133.1991761291992
 10
406.3963414156978
 20
-133.9694383164992
 10
406.4999999999987
 20
-134.7262794415992
  0
LWPOLYLINE
  5
391
330
6F
100
AcDbEntity
  8
DETAIL
  6
Continuous
 62
     5
100
AcDbPolyline
 90
        5
 70
     0
 43
0.0
 10
404.7982940777991
 20
-112.498294077799
 10
405.5553491238978
 20
-113.345916628099
 10
406.0838632581988
 20
-114.1466172459991
 10
406.3963414156978
 20
-114.916879433199
 10
406.4999999999987
 20
-115.6737205583995
  0
LWPOLYLINE
  5
398
330
6F
100
AcDbEntity
  8
DETAIL
  6
Continuous
 62
     5
100
AcDbPolyline
 90
        5
 70
     0
 43
0.0
 10
385.6850454237001
 20
-130.1074772880993
 10
386.2730518713989
 20
-130.7663223582995
 10
386.6802707944998
 20
-131.3846081748988
 10
386.9203542014993
 20
-131.9780517126992
 10
386.9999999999992
 20
-132.561215932199
  0
LWPOLYLINE
  5
39F
330
6F
100
AcDbEntity
  8
DETAIL
  6
Continuous
 62
     5
100
AcDbPolyline
 90
        4
 70
     0
 43
0.0
 10
385.6850454237001
 20
-115.385045423799
 10
386.2721148809005
 20
-116.0426866475991
 10
386.6795120180004
 20
-116.660755180299
 10
386.9201447544993
 20
-117.2548499891991
  0
LWPOLYLINE
  5
3A5
330
6F
100
AcDbEntity
  8
DETAIL
  6
Continuous
 62
     5
100
AcDbPolyline
 90
        9
 70
     0
 43
0.0
 10
173.2471851073996
 20
-43.03362401579941
 10
173.3166321324978
 20
-43.16108237279921
 10
173.4880830511001
 20
-43.39038049059944
 10
173.690253069698
 20
-43.5926184302989
 10
173.9188647003002
 20
-43.76374244589896
 10
174.1702728620994
 20
-43.90090860419923
 10
174.4378855553996
 20
-44.0005233684992
 10
174.716271263499
 20
-44.06091355539911
 10
174.9999999999991
 20
-44.08114134519927
  0
LWPOLYLINE
  5
3B0
330
6F
100
AcDbEntity
  8
DETAIL
  6
Continuous
 62
     5
100
AcDbPolyline
 90
       10
 70
     0
 43
0.0
 10
185.9999999999991
 20
-105.2370081096992
 10
185.9652703643996
 20
-105.1678070012995
 10
185.9315959712994
 20
-105.094158485499
 10
185.8999999999987
 20
-105.016266302799
 10
185.871442477998
 20
-104.9344631355989
 10
185.8467911112993
 20
-104.8492004994991
 10
185.8267949191985
 20
-104.7610350243994
 10
185.8120614757981
 20
-104.670611541399
 10
185.8030384493986
 20
-104.578643489899
 10
185.8000000000002
 20
-104.4858912404988
  0
LWPOLYLINE
  5
3BC
330
6F
100
AcDbEntity
  8
DETAIL
  6
Continuous
 62
     5
100
AcDbPolyline
 90
       17
 70
     0
 43
0.0
 10
177.5500000000002
 20
-175.4766603859989
 10
177.5778613433986
 20
-175.6138038001991
 10
177.6603746777991
 20
-175.7456768697993
 10
177.7943690621005
 20
-175.8672117868991
 10
177.9746951671995
 20
-175.9737380325991
 10
178.1944231620991
 20
-176.0611618631992
 10
178.4451090230004
 20
-176.1261236296991
 10
178.7171190329982
 20
-176.1661268880988
 10
178.9999999999991
 20
-176.179634335399
 10
179.2828809668981
 20
-176.1661268880988
 10
179.5548909768994
 20
-176.1261236296991
 10
179.805576837799
 20
-176.0611618631992
 10
180.0253048327004
 20
-175.9737380325991
 10
180.2056309377994
 20
-175.8672117868991
 10
180.339625322099
 20
-175.7456768697993
 10
180.4221386564995
 20
-175.6138038001991
 10
180.449999999998
 20
-175.4766603859989
  0
LWPOLYLINE
  5
3CF
330
6F
100
AcDbEntity
  8
DETAIL
  6
Continuous
 62
     5
100
AcDbPolyline
 90
        3
 70
     0
 43
0.0
 10
180.449999999998
 20
-175.4766603859989
 10
180.4221386564995
 20
-175.3395169718992
 10
180.339625322099
 20
-175.2076439021994
  0
LWPOLYLINE
  5
3D4
330
6F
100
AcDbEntity
  8
DETAIL
  6
Continuous
 62
     5
100
AcDbPolyline
 90
       17
 70
     0
 43
0.0
 10
177.5500000000002
 20
-76.57549785579885
 10
177.5778613433986
 20
-76.71264126989898
 10
177.6603746777991
 20
-76.8445143395993
 10
177.7943690621005
 20
-76.96604925659902
 10
177.9746951671995
 20
-77.07257550239908
 10
178.1944231620991
 20
-77.15999933289914
 10
178.4451090230004
 20
-77.22496109949907
 10
178.7171190329982
 20
-77.26496435779882
 10
178.9999999999991
 20
-77.2784718050989
 10
179.2828809668981
 20
-77.26496435779882
 10
179.5548909768994
 20
-77.22496109949907
 10
179.805576837799
 20
-77.15999933289914
 10
180.0253048327004
 20
-77.07257550239908
 10
180.2056309377994
 20
-76.96604925659902
 10
180.339625322099
 20
-76.8445143395993
 10
180.4221386564995
 20
-76.71264126989898
 10
180.449999999998
 20
-76.57549785579885
  0
LWPOLYLINE
  5
3E7
330
6F
100
AcDbEntity
  8
DETAIL
  6
Continuous
 62
     5
100
AcDbPolyline
 90
        3
 70
     0
 43
0.0
 10
180.449999999998
 20
-76.57549785579885
 10
180.4221386564995
 20
-76.43835444159916
 10
180.339625322099
 20
-76.30648137199933
  0
LWPOLYLINE
  5
3EC
330
6F
100
AcDbEntity
  8
DETAIL
  6
Continuous
 62
     5
100
AcDbPolyline
 90
       13
 70
     0
 43
0.0
 10
175.4999999999991
 20
-176.1763561516991
 10
175.5213878464991
 20
-176.3345570358992
 10
175.585185434199
 20
-176.4900510591991
 10
175.6903011687
 20
-176.6401776754992
 10
175.8349364904979
 20
-176.7823681769991
 10
176.016616649199
 20
-176.914189644799
 10
176.2322330469987
 20
-177.0333865768989
 10
176.4780964274005
 20
-177.1379194807991
 10
176.7499999999991
 20
-177.2259997695992
 10
177.0432914190996
 20
-177.2961203649993
 10
177.3529523871993
 20
-177.3470814842994
 10
177.6736845193999
 20
-177.3780111685992
 10
177.9999999999991
 20
-177.3883802023993
  0
LWPOLYLINE
  5
3FB
330
6F
100
AcDbEntity
  8
DETAIL
  6
Continuous
 62
     5
100
AcDbPolyline
 90
        3
 70
     0
 43
0.0
 10
182.4999999999991
 20
-176.1763561516991
 10
182.4786121533989
 20
-176.0181552674994
 10
182.4148145656991
 20
-175.8626612442994
  0
LWPOLYLINE
  5
400
330
6F
100
AcDbEntity
  8
DETAIL
  6
Continuous
 62
     5
100
AcDbPolyline
 90
       13
 70
     0
 43
0.0
 10
175.4999999999991
 20
-77.27519362149904
 10
175.5213878464991
 20
-77.43339450569918
 10
175.585185434199
 20
-77.58888852889914
 10
175.6903011687
 20
-77.73901514529916
 10
175.8349364904979
 20
-77.8812056467991
 10
176.016616649199
 20
-78.01302711449898
 10
176.2322330469987
 20
-78.13222404659882
 10
176.4780964274005
 20
-78.2367569505991
 10
176.7499999999991
 20
-78.32483723929906
 10
177.0432914190996
 20
-78.39495783479923
 10
177.3529523871993
 20
-78.44591895409938
 10
177.6736845193999
 20
-78.47684863829909
 10
177.9999999999991
 20
-78.48721767209919
  0
LWPOLYLINE
  5
40F
330
6F
100
AcDbEntity
  8
DETAIL
  6
Continuous
 62
     5
100
AcDbPolyline
 90
        3
 70
     0
 43
0.0
 10
182.4999999999991
 20
-77.27519362149904
 10
182.4786121533989
 20
-77.11699273729937
 10
182.4148145656991
 20
-76.96149871409942
  0
LWPOLYLINE
  5
414
330
6F
100
AcDbEntity
  8
DETAIL
  6
Continuous
 62
     5
100
AcDbPolyline
 90
        4
 70
     0
 43
0.0
 10
344.1551227108003
 20
-25.76683961859908
 10
344.3161247619
 20
-25.32651488079909
 10
344.469531825599
 20
-24.90992855559944
 10
344.6170926936984
 20
-24.51296443499905
  0
LWPOLYLINE
  5
41A
330
6F
100
AcDbEntity
  8
DETAIL
  6
Continuous
 62
     5
100
AcDbPolyline
 90
        4
 70
     0
 43
0.0
 10
343.3825059952988
 20
-27.87394166299919
 10
343.6005807800001
 20
-27.28582626049911
 10
343.8005033145992
 20
-26.74034285009931
 10
344.1551227108003
 20
-25.76683961859908
  0
LWPOLYLINE
  5
420
330
6F
100
AcDbEntity
  8
DETAIL
  6
Continuous
 62
     5
100
AcDbPolyline
 90
        3
 70
     0
 43
0.0
 10
343.2414164486991
 20
-28.25149516109923
 10
343.3111751370989
 20
-28.06402079559939
 10
343.3825059952988
 20
-27.87394166299919
  0
LINE
  5
425
330
6F
100
AcDbEntity
  8
DETAIL
  6
Continuous
 62
     5
100
AcDbLine
 10
344.6170926936984
 20
-24.51296443499905
 30
0.0
 11
346.0643544466993
 21
-20.63947141589915
 31
0.0
  0
LWPOLYLINE
  5
426
330
6F
100
AcDbEntity
  8
DETAIL
  6
Continuous
 62
     5
100
AcDbPolyline
 90
        4
 70
     0
 43
0.0
 10
386.9202311842991
 20
-133.1448324435992
 10
386.6799781866004
 20
-133.738371910299
 10
386.2728678484991
 20
-134.3563459929992
 10
385.6850454237001
 20
-135.0149545761992
  0
LWPOLYLINE
  5
42C
330
6F
100
AcDbEntity
  8
DETAIL
  6
Continuous
 62
     5
100
AcDbPolyline
 90
        5
 70
     0
 43
0.0
 10
390.2017059220988
 20
-118.849147038899
 10
389.4446508954978
 20
-120.544392089499
 10
388.9161367670994
 20
-122.1457932804992
 10
388.6036586029994
 20
-123.686317611899
 10
388.499999987499
 20
-125.1999998174992
  0
LWPOLYLINE
  5
433
330
6F
100
AcDbEntity
  8
DETAIL
  6
Continuous
 62
     5
100
AcDbPolyline
 90
        4
 70
     0
 43
0.0
 10
403.4999999999991
 20
-149.8249999999989
 10
402.5947087036993
 20
-151.8256044281988
 10
401.9348696733003
 20
-153.7101902047988
 10
401.4999999999989
 20
-155.5278052091989
  0
LWPOLYLINE
  5
439
330
6F
100
AcDbEntity
  8
DETAIL
  6
Continuous
 62
     5
100
AcDbPolyline
 90
        4
 70
     0
 43
0.0
 10
423.4999999999988
 20
-146.9735973953993
 10
423.062136162899
 20
-147.887462940499
 10
422.4016468702982
 20
-148.8292245307993
 10
421.4999999999988
 20
-149.8249999999989
  0
LWPOLYLINE
  5
43F
330
6F
100
AcDbEntity
  8
DETAIL
  6
Continuous
 62
     5
100
AcDbPolyline
 90
        4
 70
     0
 43
0.0
 10
423.4999999999988
 20
-172.0985973953993
 10
423.062136162899
 20
-173.012462940499
 10
422.4016468702982
 20
-173.9542245307991
 10
421.4999999999988
 20
-174.9499999999988
  0
LWPOLYLINE
  5
445
330
6F
100
AcDbEntity
  8
DETAIL
  6
Continuous
 62
     5
100
AcDbPolyline
 90
        4
 70
     0
 43
0.0
 10
401.4999999999989
 20
-172.0985973953993
 10
401.9378638370988
 20
-173.012462940499
 10
402.5983531295977
 20
-173.9542245307991
 10
403.4999999999991
 20
-174.9499999999988
  0
LWPOLYLINE
  5
44B
330
6F
100
AcDbEntity
  8
DETAIL
  6
Continuous
 62
     5
100
AcDbPolyline
 90
        4
 70
     0
 43
0.0
 10
401.4999999999989
 20
-146.9735973953993
 10
401.9378638370988
 20
-147.887462940499
 10
402.5983531295977
 20
-148.8292245307993
 10
403.4999999999991
 20
-149.8249999999989
  0
LWPOLYLINE
  5
451
330
6F
100
AcDbEntity
  8
DETAIL
  6
Continuous
 62
     5
100
AcDbPolyline
 90
        4
 70
     0
 43
0.0
 10
421.4999999999988
 20
-149.8249999999989
 10
422.4052912961988
 20
-151.8256044281988
 10
423.0651303265995
 20
-153.7101902047988
 10
423.4999999999988
 20
-155.5278052091989
  0
LWPOLYLINE
  5
457
330
6F
100
AcDbEntity
  8
DETAIL
  6
Continuous
 62
     5
100
AcDbPolyline
 90
        5
 70
     0
 43
0.0
 10
404.7982940777991
 20
-118.849147038899
 10
405.5553491238978
 20
-120.5443921393989
 10
406.0838632581988
 20
-122.145793375199
 10
406.3963414156978
 20
-123.6863177496989
 10
406.4999999999987
 20
-125.1999999999989
  0
LWPOLYLINE
  5
45E
330
6F
100
AcDbEntity
  8
DETAIL
  6
Continuous
 62
     5
100
AcDbPolyline
 90
        5
 70
     0
 43
0.0
 10
385.6850454237001
 20
-120.2925227118994
 10
386.2729106833003
 20
-121.6098499671989
 10
386.6803581651993
 20
-122.8471119674991
 10
386.9203056596989
 20
-124.0333145355989
 10
386.9999999999992
 20
-125.1999999999989
  0
LWPOLYLINE
  5
465
330
6F
100
AcDbEntity
  8
DETAIL
  6
Continuous
 62
     5
100
AcDbPolyline
 90
        5
 70
     0
 43
0.0
 10
395.2209438086002
 20
-151.5604719042994
 10
396.0206365105996
 20
-153.3539177576994
 10
396.5694171669993
 20
-155.0237117993993
 10
396.8926479125994
 20
-156.6250008001989
 10
396.9999999999992
 20
-158.1999999999989
  0
LWPOLYLINE
  5
46C
330
6F
100
AcDbEntity
  8
DETAIL
  6
Continuous
 62
     5
100
AcDbPolyline
 90
        3
 70
     0
 43
0.0
 10
343.3825004410983
 20
-209.1260354268988
 10
343.3110895994005
 20
-208.9359649948991
 10
343.241567309099
 20
-208.7484479296991
  0
LINE
  5
471
330
6F
100
AcDbEntity
  8
DETAIL
  6
Continuous
 62
     5
100
AcDbLine
 10
346.0643544466993
 20
-216.3605285840995
 30
0.0
 11
344.6170927471002
 21
-212.4870354740992
 31
0.0
  0
LWPOLYLINE
  5
472
330
6F
100
AcDbEntity
  8
DETAIL
  6
Continuous
 62
     5
100
AcDbPolyline
 90
        4
 70
     0
 43
0.0
 10
344.6170927471002
 20
-212.4870354740992
 10
344.4900707343995
 20
-212.1455656805991
 10
344.3571897919
 20
-211.7853291872989
 10
344.2183778577992
 20
-211.4064539915989
  0
LWPOLYLINE
  5
478
330
6F
100
AcDbEntity
  8
DETAIL
  6
Continuous
 62
     5
100
AcDbPolyline
 90
        3
 70
     0
 43
0.0
 10
343.7572277061999
 20
-210.141262405099
 10
343.5798885651993
 20
-209.6578460695992
 10
343.3825004410983
 20
-209.1260354268988
  0
LINE
  5
47D
330
6F
100
AcDbEntity
  8
DETAIL
  6
Continuous
 62
     5
100
AcDbLine
 10
344.2183778577992
 20
-211.4064539915989
 30
0.0
 11
343.7572277061999
 21
-210.141262405099
 31
0.0
  0
LWPOLYLINE
  5
47E
330
6F
100
AcDbEntity
  8
DETAIL
  6
Continuous
 62
     5
100
AcDbPolyline
 90
       23
 70
     0
 43
0.0
 10
343.241567309099
 20
-208.7484479296991
 10
343.0800588866997
 20
-208.2965364986994
 10
342.9255100083983
 20
-207.8308561669992
 10
342.7775931603
 20
-207.349713607999
 10
342.6364262985999
 20
-206.8514351849989
 10
342.5021079359985
 20
-206.3343907997992
 10
342.3748919315995
 20
-205.7969594760989
 10
342.2551699275
 20
-205.2378344465992
 10
342.1435226629992
 20
-204.6564434698994
 10
342.0403230051988
 20
-204.0510916716994
 10
341.9452872853989
 20
-203.414972768599
 10
341.8582588197996
 20
-202.7385877411989
 10
341.779779895899
 20
-202.0133591877993
 10
341.7113294495002
 20
-201.2369159568989
 10
341.6547318489002
 20
-200.415131088399
 10
341.6110354145994
 20
-199.5554492544988
 10
341.5806703032004
 20
-198.6775269930994
 10
341.5626806452991
 20
-197.8101443153991
 10
341.5546340181982
 20
-196.9761661213988
 10
341.5536041903006
 20
-196.1807539305991
 10
341.5570406253
 20
-195.4259780642992
 10
341.5628921276994
 20
-194.7098613235994
 10
341.5761168368999
 20
-193.362758335499
  0
LWPOLYLINE
  5
497
330
6F
100
AcDbEntity
  8
DETAIL
  6
Continuous
 62
     5
100
AcDbPolyline
 90
        5
 70
     0
 43
0.0
 10
388.499999987499
 20
-125.1999998174992
 10
388.6036162899991
 20
-126.7133719690991
 10
388.915791834098
 20
-128.2529171624992
 10
389.4440215352998
 20
-129.8539929561993
 10
390.2017059220988
 20
-131.5508529610988
  0
LWPOLYLINE
  5
49E
330
6F
100
AcDbEntity
  8
DETAIL
  6
Continuous
 62
     5
100
AcDbPolyline
 90
       18
 70
     0
 43
0.0
 10
339.2151419826996
 20
-28.23969730649924
 10
339.172225822399
 20
-27.31733258349914
 10
339.0444052346003
 20
-26.40283410769916
 10
338.8327703464993
 20
-25.50400100499883
 10
338.5391260201004
 20
-24.62849886349886
 10
338.1659765666999
 20
-23.78379425209914
 10
337.7165043278992
 20
-22.97709110439882
 10
337.1945425573986
 20
-22.21526925939906
 10
336.6045427228992
 20
-21.50482579429899
 10
335.9515365441994
 20
-20.85181961379931
 10
335.2410930806991
 20
-20.26181977779925
 10
334.4792712365988
 20
-19.73985800629907
 10
333.6725680894988
 20
-19.29038576699895
 10
332.8278634779991
 20
-18.9172363136995
 10
331.9523613367992
 20
-18.62359198699914
 10
331.0535282317005
 20
-18.41195710129887
 10
330.1390297587996
 20
-18.28413651069922
 10
329.2166650310983
 20
-18.24122035499931
  0
LWPOLYLINE
  5
4B2
330
6F
100
AcDbEntity
  8
DETAIL
  6
Continuous
 62
     5
100
AcDbPolyline
 90
       23
 70
     0
 43
0.0
 10
341.5677553678988
 20
-43.70210608119942
 10
341.5491518973003
 20
-42.32571252209891
 10
341.5408476265993
 20
-41.59135575229902
 10
341.5353249368991
 20
-40.82344061849926
 10
341.534682428698
 20
-40.0208455023994
 10
341.5414744208982
 20
-39.18325479169927
 10
341.5586490180985
 20
-38.31402272919922
 10
341.588575245999
 20
-37.43740050909945
 10
341.6318959354002
 20
-36.58480415209942
 10
341.6878281522995
 20
-35.77548695889891
 10
341.7554475409988
 20
-35.01152051909912
 10
341.8334943430991
 20
-34.29332321349921
 10
341.9207441047993
 20
-33.6186866159992
 10
342.0162946639984
 20
-32.98310608679912
 10
342.1195001996994
 20
-32.3817954974993
 10
342.2299825257987
 20
-31.81000570939886
 10
342.3476443328991
 20
-31.26310813939927
 10
342.4727069531991
 20
-30.73649820209903
 10
342.6057452309005
 20
-30.22558198159913
 10
342.747669111298
 20
-29.72586813329917
 10
342.8997748617994
 20
-29.23306735589904
 10
343.0636094562988
 20
-28.74302570149939
 10
343.2414164486991
 20
-28.25149516109923
  0
LWPOLYLINE
  5
4CB
330
6F
100
AcDbEntity
  8
DETAIL
  6
Continuous
 62
     5
100
AcDbPolyline
 90
        4
 70
     0
 43
0.0
 10
341.5848938449989
 20
-45.5692079558994
 10
341.5816461066979
 20
-44.97011059239912
 10
341.5756986310999
 20
-44.34854565529895
 10
341.5677553678988
 20
-43.70210608119942
  0
LINE
  5
4D1
330
6F
100
AcDbEntity
  8
DETAIL
  6
Continuous
 62
     5
100
AcDbLine
 10
329.0166650310994
 20
-224.1245319446989
 30
0.0
 11
329.0166650310994
 21
-12.44083232309913
 31
0.0
  0
LINE
  5
4D2
330
6F
100
AcDbEntity
  8
DETAIL
  6
Continuous
 62
     5
100
AcDbLine
 10
339.2151419826996
 20
-208.7603026934994
 30
0.0
 11
339.2151419826996
 21
-28.23969730649924
 31
0.0
  0
LINE
  5
4D3
330
6F
100
AcDbEntity
  8
DETAIL
  6
Continuous
 62
     5
100
AcDbLine
 10
341.5850389175985
 20
-47.66694149129944
 30
0.0
 11
341.5848938449989
 21
-45.5692079558994
 31
0.0
  0
LINE
  5
4D4
330
6F
100
AcDbEntity
  8
DETAIL
  6
Continuous
 62
     5
100
AcDbLine
 10
348.9999999999991
 20
-239.9999999999991
 30
0.0
 11
348.9999999999991
 21
-231.178183867899
 31
0.0
  0
LINE
  5
4D5
330
6F
100
AcDbEntity
  8
DETAIL
  6
Continuous
 62
     5
100
AcDbLine
 10
349.3999999999988
 20
-240.0285398162992
 30
0.0
 11
349.3999999999988
 21
-239.9999999999991
 31
0.0
  0
LINE
  5
4D6
330
6F
100
AcDbEntity
  8
DETAIL
  6
Continuous
 62
     5
100
AcDbLine
 10
349.4999999999992
 20
-7.999999999999089
 30
0.0
 11
349.4999999999992
 21
-228.9999999999991
 31
0.0
  0
LINE
  5
4D7
330
6F
100
AcDbEntity
  8
DETAIL
  6
Continuous
 62
     5
100
AcDbLine
 10
349.9999999999992
 20
0.0000000000009095
 30
0.0
 11
349.9999999999992
 21
-26.39999999999918
 31
0.0
  0
LINE
  5
4D8
330
6F
100
AcDbEntity
  8
DETAIL
  6
Continuous
 62
     5
100
AcDbLine
 10
349.9999999999992
 20
-26.99999999999909
 30
0.0
 11
349.9999999999992
 21
-206.9999999999991
 31
0.0
  0
LINE
  5
4D9
330
6F
100
AcDbEntity
  8
DETAIL
  6
Continuous
 62
     5
100
AcDbLine
 10
349.9999999999992
 20
-239.9999999999991
 30
0.0
 11
349.9999999999992
 21
-251.9999999999991
 31
0.0
  0
LINE
  5
4DA
330
6F
100
AcDbEntity
  8
DETAIL
  6
Continuous
 62
     5
100
AcDbLine
 10
350.0500000000001
 20
-240.0285398163992
 30
0.0
 11
350.0500000000001
 21
-249.9499999999989
 31
0.0
  0
LINE
  5
4DB
330
6F
100
AcDbEntity
  8
DETAIL
  6
Continuous
 62
     5
100
AcDbLine
 10
350.8000000000001
 20
-92.9999999999991
 30
0.0
 11
350.8000000000001
 21
-77.99999999999909
 31
0.0
  0
LINE
  5
4DC
330
6F
100
AcDbEntity
  8
DETAIL
  6
Continuous
 62
     5
100
AcDbLine
 10
351.4999999999992
 20
-77.99999999999909
 30
0.0
 11
351.4999999999992
 21
-20.69999999999891
 31
0.0
  0
LINE
  5
4DD
330
6F
100
AcDbEntity
  8
DETAIL
  6
Continuous
 62
     5
100
AcDbLine
 10
352.0500000000001
 20
-240.0285398163992
 30
0.0
 11
352.0500000000001
 21
-249.9499999999989
 31
0.0
  0
LINE
  5
4DE
330
6F
100
AcDbEntity
  8
DETAIL
  6
Continuous
 62
     5
100
AcDbLine
 10
352.5999999999994
 20
-92.9999999999991
 30
0.0
 11
352.5999999999994
 21
-71.49999999999909
 31
0.0
  0
LINE
  5
4DF
330
6F
100
AcDbEntity
  8
DETAIL
  6
Continuous
 62
     5
100
AcDbLine
 10
352.9999999999991
 20
-16.49999999999909
 30
0.0
 11
352.9999999999991
 21
-17.99999999999909
 31
0.0
  0
LINE
  5
4E0
330
6F
100
AcDbEntity
  8
DETAIL
  6
Continuous
 62
     5
100
AcDbLine
 10
352.9999999999991
 20
-24.41837661839918
 30
0.0
 11
352.9999999999991
 21
-71.49999999999909
 31
0.0
  0
LINE
  5
4E1
330
6F
100
AcDbEntity
  8
DETAIL
  6
Continuous
 62
     5
100
AcDbLine
 10
353.9999999999992
 20
-240.0285398162992
 30
0.0
 11
353.9999999999992
 21
-92.9999999999991
 31
0.0
  0
LINE
  5
4E2
330
6F
100
AcDbEntity
  8
DETAIL
  6
Continuous
 62
     5
100
AcDbLine
 10
372.9999999999991
 20
-108.7007413820993
 30
0.0
 11
372.9999999999991
 21
-141.6992586178994
 31
0.0
  0
LINE
  5
4E3
330
6F
100
AcDbEntity
  8
DETAIL
  6
Continuous
 62
     5
100
AcDbLine
 10
379.9999999999991
 20
-139.1999999999989
 30
0.0
 11
379.9999999999991
 21
-177.1999999999989
 31
0.0
  0
LINE
  5
4E4
330
6F
100
AcDbEntity
  8
DETAIL
  6
Continuous
 62
     5
100
AcDbLine
 10
382.9999999999992
 20
-27.74999999999909
 30
0.0
 11
382.9999999999992
 21
-60.24999999999909
 31
0.0
  0
LINE
  5
4E5
330
6F
100
AcDbEntity
  8
DETAIL
  6
Continuous
 62
     5
100
AcDbLine
 10
386.9999999999992
 20
-133.6996305150992
 30
0.0
 11
386.9999999999992
 21
-116.7003694849991
 31
0.0
  0
LINE
  5
4E6
330
6F
100
AcDbEntity
  8
DETAIL
  6
Continuous
 62
     5
100
AcDbLine
 10
388.4999999999991
 20
-136.1995072181989
 30
0.0
 11
388.4999999999991
 21
-114.2004927817988
 31
0.0
  0
LINE
  5
4E7
330
6F
100
AcDbEntity
  8
DETAIL
  6
Continuous
 62
     5
100
AcDbLine
 10
389.9999999999991
 20
-200.2999999999993
 30
0.0
 11
389.9999999999991
 21
-240.2999999999993
 31
0.0
  0
LINE
  5
4E8
330
6F
100
AcDbEntity
  8
DETAIL
  6
Continuous
 62
     5
100
AcDbLine
 10
396.9999999999992
 20
-169.6999999999989
 30
0.0
 11
396.9999999999992
 21
-146.6999999999989
 31
0.0
  0
LINE
  5
4E9
330
6F
100
AcDbEntity
  8
DETAIL
  6
Continuous
 62
     5
100
AcDbLine
 10
397.4999999999992
 20
-29.99999999999909
 30
0.0
 11
397.4999999999992
 21
-20.69999999999891
 31
0.0
  0
LINE
  5
4EA
330
6F
100
AcDbEntity
  8
DETAIL
  6
Continuous
 62
     5
100
AcDbLine
 10
399.9999999999992
 20
-20.69999999999891
 30
0.0
 11
399.9999999999992
 21
-29.99999999999909
 31
0.0
  0
LINE
  5
4EB
330
6F
100
AcDbEntity
  8
DETAIL
  6
Continuous
 62
     5
100
AcDbLine
 10
401.4999999999989
 20
-172.9499999999989
 30
0.0
 11
401.4999999999989
 21
-143.4499999999989
 31
0.0
  0
LINE
  5
4EC
330
6F
100
AcDbEntity
  8
DETAIL
  6
Continuous
 62
     5
100
AcDbLine
 10
406.4999999999987
 20
-114.2004927817988
 30
0.0
 11
406.4999999999987
 21
-136.1995072181989
 31
0.0
  0
LINE
  5
4ED
330
6F
100
AcDbEntity
  8
DETAIL
  6
Continuous
 62
     5
100
AcDbLine
 10
407.4999999999991
 20
-27.99999999999909
 30
0.0
 11
407.4999999999991
 21
-59.99999999999909
 31
0.0
  0
LINE
  5
4EE
330
6F
100
AcDbEntity
  8
DETAIL
  6
Continuous
 62
     5
100
AcDbLine
 10
407.9999999999991
 20
-28.49999999999909
 30
0.0
 11
407.9999999999991
 21
-59.49999999999909
 31
0.0
  0
LINE
  5
4EF
330
6F
100
AcDbEntity
  8
DETAIL
  6
Continuous
 62
     5
100
AcDbLine
 10
423.4999999999988
 20
-143.4499999999989
 30
0.0
 11
423.4999999999988
 21
-144.3014026045994
 31
0.0
  0
LINE
  5
4F0
330
6F
100
AcDbEntity
  8
DETAIL
  6
Continuous
 62
     5
100
AcDbLine
 10
423.4999999999988
 20
-146.9735973953993
 30
0.0
 11
423.4999999999988
 21
-155.5278052091989
 31
0.0
  0
LINE
  5
4F1
330
6F
100
AcDbEntity
  8
DETAIL
  6
Continuous
 62
     5
100
AcDbLine
 10
423.4999999999988
 20
-160.8721947907988
 30
0.0
 11
423.4999999999988
 21
-169.4264026045994
 31
0.0
  0
LINE
  5
4F2
330
6F
100
AcDbEntity
  8
DETAIL
  6
Continuous
 62
     5
100
AcDbLine
 10
423.4999999999988
 20
-172.0985973953993
 30
0.0
 11
423.4999999999988
 21
-172.9499999999989
 31
0.0
  0
LINE
  5
4F3
330
6F
100
AcDbEntity
  8
DETAIL
  6
Continuous
 62
     5
100
AcDbLine
 10
427.4999999999988
 20
-146.6999999999989
 30
0.0
 11
427.4999999999988
 21
-169.6999999999989
 31
0.0
  0
LWPOLYLINE
  5
4F4
330
6F
100
AcDbEntity
  8
DETAIL
  6
Continuous
 62
     5
100
AcDbPolyline
 90
        4
 70
     0
 43
0.0
 10
341.5761168368999
 20
-193.362758335499
 10
341.5813944377997
 20
-192.7153876195989
 10
341.5847192219999
 20
-192.0743832051994
 10
341.5850389175985
 20
-47.66694149129944
  0
LWPOLYLINE
  5
4FA
330
6F
100
AcDbEntity
  8
DETAIL
  6
Continuous
 62
     5
100
AcDbPolyline
 90
        5
 70
     0
 43
0.0
 10
396.9999999999992
 20
-158.1999999999989
 10
396.8925998181994
 20
-159.7753536046994
 10
396.5695585178992
 20
-161.3757572257991
 10
396.0213021639002
 20
-163.0443678312995
 10
395.2209438086002
 20
-164.8395280956993
  0
LWPOLYLINE
  5
501
330
6F
100
AcDbEntity
  8
DETAIL
  6
Continuous
 62
     5
100
AcDbPolyline
 90
        5
 70
     0
 43
0.0
 10
386.9999999999992
 20
-125.1999999999989
 10
386.9202700486994
 20
-126.3669473151994
 10
386.6802888175997
 20
-127.5531479640995
 10
386.2728207474984
 20
-128.7903811715992
 10
385.6850454237001
 20
-130.1074772880993
  0
LWPOLYLINE
  5
508
330
6F
100
AcDbEntity
  8
DETAIL
  6
Continuous
 62
     5
100
AcDbPolyline
 90
        5
 70
     0
 43
0.0
 10
406.4999999999987
 20
-125.1999999999989
 10
406.3963837268993
 20
-126.7133718442992
 10
406.0842081886993
 20
-128.2529170767993
 10
405.5559784822988
 20
-129.8539929108992
 10
404.7982940777991
 20
-131.5508529610988
  0
LWPOLYLINE
  5
50F
330
6F
100
AcDbEntity
  8
DETAIL
  6
Continuous
 62
     5
100
AcDbPolyline
 90
        6
 70
     0
 43
0.0
 10
396.9999999999992
 20
-168.1592921434994
 10
396.9312648655986
 20
-168.7889016671988
 10
396.7247694052994
 20
-169.4248014833993
 10
396.3777319111987
 20
-170.0762809029993
 10
395.8814768431994
 20
-170.7562676274991
 10
395.2209438086002
 20
-171.4790561913992
  0
LWPOLYLINE
  5
517
330
6F
100
AcDbEntity
  8
DETAIL
  6
Continuous
 62
     5
100
AcDbPolyline
 90
        6
 70
     0
 43
0.0
 10
396.9999999999992
 20
-148.2407078564992
 10
396.9311869500989
 20
-148.8706751933991
 10
396.7246763669982
 20
-149.506433602899
 10
396.378443144099
 20
-150.1565719311993
 10
395.882583842099
 20
-150.8363383434989
 10
395.2209438086002
 20
-151.5604719042994
  0
LWPOLYLINE
  5
51F
330
6F
100
AcDbEntity
  8
DETAIL
  6
Continuous
 62
     5
100
AcDbPolyline
 90
        5
 70
     0
 43
0.0
 10
386.9999999999992
 20
-117.8387840677992
 10
386.9202158492998
 20
-118.4224569369989
 10
386.679941834499
 20
-119.0160081376989
 10
386.2727497718997
 20
-119.6340658542994
 10
385.6850454237001
 20
-120.2925227118994
  0
LINE
  5
526
330
6F
100
AcDbEntity
  8
DETAIL
  6
Continuous
 62
     5
100
AcDbLine
 10
386.9999999999992
 20
-132.561215932199
 30
0.0
 11
386.9202311842991
 21
-133.1448324435992
 31
0.0
  0
LWPOLYLINE
  5
527
330
6F
100
AcDbEntity
  8
DETAIL
  6
Continuous
 62
     5
100
AcDbPolyline
 90
        5
 70
     0
 43
0.0
 10
406.4999999999987
 20
-115.6737205583995
 10
406.3963837268993
 20
-116.4304064804992
 10
406.0842081886993
 20
-117.2001790967988
 10
405.5559784822988
 20
-118.0007170137992
 10
404.7982940777991
 20
-118.849147038899
  0
LWPOLYLINE
  5
52E
330
6F
100
AcDbEntity
  8
DETAIL
  6
Continuous
 62
     5
100
AcDbPolyline
 90
        5
 70
     0
 43
0.0
 10
406.4999999999987
 20
-134.7262794415992
 10
406.3963837268993
 20
-135.4829653637989
 10
406.0842081886993
 20
-136.2527379799994
 10
405.5559784822988
 20
-137.0532758970994
 10
404.7982940777991
 20
-137.9017059221992
  0
LWPOLYLINE
  5
535
330
6F
100
AcDbEntity
  8
DETAIL
  6
Continuous
 62
     5
100
AcDbPolyline
 90
        4
 70
     0
 43
0.0
 10
423.4999999999988
 20
-160.8721947907988
 10
423.062136162899
 20
-162.6999258809992
 10
422.4016468702982
 20
-164.5834490615989
 10
421.4999999999988
 20
-166.5749999999989
  0
LWPOLYLINE
  5
53B
330
6F
100
AcDbEntity
  8
DETAIL
  6
Continuous
 62
     5
100
AcDbPolyline
 90
        4
 70
     0
 43
0.0
 10
423.4999999999988
 20
-169.4264026045994
 10
423.7672396145978
 20
-170.3202410620988
 10
423.7672238502991
 20
-171.2048641490991
 10
423.4999999999988
 20
-172.0985973953993
  0
LWPOLYLINE
  5
541
330
6F
100
AcDbEntity
  8
DETAIL
  6
Continuous
 62
     5
100
AcDbPolyline
 90
        4
 70
     0
 43
0.0
 10
423.4999999999988
 20
-144.3014026045994
 10
423.7672396145978
 20
-145.1952410620988
 10
423.7672238502991
 20
-146.0798641490991
 10
423.4999999999988
 20
-146.9735973953993
  0
LWPOLYLINE
  5
547
330
6F
100
AcDbEntity
  8
DETAIL
  6
Continuous
 62
     5
100
AcDbPolyline
 90
        4
 70
     0
 43
0.0
 10
401.4999999999989
 20
-160.8721947907988
 10
401.9378638370988
 20
-162.6999258809992
 10
402.5983531295977
 20
-164.5834490615989
 10
403.4999999999991
 20
-166.5749999999989
  0
LWPOLYLINE
  5
54D
330
6F
100
AcDbEntity
  8
DETAIL
  6
Continuous
 62
     5
100
AcDbPolyline
 90
        4
 70
     0
 43
0.0
 10
423.4999999999988
 20
-155.5278052091989
 10
423.7672396145978
 20
-157.3154821242992
 10
423.7672238502991
 20
-159.0847282980994
 10
423.4999999999988
 20
-160.8721947907988
  0
LWPOLYLINE
  5
553
330
6F
100
AcDbEntity
  8
DETAIL
  6
Continuous
 62
     5
100
AcDbPolyline
 90
        5
 70
     0
 43
0.0
 10
388.4999999999991
 20
-134.7262794415992
 10
388.6036162729988
 20
-135.4829653637989
 10
388.9157918112005
 20
-136.2527379799994
 10
389.4440215176992
 20
-137.0532758970994
 10
390.2017059220988
 20
-137.9017059221992
  0
LWPOLYLINE
  5
55A
330
6F
100
AcDbEntity
  8
DETAIL
  6
Continuous
 62
     5
100
AcDbPolyline
 90
        5
 70
     0
 43
0.0
 10
388.4999999842994
 20
-115.6737204439991
 10
388.6036162729988
 20
-116.4304064804992
 10
388.9157918112005
 20
-117.2001790967988
 10
389.4440215176992
 20
-118.0007170137992
 10
390.2017059220988
 20
-118.849147038899
  0
LINE
  5
561
330
6F
100
AcDbEntity
  8
DETAIL
  6
Continuous
 62
     5
100
AcDbLine
 10
386.9201447544993
 20
-117.2548499891991
 30
0.0
 11
386.9999999999992
 21
-117.8387840677992
 31
0.0
  0
ARC
  5
562
330
6F
100
AcDbEntity
  8
DETAIL
  6
Continuous
 62
     5
100
AcDbCircle
 10
-140.050000000002
 20
-118.4999999999991
 30
0.0
 40
105.0007616402
100
AcDbArc
 50
120.2969426106851
 51
239.3167491915118
  0
ARC
  5
563
330
6F
100
AcDbEntity
  8
DETAIL
  6
Continuous
 62
     5
100
AcDbCircle
 10
-140.050000000002
 20
-118.4999999999991
 30
0.0
 40
105.0007616402
100
AcDbArc
 50
300.6832508084882
 51
59.70305738931489
  0
CIRCLE
  5
564
330
6F
100
AcDbEntity
  8
DETAIL
  6
Continuous
 62
     5
100
AcDbCircle
 10
-140.050000000002
 20
-118.4999999999991
 30
0.0
 40
100.0
  0
CIRCLE
  5
565
330
6F
100
AcDbEntity
  8
DETAIL
  6
Continuous
 62
     5
100
AcDbCircle
 10
-140.050000000002
 20
-118.4999999999991
 30
0.0
 40
94.9847543461
  0
CIRCLE
  5
566
330
6F
100
AcDbEntity
  8
DETAIL
  6
Continuous
 62
     5
100
AcDbCircle
 10
-140.050000000002
 20
-118.4999999999991
 30
0.0
 40
94.9847543461
  0
CIRCLE
  5
567
330
6F
100
AcDbEntity
  8
DETAIL
  6
Continuous
 62
     5
100
AcDbCircle
 10
-140.050000000002
 20
-118.4999999999991
 30
0.0
 40
82.50266545079998
  0
ARC
  5
568
330
6F
100
AcDbEntity
  8
DETAIL
  6
Continuous
 62
     5
100
AcDbCircle
 10
-30.00000000000091
 20
-226.4999999999991
 30
0.0
 40
2.5
100
AcDbArc
 50
107.8829712887849
 51
72.11702871121504
  0
CIRCLE
  5
569
330
6F
100
AcDbEntity
  8
DETAIL
  6
Continuous
 62
     5
100
AcDbCircle
 10
-30.00000000000091
 20
-226.4999999999991
 30
0.0
 40
1.55
  0
ARC
  5
56A
330
6F
100
AcDbEntity
  8
DETAIL
  6
Continuous
 62
     5
100
AcDbCircle
 10
139.949999999998
 20
-118.4999999999991
 30
0.0
 40
105.0007616402
100
AcDbArc
 50
300.6832508084882
 51
59.70305738931489
  0
ARC
  5
56B
330
6F
100
AcDbEntity
  8
DETAIL
  6
Continuous
 62
     5
100
AcDbCircle
 10
139.949999999998
 20
-118.4999999999991
 30
0.0
 40
105.0007616402
100
AcDbArc
 50
120.2969426106851
 51
239.3167491915118
  0
CIRCLE
  5
56C
330
6F
100
AcDbEntity
  8
DETAIL
  6
Continuous
 62
     5
100
AcDbCircle
 10
139.949999999998
 20
-118.4999999999991
 30
0.0
 40
100.0
  0
CIRCLE
  5
56D
330
6F
100
AcDbEntity
  8
DETAIL
  6
Continuous
 62
     5
100
AcDbCircle
 10
139.949999999998
 20
-118.4999999999991
 30
0.0
 40
94.9847543461
  0
CIRCLE
  5
56E
330
6F
100
AcDbEntity
  8
DETAIL
  6
Continuous
 62
     5
100
AcDbCircle
 10
139.949999999998
 20
-118.4999999999991
 30
0.0
 40
94.9847543461
  0
CIRCLE
  5
56F
330
6F
100
AcDbEntity
  8
DETAIL
  6
Continuous
 62
     5
100
AcDbCircle
 10
139.949999999998
 20
-118.4999999999991
 30
0.0
 40
82.50266545079998
  0
ARC
  5
570
330
6F
100
AcDbEntity
  8
DETAIL
  6
Continuous
 62
     5
100
AcDbCircle
 10
-30.00000000000091
 20
-10.49999999999909
 30
0.0
 40
2.5
100
AcDbArc
 50
308.9093032907221
 51
231.0906967092779
  0
CIRCLE
  5
571
330
6F
100
AcDbEntity
  8
DETAIL
  6
Continuous
 62
     5
100
AcDbCircle
 10
-30.00000000000091
 20
-10.49999999999909
 30
0.0
 40
1.55
  0
ARC
  5
572
330
6F
100
AcDbEntity
  8
DETAIL
  6
Continuous
 62
     5
100
AcDbCircle
 10
338.999999999999
 20
-218.9999999999991
 30
0.0
 40
7.5413468963
100
AcDbArc
 50
249.5126848852549
 51
20.48731511468331
  0
ARC
  5
573
330
6F
100
AcDbEntity
  8
DETAIL
  6
Continuous
 62
     5
100
AcDbCircle
 10
344.4999999999991
 20
-228.9999999999991
 30
0.0
 40
5.0
100
AcDbArc
 50
270.0
 51
0.0
  0
ARC
  5
574
330
6F
100
AcDbEntity
  8
DETAIL
  6
Continuous
 62
     5
100
AcDbCircle
 10
349.5999999999995
 20
-238.9999999999991
 30
0.0
 40
3.0
100
AcDbArc
 50
324.9109090761487
 51
334.2041359794878
  0
ARC
  5
575
330
6F
100
AcDbEntity
  8
DETAIL
  6
Continuous
 62
     5
100
AcDbCircle
 10
349.5999999999995
 20
-238.9999999999991
 30
0.0
 40
3.0
100
AcDbArc
 50
277.6887463431989
 51
278.6498396360652
  0
ARC
  5
576
330
6F
100
AcDbEntity
  8
DETAIL
  6
Continuous
 62
     5
100
AcDbCircle
 10
314.9999999999991
 20
-226.4999999999991
 30
0.0
 40
2.5
100
AcDbArc
 50
107.8829712887849
 51
72.11702871121504
  0
CIRCLE
  5
577
330
6F
100
AcDbEntity
  8
DETAIL
  6
Continuous
 62
     5
100
AcDbCircle
 10
314.9999999999991
 20
-226.4999999999991
 30
0.0
 40
1.55
  0
ARC
  5
578
330
6F
100
AcDbEntity
  8
DETAIL
  6
Continuous
 62
     5
100
AcDbCircle
 10
348.199999999998
 20
-240.9999999999991
 30
0.0
 40
1.0
100
AcDbArc
 50
77.01397992830589
 51
90.0
  0
ARC
  5
579
330
6F
100
AcDbEntity
  8
DETAIL
  6
Continuous
 62
     5
100
AcDbCircle
 10
349.9999999999992
 20
-249.9499999999989
 30
0.0
 40
0.05
100
AcDbArc
 50
270.0
 51
0.0
  0
ARC
  5
57A
330
6F
100
AcDbEntity
  8
DETAIL
  6
Continuous
 62
     5
100
AcDbCircle
 10
338.999999999999
 20
-17.99999999999909
 30
0.0
 40
7.5413468963
100
AcDbArc
 50
339.5126848853167
 51
110.487315114745
  0
ARC
  5
57B
330
6F
100
AcDbEntity
  8
DETAIL
  6
Continuous
 62
     5
100
AcDbCircle
 10
344.4999999999991
 20
-7.999999999999089
 30
0.0
 40
5.0
100
AcDbArc
 50
0.0
 51
90.0
  0
ARC
  5
57C
330
6F
100
AcDbEntity
  8
DETAIL
  6
Continuous
 62
     5
100
AcDbCircle
 10
397.3000000000001
 20
-20.69999999999891
 30
0.0
 40
2.7
100
AcDbArc
 50
0.0
 51
90.0
  0
ARC
  5
57D
330
6F
100
AcDbEntity
  8
DETAIL
  6
Continuous
 62
     5
100
AcDbCircle
 10
351.699999999998
 20
-20.69999999999891
 30
0.0
 40
2.7
100
AcDbArc
 50
90.0
 51
129.153650939175
  0
ARC
  5
57E
330
6F
100
AcDbEntity
  8
DETAIL
  6
Continuous
 62
     5
100
AcDbCircle
 10
314.9999999999991
 20
-10.49999999999909
 30
0.0
 40
2.5
100
AcDbArc
 50
308.9093032907221
 51
231.0906967092779
  0
CIRCLE
  5
57F
330
6F
100
AcDbEntity
  8
DETAIL
  6
Continuous
 62
     5
100
AcDbCircle
 10
314.9999999999991
 20
-10.49999999999909
 30
0.0
 40
1.55
  0
ARC
  5
580
330
6F
100
AcDbEntity
  8
DETAIL
  6
Continuous
 62
     5
100
AcDbCircle
 10
353.9999999999992
 20
-26.24365078899882
 30
0.0
 40
1.0
100
AcDbArc
 50
180.0
 51
269.0000000000243
  0
ARC
  5
581
330
6F
100
AcDbEntity
  8
DETAIL
  6
Continuous
 62
     5
100
AcDbCircle
 10
353.9999999999992
 20
-61.75634921099935
 30
0.0
 40
1.0
100
AcDbArc
 50
90.99999999997569
 51
180.0
  0
ARC
  5
582
330
6F
100
AcDbEntity
  8
DETAIL
  6
Continuous
 62
     5
100
AcDbCircle
 10
407.4999999999991
 20
-28.49999999999909
 30
0.0
 40
0.5
100
AcDbArc
 50
0.0
 51
90.0
  0
ARC
  5
583
330
6F
100
AcDbEntity
  8
DETAIL
  6
Continuous
 62
     5
100
AcDbCircle
 10
407.4999999999991
 20
-59.49999999999909
 30
0.0
 40
0.5
100
AcDbArc
 50
270.0
 51
0.0
  0
ARC
  5
584
330
6F
100
AcDbEntity
  8
DETAIL
  6
Continuous
 62
     5
100
AcDbCircle
 10
351.699999999998
 20
-20.69999999999891
 30
0.0
 40
0.2
100
AcDbArc
 50
90.0
 51
180.0
  0
ARC
  5
585
330
6F
100
AcDbEntity
  8
DETAIL
  6
Continuous
 62
     5
100
AcDbCircle
 10
397.3000000000001
 20
-20.69999999999891
 30
0.0
 40
0.2
100
AcDbArc
 50
0.0
 51
90.0
  0
LINE
  5
586
330
6F
100
AcDbEntity
  8
DETAIL
  6
Continuous
 62
     5
100
AcDbLine
 10
-389.0001234834845
 20
-399.9603951084537
 30
0.0
 11
587.000000000008
 21
-399.9603951084532
 31
0.0
  0
LINE
  5
587
330
6F
100
AcDbEntity
  8
DETAIL
  6
Continuous
 62
     5
100
AcDbLine
 10
599.0000000000081
 20
-402.9603951084531
 30
0.0
 11
599.0000000000081
 21
-404.9603951084532
 31
0.0
  0
LINE
  5
588
330
6F
100
AcDbEntity
  8
DETAIL
  6
Continuous
 62
     5
100
AcDbLine
 10
-401.0001234834843
 20
-404.9603951084532
 30
0.0
 11
599.0000000000081
 21
-404.9603951084532
 31
0.0
  0
LINE
  5
589
330
6F
100
AcDbEntity
  8
DETAIL
  6
Continuous
 62
     5
100
AcDbLine
 10
582.7000000000071
 20
-344.9603951084537
 30
0.0
 11
582.7000000000071
 21
-369.4603951084532
 31
0.0
  0
LINE
  5
58A
330
6F
100
AcDbEntity
  8
DETAIL
  6
Continuous
 62
     5
100
AcDbLine
 10
-401.0001234834843
 20
-402.9603951084531
 30
0.0
 11
599.0000000000081
 21
-402.9603951084531
 31
0.0
  0
LINE
  5
58B
330
6F
100
AcDbEntity
  8
DETAIL
  6
Continuous
 62
     5
100
AcDbLine
 10
587.000000000008
 20
-399.9603951084532
 30
0.0
 11
587.000000000008
 21
-402.9603951084537
 31
0.0
  0
LINE
  5
58C
330
6F
100
AcDbEntity
  8
DETAIL
  6
Continuous
 62
     5
100
AcDbLine
 10
-389.0001234834845
 20
-379.9603951084537
 30
0.0
 11
587.000000000008
 21
-379.9603951084537
 31
0.0
  0
LINE
  5
58D
330
6F
100
AcDbEntity
  8
DETAIL
  6
Continuous
 62
     5
100
AcDbLine
 10
-389.0001234834845
 20
-369.4603951084273
 30
0.0
 11
587.000000000008
 21
-369.4603951084419
 31
0.0
  0
LINE
  5
58E
330
6F
100
AcDbEntity
  8
DETAIL
  6
Continuous
 62
     5
100
AcDbLine
 10
587.000000000008
 20
-379.9603951084537
 30
0.0
 11
587.000000000008
 21
-369.4603951084419
 31
0.0
  0
LINE
  5
58F
330
6F
100
AcDbEntity
  8
DETAIL
  6
Continuous
 62
     5
100
AcDbLine
 10
-384.7001234834834
 20
-344.9603951084532
 30
0.0
 11
582.7000000000071
 21
-344.9603951084537
 31
0.0
  0
LINE
  5
590
330
6F
100
AcDbEntity
  8
DETAIL
  6
Continuous
 62
     5
100
AcDbLine
 10
582.7000000000071
 20
-379.9603951084537
 30
0.0
 11
582.7000000000071
 21
-399.9603951084537
 31
0.0
  0
LINE
  5
591
330
6F
100
AcDbEntity
  8
DETAIL
  6
Continuous
 62
     5
100
AcDbLine
 10
-401.0001234834843
 20
-402.9603951084537
 30
0.0
 11
-401.0001234834843
 21
-404.9603951084534
 31
0.0
  0
LINE
  5
592
330
6F
100
AcDbEntity
  8
DETAIL
  6
Continuous
 62
     5
100
AcDbLine
 10
-389.0001234834845
 20
-399.9603951084537
 30
0.0
 11
-389.0001234834845
 21
-402.9603951084537
 31
0.0
  0
LINE
  5
593
330
6F
100
AcDbEntity
  8
DETAIL
  6
Continuous
 62
     5
100
AcDbLine
 10
-384.7001234834834
 20
-344.9603951084537
 30
0.0
 11
-384.7001234834834
 21
-369.4603951084532
 31
0.0
  0
LINE
  5
594
330
6F
100
AcDbEntity
  8
DETAIL
  6
Continuous
 62
     5
100
AcDbLine
 10
-384.7001234834834
 20
-379.9603951084537
 30
0.0
 11
-384.7001234834834
 21
-399.9603951084537
 31
0.0
  0
LINE
  5
595
330
6F
100
AcDbEntity
  8
DETAIL
  6
Continuous
 62
     5
100
AcDbLine
 10
-389.0001234834845
 20
-379.9603951084537
 30
0.0
 11
-389.0001234834845
 21
-369.4603951084537
 31
0.0
  0
LINE
  5
596
330
6F
100
AcDbEntity
  8
DETAIL
  6
Continuous
 62
     5
100
AcDbLine
 10
349.9999999999992
 20
-251.9999999999991
 30
0.0
 11
-350.0000000000008
 21
-251.9999999999991
 31
0.0
  0
ARC
  5
597
330
6F
100
AcDbEntity
  8
DETAIL
  6
Continuous
 62
     5
100
AcDbCircle
 10
349.9999999999992
 20
-249.9499999999989
 30
0.0
 40
2.049999999999998
100
AcDbArc
 50
270.0
 51
0.0
  0
LINE
  5
598
330
6F
100
AcDbEntity
  8
DETAIL
  6
Continuous
 62
     5
100
AcDbLine
 10
-299.999999999999
 20
-259.9999999999955
 30
0.0
 11
-299.999999999999
 21
-251.9999999999956
 31
0.0
  0
LINE
  5
599
330
6F
100
AcDbEntity
  8
DETAIL
  6
Continuous
 62
     5
100
AcDbLine
 10
300.0000000000008
 20
-259.9999999999955
 30
0.0
 11
-299.999999999999
 21
-259.9999999999955
 31
0.0
  0
LINE
  5
59A
330
6F
100
AcDbEntity
  8
DETAIL
  6
Continuous
 62
     5
100
AcDbLine
 10
300.0000000000008
 20
-259.9999999999955
 30
0.0
 11
300.0000000000008
 21
-251.9999999999956
 31
0.0
  0
LWPOLYLINE
  5
59B
330
6F
100
AcDbEntity
  8
DETAIL
  6
Continuous
 62
     5
100
AcDbPolyline
 90
       18
 70
     0
 43
0.0
 10
-339.2151419827996
 20
-208.7603026934994
 10
-339.1722258270011
 20
-209.6826674211988
 10
-339.0444052364011
 20
-210.5971658939989
 10
-338.8327703508012
 20
-211.4959989991994
 10
-338.5391260240003
 20
-212.3715011403992
 10
-338.1659765706999
 20
-213.216205751899
 10
-337.7165043314008
 20
-214.0229088989991
 10
-337.1945425600015
 20
-214.7847307429993
 10
-336.6045427238996
 20
-215.4951742065991
 10
-335.9515365434008
 20
-216.1481803852994
 10
-335.2410930783
 20
-216.7381802197992
 10
-334.479271233301
 20
-217.2601419902994
 10
-333.6725680856007
 20
-217.7096142290993
 10
-332.827863474201
 20
-218.0827636824993
 10
-331.952361332701
 20
-218.3764080088995
 10
-331.0535282299998
 20
-218.5880428969995
 10
-330.1390297543012
 20
-218.7158634846992
 10
-329.216665031202
 20
-218.7587796450989
  0
LWPOLYLINE
  5
5AF
330
6F
100
AcDbEntity
  8
DETAIL
  6
Continuous
 62
     5
100
AcDbPolyline
 90
       23
 70
     0
 43
0.0
 10
-341.5677565276009
 20
-193.030260367299
 10
-341.5491550653014
 20
-194.4065504874988
 10
-341.5408512234017
 20
-195.1408641822991
 10
-341.5353281775997
 20
-195.9087583329992
 10
-341.5346846894018
 20
-196.7113529495991
 10
-341.5414753370996
 20
-197.5489514334995
 10
-341.5586482934005
 20
-198.4181914240989
 10
-341.5885727719005
 20
-199.2948238444992
 10
-341.631891971002
 20
-200.147434393099
 10
-341.687823136802
 20
-200.9567673755991
 10
-341.7554419145008
 20
-201.7207492633988
 10
-341.8334884569004
 20
-202.4389604888992
 10
-341.9207381805017
 20
-203.113608903499
 10
-342.0162888987006
 20
-203.7491996651988
 10
-342.1194948345009
 20
-204.3505196163992
 10
-342.2299778559018
 20
-204.9223183921995
 10
-342.3476406181007
 20
-205.4692244906992
 10
-342.4727043686008
 20
-205.9958422503992
 10
-342.6057438479011
 20
-206.506765347699
 10
-342.7476688465004
 20
-207.0064847982994
 10
-342.899775404402
 20
-207.4992894277992
 10
-343.0636101810005
 20
-207.9893326926995
 10
-343.2414164487009
 20
-208.4808620674994
  0
LWPOLYLINE
  5
5C8
330
6F
100
AcDbEntity
  8
DETAIL
  6
Continuous
 62
     5
100
AcDbPolyline
 90
        4
 70
     0
 43
0.0
 10
-341.5848939197996
 20
-191.1631492729993
 10
-341.5816462728007
 20
-191.7622909447991
 10
-341.5756990574
 20
-192.383853857499
 10
-341.5677565276009
 20
-193.030260367299
  0
LINE
  5
5CE
330
6F
100
AcDbEntity
  8
DETAIL
  6
Continuous
 62
     5
100
AcDbLine
 10
-341.5852523797012
 20
-190.1718455115992
 30
0.0
 11
-341.5848939197996
 21
-191.1631492729993
 31
0.0
  0
LINE
  5
5CF
330
6F
100
AcDbEntity
  8
DETAIL
  6
Continuous
 62
     5
100
AcDbLine
 10
-400.0000000000008
 20
-29.99999999999909
 30
0.0
 11
-400.0000000000008
 21
-20.69999999999891
 31
0.0
  0
LINE
  5
5D0
330
6F
100
AcDbEntity
  8
DETAIL
  6
Continuous
 62
     5
100
AcDbLine
 10
-397.5000000000008
 20
-20.69999999999891
 30
0.0
 11
-397.5000000000008
 21
-29.99999999999909
 31
0.0
  0
LINE
  5
5D1
330
6F
100
AcDbEntity
  8
DETAIL
  6
Continuous
 62
     5
100
AcDbLine
 10
-354.0000000000008
 20
-14.99999999999909
 30
0.0
 11
-354.0000000000008
 21
-17.99999999999909
 31
0.0
  0
LINE
  5
5D2
330
6F
100
AcDbEntity
  8
DETAIL
  6
Continuous
 62
     5
100
AcDbLine
 10
-354.0000000000008
 20
-23.41837661839917
 30
0.0
 11
-354.0000000000008
 21
-239.9999999999991
 31
0.0
  0
LINE
  5
5D3
330
6F
100
AcDbEntity
  8
DETAIL
  6
Continuous
 62
     5
100
AcDbLine
 10
-352.050000000002
 20
-240.0285398162992
 30
0.0
 11
-352.050000000002
 21
-249.9499999999989
 31
0.0
  0
LINE
  5
5D4
330
6F
100
AcDbEntity
  8
DETAIL
  6
Continuous
 62
     5
100
AcDbLine
 10
-351.5000000000009
 20
-77.99999999999909
 30
0.0
 11
-351.5000000000009
 21
-20.69999999999891
 31
0.0
  0
LINE
  5
5D5
330
6F
100
AcDbEntity
  8
DETAIL
  6
Continuous
 62
     5
100
AcDbLine
 10
-350.050000000002
 20
-240.0285398163992
 30
0.0
 11
-350.0500000000001
 21
-249.9499999999989
 31
0.0
  0
LINE
  5
5D6
330
6F
100
AcDbEntity
  8
DETAIL
  6
Continuous
 62
     5
100
AcDbLine
 10
-350.0000000000008
 20
0.0000000000009095
 30
0.0
 11
-350.0000000000008
 21
-26.39999999999918
 31
0.0
  0
LINE
  5
5D7
330
6F
100
AcDbEntity
  8
DETAIL
  6
Continuous
 62
     5
100
AcDbLine
 10
-350.0000000000008
 20
-26.39999999999918
 30
0.0
 11
-350.0000000000008
 21
-203.9999999999991
 31
0.0
  0
LINE
  5
5D8
330
6F
100
AcDbEntity
  8
DETAIL
  6
Continuous
 62
     5
100
AcDbLine
 10
-350.0000000000008
 20
-251.9999999999991
 30
0.0
 11
-350.0000000000008
 21
-239.9999999999991
 31
0.0
  0
LINE
  5
5D9
330
6F
100
AcDbEntity
  8
DETAIL
  6
Continuous
 62
     5
100
AcDbLine
 10
-349.5000000000008
 20
-228.9999999999991
 30
0.0
 11
-349.5000000000008
 21
-7.999999999999089
 31
0.0
  0
LINE
  5
5DA
330
6F
100
AcDbEntity
  8
DETAIL
  6
Continuous
 62
     5
100
AcDbLine
 10
-349.4000000000005
 20
-239.9999999999991
 30
0.0
 11
-349.4000000000005
 21
-240.0285398162992
 31
0.0
  0
LINE
  5
5DB
330
6F
100
AcDbEntity
  8
DETAIL
  6
Continuous
 62
     5
100
AcDbLine
 10
-349.0000000000009
 20
-231.178183867899
 30
0.0
 11
-349.0000000000009
 21
-239.9999999999991
 31
0.0
  0
LINE
  5
5DC
330
6F
100
AcDbEntity
  8
DETAIL
  6
Continuous
 62
     5
100
AcDbLine
 10
-339.2151419827996
 20
-28.23969730649924
 30
0.0
 11
-339.2151419827996
 21
-208.7603026934994
 31
0.0
  0
LINE
  5
5DD
330
6F
100
AcDbEntity
  8
DETAIL
  6
Continuous
 62
     5
100
AcDbLine
 10
-329.0166650312012
 20
-224.1245319446989
 30
0.0
 11
-329.0166650312012
 21
-12.44083232309913
 31
0.0
  0
LWPOLYLINE
  5
5DE
330
6F
100
AcDbEntity
  8
DETAIL
  6
Continuous
 62
     5
100
AcDbPolyline
 90
        4
 70
     0
 43
0.0
 10
-341.5761179671017
 20
-43.90487512259914
 10
-341.5813951974005
 20
-44.55224534849913
 10
-341.5847196034001
 20
-45.19325239999941
 10
-341.5852523797012
 20
-190.1718455115992
  0
LWPOLYLINE
  5
5E4
330
6F
100
AcDbEntity
  8
DETAIL
  6
Continuous
 62
     5
100
AcDbPolyline
 90
        4
 70
     0
 43
0.0
 10
-344.1998616137016
 20
-211.0850291137995
 10
-344.3644633542016
 20
-211.5350926602991
 10
-344.5211473244008
 20
-211.9605425165992
 10
-344.671769945101
 20
-212.3657303996993
  0
LWPOLYLINE
  5
5EA
330
6F
100
AcDbEntity
  8
DETAIL
  6
Continuous
 62
     5
100
AcDbPolyline
 90
        4
 70
     0
 43
0.0
 10
-343.4124672129009
 20
-208.9385899152994
 10
-343.632647703801
 20
-209.5322032461991
 10
-343.8373670419015
 20
-210.0903806277993
 10
-344.1998616137016
 20
-211.0850291137995
  0
LWPOLYLINE
  5
5F0
330
6F
100
AcDbEntity
  8
DETAIL
  6
Continuous
 62
     5
100
AcDbPolyline
 90
        3
 70
     0
 43
0.0
 10
-343.2414164487009
 20
-208.4808620674994
 10
-343.3259085639011
 20
-208.7078104334992
 10
-343.4124672129009
 20
-208.9385899152994
  0
LINE
  5
5F5
330
6F
100
AcDbEntity
  8
DETAIL
  6
Continuous
 62
     5
100
AcDbLine
 10
-344.671769945101
 20
-212.3657303996993
 30
0.0
 11
-346.1643544468016
 21
-216.3605285840995
 31
0.0
  0
LINE
  5
5F6
330
6F
100
AcDbEntity
  8
DETAIL
  6
Continuous
 62
     5
100
AcDbLine
 10
-350.0000000000008
 20
-243.3999999999992
 30
0.0
 11
-350.050000000002
 21
-243.3999999999992
 31
0.0
  0
LINE
  5
5F7
330
6F
100
AcDbEntity
  8
DETAIL
  6
Continuous
 62
     5
100
AcDbLine
 10
-352.050000000002
 20
-240.0285398162992
 30
0.0
 11
-350.050000000002
 21
-240.0285398163992
 31
0.0
  0
LINE
  5
5F8
330
6F
100
AcDbEntity
  8
DETAIL
  6
Continuous
 62
     5
100
AcDbLine
 10
-349.4000000000005
 20
-239.9999999999991
 30
0.0
 11
-350.0000000000008
 21
-239.9999999999991
 31
0.0
  0
LINE
  5
5F9
330
6F
100
AcDbEntity
  8
DETAIL
  6
Continuous
 62
     5
100
AcDbLine
 10
-349.0000000000009
 20
-239.9999999999991
 30
0.0
 11
-354.0000000000008
 21
-239.9999999999991
 31
0.0
  0
LINE
  5
5FA
330
6F
100
AcDbEntity
  8
DETAIL
  6
Continuous
 62
     5
100
AcDbLine
 10
-317.3500000000013
 20
-226.4999999999991
 30
0.0
 11
-316.550000000002
 21
-226.4999999999991
 31
0.0
  0
LINE
  5
5FB
330
6F
100
AcDbEntity
  8
DETAIL
  6
Continuous
 62
     5
100
AcDbLine
 10
-312.6500000000005
 20
-226.4999999999991
 30
0.0
 11
-313.4499999999998
 21
-226.4999999999991
 31
0.0
  0
LINE
  5
5FC
330
6F
100
AcDbEntity
  8
DETAIL
  6
Continuous
 62
     5
100
AcDbLine
 10
-329.216665031202
 20
-218.7587796450989
 30
0.0
 11
-329.0166650312012
 21
-218.7587796450989
 31
0.0
  0
LINE
  5
5FD
330
6F
100
AcDbEntity
  8
DETAIL
  6
Continuous
 62
     5
100
AcDbLine
 10
-350.0000000000008
 20
-203.9999999999991
 30
0.0
 11
-349.5000000000008
 21
-203.9999999999991
 31
0.0
  0
LINE
  5
5FE
330
6F
100
AcDbEntity
  8
DETAIL
  6
Continuous
 62
     5
100
AcDbLine
 10
-356.8591869264009
 20
-20.55918969209916
 30
0.0
 11
-351.5590649936012
 21
-25.85931162479937
 31
0.0
  0
LWPOLYLINE
  5
5FF
330
6F
100
AcDbEntity
  8
DETAIL
  6
Continuous
 62
     5
100
AcDbPolyline
 90
        4
 70
     0
 43
0.0
 10
-351.5585786979017
 20
-25.85979644549935
 10
-351.5290886212015
 20
-25.8973463761995
 10
-351.5074031100004
 20
-25.94730696679926
 10
-351.5000002654006
 20
-26.00116352689929
  0
LWPOLYLINE
  5
605
330
6F
100
AcDbEntity
  8
DETAIL
  6
Continuous
 62
     5
100
AcDbPolyline
 90
        3
 70
     0
 43
0.0
 10
-343.4124980086008
 20
-28.06128210469888
 10
-343.325799095902
 20
-28.29214291689914
 10
-343.2415673804016
 20
-28.5191948684992
  0
LINE
  5
60A
330
6F
100
AcDbEntity
  8
DETAIL
  6
Continuous
 62
     5
100
AcDbLine
 10
-346.1643544468016
 20
-20.63947141589915
 30
0.0
 11
-344.6717697744016
 21
-24.63426622999941
 31
0.0
  0
LWPOLYLINE
  5
60B
330
6F
100
AcDbEntity
  8
DETAIL
  6
Continuous
 62
     5
100
AcDbPolyline
 90
        5
 70
     0
 43
0.0
 10
-344.6717697744016
 20
-24.63426622999941
 10
-344.5224621968
 20
-25.03590858389908
 10
-344.3657566165012
 20
-25.46134427489915
 10
-344.2011766644018
 20
-25.91136103009922
 10
-343.8413818563013
 20
-26.89858663029918
  0
LWPOLYLINE
  5
612
330
6F
100
AcDbEntity
  8
DETAIL
  6
Continuous
 62
     5
100
AcDbPolyline
 90
        3
 70
     0
 43
0.0
 10
-343.8413818563013
 20
-26.89858663029918
 10
-343.6381515658004
 20
-27.45292186019924
 10
-343.4124980086008
 20
-28.06128210469888
  0
LWPOLYLINE
  5
617
330
6F
100
AcDbEntity
  8
DETAIL
  6
Continuous
 62
     5
100
AcDbPolyline
 90
       23
 70
     0
 43
0.0
 10
-343.2415673804016
 20
-28.5191948684992
 10
-343.0800591940997
 20
-28.97110664309913
 10
-342.925510653401
 20
-29.43678695499921
 10
-342.7775941993012
 20
-29.91792927719918
 10
-342.6364277225011
 20
-30.41620737839912
 10
-342.5021097002018
 20
-30.93325149759948
 10
-342.3748939535008
 20
-31.4706827873988
 10
-342.2551721035006
 20
-32.02980819459936
 10
-342.1435249416017
 20
-32.61119981119917
 10
-342.0403254145995
 20
-33.2165521051993
 10
-341.9452898344017
 20
-33.85267142049907
 10
-341.8582614746002
 20
-34.52905707539913
 10
-341.7797826076012
 20
-35.2542867063994
 10
-341.7113321962997
 20
-36.03073134819897
 10
-341.6547346466004
 20
-36.85251742289894
 10
-341.6110382746
 20
-37.71219972859944
 10
-341.5806731907005
 20
-38.59012160359907
 10
-341.5626834824005
 20
-39.45750335199909
 10
-341.5546367195011
 20
-40.29148032719922
 10
-341.5536066794004
 20
-41.08689080859948
 10
-341.5570428344008
 20
-41.8416641483991
 10
-341.5628940017005
 20
-42.55777765869924
 10
-341.5761179671017
 20
-43.90487512259914
  0
LINE
  5
630
330
6F
100
AcDbEntity
  8
DETAIL
  6
Continuous
 62
     5
100
AcDbLine
 10
-336.4605285841999
 20
-226.0643544466993
 30
0.0
 11
-332.198085653602
 21
-224.4717685832993
 31
0.0
  0
LWPOLYLINE
  5
631
330
6F
100
AcDbEntity
  8
DETAIL
  6
Continuous
 62
     5
100
AcDbPolyline
 90
        4
 70
     0
 43
0.0
 10
-332.198085653602
 20
-224.4717685832993
 10
-331.7945536243998
 20
-224.3216700023991
 10
-331.3725720341017
 20
-224.165966780799
 10
-330.9283841330007
 20
-224.0030835509992
  0
LWPOLYLINE
  5
637
330
6F
100
AcDbEntity
  8
DETAIL
  6
Continuous
 62
     5
100
AcDbPolyline
 90
        4
 70
     0
 43
0.0
 10
-330.9283841330007
 20
-224.0030835509992
 10
-329.9636465550018
 20
-223.650677076499
 10
-329.4449036187008
 20
-223.4606513344989
 10
-329.0166650312012
 20
-223.3027397198994
  0
LWPOLYLINE
  5
63D
330
6F
100
AcDbEntity
  8
DETAIL
  6
Continuous
 62
     5
100
AcDbPolyline
 90
       18
 70
     0
 43
0.0
 10
-329.216665031202
 20
-18.24122035499931
 10
-330.1390297543012
 20
-18.28413651529899
 10
-331.0535282299998
 20
-18.41195710299917
 10
-331.952361332701
 20
-18.62359199119919
 10
-332.827863474201
 20
-18.91723631749937
 10
-333.6725680856007
 20
-19.29038577099891
 10
-334.479271233301
 20
-19.73985800969921
 10
-335.2410930783
 20
-20.2618197801994
 10
-335.9515365434008
 20
-20.85181961469924
 10
-336.6045427238996
 20
-21.5048257933995
 10
-337.1945425600015
 20
-22.2152692569989
 10
-337.7165043314008
 20
-22.97709110099913
 10
-338.1659765706999
 20
-23.78379424809919
 10
-338.5391260240003
 20
-24.62849885959895
 10
-338.8327703508012
 20
-25.50400100079924
 10
-339.0444052364011
 20
-26.40283410599932
 10
-339.1722258270011
 20
-27.31733257889937
 10
-339.2151419827996
 20
-28.23969730649924
  0
LINE
  5
651
330
6F
100
AcDbEntity
  8
DETAIL
  6
Continuous
 62
     5
100
AcDbLine
 10
-354.0000000000008
 20
-92.9999999999991
 30
0.0
 11
-350.0000000000008
 21
-92.9999999999991
 31
0.0
  0
LINE
  5
652
330
6F
100
AcDbEntity
  8
DETAIL
  6
Continuous
 62
     5
100
AcDbLine
 10
-351.5000000000009
 20
-77.99999999999909
 30
0.0
 11
-350.0000000000008
 21
-77.99999999999909
 31
0.0
  0
LINE
  5
653
330
6F
100
AcDbEntity
  8
DETAIL
  6
Continuous
 62
     5
100
AcDbLine
 10
-397.5000000000008
 20
-29.99999999999909
 30
0.0
 11
-400.0000000000008
 21
-29.99999999999909
 31
0.0
  0
LINE
  5
654
330
6F
100
AcDbEntity
  8
DETAIL
  6
Continuous
 62
     5
100
AcDbLine
 10
-349.5000000000008
 20
-26.39999999999918
 30
0.0
 11
-350.0000000000008
 21
-26.39999999999918
 31
0.0
  0
LINE
  5
655
330
6F
100
AcDbEntity
  8
DETAIL
  6
Continuous
 62
     5
100
AcDbLine
 10
-351.6999999999999
 20
-20.49999999999909
 30
0.0
 11
-397.300000000002
 21
-20.49999999999909
 31
0.0
  0
LINE
  5
656
330
6F
100
AcDbEntity
  8
DETAIL
  6
Continuous
 62
     5
100
AcDbLine
 10
-329.0166650312012
 20
-18.24122035499931
 30
0.0
 11
-329.216665031202
 21
-18.24122035499931
 31
0.0
  0
LINE
  5
657
330
6F
100
AcDbEntity
  8
DETAIL
  6
Continuous
 62
     5
100
AcDbLine
 10
-351.6999999999999
 20
-17.99999999999909
 30
0.0
 11
-397.300000000002
 21
-17.99999999999909
 31
0.0
  0
LINE
  5
658
330
6F
100
AcDbEntity
  8
DETAIL
  6
Continuous
 62
     5
100
AcDbLine
 10
-354.0000000000008
 20
-14.99999999999909
 30
0.0
 11
-350.0000000000008
 21
-14.99999999999909
 31
0.0
  0
LWPOLYLINE
  5
659
330
6F
100
AcDbEntity
  8
DETAIL
  6
Continuous
 62
     5
100
AcDbPolyline
 90
        8
 70
     0
 43
0.0
 10
-329.0166650312012
 20
-13.69725818639927
 10
-329.4463021934017
 20
-13.53883623399906
 10
-329.9647920352009
 20
-13.3489027195992
 10
-330.4594001558007
 20
-13.16825302389907
 10
-330.9286719723996
 20
-12.99681088169927
 10
-331.372961796601
 20
-12.833890268299
 10
-331.7949655747006
 20
-12.67817771849923
 10
-332.1980859574005
 20
-12.52823132359935
  0
LINE
  5
663
330
6F
100
AcDbEntity
  8
DETAIL
  6
Continuous
 62
     5
100
AcDbLine
 10
-332.1980859574005
 20
-12.52823132359935
 30
0.0
 11
-336.4605285841999
 21
-10.93564555329884
 31
0.0
  0
ARC
  5
664
330
6F
100
AcDbEntity
  8
DETAIL
  6
Continuous
 62
     5
100
AcDbCircle
 10
-348.1999999999999
 20
-240.9999999999991
 30
0.0
 40
1.0
100
AcDbArc
 50
90.0
 51
102.9860200716941
  0
ARC
  5
665
330
6F
100
AcDbEntity
  8
DETAIL
  6
Continuous
 62
     5
100
AcDbCircle
 10
-350.0000000000008
 20
-249.9499999999989
 30
0.0
 40
0.05
100
AcDbArc
 50
179.9999999998957
 51
270.0
  0
ARC
  5
666
330
6F
100
AcDbEntity
  8
DETAIL
  6
Continuous
 62
     5
100
AcDbCircle
 10
-339.1000000000013
 20
-218.9999999999991
 30
0.0
 40
7.5413468963
100
AcDbArc
 50
159.5126848852115
 51
290.4873151147451
  0
ARC
  5
667
330
6F
100
AcDbEntity
  8
DETAIL
  6
Continuous
 62
     5
100
AcDbCircle
 10
-344.5000000000009
 20
-228.9999999999991
 30
0.0
 40
5.0
100
AcDbArc
 50
180.0
 51
270.0
  0
ARC
  5
668
330
6F
100
AcDbEntity
  8
DETAIL
  6
Continuous
 62
     5
100
AcDbCircle
 10
-315.0000000000009
 20
-226.4999999999991
 30
0.0
 40
2.5
100
AcDbArc
 50
107.8829712887849
 51
72.11702871121504
  0
CIRCLE
  5
669
330
6F
100
AcDbEntity
  8
DETAIL
  6
Continuous
 62
     5
100
AcDbCircle
 10
-315.0000000000009
 20
-226.4999999999991
 30
0.0
 40
1.55
  0
ARC
  5
66A
330
6F
100
AcDbEntity
  8
DETAIL
  6
Continuous
 62
     5
100
AcDbCircle
 10
-339.1000000000013
 20
-17.99999999999909
 30
0.0
 40
7.5413468963
100
AcDbArc
 50
69.51268488525491
 51
200.4873151146833
  0
ARC
  5
66B
330
6F
100
AcDbEntity
  8
DETAIL
  6
Continuous
 62
     5
100
AcDbCircle
 10
-344.5000000000009
 20
-7.999999999999089
 30
0.0
 40
5.0
100
AcDbArc
 50
90.0
 51
180.0
  0
ARC
  5
66C
330
6F
100
AcDbEntity
  8
DETAIL
  6
Continuous
 62
     5
100
AcDbCircle
 10
-397.300000000002
 20
-20.69999999999891
 30
0.0
 40
2.7
100
AcDbArc
 50
90.0
 51
180.0
  0
ARC
  5
66D
330
6F
100
AcDbEntity
  8
DETAIL
  6
Continuous
 62
     5
100
AcDbCircle
 10
-351.6999999999999
 20
-20.69999999999891
 30
0.0
 40
2.7
100
AcDbArc
 50
50.84634906082492
 51
90.0
  0
ARC
  5
66E
330
6F
100
AcDbEntity
  8
DETAIL
  6
Continuous
 62
     5
100
AcDbCircle
 10
-397.300000000002
 20
-20.69999999999891
 30
0.0
 40
0.2
100
AcDbArc
 50
90.0
 51
180.0
  0
ARC
  5
66F
330
6F
100
AcDbEntity
  8
DETAIL
  6
Continuous
 62
     5
100
AcDbCircle
 10
-351.6999999999999
 20
-20.69999999999891
 30
0.0
 40
0.2
100
AcDbArc
 50
0.0
 51
90.0
  0
ARC
  5
670
330
6F
100
AcDbEntity
  8
DETAIL
  6
Continuous
 62
     5
100
AcDbCircle
 10
-315.0000000000009
 20
-10.49999999999909
 30
0.0
 40
2.5
100
AcDbArc
 50
308.9093032907221
 51
231.0906967092779
  0
CIRCLE
  5
671
330
6F
100
AcDbEntity
  8
DETAIL
  6
Continuous
 62
     5
100
AcDbCircle
 10
-315.0000000000009
 20
-10.49999999999909
 30
0.0
 40
1.55
  0
ARC
  5
672
330
6F
100
AcDbEntity
  8
DETAIL
  6
Continuous
 62
     5
100
AcDbCircle
 10
-350.0000000000008
 20
-249.9499999999989
 30
0.0
 40
2.049999999999998
100
AcDbArc
 50
179.9999999998957
 51
270.0
  0
LINE
  5
673
330
6F
100
AcDbEntity
  8
SIZE
  6
Continuous
 62
    30
100
AcDbLine
 10
-350.0000000000008
 20
20.00000000000091
 30
0.0
 11
-350.0000000000008
 21
210.9890570364623
 31
0.0
  0
LINE
  5
674
330
6F
100
AcDbEntity
  8
SIZE
  6
Continuous
 62
    30
100
AcDbLine
 10
349.9999999999992
 20
20.00000000000091
 30
0.0
 11
349.9999999999992
 21
210.9890570364623
 31
0.0
  0
LINE
  5
675
330
6F
100
AcDbEntity
  8
SIZE
  6
Continuous
 62
    30
100
AcDbLine
 10
-350.0000000000008
 20
190.9890570364623
 30
0.0
 11
349.9999999999992
 21
190.9890570364623
 31
0.0
  0
CIRCLE
  5
676
330
6F
100
AcDbEntity
  8
SIZE
  6
Continuous
 62
    30
100
AcDbCircle
 10
-350.0000000000008
 20
190.9890570364623
 30
0.0
 40
7.5
  0
CIRCLE
  5
677
330
6F
100
AcDbEntity
  8
SIZE
  6
Continuous
 62
    30
100
AcDbCircle
 10
349.9999999999992
 20
190.9890570364623
 30
0.0
 40
7.5
  0
TEXT
  5
678
330
6F
100
AcDbEntity
  8
SIZE
  6
Continuous
 62
    30
100
AcDbText
 10
-46.28571428571519
 20
210.9890570364623
 30
0.0
 40
40.0
  1
700
 41
0.9
 72
     1
 11
-0.0000000000009095
 21
210.9890570364623
 31
0.0
100
AcDbText
  0
POINT
  5
679
330
6F
100
AcDbEntity
  8
DEFPOINTS
  6
Continuous
 62
    30
100
AcDbPoint
 10
-350.0000000000008
 20
0.0000000000009095
 30
0.0
  0
POINT
  5
67A
330
6F
100
AcDbEntity
  8
DEFPOINTS
  6
Continuous
 62
    30
100
AcDbPoint
 10
349.9999999999992
 20
0.0000000000009095
 30
0.0
  0
POINT
  5
67B
330
6F
100
AcDbEntity
  8
DEFPOINTS
  6
Continuous
 62
    30
100
AcDbPoint
 10
349.9999999999992
 20
190.9890570364623
 30
0.0
  0
LINE
  5
67C
330
6F
100
AcDbEntity
  8
SIZE
  6
Continuous
 62
    30
100
AcDbLine
 10
139.9499999999998
 20
28.46968523904616
 30
0.0
 11
139.9499999999998
 21
125.3151590295019
 31
0.0
  0
LINE
  5
67D
330
6F
100
AcDbEntity
  8
SIZE
  6
Continuous
 62
    30
100
AcDbLine
 10
349.9999999999992
 20
20.00000000000091
 30
0.0
 11
349.9999999999992
 21
125.3151590295019
 31
0.0
  0
LINE
  5
67E
330
6F
100
AcDbEntity
  8
SIZE
  6
Continuous
 62
    30
100
AcDbLine
 10
139.9499999999998
 20
105.3151590295019
 30
0.0
 11
349.9999999999992
 21
105.3151590295019
 31
0.0
  0
CIRCLE
  5
67F
330
6F
100
AcDbEntity
  8
SIZE
  6
Continuous
 62
    30
100
AcDbCircle
 10
139.9499999999998
 20
105.3151590295019
 30
0.0
 40
7.5
  0
CIRCLE
  5
680
330
6F
100
AcDbEntity
  8
SIZE
  6
Continuous
 62
    30
100
AcDbCircle
 10
349.9999999999992
 20
105.3151590295019
 30
0.0
 40
7.5
  0
TEXT
  5
681
330
6F
100
AcDbEntity
  8
SIZE
  6
Continuous
 62
    30
100
AcDbText
 10
202.1178571428565
 20
125.3151590295019
 30
0.0
 40
40.0
  1
210
 41
0.9
 72
     1
 11
244.9749999999994
 21
125.3151590295019
 31
0.0
100
AcDbText
  0
POINT
  5
682
330
6F
100
AcDbEntity
  8
DEFPOINTS
  6
Continuous
 62
    30
100
AcDbPoint
 10
139.9499999999998
 20
8.469685239046157
 30
0.0
  0
POINT
  5
683
330
6F
100
AcDbEntity
  8
DEFPOINTS
  6
Continuous
 62
    30
100
AcDbPoint
 10
349.9999999999992
 20
0.0000000000009095
 30
0.0
  0
POINT
  5
684
330
6F
100
AcDbEntity
  8
DEFPOINTS
  6
Continuous
 62
    30
100
AcDbPoint
 10
349.9999999999992
 20
105.3151590295019
 30
0.0
  0
LINE
  5
685
330
6F
100
AcDbEntity
  8
SIZE
  6
Continuous
 62
    30
100
AcDbLine
 10
139.9499999999998
 20
28.46968523904616
 30
0.0
 11
139.9499999999998
 21
125.3151590295019
 31
0.0
  0
LINE
  5
686
330
6F
100
AcDbEntity
  8
SIZE
  6
Continuous
 62
    30
100
AcDbLine
 10
-140.0500000000002
 20
28.46968523904616
 30
0.0
 11
-140.0500000000002
 21
125.3151590295019
 31
0.0
  0
LINE
  5
687
330
6F
100
AcDbEntity
  8
SIZE
  6
Continuous
 62
    30
100
AcDbLine
 10
139.9499999999998
 20
105.3151590295019
 30
0.0
 11
-140.0500000000002
 21
105.3151590295019
 31
0.0
  0
CIRCLE
  5
688
330
6F
100
AcDbEntity
  8
SIZE
  6
Continuous
 62
    30
100
AcDbCircle
 10
139.9499999999998
 20
105.3151590295019
 30
0.0
 40
7.5
  0
CIRCLE
  5
689
330
6F
100
AcDbEntity
  8
SIZE
  6
Continuous
 62
    30
100
AcDbCircle
 10
-140.0500000000002
 20
105.3151590295019
 30
0.0
 40
7.5
  0
TEXT
  5
68A
330
6F
100
AcDbEntity
  8
SIZE
  6
Continuous
 62
    30
100
AcDbText
 10
-46.33571428571446
 20
125.3151590295019
 30
0.0
 40
40.0
  1
280
 41
0.9
 72
     1
 11
-0.0500000000001819
 21
125.3151590295019
 31
0.0
100
AcDbText
  0
POINT
  5
68B
330
6F
100
AcDbEntity
  8
DEFPOINTS
  6
Continuous
 62
    30
100
AcDbPoint
 10
139.9499999999998
 20
8.469685239046157
 30
0.0
  0
POINT
  5
68C
330
6F
100
AcDbEntity
  8
DEFPOINTS
  6
Continuous
 62
    30
100
AcDbPoint
 10
-140.0500000000002
 20
8.469685239046157
 30
0.0
  0
POINT
  5
68D
330
6F
100
AcDbEntity
  8
DEFPOINTS
  6
Continuous
 62
    30
100
AcDbPoint
 10
-140.0500000000002
 20
105.3151590295019
 30
0.0
  0
LINE
  5
68E
330
6F
100
AcDbEntity
  8
NOTE
  6
Continuous
 62
     4
100
AcDbLine
 10
-267.0196852390463
 20
-118.4999999999991
 30
0.0
 11
-140.050000000002
 21
-118.4999999999991
 31
0.0
  0
LINE
  5
68F
330
6F
100
AcDbEntity
  8
NOTE
  6
Continuous
 62
     4
100
AcDbLine
 10
-140.050000000002
 20
-245.4696852390443
 30
0.0
 11
-140.050000000002
 21
-118.4999999999991
 31
0.0
  0
LINE
  5
690
330
6F
100
AcDbEntity
  8
NOTE
  6
Continuous
 62
     4
100
AcDbLine
 10
-13.08031476095584
 20
-118.4999999999991
 30
0.0
 11
-140.0500000000002
 21
-118.4999999999991
 31
0.0
  0
LINE
  5
691
330
6F
100
AcDbEntity
  8
NOTE
  6
Continuous
 62
     4
100
AcDbLine
 10
-140.0500000000002
 20
8.469685239046157
 30
0.0
 11
-140.050000000002
 21
-118.4999999999991
 31
0.0
  0
LINE
  5
692
330
6F
100
AcDbEntity
  8
NOTE
  6
Continuous
 62
     4
100
AcDbLine
 10
12.98031476095366
 20
-118.4999999999991
 30
0.0
 11
139.949999999998
 21
-118.4999999999991
 31
0.0
  0
LINE
  5
693
330
6F
100
AcDbEntity
  8
NOTE
  6
Continuous
 62
     4
100
AcDbLine
 10
139.949999999998
 20
-245.4696852390443
 30
0.0
 11
139.949999999998
 21
-118.4999999999991
 31
0.0
  0
LINE
  5
694
330
6F
100
AcDbEntity
  8
NOTE
  6
Continuous
 62
     4
100
AcDbLine
 10
266.9196852390442
 20
-118.4999999999991
 30
0.0
 11
139.9499999999998
 21
-118.4999999999991
 31
0.0
  0
LINE
  5
695
330
6F
100
AcDbEntity
  8
NOTE
  6
Continuous
 62
     4
100
AcDbLine
 10
139.9499999999998
 20
8.469685239046157
 30
0.0
 11
139.949999999998
 21
-118.4999999999991
 31
0.0
  0
LINE
  5
696
330
6F
100
AcDbEntity
  8
SIZE
  6
Continuous
 62
    30
100
AcDbLine
 10
-400.0000000000008
 20
-0.6999999999989086
 30
0.0
 11
-400.0000000000008
 21
423.8524051159846
 31
0.0
  0
LINE
  5
697
330
6F
100
AcDbEntity
  8
SIZE
  6
Continuous
 62
    30
100
AcDbLine
 10
399.9999999999992
 20
-0.6999999999989086
 30
0.0
 11
399.9999999999992
 21
423.8524051159846
 31
0.0
  0
LINE
  5
698
330
6F
100
AcDbEntity
  8
SIZE
  6
Continuous
 62
    30
100
AcDbLine
 10
-400.0000000000008
 20
403.8524051159846
 30
0.0
 11
399.9999999999992
 21
403.8524051159846
 31
0.0
  0
CIRCLE
  5
699
330
6F
100
AcDbEntity
  8
SIZE
  6
Continuous
 62
    30
100
AcDbCircle
 10
-400.0000000000008
 20
403.8524051159846
 30
0.0
 40
7.5
  0
CIRCLE
  5
69A
330
6F
100
AcDbEntity
  8
SIZE
  6
Continuous
 62
    30
100
AcDbCircle
 10
399.9999999999992
 20
403.8524051159846
 30
0.0
 40
7.5
  0
TEXT
  5
69B
330
6F
100
AcDbEntity
  8
SIZE
  6
Continuous
 62
    30
100
AcDbText
 10
-46.28571428571517
 20
423.8524051159846
 30
0.0
 40
40.0
  1
800
 41
0.9
 72
     1
 11
-0.0000000000009095
 21
423.8524051159846
 31
0.0
100
AcDbText
  0
POINT
  5
69C
330
6F
100
AcDbEntity
  8
DEFPOINTS
  6
Continuous
 62
    30
100
AcDbPoint
 10
-400.0000000000008
 20
-20.69999999999891
 30
0.0
  0
POINT
  5
69D
330
6F
100
AcDbEntity
  8
DEFPOINTS
  6
Continuous
 62
    30
100
AcDbPoint
 10
399.9999999999992
 20
-20.69999999999891
 30
0.0
  0
POINT
  5
69E
330
6F
100
AcDbEntity
  8
DEFPOINTS
  6
Continuous
 62
    30
100
AcDbPoint
 10
399.9999999999992
 20
403.8524051159846
 30
0.0
  0
LINE
  5
69F
330
6F
100
AcDbEntity
  8
SIZE
  6
Continuous
 62
    30
100
AcDbLine
 10
364.4999999999992
 20
-2.999999999999095
 30
0.0
 11
655.4885466744353
 21
-2.999999999999176
 31
0.0
  0
LINE
  5
6A0
330
6F
100
AcDbEntity
  8
SIZE
  6
Continuous
 62
    30
100
AcDbLine
 10
286.9196852390441
 20
-118.4999999999991
 30
0.0
 11
655.4885466744353
 21
-118.4999999999992
 31
0.0
  0
LINE
  5
6A1
330
6F
100
AcDbEntity
  8
SIZE
  6
Continuous
 62
    30
100
AcDbLine
 10
635.4885466744352
 20
-2.999999999999172
 30
0.0
 11
635.4885466744352
 21
-118.4999999999992
 31
0.0
  0
CIRCLE
  5
6A2
330
6F
100
AcDbEntity
  8
SIZE
  6
Continuous
 62
    30
100
AcDbCircle
 10
635.4885466744352
 20
-2.999999999999172
 30
0.0
 40
7.5
  0
CIRCLE
  5
6A3
330
6F
100
AcDbEntity
  8
SIZE
  6
Continuous
 62
    30
100
AcDbCircle
 10
635.4885466744352
 20
-118.4999999999992
 30
0.0
 40
7.5
  0
TEXT
  5
6A4
330
6F
100
AcDbEntity
  8
SIZE
  6
Continuous
 62
    30
100
AcDbText
 10
615.4885466744352
 20
-89.12192806717635
 30
0.0
 40
40.0
  1
116
 50
90.0
 41
0.9
 72
     1
 11
615.4885466744352
 21
-50.55049949574779
 31
0.0
100
AcDbText
  0
POINT
  5
6A5
330
6F
100
AcDbEntity
  8
DEFPOINTS
  6
Continuous
 62
    30
100
AcDbPoint
 10
344.4999999999991
 20
-2.999999999999089
 30
0.0
  0
POINT
  5
6A6
330
6F
100
AcDbEntity
  8
DEFPOINTS
  6
Continuous
 62
    30
100
AcDbPoint
 10
266.9196852390442
 20
-118.4999999999991
 30
0.0
  0
POINT
  5
6A7
330
6F
100
AcDbEntity
  8
DEFPOINTS
  6
Continuous
 62
    30
100
AcDbPoint
 10
635.4885466744352
 20
-118.4999999999992
 30
0.0
  0
LINE
  5
6A8
330
6F
100
AcDbEntity
  8
SIZE
  6
Continuous
 62
    30
100
AcDbLine
 10
-370.0000000000009
 20
-1.999999999999083
 30
0.0
 11
-702.4844845195661
 21
-1.999999999998989
 31
0.0
  0
LINE
  5
6A9
330
6F
100
AcDbEntity
  8
SIZE
  6
Continuous
 62
    30
100
AcDbLine
 10
-370.0000000000009
 20
-251.9499999999989
 30
0.0
 11
-702.4844845195661
 21
-251.9499999999988
 31
0.0
  0
LINE
  5
6AA
330
6F
100
AcDbEntity
  8
SIZE
  6
Continuous
 62
    30
100
AcDbLine
 10
-682.4844845195663
 20
-1.999999999998996
 30
0.0
 11
-682.4844845195663
 21
-251.9499999999988
 31
0.0
  0
CIRCLE
  5
6AB
330
6F
100
AcDbEntity
  8
SIZE
  6
Continuous
 62
    30
100
AcDbCircle
 10
-682.4844845195663
 20
-1.999999999998996
 30
0.0
 40
7.5
  0
CIRCLE
  5
6AC
330
6F
100
AcDbEntity
  8
SIZE
  6
Continuous
 62
    30
100
AcDbCircle
 10
-682.4844845195663
 20
-251.9499999999988
 30
0.0
 40
7.5
  0
TEXT
  5
6AD
330
6F
100
AcDbEntity
  8
SIZE
  6
Continuous
 62
    30
100
AcDbText
 10
-702.4844845195661
 20
-173.2607142857133
 30
0.0
 40
40.0
  1
250
 50
90.0
 41
0.9
 72
     1
 11
-702.4844845195661
 21
-126.974999999999
 31
0.0
100
AcDbText
  0
POINT
  5
6AE
330
6F
100
AcDbEntity
  8
DEFPOINTS
  6
Continuous
 62
    30
100
AcDbPoint
 10
-350.0000000000008
 20
-1.99999999999909
 30
0.0
  0
POINT
  5
6AF
330
6F
100
AcDbEntity
  8
DEFPOINTS
  6
Continuous
 62
    30
100
AcDbPoint
 10
-350.0000000000008
 20
-251.9499999999989
 30
0.0
  0
POINT
  5
6B0
330
6F
100
AcDbEntity
  8
DEFPOINTS
  6
Continuous
 62
    30
100
AcDbPoint
 10
-682.4844845195663
 20
-251.9499999999988
 30
0.0
  0
LINE
  5
6B1
330
6F
100
AcDbEntity
  8
SIZE
  6
Continuous
 62
    30
100
AcDbLine
 10
-421.0001234834845
 20
-404.9603951084534
 30
0.0
 11
-702.4844845195793
 21
-404.9603951084534
 31
0.0
  0
LINE
  5
6B2
330
6F
100
AcDbEntity
  8
SIZE
  6
Continuous
 62
    30
100
AcDbLine
 10
-370.0000000000009
 20
-251.9499999999989
 30
0.0
 11
-702.4844845195793
 21
-251.9499999999988
 31
0.0
  0
LINE
  5
6B3
330
6F
100
AcDbEntity
  8
SIZE
  6
Continuous
 62
    30
100
AcDbLine
 10
-682.4844845195793
 20
-251.9499999999988
 30
0.0
 11
-682.4844845195793
 21
-404.9603951084534
 31
0.0
  0
LINE
  5
6B4
330
6F
100
AcDbEntity
  8
SIZE
  6
Continuous
 62
    30
100
AcDbLine
 10
-682.4844845195793
 20
-404.9603951084534
 30
0.0
 11
-682.4844845195793
 21
-706.7318236798865
 31
0.0
  0
CIRCLE
  5
6B5
330
6F
100
AcDbEntity
  8
SIZE
  6
Continuous
 62
    30
100
AcDbCircle
 10
-682.4844845195793
 20
-251.9499999999988
 30
0.0
 40
7.5
  0
CIRCLE
  5
6B6
330
6F
100
AcDbEntity
  8
SIZE
  6
Continuous
 62
    30
100
AcDbCircle
 10
-682.4844845195793
 20
-404.9603951084534
 30
0.0
 40
7.5
  0
TEXT
  5
6B7
330
6F
100
AcDbEntity
  8
SIZE
  6
Continuous
 62
    30
100
AcDbText
 10
-702.4844845195793
 20
-686.7318236798864
 30
0.0
 40
40.0
  1
150～300
 50
90.0
 41
0.9
 72
     1
 11
-702.4844845195793
 21
-570.8461093941722
 31
0.0
100
AcDbText
  0
POINT
  5
6B8
330
6F
100
AcDbEntity
  8
DEFPOINTS
  6
Continuous
 62
    30
100
AcDbPoint
 10
-401.0001234834843
 20
-404.9603951084534
 30
0.0
  0
POINT
  5
6B9
330
6F
100
AcDbEntity
  8
DEFPOINTS
  6
Continuous
 62
    30
100
AcDbPoint
 10
-350.0000000000008
 20
-251.9499999999989
 30
0.0
  0
POINT
  5
6BA
330
6F
100
AcDbEntity
  8
DEFPOINTS
  6
Continuous
 62
    30
100
AcDbPoint
 10
-682.4844845195793
 20
-251.9499999999988
 30
0.0
  0
LINE
  5
6BB
330
6F
100
AcDbEntity
  8
NOTE
  6
Continuous
 62
     4
100
AcDbLine
 10
406.4999999999987
 20
-145.4693543253197
 30
0.0
 11
406.4999999999987
 21
-104.9306456746781
 31
0.0
  0
LINE
  5
6BC
330
6F
100
AcDbEntity
  8
NOTE
  6
Continuous
 62
     4
100
AcDbLine
 10
424.7271194249542
 20
-125.1999999999989
 30
0.0
 11
388.2728805750439
 21
-125.1999999999989
 31
0.0
  0
LINE
  5
6BD
330
6F
100
AcDbEntity
  8
NOTE
  6
Continuous
 62
     4
100
AcDbLine
 10
427.4999999999988
 20
-178.4693543253196
 30
0.0
 11
427.4999999999988
 21
-137.9306456746781
 31
0.0
  0
LINE
  5
6BE
330
6F
100
AcDbEntity
  8
NOTE
  6
Continuous
 62
     4
100
AcDbLine
 10
445.7271194249542
 20
-158.1999999999989
 30
0.0
 11
409.2728805750438
 21
-158.1999999999989
 31
0.0
  0
LINE
  5
6BF
330
6F
100
AcDbEntity
  8
SIZE
  6
Continuous
 62
    30
100
AcDbLine
 10
364.4999999999992
 20
-2.999999999999095
 30
0.0
 11
751.303100055481
 21
-2.999999999999203
 31
0.0
  0
LINE
  5
6C0
330
6F
100
AcDbEntity
  8
SIZE
  6
Continuous
 62
    30
100
AcDbLine
 10
444.7271194249542
 20
-125.1999999999989
 30
0.0
 11
751.303100055481
 21
-125.199999999999
 31
0.0
  0
LINE
  5
6C1
330
6F
100
AcDbEntity
  8
SIZE
  6
Continuous
 62
    30
100
AcDbLine
 10
731.303100055481
 20
-2.9999999999992
 30
0.0
 11
731.303100055481
 21
-125.199999999999
 31
0.0
  0
CIRCLE
  5
6C2
330
6F
100
AcDbEntity
  8
SIZE
  6
Continuous
 62
    30
100
AcDbCircle
 10
731.303100055481
 20
-2.9999999999992
 30
0.0
 40
7.5
  0
CIRCLE
  5
6C3
330
6F
100
AcDbEntity
  8
SIZE
  6
Continuous
 62
    30
100
AcDbCircle
 10
731.303100055481
 20
-125.199999999999
 30
0.0
 40
7.5
  0
TEXT
  5
6C4
330
6F
100
AcDbEntity
  8
SIZE
  6
Continuous
 62
    30
100
AcDbText
 10
711.3031000554808
 20
-99.76348264276541
 30
0.0
 40
40.0
  1
122
 50
90.0
 41
0.9
 72
     1
 11
711.3031000554808
 21
-56.90633978562255
 31
0.0
100
AcDbText
  0
POINT
  5
6C5
330
6F
100
AcDbEntity
  8
DEFPOINTS
  6
Continuous
 62
    30
100
AcDbPoint
 10
344.4999999999991
 20
-2.999999999999089
 30
0.0
  0
POINT
  5
6C6
330
6F
100
AcDbEntity
  8
DEFPOINTS
  6
Continuous
 62
    30
100
AcDbPoint
 10
424.7271194249542
 20
-125.1999999999989
 30
0.0
  0
POINT
  5
6C7
330
6F
100
AcDbEntity
  8
DEFPOINTS
  6
Continuous
 62
    30
100
AcDbPoint
 10
731.303100055481
 20
-125.199999999999
 30
0.0
  0
LINE
  5
6C8
330
6F
100
AcDbEntity
  8
SIZE
  6
Continuous
 62
    30
100
AcDbLine
 10
465.7271194249542
 20
-158.1999999999989
 30
0.0
 11
751.303100055481
 21
-158.199999999999
 31
0.0
  0
LINE
  5
6C9
330
6F
100
AcDbEntity
  8
SIZE
  6
Continuous
 62
    30
100
AcDbLine
 10
444.7271194249542
 20
-125.1999999999989
 30
0.0
 11
751.303100055481
 21
-125.199999999999
 31
0.0
  0
LINE
  5
6CA
330
6F
100
AcDbEntity
  8
SIZE
  6
Continuous
 62
    30
100
AcDbLine
 10
731.303100055481
 20
-125.199999999999
 30
0.0
 11
731.303100055481
 21
-95.19999999999901
 31
0.0
  0
LINE
  5
6CB
330
6F
100
AcDbEntity
  8
SIZE
  6
Continuous
 62
    30
100
AcDbLine
 10
731.303100055481
 20
-158.199999999999
 30
0.0
 11
731.303100055481
 21
-323.899460875426
 31
0.0
  0
LINE
  5
6CC
330
6F
100
AcDbEntity
  8
SIZE
  6
Continuous
 62
    30
100
AcDbLine
 10
731.303100055481
 20
-125.199999999999
 30
0.0
 11
731.303100055481
 21
-158.199999999999
 31
0.0
  0
CIRCLE
  5
6CD
330
6F
100
AcDbEntity
  8
SIZE
  6
Continuous
 62
    30
100
AcDbCircle
 10
731.303100055481
 20
-125.199999999999
 30
0.0
 40
7.5
  0
CIRCLE
  5
6CE
330
6F
100
AcDbEntity
  8
SIZE
  6
Continuous
 62
    30
100
AcDbCircle
 10
731.303100055481
 20
-158.199999999999
 30
0.0
 40
7.5
  0
TEXT
  5
6CF
330
6F
100
AcDbEntity
  8
SIZE
  6
Continuous
 62
    30
100
AcDbText
 10
711.3031000554808
 20
-303.8994608754259
 30
0.0
 40
40.0
  1
33
 50
90.0
 41
0.9
 72
     1
 11
711.3031000554808
 21
-274.7566037325687
 31
0.0
100
AcDbText
  0
POINT
  5
6D0
330
6F
100
AcDbEntity
  8
DEFPOINTS
  6
Continuous
 62
    30
100
AcDbPoint
 10
445.7271194249542
 20
-158.1999999999989
 30
0.0
  0
POINT
  5
6D1
330
6F
100
AcDbEntity
  8
DEFPOINTS
  6
Continuous
 62
    30
100
AcDbPoint
 10
424.7271194249542
 20
-125.1999999999989
 30
0.0
  0
POINT
  5
6D2
330
6F
100
AcDbEntity
  8
DEFPOINTS
  6
Continuous
 62
    30
100
AcDbPoint
 10
731.303100055481
 20
-125.199999999999
 30
0.0
  0
LINE
  5
6D3
330
6F
100
AcDbEntity
  8
SIZE
  6
Continuous
 62
    30
100
AcDbLine
 10
349.9999999999992
 20
20.00000000000091
 30
0.0
 11
349.9999999999992
 21
210.9890570364623
 31
0.0
  0
LINE
  5
6D4
330
6F
100
AcDbEntity
  8
SIZE
  6
Continuous
 62
    30
100
AcDbLine
 10
399.9999999999992
 20
-0.6999999999989086
 30
0.0
 11
399.9999999999992
 21
210.9890570364623
 31
0.0
  0
LINE
  5
6D5
330
6F
100
AcDbEntity
  8
SIZE
  6
Continuous
 62
    30
100
AcDbLine
 10
349.9999999999992
 20
190.9890570364623
 30
0.0
 11
399.9999999999992
 21
190.9890570364623
 31
0.0
  0
LINE
  5
6D6
330
6F
100
AcDbEntity
  8
SIZE
  6
Continuous
 62
    30
100
AcDbLine
 10
399.9999999999992
 20
190.9890570364623
 30
0.0
 11
528.2857142857133
 21
190.9890570364623
 31
0.0
  0
CIRCLE
  5
6D7
330
6F
100
AcDbEntity
  8
SIZE
  6
Continuous
 62
    30
100
AcDbCircle
 10
349.9999999999992
 20
190.9890570364623
 30
0.0
 40
7.5
  0
CIRCLE
  5
6D8
330
6F
100
AcDbEntity
  8
SIZE
  6
Continuous
 62
    30
100
AcDbCircle
 10
399.9999999999992
 20
190.9890570364623
 30
0.0
 40
7.5
  0
TEXT
  5
6D9
330
6F
100
AcDbEntity
  8
SIZE
  6
Continuous
 62
    30
100
AcDbText
 10
449.999999999999
 20
210.9890570364623
 30
0.0
 40
40.0
  1
50
 41
0.9
 72
     1
 11
479.1428571428562
 21
210.9890570364623
 31
0.0
100
AcDbText
  0
POINT
  5
6DA
330
6F
100
AcDbEntity
  8
DEFPOINTS
  6
Continuous
 62
    30
100
AcDbPoint
 10
349.9999999999992
 20
0.0000000000009095
 30
0.0
  0
POINT
  5
6DB
330
6F
100
AcDbEntity
  8
DEFPOINTS
  6
Continuous
 62
    30
100
AcDbPoint
 10
399.9999999999992
 20
-20.69999999999891
 30
0.0
  0
POINT
  5
6DC
330
6F
100
AcDbEntity
  8
DEFPOINTS
  6
Continuous
 62
    30
100
AcDbPoint
 10
399.9999999999992
 20
190.9890570364623
 30
0.0
  0
LINE
  5
6DD
330
6F
100
AcDbEntity
  8
SIZE
  6
Continuous
 62
    30
100
AcDbLine
 10
349.9999999999992
 20
-19.99999999999909
 30
0.0
 11
349.9999999999989
 21
-514.5601015817701
 31
0.0
  0
LINE
  5
6DE
330
6F
100
AcDbEntity
  8
SIZE
  6
Continuous
 62
    30
100
AcDbLine
 10
406.4999999999987
 20
-124.9306456746781
 30
0.0
 11
406.4999999999987
 21
-514.5601015817701
 31
0.0
  0
LINE
  5
6DF
330
6F
100
AcDbEntity
  8
SIZE
  6
Continuous
 62
    30
100
AcDbLine
 10
349.9999999999989
 20
-494.5601015817699
 30
0.0
 11
406.4999999999987
 21
-494.5601015817699
 31
0.0
  0
CIRCLE
  5
6E0
330
6F
100
AcDbEntity
  8
SIZE
  6
Continuous
 62
    30
100
AcDbCircle
 10
349.9999999999989
 20
-494.5601015817699
 30
0.0
 40
7.5
  0
CIRCLE
  5
6E1
330
6F
100
AcDbEntity
  8
SIZE
  6
Continuous
 62
    30
100
AcDbCircle
 10
406.4999999999987
 20
-494.5601015817699
 30
0.0
 40
7.5
  0
TEXT
  5
6E2
330
6F
100
AcDbEntity
  8
SIZE
  6
Continuous
 62
    30
100
AcDbText
 10
349.107142857142
 20
-474.56010158177
 30
0.0
 40
40.0
  1
57
 41
0.9
 72
     1
 11
378.2499999999992
 21
-474.56010158177
 31
0.0
100
AcDbText
  0
POINT
  5
6E3
330
6F
100
AcDbEntity
  8
DEFPOINTS
  6
Continuous
 62
    30
100
AcDbPoint
 10
349.9999999999992
 20
0.0000000000009095
 30
0.0
  0
POINT
  5
6E4
330
6F
100
AcDbEntity
  8
DEFPOINTS
  6
Continuous
 62
    30
100
AcDbPoint
 10
406.4999999999987
 20
-104.9306456746781
 30
0.0
  0
POINT
  5
6E5
330
6F
100
AcDbEntity
  8
DEFPOINTS
  6
Continuous
 62
    30
100
AcDbPoint
 10
406.4999999999987
 20
-494.5601015817699
 30
0.0
  0
LINE
  5
6E6
330
6F
100
AcDbEntity
  8
SIZE
  6
Continuous
 62
    30
100
AcDbLine
 10
349.9999999999992
 20
-22.80337814370068
 30
0.0
 11
349.9999999999989
 21
-602.1413713442816
 31
0.0
  0
LINE
  5
6E7
330
6F
100
AcDbEntity
  8
SIZE
  6
Continuous
 62
    30
100
AcDbLine
 10
427.4999999999988
 20
-157.9306456746781
 30
0.0
 11
427.4999999999988
 21
-602.1413713442816
 31
0.0
  0
LINE
  5
6E8
330
6F
100
AcDbEntity
  8
SIZE
  6
Continuous
 62
    30
100
AcDbLine
 10
349.9999999999989
 20
-582.1413713442816
 30
0.0
 11
427.4999999999988
 21
-582.1413713442816
 31
0.0
  0
CIRCLE
  5
6E9
330
6F
100
AcDbEntity
  8
SIZE
  6
Continuous
 62
    30
100
AcDbCircle
 10
349.9999999999989
 20
-582.1413713442816
 30
0.0
 40
7.5
  0
CIRCLE
  5
6EA
330
6F
100
AcDbEntity
  8
SIZE
  6
Continuous
 62
    30
100
AcDbCircle
 10
427.4999999999988
 20
-582.1413713442816
 30
0.0
 40
7.5
  0
TEXT
  5
6EB
330
6F
100
AcDbEntity
  8
SIZE
  6
Continuous
 62
    30
100
AcDbText
 10
359.607142857142
 20
-562.1413713442816
 30
0.0
 40
40.0
  1
78
 41
0.9
 72
     1
 11
388.7499999999992
 21
-562.1413713442816
 31
0.0
100
AcDbText
  0
POINT
  5
6EC
330
6F
100
AcDbEntity
  8
DEFPOINTS
  6
Continuous
 62
    30
100
AcDbPoint
 10
349.9999999999992
 20
-2.803378143700681
 30
0.0
  0
POINT
  5
6ED
330
6F
100
AcDbEntity
  8
DEFPOINTS
  6
Continuous
 62
    30
100
AcDbPoint
 10
427.4999999999988
 20
-137.9306456746781
 30
0.0
  0
POINT
  5
6EE
330
6F
100
AcDbEntity
  8
DEFPOINTS
  6
Continuous
 62
    30
100
AcDbPoint
 10
427.4999999999988
 20
-582.1413713442816
 30
0.0
  0
LINE
  5
6EF
330
6F
100
AcDbEntity
  8
NOTE
  6
Continuous
 62
     4
100
AcDbLine
 10
450.4078187064248
 20
-184.4372168916914
 30
0.0
 11
430.8320169279004
 21
-160.324874070899
 31
0.0
  0
LINE
  5
6F0
330
6F
100
AcDbEntity
  8
NOTE
  6
Continuous
 62
     4
100
AcDbLine
 10
430.8320169279004
 20
-160.324874070899
 30
0.0
 11
459.8413299276187
 21
-171.4188747408041
 31
0.0
  0
LINE
  5
6F1
330
6F
100
AcDbEntity
  8
NOTE
  6
Continuous
 62
     4
100
AcDbLine
 10
430.8320169279004
 20
-160.324874070899
 30
0.0
 11
455.1245743170217
 21
-177.9280458162476
 31
0.0
  0
LINE
  5
6F2
330
6F
100
AcDbEntity
  8
NOTE
  6
Continuous
 62
     4
100
AcDbLine
 10
455.1245743170217
 20
-177.9280458162476
 30
0.0
 11
781.9862703751685
 21
-414.7825885686761
 31
0.0
  0
LINE
  5
6F3
330
6F
100
AcDbEntity
  8
NOTE
  6
Continuous
 62
     4
100
AcDbLine
 10
781.9862703751685
 20
-414.7825885686761
 30
0.0
 11
1235.863694694028
 21
-414.7825885686761
 31
0.0
  0
LINE
  5
6F4
330
6F
100
AcDbEntity
  8
NOTE
  6
Continuous
 62
     4
100
AcDbLine
 10
434.9908791473585
 20
-112.5659015612706
 30
0.0
 11
406.4999999999987
 21
-124.9306456746781
 31
0.0
  0
LINE
  5
6F5
330
6F
100
AcDbEntity
  8
NOTE
  6
Continuous
 62
     4
100
AcDbLine
 10
406.4999999999987
 20
-124.9306456746781
 30
0.0
 11
424.9914531742637
 21
-99.97702367138048
 31
0.0
  0
LINE
  5
6F6
330
6F
100
AcDbEntity
  8
NOTE
  6
Continuous
 62
     4
100
AcDbLine
 10
406.4999999999987
 20
-124.9306456746781
 30
0.0
 11
429.9911661608113
 21
-106.2714626163256
 31
0.0
  0
LINE
  5
6F7
330
6F
100
AcDbEntity
  8
NOTE
  6
Continuous
 62
     4
100
AcDbLine
 10
429.9911661608113
 20
-106.2714626163256
 30
0.0
 11
692.0730948545433
 21
101.9018843476187
 31
0.0
  0
LINE
  5
6F8
330
6F
100
AcDbEntity
  8
NOTE
  6
Continuous
 62
     4
100
AcDbLine
 10
692.0730948545433
 20
101.9018843476187
 30
0.0
 11
1137.628947636241
 21
101.9018843476187
 31
0.0
  0
TEXT
  5
6F9
330
6F
100
AcDbEntity
  8
NOTE
  6
Continuous
 62
     4
100
AcDbText
 10
806.1112462988942
 20
-385.7283209540438
 30
0.0
 40
64.0
  1
RG %%c12.7
100
AcDbText
  0
TEXT
  5
6FA
330
6F
100
AcDbEntity
  8
NOTE
  6
Continuous
 62
     4
100
AcDbText
 10
710.4900708261383
 20
131.8761946659942
 30
0.0
 40
64.0
  1
RL %%c6.35
100
AcDbText
  0
LINE
  5
6FB
330
6F
100
AcDbEntity
  8
NOTE
  6
Continuous
 62
     4
100
AcDbLine
 10
-377.0000000000008
 20
-55.99999999999909
 30
0.0
 11
-377.0000000000008
 21
20.00000000000091
 31
0.0
  0
LINE
  5
6FC
330
6F
100
AcDbEntity
  8
NOTE
  6
Continuous
 62
     4
100
AcDbLine
 10
-346.0876330378205
 20
-17.99999999999909
 30
0.0
 11
-407.9123669621794
 21
-17.99999999999909
 31
0.0
  0
CIRCLE
  5
6FD
330
6F
100
AcDbEntity
  8
FIX
  6
Continuous
 62
    11
100
AcDbCircle
 10
-377.0000000000008
 20
-17.99999999999909
 30
0.0
 40
12.0
  0
LINE
  5
6FE
330
6F
100
AcDbEntity
  8
NOTE
  6
Continuous
 62
     4
100
AcDbLine
 10
376.9999999999992
 20
-55.99999999999909
 30
0.0
 11
376.9999999999992
 21
20.00000000000091
 31
0.0
  0
LINE
  5
6FF
330
6F
100
AcDbEntity
  8
NOTE
  6
Continuous
 62
     4
100
AcDbLine
 10
407.9123669621794
 20
-17.99999999999909
 30
0.0
 11
346.0876330378187
 21
-17.99999999999909
 31
0.0
  0
CIRCLE
  5
700
330
6F
100
AcDbEntity
  8
FIX
  6
Continuous
 62
    11
100
AcDbCircle
 10
376.9999999999992
 20
-17.99999999999909
 30
0.0
 40
12.0
  0
TEXT
  5
701
330
6F
100
AcDbEntity
  8
ETC
  6
Continuous
 62
    61
100
AcDbText
 10
-1122.778448512518
 20
607.5575407560444
 30
0.0
 40
64.0
  1
加湿器組込（後吸込）
 41
0.9
100
AcDbText
  0
LINE
  5
702
330
6F
100
AcDbEntity
  8
BASIS
  6
DASHDOT
 62
     6
100
AcDbLine
 10
-0.0000000000009095
 20
87.39948312614616
 30
0.0
 11
-0.0000000000009095
 21
-450.9860258596672
 31
0.0
  0
CIRCLE
  5
703
330
6F
100
AcDbEntity
  8
ARRANGE
  6
Continuous
 62
     1
100
AcDbCircle
 10
0.0
 20
0.0
 30
0.0
 40
40.0
  0
LINE
  5
704
330
6F
100
AcDbEntity
  8
ARRANGE
  6
Continuous
 62
     1
100
AcDbLine
 10
-36.84543740734897
 20
-36.84543740734807
 30
0.0
 11
36.84543740734897
 21
36.84543740734989
 31
0.0
  0
LINE
  5
705
330
6F
100
AcDbEntity
  8
ARRANGE
  6
Continuous
 62
     1
100
AcDbLine
 10
-36.84543740734897
 20
36.84543740734989
 30
0.0
 11
36.84543740734897
 21
-36.84543740734989
 31
0.0
  0
LINE
  5
706
330
6F
100
AcDbEntity
  8
OUTLINE
  6
Continuous
 62
     3
100
AcDbLine
 10
-354.0000000000008
 20
-23.41837661844511
 30
0.0
 11
-356.9183766185024
 21
-20.49999999999909
 31
0.0
  0
LINE
  5
707
330
6F
100
AcDbEntity
  8
OUTLINE
  6
Continuous
 62
     3
100
AcDbLine
 10
-356.9183766185024
 20
-20.49999999999909
 30
0.0
 11
-397.300000000002
 21
-20.49999999999909
 31
0.0
  0
ARC
  5
708
330
6F
100
AcDbEntity
  8
OUTLINE
  6
Continuous
 62
     3
100
AcDbCircle
 10
-397.3000000000001
 20
-20.69999999999891
 30
0.0
 40
0.2000000000000455
100
AcDbArc
 50
90.00000000010418
 51
180.0
  0
LINE
  5
709
330
6F
100
AcDbEntity
  8
OUTLINE
  6
Continuous
 62
     3
100
AcDbLine
 10
-397.5000000000008
 20
-20.69999999999891
 30
0.0
 11
-397.5000000000008
 21
-29.99999999999909
 31
0.0
  0
LINE
  5
70A
330
6F
100
AcDbEntity
  8
OUTLINE
  6
Continuous
 62
     3
100
AcDbLine
 10
-397.5000000000008
 20
-29.99999999999909
 30
0.0
 11
-400.0000000000008
 21
-29.99999999999909
 31
0.0
  0
LINE
  5
70B
330
6F
100
AcDbEntity
  8
OUTLINE
  6
Continuous
 62
     3
100
AcDbLine
 10
-400.0000000000008
 20
-29.99999999999909
 30
0.0
 11
-400.0000000000008
 21
-20.69999999999891
 31
0.0
  0
ARC
  5
70C
330
6F
100
AcDbEntity
  8
OUTLINE
  6
Continuous
 62
     3
100
AcDbCircle
 10
-397.300000000002
 20
-20.69999999999891
 30
0.0
 40
2.700000000000044
100
AcDbArc
 50
90.0
 51
180.0
  0
LINE
  5
70D
330
6F
100
AcDbEntity
  8
OUTLINE
  6
Continuous
 62
     3
100
AcDbLine
 10
-397.300000000002
 20
-17.99999999999909
 30
0.0
 11
-354.0000000000008
 21
-17.99999999999909
 31
0.0
  0
LINE
  5
70E
330
6F
100
AcDbEntity
  8
OUTLINE
  6
Continuous
 62
     3
100
AcDbLine
 10
-354.0000000000008
 20
-17.99999999999909
 30
0.0
 11
-354.0000000000008
 21
-14.99999999999909
 31
0.0
  0
LINE
  5
70F
330
6F
100
AcDbEntity
  8
OUTLINE
  6
Continuous
 62
     3
100
AcDbLine
 10
-354.0000000000008
 20
-14.99999999999909
 30
0.0
 11
-350.0000000000008
 21
-14.99999999999909
 31
0.0
  0
LINE
  5
710
330
6F
100
AcDbEntity
  8
OUTLINE
  6
Continuous
 62
     3
100
AcDbLine
 10
-350.0000000000008
 20
-14.99999999999909
 30
0.0
 11
-350.0000000000008
 21
0.0000000000009095
 31
0.0
  0
LINE
  5
711
330
6F
100
AcDbEntity
  8
OUTLINE
  6
Continuous
 62
     3
100
AcDbLine
 10
-350.0000000000008
 20
0.0000000000009095
 30
0.0
 11
349.9999999999992
 21
0.0000000000009095
 31
0.0
  0
LINE
  5
712
330
6F
100
AcDbEntity
  8
OUTLINE
  6
Continuous
 62
     3
100
AcDbLine
 10
349.9999999999992
 20
0.0000000000009095
 30
0.0
 11
349.9999999999992
 21
-16.49999999999909
 31
0.0
  0
LINE
  5
713
330
6F
100
AcDbEntity
  8
OUTLINE
  6
Continuous
 62
     3
100
AcDbLine
 10
349.9999999999992
 20
-16.49999999999909
 30
0.0
 11
352.9999999999991
 21
-16.49999999999909
 31
0.0
  0
LINE
  5
714
330
6F
100
AcDbEntity
  8
OUTLINE
  6
Continuous
 62
     3
100
AcDbLine
 10
352.9999999999991
 20
-16.49999999999909
 30
0.0
 11
352.9999999999991
 21
-17.99999999999909
 31
0.0
  0
LINE
  5
715
330
6F
100
AcDbEntity
  8
OUTLINE
  6
Continuous
 62
     3
100
AcDbLine
 10
352.9999999999991
 20
-17.99999999999909
 30
0.0
 11
397.3000000000001
 21
-17.99999999999909
 31
0.0
  0
ARC
  5
716
330
6F
100
AcDbEntity
  8
OUTLINE
  6
Continuous
 62
     3
100
AcDbCircle
 10
397.3000000000001
 20
-20.69999999999891
 30
0.0
 40
2.699999999999818
100
AcDbArc
 50
0.0
 51
90.0
  0
LINE
  5
717
330
6F
100
AcDbEntity
  8
OUTLINE
  6
Continuous
 62
     3
100
AcDbLine
 10
399.9999999999992
 20
-20.69999999999891
 30
0.0
 11
399.9999999999992
 21
-27.99999999999909
 31
0.0
  0
LINE
  5
718
330
6F
100
AcDbEntity
  8
OUTLINE
  6
Continuous
 62
     3
100
AcDbLine
 10
399.9999999999992
 20
-27.99999999999909
 30
0.0
 11
407.9999999999991
 21
-27.99999999999909
 31
0.0
  0
LINE
  5
719
330
6F
100
AcDbEntity
  8
OUTLINE
  6
Continuous
 62
     3
100
AcDbLine
 10
407.9999999999991
 20
-27.99999999999909
 30
0.0
 11
407.9999999999991
 21
-59.99999999999909
 31
0.0
  0
LINE
  5
71A
330
6F
100
AcDbEntity
  8
OUTLINE
  6
Continuous
 62
     3
100
AcDbLine
 10
407.9999999999991
 20
-59.99999999999909
 30
0.0
 11
382.9999999999992
 21
-59.99999999999909
 31
0.0
  0
LINE
  5
71B
330
6F
100
AcDbEntity
  8
OUTLINE
  6
Continuous
 62
     3
100
AcDbLine
 10
382.9999999999992
 20
-59.99999999999909
 30
0.0
 11
382.9999999999992
 21
-60.24999999999909
 31
0.0
  0
LINE
  5
71C
330
6F
100
AcDbEntity
  8
OUTLINE
  6
Continuous
 62
     3
100
AcDbLine
 10
382.9999999999992
 20
-60.24999999999909
 30
0.0
 11
353.9825475935622
 21
-60.7565015158425
 31
0.0
  0
ARC
  5
71D
330
6F
100
AcDbEntity
  8
OUTLINE
  6
Continuous
 62
     3
100
AcDbCircle
 10
353.9999999999992
 20
-61.75634921099935
 30
0.0
 40
1.000000000000012
100
AcDbArc
 50
90.99999999997569
 51
180.0
  0
LINE
  5
71E
330
6F
100
AcDbEntity
  8
OUTLINE
  6
Continuous
 62
     3
100
AcDbLine
 10
352.9999999999991
 20
-61.75634921099935
 30
0.0
 11
352.9999999999991
 21
-71.49999999999909
 31
0.0
  0
LINE
  5
71F
330
6F
100
AcDbEntity
  8
OUTLINE
  6
Continuous
 62
     3
100
AcDbLine
 10
352.9999999999991
 20
-71.49999999999909
 30
0.0
 11
352.5999999999994
 21
-92.9999999999991
 31
0.0
  0
LINE
  5
720
330
6F
100
AcDbEntity
  8
OUTLINE
  6
Continuous
 62
     3
100
AcDbLine
 10
352.5999999999994
 20
-92.9999999999991
 30
0.0
 11
353.9999999999992
 21
-92.9999999999991
 31
0.0
  0
LINE
  5
721
330
6F
100
AcDbEntity
  8
OUTLINE
  6
Continuous
 62
     3
100
AcDbLine
 10
353.9999999999992
 20
-92.9999999999991
 30
0.0
 11
353.9999999999992
 21
-108.6999999999989
 31
0.0
  0
LINE
  5
722
330
6F
100
AcDbEntity
  8
OUTLINE
  6
Continuous
 62
     3
100
AcDbLine
 10
353.9999999999992
 20
-108.6999999999989
 30
0.0
 11
372.9999999999991
 21
-108.6999999999989
 31
0.0
  0
LINE
  5
723
330
6F
100
AcDbEntity
  8
OUTLINE
  6
Continuous
 62
     3
100
AcDbLine
 10
372.9999999999991
 20
-108.6999999999989
 30
0.0
 11
372.9999999999991
 21
-115.385045423799
 31
0.0
  0
LINE
  5
724
330
6F
100
AcDbEntity
  8
OUTLINE
  6
Continuous
 62
     3
100
AcDbLine
 10
372.9999999999991
 20
-115.385045423799
 30
0.0
 11
385.6850454237001
 21
-115.385045423799
 31
0.0
  0
LINE
  5
725
330
6F
100
AcDbEntity
  8
OUTLINE
  6
Continuous
 62
     3
100
AcDbLine
 10
385.6850454237001
 20
-115.385045423799
 30
0.0
 11
386.9999999999992
 21
-116.6999999999989
 31
0.0
  0
LINE
  5
726
330
6F
100
AcDbEntity
  8
OUTLINE
  6
Continuous
 62
     3
100
AcDbLine
 10
386.9999999999992
 20
-116.6999999999989
 30
0.0
 11
386.9999999999992
 21
-117.2599999999992
 31
0.0
  0
LINE
  5
727
330
6F
100
AcDbEntity
  8
OUTLINE
  6
Continuous
 62
     3
100
AcDbLine
 10
386.9999999999992
 20
-117.2599999999992
 30
0.0
 11
388.4999999999991
 21
-117.2599999999992
 31
0.0
  0
LINE
  5
728
330
6F
100
AcDbEntity
  8
OUTLINE
  6
Continuous
 62
     3
100
AcDbLine
 10
388.4999999999991
 20
-117.2599999999992
 30
0.0
 11
388.4999999999991
 21
-115.6737205586537
 31
0.0
  0
LINE
  5
729
330
6F
100
AcDbEntity
  8
OUTLINE
  6
Continuous
 62
     3
100
AcDbLine
 10
388.4999999999991
 20
-115.6737205586537
 30
0.0
 11
388.4486760139308
 21
-115.2989131672911
 31
0.0
  0
LINE
  5
72A
330
6F
100
AcDbEntity
  8
OUTLINE
  6
Continuous
 62
     3
100
AcDbLine
 10
388.4486760139308
 20
-115.2989131672911
 30
0.0
 11
388.4999999999991
 21
-115.1723989698002
 31
0.0
  0
LINE
  5
72B
330
6F
100
AcDbEntity
  8
OUTLINE
  6
Continuous
 62
     3
100
AcDbLine
 10
388.4999999999991
 20
-115.1723989698002
 30
0.0
 11
388.4999999999991
 21
-114.1999999999989
 31
0.0
  0
LINE
  5
72C
330
6F
100
AcDbEntity
  8
OUTLINE
  6
Continuous
 62
     3
100
AcDbLine
 10
388.4999999999991
 20
-114.1999999999989
 30
0.0
 11
390.2017059220988
 21
-112.498294077799
 31
0.0
  0
LINE
  5
72D
330
6F
100
AcDbEntity
  8
OUTLINE
  6
Continuous
 62
     3
100
AcDbLine
 10
390.2017059220988
 20
-112.498294077799
 30
0.0
 11
404.7982940777991
 21
-112.498294077799
 31
0.0
  0
LINE
  5
72E
330
6F
100
AcDbEntity
  8
OUTLINE
  6
Continuous
 62
     3
100
AcDbLine
 10
404.7982940777991
 20
-112.498294077799
 30
0.0
 11
406.4999999999987
 21
-114.1999999999989
 31
0.0
  0
LINE
  5
72F
330
6F
100
AcDbEntity
  8
OUTLINE
  6
Continuous
 62
     3
100
AcDbLine
 10
406.4999999999987
 20
-114.1999999999989
 30
0.0
 11
406.4999999999987
 21
-121.0560426210991
 31
0.0
  0
LINE
  5
730
330
6F
100
AcDbEntity
  8
OUTLINE
  6
Continuous
 62
     3
100
AcDbLine
 10
406.4999999999987
 20
-121.0560426210991
 30
0.0
 11
407.2728904619989
 21
-121.5756376753988
 31
0.0
  0
LINE
  5
731
330
6F
100
AcDbEntity
  8
OUTLINE
  6
Continuous
 62
     3
100
AcDbLine
 10
407.2728904619989
 20
-121.5756376753988
 30
0.0
 11
407.9776490776994
 21
-122.5042123929988
 31
0.0
  0
LINE
  5
732
330
6F
100
AcDbEntity
  8
OUTLINE
  6
Continuous
 62
     3
100
AcDbLine
 10
407.9776490776994
 20
-122.5042123929988
 30
0.0
 11
408.4048089793005
 21
-123.7103858247992
 31
0.0
  0
LINE
  5
733
330
6F
100
AcDbEntity
  8
OUTLINE
  6
Continuous
 62
     3
100
AcDbLine
 10
408.4048089793005
 20
-123.7103858247992
 30
0.0
 11
408.5485281373992
 21
-125.1999999999989
 31
0.0
  0
LINE
  5
734
330
6F
100
AcDbEntity
  8
OUTLINE
  6
Continuous
 62
     3
100
AcDbLine
 10
408.5485281373992
 20
-125.1999999999989
 30
0.0
 11
408.4048089793005
 21
-126.6896141751995
 31
0.0
  0
LINE
  5
735
330
6F
100
AcDbEntity
  8
OUTLINE
  6
Continuous
 62
     3
100
AcDbLine
 10
408.4048089793005
 20
-126.6896141751995
 30
0.0
 11
407.9776490776994
 21
-127.8957876069994
 31
0.0
  0
LINE
  5
736
330
6F
100
AcDbEntity
  8
OUTLINE
  6
Continuous
 62
     3
100
AcDbLine
 10
407.9776490776994
 20
-127.8957876069994
 30
0.0
 11
407.2728904619989
 21
-128.8243623245987
 31
0.0
  0
LINE
  5
737
330
6F
100
AcDbEntity
  8
OUTLINE
  6
Continuous
 62
     3
100
AcDbLine
 10
407.2728904619989
 20
-128.8243623245987
 30
0.0
 11
406.4999999999987
 21
-129.3439573788992
 31
0.0
  0
LINE
  5
738
330
6F
100
AcDbEntity
  8
OUTLINE
  6
Continuous
 62
     3
100
AcDbLine
 10
406.4999999999987
 20
-129.3439573788992
 30
0.0
 11
406.4999999999987
 21
-136.1999999999993
 31
0.0
  0
LINE
  5
739
330
6F
100
AcDbEntity
  8
OUTLINE
  6
Continuous
 62
     3
100
AcDbLine
 10
406.4999999999987
 20
-136.1999999999993
 30
0.0
 11
404.7982940777991
 21
-137.9017059221992
 31
0.0
  0
LINE
  5
73A
330
6F
100
AcDbEntity
  8
OUTLINE
  6
Continuous
 62
     3
100
AcDbLine
 10
404.7982940777991
 20
-137.9017059221992
 30
0.0
 11
390.2017059220988
 21
-137.9017059221992
 31
0.0
  0
LINE
  5
73B
330
6F
100
AcDbEntity
  8
OUTLINE
  6
Continuous
 62
     3
100
AcDbLine
 10
390.2017059220988
 20
-137.9017059221992
 30
0.0
 11
388.4999999999991
 21
-136.1999999999989
 31
0.0
  0
LINE
  5
73C
330
6F
100
AcDbEntity
  8
OUTLINE
  6
Continuous
 62
     3
100
AcDbLine
 10
388.4999999999991
 20
-136.1999999999989
 30
0.0
 11
388.4999999999991
 21
-133.1399999999994
 31
0.0
  0
LINE
  5
73D
330
6F
100
AcDbEntity
  8
OUTLINE
  6
Continuous
 62
     3
100
AcDbLine
 10
388.4999999999991
 20
-133.1399999999994
 30
0.0
 11
386.9999999999992
 21
-133.1399999999994
 31
0.0
  0
LINE
  5
73E
330
6F
100
AcDbEntity
  8
OUTLINE
  6
Continuous
 62
     3
100
AcDbLine
 10
386.9999999999992
 20
-133.1399999999994
 30
0.0
 11
386.9999999999992
 21
-133.6999999999989
 31
0.0
  0
LINE
  5
73F
330
6F
100
AcDbEntity
  8
OUTLINE
  6
Continuous
 62
     3
100
AcDbLine
 10
386.9999999999992
 20
-133.6999999999989
 30
0.0
 11
385.6850454237001
 21
-135.0149545761992
 31
0.0
  0
LINE
  5
740
330
6F
100
AcDbEntity
  8
OUTLINE
  6
Continuous
 62
     3
100
AcDbLine
 10
385.6850454237001
 20
-135.0149545761992
 30
0.0
 11
372.9999999999991
 21
-135.0149545761992
 31
0.0
  0
LINE
  5
741
330
6F
100
AcDbEntity
  8
OUTLINE
  6
Continuous
 62
     3
100
AcDbLine
 10
372.9999999999991
 20
-135.0149545761992
 30
0.0
 11
372.9999999999991
 21
-139.1999999999989
 31
0.0
  0
LINE
  5
742
330
6F
100
AcDbEntity
  8
OUTLINE
  6
Continuous
 62
     3
100
AcDbLine
 10
372.9999999999991
 20
-139.1999999999989
 30
0.0
 11
379.9999999999991
 21
-139.1999999999989
 31
0.0
  0
LINE
  5
743
330
6F
100
AcDbEntity
  8
OUTLINE
  6
Continuous
 62
     3
100
AcDbLine
 10
379.9999999999991
 20
-139.1999999999989
 30
0.0
 11
379.9999999999991
 21
-144.9209438085991
 31
0.0
  0
LINE
  5
744
330
6F
100
AcDbEntity
  8
OUTLINE
  6
Continuous
 62
     3
100
AcDbLine
 10
379.9999999999991
 20
-144.9209438085991
 30
0.0
 11
395.2209438086002
 21
-144.9209438085991
 31
0.0
  0
LINE
  5
745
330
6F
100
AcDbEntity
  8
OUTLINE
  6
Continuous
 62
     3
100
AcDbLine
 10
395.2209438086002
 20
-144.9209438085991
 30
0.0
 11
397.3999999999988
 21
-147.0999999999994
 31
0.0
  0
LINE
  5
746
330
6F
100
AcDbEntity
  8
OUTLINE
  6
Continuous
 62
     3
100
AcDbLine
 10
397.3999999999988
 20
-147.0999999999994
 30
0.0
 11
401.4999999999989
 21
-147.0999999999994
 31
0.0
  0
LINE
  5
747
330
6F
100
AcDbEntity
  8
OUTLINE
  6
Continuous
 62
     3
100
AcDbLine
 10
401.4999999999989
 20
-147.0999999999994
 30
0.0
 11
401.4999999999989
 21
-143.4499999999989
 31
0.0
  0
LINE
  5
748
330
6F
100
AcDbEntity
  8
OUTLINE
  6
Continuous
 62
     3
100
AcDbLine
 10
401.4999999999989
 20
-143.4499999999989
 30
0.0
 11
403.4999999999991
 21
-141.4499999999989
 31
0.0
  0
LINE
  5
749
330
6F
100
AcDbEntity
  8
OUTLINE
  6
Continuous
 62
     3
100
AcDbLine
 10
403.4999999999991
 20
-141.4499999999989
 30
0.0
 11
421.4999999999988
 21
-141.4499999999989
 31
0.0
  0
LINE
  5
74A
330
6F
100
AcDbEntity
  8
OUTLINE
  6
Continuous
 62
     3
100
AcDbLine
 10
421.4999999999988
 20
-141.4499999999989
 30
0.0
 11
423.4999999999988
 21
-143.4499999999989
 31
0.0
  0
LINE
  5
74B
330
6F
100
AcDbEntity
  8
OUTLINE
  6
Continuous
 62
     3
100
AcDbLine
 10
423.4999999999988
 20
-143.4499999999989
 30
0.0
 11
427.4999999999988
 21
-146.6999999999989
 31
0.0
  0
LINE
  5
74C
330
6F
100
AcDbEntity
  8
OUTLINE
  6
Continuous
 62
     3
100
AcDbLine
 10
427.4999999999988
 20
-146.6999999999989
 30
0.0
 11
427.4999999999988
 21
-151.2441023409992
 31
0.0
  0
LINE
  5
74D
330
6F
100
AcDbEntity
  8
OUTLINE
  6
Continuous
 62
     3
100
AcDbLine
 10
427.4999999999988
 20
-151.2441023409992
 30
0.0
 11
428.3339009918988
 21
-151.6946704365991
 31
0.0
  0
LINE
  5
74E
330
6F
100
AcDbEntity
  8
OUTLINE
  6
Continuous
 62
     3
100
AcDbLine
 10
428.3339009918988
 20
-151.6946704365991
 30
0.0
 11
429.4962908768002
 21
-152.8251376945991
 31
0.0
  0
LINE
  5
74F
330
6F
100
AcDbEntity
  8
OUTLINE
  6
Continuous
 62
     3
100
AcDbLine
 10
429.4962908768002
 20
-152.8251376945991
 30
0.0
 11
430.3298823676986
 21
-154.284403346599
 31
0.0
  0
LINE
  5
750
330
6F
100
AcDbEntity
  8
OUTLINE
  6
Continuous
 62
     3
100
AcDbLine
 10
430.3298823676986
 20
-154.284403346599
 30
0.0
 11
430.8320169279004
 21
-156.0751259291987
 31
0.0
  0
LINE
  5
751
330
6F
100
AcDbEntity
  8
OUTLINE
  6
Continuous
 62
     3
100
AcDbLine
 10
430.8320169279004
 20
-156.0751259291987
 30
0.0
 11
430.9999999999988
 21
-158.1999999999984
 31
0.0
  0
LINE
  5
752
330
6F
100
AcDbEntity
  8
OUTLINE
  6
Continuous
 62
     3
100
AcDbLine
 10
430.9999999999988
 20
-158.1999999999984
 30
0.0
 11
430.8320169279004
 21
-160.3248740708986
 31
0.0
  0
LINE
  5
753
330
6F
100
AcDbEntity
  8
OUTLINE
  6
Continuous
 62
     3
100
AcDbLine
 10
430.8320169279004
 20
-160.3248740708986
 30
0.0
 11
430.3298823676986
 21
-162.1155966534989
 31
0.0
  0
LINE
  5
754
330
6F
100
AcDbEntity
  8
OUTLINE
  6
Continuous
 62
     3
100
AcDbLine
 10
430.3298823676986
 20
-162.1155966534989
 30
0.0
 11
429.4962908768002
 21
-163.5748623053987
 31
0.0
  0
LINE
  5
755
330
6F
100
AcDbEntity
  8
OUTLINE
  6
Continuous
 62
     3
100
AcDbLine
 10
429.4962908768002
 20
-163.5748623053987
 30
0.0
 11
428.3339009918988
 21
-164.7053295633991
 31
0.0
  0
LINE
  5
756
330
6F
100
AcDbEntity
  8
OUTLINE
  6
Continuous
 62
     3
100
AcDbLine
 10
428.3339009918988
 20
-164.7053295633991
 30
0.0
 11
427.4999999999988
 21
-165.1558976589994
 31
0.0
  0
LINE
  5
757
330
6F
100
AcDbEntity
  8
OUTLINE
  6
Continuous
 62
     3
100
AcDbLine
 10
427.4999999999988
 20
-165.1558976589994
 30
0.0
 11
427.4999999999988
 21
-169.6999999999989
 31
0.0
  0
LINE
  5
758
330
6F
100
AcDbEntity
  8
OUTLINE
  6
Continuous
 62
     3
100
AcDbLine
 10
427.4999999999988
 20
-169.6999999999989
 30
0.0
 11
423.4999999999988
 21
-172.9499999999998
 31
0.0
  0
LINE
  5
759
330
6F
100
AcDbEntity
  8
OUTLINE
  6
Continuous
 62
     3
100
AcDbLine
 10
423.4999999999988
 20
-172.9499999999998
 30
0.0
 11
421.4999999999988
 21
-174.9499999999988
 31
0.0
  0
LINE
  5
75A
330
6F
100
AcDbEntity
  8
OUTLINE
  6
Continuous
 62
     3
100
AcDbLine
 10
421.4999999999988
 20
-174.9499999999988
 30
0.0
 11
403.4999999999991
 21
-174.9499999999988
 31
0.0
  0
LINE
  5
75B
330
6F
100
AcDbEntity
  8
OUTLINE
  6
Continuous
 62
     3
100
AcDbLine
 10
403.4999999999991
 20
-174.9499999999988
 30
0.0
 11
401.4999999999989
 21
-172.9499999999989
 31
0.0
  0
LINE
  5
75C
330
6F
100
AcDbEntity
  8
OUTLINE
  6
Continuous
 62
     3
100
AcDbLine
 10
401.4999999999989
 20
-172.9499999999989
 30
0.0
 11
401.4999999999989
 21
-169.2999999999992
 31
0.0
  0
LINE
  5
75D
330
6F
100
AcDbEntity
  8
OUTLINE
  6
Continuous
 62
     3
100
AcDbLine
 10
401.4999999999989
 20
-169.2999999999992
 30
0.0
 11
397.3999999999988
 21
-169.2999999999992
 31
0.0
  0
LINE
  5
75E
330
6F
100
AcDbEntity
  8
OUTLINE
  6
Continuous
 62
     3
100
AcDbLine
 10
397.3999999999988
 20
-169.2999999999992
 30
0.0
 11
395.2209438086002
 21
-171.4790561913992
 31
0.0
  0
LINE
  5
75F
330
6F
100
AcDbEntity
  8
OUTLINE
  6
Continuous
 62
     3
100
AcDbLine
 10
395.2209438086002
 20
-171.4790561913992
 30
0.0
 11
379.9999999999991
 21
-171.4790561913992
 31
0.0
  0
LINE
  5
760
330
6F
100
AcDbEntity
  8
OUTLINE
  6
Continuous
 62
     3
100
AcDbLine
 10
379.9999999999991
 20
-171.4790561913992
 30
0.0
 11
379.9999999999991
 21
-177.1999999999989
 31
0.0
  0
LINE
  5
761
330
6F
100
AcDbEntity
  8
OUTLINE
  6
Continuous
 62
     3
100
AcDbLine
 10
379.9999999999991
 20
-177.1999999999989
 30
0.0
 11
353.9999999999992
 21
-177.1999999999989
 31
0.0
  0
LINE
  5
762
330
6F
100
AcDbEntity
  8
OUTLINE
  6
Continuous
 62
     3
100
AcDbLine
 10
353.9999999999992
 20
-177.1999999999989
 30
0.0
 11
353.9999999999992
 21
-200.2999999999993
 31
0.0
  0
LINE
  5
763
330
6F
100
AcDbEntity
  8
OUTLINE
  6
Continuous
 62
     3
100
AcDbLine
 10
353.9999999999992
 20
-200.2999999999993
 30
0.0
 11
389.9999999999991
 21
-200.2999999999993
 31
0.0
  0
LINE
  5
764
330
6F
100
AcDbEntity
  8
OUTLINE
  6
Continuous
 62
     3
100
AcDbLine
 10
389.9999999999991
 20
-200.2999999999993
 30
0.0
 11
389.9999999999991
 21
-240.2999999999993
 31
0.0
  0
LINE
  5
765
330
6F
100
AcDbEntity
  8
OUTLINE
  6
Continuous
 62
     3
100
AcDbLine
 10
389.9999999999991
 20
-240.2999999999993
 30
0.0
 11
352.3037011669194
 21
-240.2999999999993
 31
0.0
  0
ARC
  5
766
330
6F
100
AcDbEntity
  8
OUTLINE
  6
Continuous
 62
     3
100
AcDbCircle
 10
349.5999999999995
 20
-238.9999999999991
 30
0.0
 40
3.00000000000006
100
AcDbArc
 50
324.7524930078989
 51
334.3207113805349
  0
LINE
  5
767
330
6F
100
AcDbEntity
  8
OUTLINE
  6
Continuous
 62
     3
100
AcDbLine
 10
352.0500000000001
 20
-240.7313289693175
 30
0.0
 11
352.0500000000001
 21
-249.9499999999989
 31
0.0
  0
ARC
  5
768
330
6F
100
AcDbEntity
  8
OUTLINE
  6
Continuous
 62
     3
100
AcDbCircle
 10
349.9999999999992
 20
-249.9499999999989
 30
0.0
 40
2.049999999999726
100
AcDbArc
 50
270.0
 51
0.0
  0
LINE
  5
769
330
6F
100
AcDbEntity
  8
OUTLINE
  6
Continuous
 62
     3
100
AcDbLine
 10
349.9999999999992
 20
-251.9999999999991
 30
0.0
 11
300.0000000000008
 21
-251.9999999999991
 31
0.0
  0
LINE
  5
76A
330
6F
100
AcDbEntity
  8
OUTLINE
  6
Continuous
 62
     3
100
AcDbLine
 10
300.0000000000008
 20
-251.9999999999991
 30
0.0
 11
300.0000000000008
 21
-259.9999999999955
 31
0.0
  0
LINE
  5
76B
330
6F
100
AcDbEntity
  8
OUTLINE
  6
Continuous
 62
     3
100
AcDbLine
 10
300.0000000000008
 20
-259.9999999999955
 30
0.0
 11
-299.999999999999
 21
-259.9999999999955
 31
0.0
  0
LINE
  5
76C
330
6F
100
AcDbEntity
  8
OUTLINE
  6
Continuous
 62
     3
100
AcDbLine
 10
-299.999999999999
 20
-259.9999999999955
 30
0.0
 11
-299.999999999999
 21
-251.9999999999991
 31
0.0
  0
LINE
  5
76D
330
6F
100
AcDbEntity
  8
OUTLINE
  6
Continuous
 62
     3
100
AcDbLine
 10
-299.999999999999
 20
-251.9999999999991
 30
0.0
 11
-350.0000000000008
 21
-251.9999999999991
 31
0.0
  0
ARC
  5
76E
330
6F
100
AcDbEntity
  8
OUTLINE
  6
Continuous
 62
     3
100
AcDbCircle
 10
-350.0000000000008
 20
-249.9499999999989
 30
0.0
 40
2.049999999999954
100
AcDbArc
 50
180.0
 51
270.0
  0
LINE
  5
76F
330
6F
100
AcDbEntity
  8
OUTLINE
  6
Continuous
 62
     3
100
AcDbLine
 10
-352.0500000000001
 20
-249.9499999999989
 30
0.0
 11
-352.050000000002
 21
-239.9999999999991
 31
0.0
  0
LINE
  5
770
330
6F
100
AcDbEntity
  8
OUTLINE
  6
Continuous
 62
     3
100
AcDbLine
 10
-352.050000000002
 20
-239.9999999999991
 30
0.0
 11
-354.0000000000008
 21
-239.9999999999991
 31
0.0
  0
LINE
  5
771
330
6F
100
AcDbEntity
  8
OUTLINE
  6
Continuous
 62
     3
100
AcDbLine
 10
-354.0000000000008
 20
-239.9999999999991
 30
0.0
 11
-354.0000000000008
 21
-23.41837661844511
 31
0.0
  0
LINE
  5
772
330
6F
100
AcDbEntity
  8
OUTLINE
  6
Continuous
 62
     3
100
AcDbLine
 10
-354.0000000000008
 20
-23.41837661844511
 30
0.0
 11
-354.0000000000008
 21
-23.41837661844511
 31
0.0
  0
LINE
  5
773
330
6F
100
AcDbEntity
  8
OUTLINE
  6
Continuous
 62
     3
100
AcDbLine
 10
-401.0001234834843
 20
-404.9603951084534
 30
0.0
 11
-401.0001234834843
 21
-402.9603951084531
 31
0.0
  0
LINE
  5
774
330
6F
100
AcDbEntity
  8
OUTLINE
  6
Continuous
 62
     3
100
AcDbLine
 10
-401.0001234834843
 20
-402.9603951084531
 30
0.0
 11
-389.0001234834845
 21
-402.9603951084531
 31
0.0
  0
LINE
  5
775
330
6F
100
AcDbEntity
  8
OUTLINE
  6
Continuous
 62
     3
100
AcDbLine
 10
-389.0001234834845
 20
-402.9603951084531
 30
0.0
 11
-389.0001234834845
 21
-399.9603951084537
 31
0.0
  0
LINE
  5
776
330
6F
100
AcDbEntity
  8
OUTLINE
  6
Continuous
 62
     3
100
AcDbLine
 10
-389.0001234834845
 20
-399.9603951084537
 30
0.0
 11
-384.7001234834834
 21
-399.9603951084537
 31
0.0
  0
LINE
  5
777
330
6F
100
AcDbEntity
  8
OUTLINE
  6
Continuous
 62
     3
100
AcDbLine
 10
-384.7001234834834
 20
-399.9603951084537
 30
0.0
 11
-384.7001234834834
 21
-379.9603951084537
 31
0.0
  0
LINE
  5
778
330
6F
100
AcDbEntity
  8
OUTLINE
  6
Continuous
 62
     3
100
AcDbLine
 10
-384.7001234834834
 20
-379.9603951084537
 30
0.0
 11
-389.0001234834845
 21
-379.9603951084537
 31
0.0
  0
LINE
  5
779
330
6F
100
AcDbEntity
  8
OUTLINE
  6
Continuous
 62
     3
100
AcDbLine
 10
-389.0001234834845
 20
-379.9603951084537
 30
0.0
 11
-389.0001234834845
 21
-369.4603951084273
 31
0.0
  0
LINE
  5
77A
330
6F
100
AcDbEntity
  8
OUTLINE
  6
Continuous
 62
     3
100
AcDbLine
 10
-389.0001234834845
 20
-369.4603951084273
 30
0.0
 11
-384.7001234834834
 21
-369.4603951084273
 31
0.0
  0
LINE
  5
77B
330
6F
100
AcDbEntity
  8
OUTLINE
  6
Continuous
 62
     3
100
AcDbLine
 10
-384.7001234834834
 20
-369.4603951084273
 30
0.0
 11
-384.7001234834834
 21
-344.9603951084532
 31
0.0
  0
LINE
  5
77C
330
6F
100
AcDbEntity
  8
OUTLINE
  6
Continuous
 62
     3
100
AcDbLine
 10
-384.7001234834834
 20
-344.9603951084532
 30
0.0
 11
582.7000000000071
 21
-344.9603951084537
 31
0.0
  0
LINE
  5
77D
330
6F
100
AcDbEntity
  8
OUTLINE
  6
Continuous
 62
     3
100
AcDbLine
 10
582.7000000000071
 20
-344.9603951084537
 30
0.0
 11
582.7000000000071
 21
-369.4603951084419
 31
0.0
  0
LINE
  5
77E
330
6F
100
AcDbEntity
  8
OUTLINE
  6
Continuous
 62
     3
100
AcDbLine
 10
582.7000000000071
 20
-369.4603951084419
 30
0.0
 11
587.000000000008
 21
-369.4603951084419
 31
0.0
  0
LINE
  5
77F
330
6F
100
AcDbEntity
  8
OUTLINE
  6
Continuous
 62
     3
100
AcDbLine
 10
587.000000000008
 20
-369.4603951084419
 30
0.0
 11
587.000000000008
 21
-379.9603951084537
 31
0.0
  0
LINE
  5
780
330
6F
100
AcDbEntity
  8
OUTLINE
  6
Continuous
 62
     3
100
AcDbLine
 10
587.000000000008
 20
-379.9603951084537
 30
0.0
 11
582.7000000000071
 21
-379.9603951084537
 31
0.0
  0
LINE
  5
781
330
6F
100
AcDbEntity
  8
OUTLINE
  6
Continuous
 62
     3
100
AcDbLine
 10
582.7000000000071
 20
-379.9603951084537
 30
0.0
 11
582.7000000000071
 21
-399.9603951084532
 31
0.0
  0
LINE
  5
782
330
6F
100
AcDbEntity
  8
OUTLINE
  6
Continuous
 62
     3
100
AcDbLine
 10
582.7000000000071
 20
-399.9603951084532
 30
0.0
 11
587.000000000008
 21
-399.9603951084532
 31
0.0
  0
LINE
  5
783
330
6F
100
AcDbEntity
  8
OUTLINE
  6
Continuous
 62
     3
100
AcDbLine
 10
587.000000000008
 20
-399.9603951084532
 30
0.0
 11
587.000000000008
 21
-402.9603951084531
 31
0.0
  0
LINE
  5
784
330
6F
100
AcDbEntity
  8
OUTLINE
  6
Continuous
 62
     3
100
AcDbLine
 10
587.000000000008
 20
-402.9603951084531
 30
0.0
 11
599.0000000000081
 21
-402.9603951084531
 31
0.0
  0
LINE
  5
785
330
6F
100
AcDbEntity
  8
OUTLINE
  6
Continuous
 62
     3
100
AcDbLine
 10
599.0000000000081
 20
-402.9603951084531
 30
0.0
 11
599.0000000000081
 21
-404.9603951084532
 31
0.0
  0
LINE
  5
786
330
6F
100
AcDbEntity
  8
OUTLINE
  6
Continuous
 62
     3
100
AcDbLine
 10
599.0000000000081
 20
-404.9603951084532
 30
0.0
 11
-401.0001234834843
 21
-404.9603951084534
 31
0.0
  0
LINE
  5
787
330
6F
100
AcDbEntity
  8
OUTLINE
  6
Continuous
 62
     3
100
AcDbLine
 10
-401.0001234834843
 20
-404.9603951084534
 30
0.0
 11
-401.0001234834843
 21
-404.9603951084534
 31
0.0
  0
LINE
  5
788
330
6F
100
AcDbEntity
  8
SIZE
  6
Continuous
 62
    30
100
AcDbLine
 10
-377.0000000000008
 20
40.00000000000091
 30
0.0
 11
-377.0000000000008
 21
322.683581255278
 31
0.0
  0
LINE
  5
789
330
6F
100
AcDbEntity
  8
SIZE
  6
Continuous
 62
    30
100
AcDbLine
 10
376.9999999999992
 20
40.00000000000091
 30
0.0
 11
376.9999999999992
 21
322.683581255278
 31
0.0
  0
LINE
  5
78A
330
6F
100
AcDbEntity
  8
SIZE
  6
Continuous
 62
    30
100
AcDbLine
 10
-377.0000000000008
 20
302.6835812552781
 30
0.0
 11
376.9999999999992
 21
302.6835812552781
 31
0.0
  0
CIRCLE
  5
78B
330
6F
100
AcDbEntity
  8
SIZE
  6
Continuous
 62
    30
100
AcDbCircle
 10
-377.0000000000008
 20
302.6835812552781
 30
0.0
 40
7.5
  0
CIRCLE
  5
78C
330
6F
100
AcDbEntity
  8
SIZE
  6
Continuous
 62
    30
100
AcDbCircle
 10
376.9999999999992
 20
302.6835812552781
 30
0.0
 40
7.5
  0
TEXT
  5
78D
330
6F
100
AcDbEntity
  8
SIZE
  6
Continuous
 62
    30
100
AcDbText
 10
-47.14285714285804
 20
322.683581255278
 30
0.0
 40
40.0
  1
754
 41
0.9
 72
     1
 11
-0.0000000000009095
 21
322.683581255278
 31
0.0
100
AcDbText
  0
POINT
  5
78E
330
6F
100
AcDbEntity
  8
DEFPOINTS
  6
Continuous
 62
    30
100
AcDbPoint
 10
-377.0000000000008
 20
20.00000000000091
 30
0.0
  0
POINT
  5
78F
330
6F
100
AcDbEntity
  8
DEFPOINTS
  6
Continuous
 62
    30
100
AcDbPoint
 10
376.9999999999992
 20
20.00000000000091
 30
0.0
  0
POINT
  5
790
330
6F
100
AcDbEntity
  8
DEFPOINTS
  6
Continuous
 62
    30
100
AcDbPoint
 10
376.9999999999992
 20
302.6835812552781
 30
0.0
  0
LINE
  5
791
330
6F
100
AcDbEntity
  8
SIZE
  6
Continuous
 62
    30
100
AcDbLine
 10
-400.0000000000008
 20
-0.6999999999989086
 30
0.0
 11
-400.0000000000008
 21
322.683581255278
 31
0.0
  0
LINE
  5
792
330
6F
100
AcDbEntity
  8
SIZE
  6
Continuous
 62
    30
100
AcDbLine
 10
-377.0000000000008
 20
40.00000000000091
 30
0.0
 11
-377.0000000000008
 21
322.683581255278
 31
0.0
  0
LINE
  5
793
330
6F
100
AcDbEntity
  8
SIZE
  6
Continuous
 62
    30
100
AcDbLine
 10
-377.0000000000008
 20
302.6835812552781
 30
0.0
 11
-347.0000000000009
 21
302.6835812552781
 31
0.0
  0
LINE
  5
794
330
6F
100
AcDbEntity
  8
SIZE
  6
Continuous
 62
    30
100
AcDbLine
 10
-400.0000000000008
 20
302.6835812552781
 30
0.0
 11
-558.2857142857151
 21
302.6835812552781
 31
0.0
  0
LINE
  5
795
330
6F
100
AcDbEntity
  8
SIZE
  6
Continuous
 62
    30
100
AcDbLine
 10
-377.0000000000008
 20
302.6835812552781
 30
0.0
 11
-400.0000000000008
 21
302.6835812552781
 31
0.0
  0
CIRCLE
  5
796
330
6F
100
AcDbEntity
  8
SIZE
  6
Continuous
 62
    30
100
AcDbCircle
 10
-377.0000000000008
 20
302.6835812552781
 30
0.0
 40
7.5
  0
CIRCLE
  5
797
330
6F
100
AcDbEntity
  8
SIZE
  6
Continuous
 62
    30
100
AcDbCircle
 10
-400.0000000000008
 20
302.6835812552781
 30
0.0
 40
7.5
  0
TEXT
  5
798
330
6F
100
AcDbEntity
  8
SIZE
  6
Continuous
 62
    30
100
AcDbText
 10
-538.2857142857151
 20
322.683581255278
 30
0.0
 40
40.0
  1
23
 41
0.9
 72
     1
 11
-509.1428571428579
 21
322.683581255278
 31
0.0
100
AcDbText
  0
POINT
  5
799
330
6F
100
AcDbEntity
  8
DEFPOINTS
  6
Continuous
 62
    30
100
AcDbPoint
 10
-400.0000000000008
 20
-20.69999999999891
 30
0.0
  0
POINT
  5
79A
330
6F
100
AcDbEntity
  8
DEFPOINTS
  6
Continuous
 62
    30
100
AcDbPoint
 10
-377.0000000000008
 20
20.00000000000091
 30
0.0
  0
POINT
  5
79B
330
6F
100
AcDbEntity
  8
DEFPOINTS
  6
Continuous
 62
    30
100
AcDbPoint
 10
-377.0000000000008
 20
302.6835812552781
 30
0.0
  0
LINE
  5
79C
330
6F
100
AcDbEntity
  8
SIZE
  6
Continuous
 62
    30
100
AcDbLine
 10
399.9999999999992
 20
-0.6999999999989086
 30
0.0
 11
399.9999999999992
 21
322.683581255278
 31
0.0
  0
LINE
  5
79D
330
6F
100
AcDbEntity
  8
SIZE
  6
Continuous
 62
    30
100
AcDbLine
 10
376.9999999999992
 20
40.00000000000091
 30
0.0
 11
376.9999999999992
 21
322.683581255278
 31
0.0
  0
LINE
  5
79E
330
6F
100
AcDbEntity
  8
SIZE
  6
Continuous
 62
    30
100
AcDbLine
 10
376.9999999999992
 20
302.6835812552781
 30
0.0
 11
346.9999999999992
 21
302.6835812552781
 31
0.0
  0
LINE
  5
79F
330
6F
100
AcDbEntity
  8
SIZE
  6
Continuous
 62
    30
100
AcDbLine
 10
399.9999999999992
 20
302.6835812552781
 30
0.0
 11
558.2857142857132
 21
302.6835812552781
 31
0.0
  0
LINE
  5
7A0
330
6F
100
AcDbEntity
  8
SIZE
  6
Continuous
 62
    30
100
AcDbLine
 10
376.9999999999992
 20
302.6835812552781
 30
0.0
 11
399.9999999999992
 21
302.6835812552781
 31
0.0
  0
CIRCLE
  5
7A1
330
6F
100
AcDbEntity
  8
SIZE
  6
Continuous
 62
    30
100
AcDbCircle
 10
376.9999999999992
 20
302.6835812552781
 30
0.0
 40
7.5
  0
CIRCLE
  5
7A2
330
6F
100
AcDbEntity
  8
SIZE
  6
Continuous
 62
    30
100
AcDbCircle
 10
399.9999999999992
 20
302.6835812552781
 30
0.0
 40
7.5
  0
TEXT
  5
7A3
330
6F
100
AcDbEntity
  8
SIZE
  6
Continuous
 62
    30
100
AcDbText
 10
479.9999999999988
 20
322.683581255278
 30
0.0
 40
40.0
  1
23
 41
0.9
 72
     1
 11
509.142857142856
 21
322.683581255278
 31
0.0
100
AcDbText
  0
POINT
  5
7A4
330
6F
100
AcDbEntity
  8
DEFPOINTS
  6
Continuous
 62
    30
100
AcDbPoint
 10
399.9999999999992
 20
-20.69999999999891
 30
0.0
  0
POINT
  5
7A5
330
6F
100
AcDbEntity
  8
DEFPOINTS
  6
Continuous
 62
    30
100
AcDbPoint
 10
376.9999999999992
 20
20.00000000000091
 30
0.0
  0
POINT
  5
7A6
330
6F
100
AcDbEntity
  8
DEFPOINTS
  6
Continuous
 62
    30
100
AcDbPoint
 10
376.9999999999992
 20
302.6835812552781
 30
0.0
  0
LINE
  5
7A7
330
6F
100
AcDbEntity
  8
NOTE
  6
Continuous
 62
     4
100
AcDbLine
 10
-395.1707581120136
 20
7.188105153311197
 30
0.0
 11
-377.0000000000008
 21
-17.99999999999909
 31
0.0
  0
LINE
  5
7A8
330
6F
100
AcDbEntity
  8
NOTE
  6
Continuous
 62
     4
100
AcDbLine
 10
-377.0000000000008
 20
-17.99999999999909
 30
0.0
 11
-405.3303906499393
 21
-5.271839991523163
 31
0.0
  0
LINE
  5
7A9
330
6F
100
AcDbEntity
  8
NOTE
  6
Continuous
 62
     4
100
AcDbLine
 10
-377.0000000000008
 20
-17.99999999999909
 30
0.0
 11
-400.2505743809765
 21
0.9581325808940164
 31
0.0
  0
LINE
  5
7AA
330
6F
100
AcDbEntity
  8
NOTE
  6
Continuous
 62
     4
100
AcDbLine
 10
-400.2505743809765
 20
0.9581325808940164
 30
0.0
 11
-472.3603551531367
 21
59.75525138998135
 31
0.0
  0
LINE
  5
7AB
330
6F
100
AcDbEntity
  8
NOTE
  6
Continuous
 62
     4
100
AcDbLine
 10
-472.3603551531367
 20
59.75525138998135
 30
0.0
 11
-1384.677785408613
 21
59.75525138998135
 31
0.0
  0
TEXT
  5
7AC
330
6F
100
AcDbEntity
  8
NOTE
  6
Continuous
 62
     4
100
AcDbText
 10
-1368.600238124608
 20
89.72956170835685
 30
0.0
 40
64.0
  1
AH 2×2 M10ボルト用
100
AcDbText
  0
LINE
  5
7AD
330
6F
100
AcDbEntity
  8
SIZE
  6
Continuous
 62
    30
100
AcDbLine
 10
599.0000000000081
 20
-424.9603951084532
 30
0.0
 11
599.0000000000081
 21
-703.9850270961761
 31
0.0
  0
LINE
  5
7AE
330
6F
100
AcDbEntity
  8
SIZE
  6
Continuous
 62
    30
100
AcDbLine
 10
-401.0001234834843
 20
-424.9603951084532
 30
0.0
 11
-401.0001234834843
 21
-703.9850270961761
 31
0.0
  0
LINE
  5
7AF
330
6F
100
AcDbEntity
  8
SIZE
  6
Continuous
 62
    30
100
AcDbLine
 10
599.0000000000081
 20
-683.9850270961761
 30
0.0
 11
-401.0001234834843
 21
-683.9850270961761
 31
0.0
  0
CIRCLE
  5
7B0
330
6F
100
AcDbEntity
  8
SIZE
  6
Continuous
 62
    30
100
AcDbCircle
 10
599.0000000000081
 20
-683.9850270961761
 30
0.0
 40
7.5
  0
CIRCLE
  5
7B1
330
6F
100
AcDbEntity
  8
SIZE
  6
Continuous
 62
    30
100
AcDbCircle
 10
-401.0001234834843
 20
-683.9850270961761
 30
0.0
 40
7.5
  0
TEXT
  5
7B2
330
6F
100
AcDbEntity
  8
SIZE
  6
Continuous
 62
    30
100
AcDbText
 10
38.99993825826186
 20
-663.9850270961761
 30
0.0
 40
40.0
  1
1000
 41
0.9
 72
     1
 11
98.99993825826186
 21
-663.9850270961761
 31
0.0
100
AcDbText
  0
POINT
  5
7B3
330
6F
100
AcDbEntity
  8
DEFPOINTS
  6
Continuous
 62
    30
100
AcDbPoint
 10
599.0000000000081
 20
-404.9603951084532
 30
0.0
  0
POINT
  5
7B4
330
6F
100
AcDbEntity
  8
DEFPOINTS
  6
Continuous
 62
    30
100
AcDbPoint
 10
-401.0001234834843
 20
-404.9603951084532
 30
0.0
  0
POINT
  5
7B5
330
6F
100
AcDbEntity
  8
DEFPOINTS
  6
Continuous
 62
    30
100
AcDbPoint
 10
-401.0001234834843
 20
-683.9850270961761
 30
0.0
  0
LINE
  5
7B6
330
6F
100
AcDbEntity
  8
SIZE
  6
Continuous
 62
    30
100
AcDbLine
 10
-350.0000000000008
 20
20.00000000000091
 30
0.0
 11
-350.0000000000008
 21
210.9890570364623
 31
0.0
  0
LINE
  5
7B7
330
6F
100
AcDbEntity
  8
SIZE
  6
Continuous
 62
    30
100
AcDbLine
 10
-400.0000000000008
 20
-0.6999999999989086
 30
0.0
 11
-400.0000000000008
 21
210.9890570364623
 31
0.0
  0
LINE
  5
7B8
330
6F
100
AcDbEntity
  8
SIZE
  6
Continuous
 62
    30
100
AcDbLine
 10
-350.0000000000008
 20
190.9890570364623
 30
0.0
 11
-400.0000000000008
 21
190.9890570364623
 31
0.0
  0
LINE
  5
7B9
330
6F
100
AcDbEntity
  8
SIZE
  6
Continuous
 62
    30
100
AcDbLine
 10
-400.0000000000008
 20
190.9890570364623
 30
0.0
 11
-528.2857142857151
 21
190.9890570364623
 31
0.0
  0
CIRCLE
  5
7BA
330
6F
100
AcDbEntity
  8
SIZE
  6
Continuous
 62
    30
100
AcDbCircle
 10
-350.0000000000008
 20
190.9890570364623
 30
0.0
 40
7.5
  0
CIRCLE
  5
7BB
330
6F
100
AcDbEntity
  8
SIZE
  6
Continuous
 62
    30
100
AcDbCircle
 10
-400.0000000000008
 20
190.9890570364623
 30
0.0
 40
7.5
  0
TEXT
  5
7BC
330
6F
100
AcDbEntity
  8
SIZE
  6
Continuous
 62
    30
100
AcDbText
 10
-508.2857142857151
 20
210.9890570364623
 30
0.0
 40
40.0
  1
50
 41
0.9
 72
     1
 11
-479.1428571428579
 21
210.9890570364623
 31
0.0
100
AcDbText
  0
POINT
  5
7BD
330
6F
100
AcDbEntity
  8
DEFPOINTS
  6
Continuous
 62
    30
100
AcDbPoint
 10
-350.0000000000008
 20
0.0000000000009095
 30
0.0
  0
POINT
  5
7BE
330
6F
100
AcDbEntity
  8
DEFPOINTS
  6
Continuous
 62
    30
100
AcDbPoint
 10
-400.0000000000008
 20
-20.69999999999891
 30
0.0
  0
POINT
  5
7BF
330
6F
100
AcDbEntity
  8
DEFPOINTS
  6
Continuous
 62
    30
100
AcDbPoint
 10
-400.0000000000008
 20
190.9890570364623
 30
0.0
  0
LINE
  5
7C0
330
6F
100
AcDbEntity
  8
NOTE
  6
Continuous
 62
     4
100
AcDbLine
 10
-142.1936801582831
 20
-87.51578261503867
 30
0.0
 11
-140.050000000002
 21
-118.4999999999991
 31
0.0
  0
LINE
  5
7C1
330
6F
100
AcDbEntity
  8
NOTE
  6
Continuous
 62
     4
100
AcDbLine
 10
-140.050000000002
 20
-118.4999999999991
 30
0.0
 11
-157.3985900502753
 21
-92.738720628682
 31
0.0
  0
LINE
  5
7C2
330
6F
100
AcDbEntity
  8
NOTE
  6
Continuous
 62
     4
100
AcDbLine
 10
-140.050000000002
 20
-118.4999999999991
 30
0.0
 11
-149.7961351042793
 21
-90.12725162186027
 31
0.0
  0
LINE
  5
7C3
330
6F
100
AcDbEntity
  8
NOTE
  6
Continuous
 62
     4
100
AcDbLine
 10
-149.7961351042793
 20
-90.12725162186027
 30
0.0
 11
-338.6826341633678
 21
459.7552456440649
 31
0.0
  0
LINE
  5
7C4
330
6F
100
AcDbEntity
  8
NOTE
  6
Continuous
 62
     4
100
AcDbLine
 10
-338.6826341633678
 20
459.7552456440649
 30
0.0
 11
-1251.000064418844
 21
459.7552456440649
 31
0.0
  0
TEXT
  5
7C5
330
6F
100
AcDbEntity
  8
NOTE
  6
Continuous
 62
     4
100
AcDbText
 10
-1228.921863128421
 20
486.2259256620655
 30
0.0
 40
64.0
  1
%%C200吹出円形フランジ
100
AcDbText
  0
TEXT
  5
7C6
330
6F
100
AcDbEntity
  8
ETC
  6
Continuous
 62
    61
100
AcDbText
 10
-1122.778448512518
 20
727.200194243307
 30
0.0
 40
64.0
  1
PDFY-P22_28_36GMG7_2
 41
0.9
100
AcDbText
  0
ENDSEC
  0
SECTION
  2
OBJECTS
  0
DICTIONARY
  5
C
330
0
100
AcDbDictionary
281
     1
  3
ACAD_CIP_PREVIOUS_PRODUCT_INFO
350
7C7
  3
ACAD_COLOR
350
62
  3
ACAD_DETAILVIEWSTYLE
350
69
  3
ACAD_GROUP
350
D
  3
ACAD_LAYOUT
350
61
  3
ACAD_MATERIAL
350
10
  3
ACAD_MLEADERSTYLE
350
65
  3
ACAD_MLINESTYLE
350
5E
  3
ACAD_PLOTSETTINGS
350
60
  3
ACAD_PLOTSTYLENAME
350
E
  3
ACAD_SCALELIST
350
42
  3
ACAD_SECTIONVIEWSTYLE
350
67
  3
ACAD_TABLESTYLE
350
63
  3
ACAD_VISUALSTYLE
350
29
  3
ACDB_RECOMPOSE_DATA
350
835
  3
AcDbVariableDictionary
350
7E0
  3
DWGPROPS
350
836
  0
DICTIONARY
  5
7CA
330
54
100
AcDbDictionary
280
     1
281
     1
  3
ADSK_XREC_LAYER_RECONCILED
360
7CB
  0
DICTIONARY
  5
7CC
330
73
100
AcDbDictionary
280
     1
281
     1
  3
ADSK_XREC_LAYER_RECONCILED
360
7CD
  0
DICTIONARY
  5
7CE
330
76
100
AcDbDictionary
280
     1
281
     1
  3
ADSK_XREC_LAYER_RECONCILED
360
7CF
  0
DICTIONARY
  5
7D0
330
77
100
AcDbDictionary
280
     1
281
     1
  3
ADSK_XREC_LAYER_RECONCILED
360
7D1
  0
DICTIONARY
  5
7D2
330
78
100
AcDbDictionary
280
     1
281
     1
  3
ADSK_XREC_LAYER_RECONCILED
360
7D3
  0
DICTIONARY
  5
7D4
330
79
100
AcDbDictionary
280
     1
281
     1
  3
ADSK_XREC_LAYER_RECONCILED
360
7D5
  0
DICTIONARY
  5
7D6
330
7A
100
AcDbDictionary
280
     1
281
     1
  3
ADSK_XREC_LAYER_RECONCILED
360
7D7
  0
DICTIONARY
  5
7D8
330
7B
100
AcDbDictionary
280
     1
281
     1
  3
ADSK_XREC_LAYER_RECONCILED
360
7D9
  0
DICTIONARY
  5
7DA
330
7C
100
AcDbDictionary
280
     1
281
     1
  3
ADSK_XREC_LAYER_RECONCILED
360
7DB
  0
DICTIONARY
  5
7DC
330
7D
100
AcDbDictionary
280
     1
281
     1
  3
ADSK_XREC_LAYER_RECONCILED
360
7DD
  0
DICTIONARY
  5
7DE
330
7E
100
AcDbDictionary
280
     1
281
     1
  3
ADSK_XREC_LAYER_RECONCILED
360
7DF
  0
XRECORD
  5
7C7
102
{ACAD_REACTORS
330
C
102
}
330
C
100
AcDbXrecord
280
     1
300
ACD
300
2018
300
86830ACD_2018_0F
  0
DICTIONARY
  5
62
102
{ACAD_REACTORS
330
C
102
}
330
C
100
AcDbDictionary
281
     1
  0
DICTIONARY
  5
69
102
{ACAD_REACTORS
330
C
102
}
330
C
100
AcDbDictionary
281
     1
  3
Imperial24
350
6A
  0
DICTIONARY
  5
D
102
{ACAD_REACTORS
330
C
102
}
330
C
100
AcDbDictionary
281
     1
  0
DICTIONARY
  5
61
102
{ACAD_REACTORS
330
C
102
}
330
C
100
AcDbDictionary
281
     1
  3
Model
350
72
  3
レイアウト1
350
6E
  0
DICTIONARY
  5
10
102
{ACAD_REACTORS
330
C
102
}
330
C
100
AcDbDictionary
281
     1
  3
ByBlock
350
19
  3
ByLayer
350
11
  3
Global
350
21
  0
DICTIONARY
  5
65
102
{ACAD_REACTORS
330
C
102
}
330
C
100
AcDbDictionary
281
     1
  3
Standard
350
66
  0
DICTIONARY
  5
5E
102
{ACAD_REACTORS
330
C
102
}
330
C
100
AcDbDictionary
281
     1
  3
Standard
350
5F
  0
DICTIONARY
  5
60
102
{ACAD_REACTORS
330
C
102
}
330
C
100
AcDbDictionary
281
     1
  0
ACDBDICTIONARYWDFLT
  5
E
102
{ACAD_REACTORS
330
C
102
}
330
C
100
AcDbDictionary
281
     1
  3
Normal
350
F
100
AcDbDictionaryWithDefault
340
F
  0
DICTIONARY
  5
42
102
{ACAD_REACTORS
330
C
102
}
330
C
100
AcDbDictionary
281
     1
  3
A0
350
43
  3
A1
350
44
  3
A2
350
45
  3
A3
350
46
  3
A4
350
47
  3
A5
350
48
  3
A6
350
49
  3
A7
350
4A
  3
A8
350
4B
  3
A9
350
4C
  3
B0
350
4D
  3
B1
350
4E
  3
B2
350
4F
  3
B3
350
50
  3
B4
350
51
  3
B5
350
52
  3
B6
350
53
  0
DICTIONARY
  5
67
102
{ACAD_REACTORS
330
C
102
}
330
C
100
AcDbDictionary
281
     1
  3
Imperial24
350
68
  0
DICTIONARY
  5
63
102
{ACAD_REACTORS
330
C
102
}
330
C
100
AcDbDictionary
281
     1
  3
Standard
350
64
  0
DICTIONARY
  5
29
102
{ACAD_REACTORS
330
C
102
}
330
C
100
AcDbDictionary
281
     1
  3
2dWireframe
350
2F
  3
Basic
350
2E
  3
Brighten
350
35
  3
ColorChange
350
39
  3
Conceptual
350
32
  3
Dim
350
34
  3
EdgeColorOff
350
41
  3
Facepattern
350
38
  3
Flat
350
2A
  3
FlatWithEdges
350
2B
  3
Gouraud
350
2C
  3
GouraudWithEdges
350
2D
  3
Hidden
350
31
  3
JitterOff
350
3F
  3
Linepattern
350
37
  3
OverhangOff
350
40
  3
Realistic
350
33
  3
Shaded
350
3E
  3
Shaded with edges
350
3D
  3
Shades of Gray
350
3A
  3
Sketchy
350
3B
  3
Thicken
350
36
  3
Wireframe
350
30
  3
X-Ray
350
3C
  0
XRECORD
  5
835
102
{ACAD_REACTORS
330
C
102
}
330
C
100
AcDbXrecord
280
     1
 90
        1
330
64
  0
DICTIONARY
  5
7E0
102
{ACAD_REACTORS
330
C
102
}
330
C
100
AcDbDictionary
281
     1
  3
CANNOSCALE
350
7E5
  3
CMLEADERSTYLE
350
7E2
  3
CTABLESTYLE
350
7E1
  3
CVIEWDETAILSTYLE
350
7E3
  3
CVIEWSECTIONSTYLE
350
7E4
  3
DIMASSOC
350
7E8
  3
INDEXCTL
350
7E7
  3
SORTENTS
350
7E6
  3
XCLIPFRAME
350
833
  0
XRECORD
  5
836
102
{ACAD_REACTORS
330
C
102
}
330
C
100
AcDbXrecord
280
     1
  1
DWGPROPS COOKIE
  2

  3

  4

  6

  7

  8
y_uebo
  9

300
=
301
=
302
=
303
=
304
=
305
=
306
=
307
=
308
=
309
=
 40
1.639746249999999
 41
2455902.607164352
 42
2459096.573680556
  1

 90
        0
  0
XRECORD
  5
7CB
102
{ACAD_REACTORS
330
7CA
102
}
330
7CA
100
AcDbXrecord
280
     1
290
     1
  0
XRECORD
  5
7CD
102
{ACAD_REACTORS
330
7CC
102
}
330
7CC
100
AcDbXrecord
280
     1
290
     1
  0
XRECORD
  5
7CF
102
{ACAD_REACTORS
330
7CE
102
}
330
7CE
100
AcDbXrecord
280
     1
290
     1
  0
XRECORD
  5
7D1
102
{ACAD_REACTORS
330
7D0
102
}
330
7D0
100
AcDbXrecord
280
     1
290
     1
  0
XRECORD
  5
7D3
102
{ACAD_REACTORS
330
7D2
102
}
330
7D2
100
AcDbXrecord
280
     1
290
     1
  0
XRECORD
  5
7D5
102
{ACAD_REACTORS
330
7D4
102
}
330
7D4
100
AcDbXrecord
280
     1
290
     1
  0
XRECORD
  5
7D7
102
{ACAD_REACTORS
330
7D6
102
}
330
7D6
100
AcDbXrecord
280
     1
290
     1
  0
XRECORD
  5
7D9
102
{ACAD_REACTORS
330
7D8
102
}
330
7D8
100
AcDbXrecord
280
     1
290
     1
  0
XRECORD
  5
7DB
102
{ACAD_REACTORS
330
7DA
102
}
330
7DA
100
AcDbXrecord
280
     1
290
     1
  0
XRECORD
  5
7DD
102
{ACAD_REACTORS
330
7DC
102
}
330
7DC
100
AcDbXrecord
280
     1
290
     1
  0
XRECORD
  5
7DF
102
{ACAD_REACTORS
330
7DE
102
}
330
7DE
100
AcDbXrecord
280
     1
290
     1
  0
ACDBDETAILVIEWSTYLE
  5
6A
102
{ACAD_XDICTIONARY
360
86A
102
}
102
{ACAD_REACTORS
330
69
102
}
330
69
100
AcDbModelDocViewStyle
 70
     0
  3
Imperial24
290
     0
100
AcDbDetailViewStyle
 70
     0
 71
     0
 90
        3
 71
     1
340
55
 40
0.24
340
0
 40
0.24
300

 40
0.36
280
     3
 71
     2
340
5C
 90
       25
 71
     3
340
55
 40
0.24
 90
        1
 40
0.75
 90
        1
300
%<\AcVar ViewType \f "%tc1">% %<\AcVar ViewDetailId>%\PSCALE %<\AcVar ViewScale \f "%sn">%
 71
     4
340
5C
 90
       25
340
5C
 90
       25
280
     0
  0
LAYOUT
  5
72
102
{ACAD_XDICTIONARY
360
86E
102
}
102
{ACAD_REACTORS
330
61
102
}
330
61
100
AcDbPlotSettings
  1

  2
OKI C931(PS)
  4

  6

 40
0.0
 41
0.0
 42
0.0
 43
0.0
 44
0.0
 45
0.0
 46
0.0
 47
0.0
 48
0.0
 49
0.0
140
0.0
141
0.0
142
1.0
143
1.0
 70
  1712
 72
     0
 73
     0
 74
     0
  7

 75
     0
147
1.0
148
0.0
149
0.0
100
AcDbLayout
  1
Model
 70
     1
 71
     0
 10
0.0
 20
0.0
 11
12.0
 21
9.0
 12
0.0
 22
0.0
 32
0.0
 14
0.0
 24
0.0
 34
0.0
 15
0.0
 25
0.0
 35
0.0
146
0.0
 13
0.0
 23
0.0
 33
0.0
 16
1.0
 26
0.0
 36
0.0
 17
0.0
 27
1.0
 37
0.0
 76
     0
330
6F
331
81
  0
LAYOUT
  5
6E
102
{ACAD_XDICTIONARY
360
86C
102
}
102
{ACAD_REACTORS
330
61
102
}
330
61
100
AcDbPlotSettings
  1

  2
OKI C931(PS)
  4

  6

 40
0.0
 41
0.0
 42
0.0
 43
0.0
 44
0.0
 45
0.0
 46
0.0
 47
0.0
 48
0.0
 49
0.0
140
0.0
141
0.0
142
1.0
143
1.0
 70
   688
 72
     0
 73
     0
 74
     5
  7

 75
    16
147
1.0
148
0.0
149
0.0
100
AcDbLayout
  1
レイアウト1
 70
     1
 71
     1
 10
0.0
 20
0.0
 11
12.0
 21
9.0
 12
0.0
 22
0.0
 32
0.0
 14
1.000000000000000E+20
 24
1.000000000000000E+20
 34
1.000000000000000E+20
 15
-1.000000000000000E+20
 25
-1.000000000000000E+20
 35
-1.000000000000000E+20
146
0.0
 13
0.0
 23
0.0
 33
0.0
 16
1.0
 26
0.0
 36
0.0
 17
0.0
 27
1.0
 37
0.0
 76
     0
330
6B
  0
MATERIAL
  5
19
102
{ACAD_XDICTIONARY
360
1A
102
}
102
{ACAD_REACTORS
330
10
102
}
330
10
100
AcDbMaterial
  1
ByBlock
 72
     0
 43
0.0208333333333333
 43
0.0
 43
0.0
 43
0.0
 43
0.0
 43
0.0208333333333333
 43
0.0
 43
0.0
 43
0.0
 43
0.0
 43
1.0
 43
0.0
 43
0.0
 43
0.0
 43
0.0
 43
1.0
 77
     0
 47
0.0208333333333333
 47
0.0
 47
0.0
 47
0.0
 47
0.0
 47
0.0208333333333333
 47
0.0
 47
0.0
 47
0.0
 47
0.0
 47
1.0
 47
0.0
 47
0.0
 47
0.0
 47
0.0
 47
1.0
171
     0
 49
0.0208333333333333
 49
0.0
 49
0.0
 49
0.0
 49
0.0
 49
0.0208333333333333
 49
0.0
 49
0.0
 49
0.0
 49
0.0
 49
1.0
 49
0.0
 49
0.0
 49
0.0
 49
0.0
 49
1.0
175
     0
142
0.0208333333333333
142
0.0
142
0.0
142
0.0
142
0.0
142
0.0208333333333333
142
0.0
142
0.0
142
0.0
142
0.0
142
1.0
142
0.0
142
0.0
142
0.0
142
0.0
142
1.0
179
     0
144
0.0208333333333333
144
0.0
144
0.0
144
0.0
144
0.0
144
0.0208333333333333
144
0.0
144
0.0
144
0.0
144
0.0
144
1.0
144
0.0
144
0.0
144
0.0
144
0.0
144
1.0
147
0.0208333333333333
147
0.0
147
0.0
147
0.0
147
0.0
147
0.0208333333333333
147
0.0
147
0.0
147
0.0
147
0.0
147
1.0
147
0.0
147
0.0
147
0.0
147
0.0
147
1.0
  0
MATERIAL
  5
11
102
{ACAD_XDICTIONARY
360
12
102
}
102
{ACAD_REACTORS
330
10
102
}
330
10
100
AcDbMaterial
  1
ByLayer
 72
     0
 43
0.0208333333333333
 43
0.0
 43
0.0
 43
0.0
 43
0.0
 43
0.0208333333333333
 43
0.0
 43
0.0
 43
0.0
 43
0.0
 43
1.0
 43
0.0
 43
0.0
 43
0.0
 43
0.0
 43
1.0
 77
     0
 47
0.0208333333333333
 47
0.0
 47
0.0
 47
0.0
 47
0.0
 47
0.0208333333333333
 47
0.0
 47
0.0
 47
0.0
 47
0.0
 47
1.0
 47
0.0
 47
0.0
 47
0.0
 47
0.0
 47
1.0
171
     0
 49
0.0208333333333333
 49
0.0
 49
0.0
 49
0.0
 49
0.0
 49
0.0208333333333333
 49
0.0
 49
0.0
 49
0.0
 49
0.0
 49
1.0
 49
0.0
 49
0.0
 49
0.0
 49
0.0
 49
1.0
175
     0
142
0.0208333333333333
142
0.0
142
0.0
142
0.0
142
0.0
142
0.0208333333333333
142
0.0
142
0.0
142
0.0
142
0.0
142
1.0
142
0.0
142
0.0
142
0.0
142
0.0
142
1.0
179
     0
144
0.0208333333333333
144
0.0
144
0.0
144
0.0
144
0.0
144
0.0208333333333333
144
0.0
144
0.0
144
0.0
144
0.0
144
1.0
144
0.0
144
0.0
144
0.0
144
0.0
144
1.0
147
0.0208333333333333
147
0.0
147
0.0
147
0.0
147
0.0
147
0.0208333333333333
147
0.0
147
0.0
147
0.0
147
0.0
147
1.0
147
0.0
147
0.0
147
0.0
147
0.0
147
1.0
  0
MATERIAL
  5
21
102
{ACAD_XDICTIONARY
360
22
102
}
102
{ACAD_REACTORS
330
10
102
}
330
10
100
AcDbMaterial
  1
Global
 72
     0
 43
0.0208333333333333
 43
0.0
 43
0.0
 43
0.0
 43
0.0
 43
0.0208333333333333
 43
0.0
 43
0.0
 43
0.0
 43
0.0
 43
1.0
 43
0.0
 43
0.0
 43
0.0
 43
0.0
 43
1.0
 77
     0
 47
0.0208333333333333
 47
0.0
 47
0.0
 47
0.0
 47
0.0
 47
0.0208333333333333
 47
0.0
 47
0.0
 47
0.0
 47
0.0
 47
1.0
 47
0.0
 47
0.0
 47
0.0
 47
0.0
 47
1.0
171
     0
 49
0.0208333333333333
 49
0.0
 49
0.0
 49
0.0
 49
0.0
 49
0.0208333333333333
 49
0.0
 49
0.0
 49
0.0
 49
0.0
 49
1.0
 49
0.0
 49
0.0
 49
0.0
 49
0.0
 49
1.0
175
     0
142
0.0208333333333333
142
0.0
142
0.0
142
0.0
142
0.0
142
0.0208333333333333
142
0.0
142
0.0
142
0.0
142
0.0
142
1.0
142
0.0
142
0.0
142
0.0
142
0.0
142
1.0
179
     0
144
0.0208333333333333
144
0.0
144
0.0
144
0.0
144
0.0
144
0.0208333333333333
144
0.0
144
0.0
144
0.0
144
0.0
144
1.0
144
0.0
144
0.0
144
0.0
144
0.0
144
1.0
147
0.0208333333333333
147
0.0
147
0.0
147
0.0
147
0.0
147
0.0208333333333333
147
0.0
147
0.0
147
0.0
147
0.0
147
1.0
147
0.0
147
0.0
147
0.0
147
0.0
147
1.0
  0
MLEADERSTYLE
  5
66
102
{ACAD_REACTORS
330
65
102
}
330
65
100
AcDbMLeaderStyle
170
     2
171
     1
172
     0
 90
        2
 40
0.0
 41
0.0
173
     1
 91
-1056964608
340
5A
 92
       -2
290
     1
 42
0.09
291
     1
 43
0.36
  3
Standard
 44
0.18
300

342
55
174
     1
178
     6
175
     1
176
     0
 93
-1056964608
 45
0.18
292
     0
297
     0
 46
0.18
 94
-1056964608
 47
1.0
 49
1.0
140
1.0
293
     1
141
0.0
294
     1
177
     0
142
1.0
295
     0
296
     0
143
0.125
1001
ACAD_MLEADERVER
1070
     2
  0
MLINESTYLE
  5
5F
102
{ACAD_REACTORS
330
5E
102
}
330
5E
100
AcDbMlineStyle
  2
STANDARD
 70
     0
  3

 62
   256
 51
90.0
 52
90.0
 71
     2
 49
0.5
 62
   256
  6
BYLAYER
 49
-0.5
 62
   256
  6
BYLAYER
  0
ACDBPLACEHOLDER
  5
F
102
{ACAD_REACTORS
330
E
102
}
330
E
  0
SCALE
  5
43
102
{ACAD_REACTORS
330
42
102
}
330
42
100
AcDbScale
 70
     0
300
1:1
140
1.0
141
1.0
290
     1
  0
SCALE
  5
44
102
{ACAD_REACTORS
330
42
102
}
330
42
100
AcDbScale
 70
     0
300
1/128" = 1'-0"
140
0.0078125
141
12.0
290
     0
  0
SCALE
  5
45
102
{ACAD_REACTORS
330
42
102
}
330
42
100
AcDbScale
 70
     0
300
1/64" = 1'-0"
140
0.015625
141
12.0
290
     0
  0
SCALE
  5
46
102
{ACAD_REACTORS
330
42
102
}
330
42
100
AcDbScale
 70
     0
300
1/32" = 1'-0"
140
0.03125
141
12.0
290
     0
  0
SCALE
  5
47
102
{ACAD_REACTORS
330
42
102
}
330
42
100
AcDbScale
 70
     0
300
1/16" = 1'-0"
140
0.0625
141
12.0
290
     0
  0
SCALE
  5
48
102
{ACAD_REACTORS
330
42
102
}
330
42
100
AcDbScale
 70
     0
300
3/32" = 1'-0"
140
0.09375
141
12.0
290
     0
  0
SCALE
  5
49
102
{ACAD_REACTORS
330
42
102
}
330
42
100
AcDbScale
 70
     0
300
1/8" = 1'-0"
140
0.125
141
12.0
290
     0
  0
SCALE
  5
4A
102
{ACAD_REACTORS
330
42
102
}
330
42
100
AcDbScale
 70
     0
300
3/16" = 1'-0"
140
0.1875
141
12.0
290
     0
  0
SCALE
  5
4B
102
{ACAD_REACTORS
330
42
102
}
330
42
100
AcDbScale
 70
     0
300
1/4" = 1'-0"
140
0.25
141
12.0
290
     0
  0
SCALE
  5
4C
102
{ACAD_REACTORS
330
42
102
}
330
42
100
AcDbScale
 70
     0
300
3/8" = 1'-0"
140
0.375
141
12.0
290
     0
  0
SCALE
  5
4D
102
{ACAD_REACTORS
330
42
102
}
330
42
100
AcDbScale
 70
     0
300
1/2" = 1'-0"
140
0.5
141
12.0
290
     0
  0
SCALE
  5
4E
102
{ACAD_REACTORS
330
42
102
}
330
42
100
AcDbScale
 70
     0
300
3/4" = 1'-0"
140
0.75
141
12.0
290
     0
  0
SCALE
  5
4F
102
{ACAD_REACTORS
330
42
102
}
330
42
100
AcDbScale
 70
     0
300
1" = 1'-0"
140
1.0
141
12.0
290
     0
  0
SCALE
  5
50
102
{ACAD_REACTORS
330
42
102
}
330
42
100
AcDbScale
 70
     0
300
1-1/2" = 1'-0"
140
1.5
141
12.0
290
     0
  0
SCALE
  5
51
102
{ACAD_REACTORS
330
42
102
}
330
42
100
AcDbScale
 70
     0
300
3" = 1'-0"
140
3.0
141
12.0
290
     0
  0
SCALE
  5
52
102
{ACAD_REACTORS
330
42
102
}
330
42
100
AcDbScale
 70
     0
300
6" = 1'-0"
140
6.0
141
12.0
290
     0
  0
SCALE
  5
53
102
{ACAD_REACTORS
330
42
102
}
330
42
100
AcDbScale
 70
     0
300
1'-0" = 1'-0"
140
12.0
141
12.0
290
     0
  0
ACDBSECTIONVIEWSTYLE
  5
68
102
{ACAD_XDICTIONARY
360
868
102
}
102
{ACAD_REACTORS
330
67
102
}
330
67
100
AcDbModelDocViewStyle
 70
     0
  3
Imperial24
290
     0
100
AcDbSectionViewStyle
 70
     0
 71
     0
 90
       78
 71
     1
340
55
 40
0.24
340
0
340
0
 40
0.24
300
I, O, Q, S, X, Z
 40
0.48
 90
        3
 40
0.18
 90
        1
 71
     2
340
5C
 90
       25
340
5C
 90
       50
 40
0.24
 40
0.0
 40
0.24
 71
     3
340
55
 40
0.24
 90
        1
 40
0.75
 90
        1
300
%<\AcVar ViewType \f "%tc1">% %<\AcVar ViewSectionStartId>%-%<\AcVar ViewSectionEndId>%\PSCALE %<\AcVar ViewScale \f "%sn">%
 71
     4
300
ANSI31
 40
1.0
 90
        0
290
     0
290
     0
 90
        6
 40
0.0
 40
1.570796326794896
 40
0.2617993877991494
 40
1.308996938995747
 40
-0.2617993877991494
 40
1.832595714594045
  0
TABLESTYLE
  5
64
102
{ACAD_XDICTIONARY
360
7EB
102
}
102
{ACAD_REACTORS
330
63
102
}
330
63
100
AcDbTableStyle
  3
Standard
 70
     0
 71
     0
 40
0.06
 41
0.06
280
     0
281
     0
  7
STANDARD
140
0.18
170
     2
 62
     0
 63
     7
283
     0
274
    -2
284
     1
 64
     0
275
    -2
285
     1
 65
     0
276
    -2
286
     1
 66
     0
277
    -2
287
     1
 67
     0
278
    -2
288
     1
 68
     0
279
    -2
289
     1
 69
     0
  7
STANDARD
140
0.25
170
     5
 62
     0
 63
     7
283
     0
274
    -2
284
     1
 64
     0
275
    -2
285
     1
 65
     0
276
    -2
286
     1
 66
     0
277
    -2
287
     1
 67
     0
278
    -2
288
     1
 68
     0
279
    -2
289
     1
 69
     0
  7
STANDARD
140
0.18
170
     5
 62
     0
 63
     7
283
     0
274
    -2
284
     1
 64
     0
275
    -2
285
     1
 65
     0
276
    -2
286
     1
 66
     0
277
    -2
287
     1
 67
     0
278
    -2
288
     1
 68
     0
279
    -2
289
     1
 69
     0
  0
VISUALSTYLE
  5
2F
102
{ACAD_XDICTIONARY
360
841
102
}
102
{ACAD_REACTORS
330
29
102
}
330
29
100
AcDbVisualStyle
  2

 70
     4
 71
     0
 72
     2
 73
     0
 90
        0
 40
-0.6
 41
-30.0
 62
     5
 63
     7
 74
     1
 91
        4
 64
     7
 65
   257
 75
     1
175
     1
 42
1.0
 92
        0
 66
   257
 43
1.0
 76
     1
 77
     6
 78
     2
 67
     7
 79
     5
170
     0
171
     0
290
     0
174
     0
 93
        1
 44
0.0
173
     0
291
     0
 45
0.0
1001
ACAD
1000
AcDbSavedByObjectVersion
1070
     0
  0
VISUALSTYLE
  5
2E
102
{ACAD_XDICTIONARY
360
83F
102
}
102
{ACAD_REACTORS
330
29
102
}
330
29
100
AcDbVisualStyle
  2

 70
     7
 71
     1
 72
     0
 73
     1
 90
        0
 40
-0.6
 41
-30.0
 62
     5
 63
     7
 74
     0
 91
        4
 64
     7
 65
   257
 75
     1
175
     1
 42
1.0
 92
        8
 66
     7
 43
1.0
 76
     1
 77
     6
 78
     2
 67
     7
 79
     5
170
     0
171
     0
290
     0
174
     0
 93
        1
 44
0.0
173
     0
291
     1
 45
0.0
1001
ACAD
1000
AcDbSavedByObjectVersion
1070
     0
  0
VISUALSTYLE
  5
35
102
{ACAD_XDICTIONARY
360
84D
102
}
102
{ACAD_REACTORS
330
29
102
}
330
29
100
AcDbVisualStyle
  2

 70
    12
 71
     2
 72
     2
 73
     0
 90
        0
 40
-0.6
 41
-30.0
 62
     5
 63
     7
 74
     1
 91
        4
 64
     7
 65
   257
 75
     1
175
     1
 42
1.0
 92
        8
 66
     7
 43
1.0
 76
     1
 77
     6
 78
     2
 67
     7
 79
     5
170
     0
171
     0
290
     0
174
     0
 93
        1
 44
50.0
173
     0
291
     1
 45
0.0
1001
ACAD
1000
AcDbSavedByObjectVersion
1070
     0
  0
VISUALSTYLE
  5
39
102
{ACAD_XDICTIONARY
360
855
102
}
102
{ACAD_REACTORS
330
29
102
}
330
29
100
AcDbVisualStyle
  2

 70
    16
 71
     2
 72
     2
 73
     3
 90
        0
 40
-0.6
 41
-30.0
 62
     5
 63
     8
 74
     1
 91
        4
 64
     7
 65
   257
 75
     1
175
     1
 42
1.0
 92
        8
 66
     8
 43
1.0
 76
     1
 77
     6
 78
     2
 67
     7
 79
     5
170
     0
171
     0
290
     0
174
     0
 93
        1
 44
0.0
173
     0
291
     1
 45
0.0
1001
ACAD
1000
AcDbSavedByObjectVersion
1070
     0
  0
VISUALSTYLE
  5
32
102
{ACAD_XDICTIONARY
360
847
102
}
102
{ACAD_REACTORS
330
29
102
}
330
29
100
AcDbVisualStyle
  2

 70
     9
 71
     3
 72
     2
 73
     0
 90
        0
 40
-0.6
 41
-30.0
 62
     5
 63
     7
 74
     2
 91
        2
 64
     7
 65
   257
 75
     1
175
     1
 42
179.0
 92
        8
 66
     7
 43
1.0
 76
     1
 77
     6
 78
     2
 67
     7
 79
     3
170
     0
171
     0
290
     0
174
     0
 93
        1
 44
0.0
173
     0
291
     0
 45
0.0
1001
ACAD
1000
AcDbSavedByObjectVersion
1070
     0
  0
VISUALSTYLE
  5
34
102
{ACAD_XDICTIONARY
360
84B
102
}
102
{ACAD_REACTORS
330
29
102
}
330
29
100
AcDbVisualStyle
  2

 70
    11
 71
     2
 72
     2
 73
     0
 90
        0
 40
-0.6
 41
-30.0
 62
     5
 63
     7
 74
     1
 91
        4
 64
     7
 65
   257
 75
     1
175
     1
 42
1.0
 92
        8
 66
     7
 43
1.0
 76
     1
 77
     6
 78
     2
 67
     7
 79
     5
170
     0
171
     0
290
     0
174
     0
 93
        1
 44
-50.0
173
     0
291
     1
 45
0.0
1001
ACAD
1000
AcDbSavedByObjectVersion
1070
     0
  0
VISUALSTYLE
  5
41
102
{ACAD_XDICTIONARY
360
865
102
}
102
{ACAD_REACTORS
330
29
102
}
330
29
100
AcDbVisualStyle
  2

 70
    22
 71
     2
 72
     2
 73
     0
 90
        0
 40
-0.6
 41
-30.0
 62
     5
 63
     7
 74
     1
 91
        4
 64
     7
 65
   257
 75
     1
175
     1
 42
1.0
 92
        8
 66
     7
 43
1.0
 76
     1
 77
     6
 78
     2
 67
     7
 79
     5
170
     0
171
     0
290
     0
174
     0
 93
        1
 44
0.0
173
     0
291
     1
 45
0.0
1001
ACAD
1000
AcDbSavedByObjectVersion
1070
     0
  0
VISUALSTYLE
  5
38
102
{ACAD_XDICTIONARY
360
853
102
}
102
{ACAD_REACTORS
330
29
102
}
330
29
100
AcDbVisualStyle
  2

 70
    15
 71
     2
 72
     2
 73
     0
 90
        0
 40
-0.6
 41
-30.0
 62
     5
 63
     7
 74
     1
 91
        4
 64
     7
 65
   257
 75
     1
175
     1
 42
1.0
 92
        8
 66
     7
 43
1.0
 76
     1
 77
     6
 78
     2
 67
     7
 79
     5
170
     0
171
     0
290
     0
174
     0
 93
        1
 44
0.0
173
     0
291
     1
 45
0.0
1001
ACAD
1000
AcDbSavedByObjectVersion
1070
     0
  0
VISUALSTYLE
  5
2A
102
{ACAD_XDICTIONARY
360
837
102
}
102
{ACAD_REACTORS
330
29
102
}
330
29
100
AcDbVisualStyle
  2

 70
     0
 71
     2
 72
     1
 73
     1
 90
        2
 40
-0.6
 41
30.0
 62
     5
 63
     7
 74
     0
 91
        0
 64
     7
 65
   257
 75
     1
175
     1
 42
1.0
 92
        8
 66
     7
 43
1.0
 76
     1
 77
     6
 78
     2
 67
     7
 79
     5
170
     0
171
     0
290
     0
174
     0
 93
       13
 44
0.0
173
     0
291
     1
 45
0.0
1001
ACAD
1000
AcDbSavedByObjectVersion
1070
     0
  0
VISUALSTYLE
  5
2B
102
{ACAD_XDICTIONARY
360
839
102
}
102
{ACAD_REACTORS
330
29
102
}
330
29
100
AcDbVisualStyle
  2

 70
     1
 71
     2
 72
     1
 73
     1
 90
        2
 40
-0.6
 41
30.0
 62
     5
 63
     7
 74
     1
 91
        0
 64
     7
 65
   257
 75
     1
175
     1
 42
1.0
 92
        0
 66
   257
 43
1.0
 76
     1
 77
     6
 78
     2
 67
     7
 79
     5
170
     0
171
     0
290
     0
174
     0
 93
       13
 44
0.0
173
     0
291
     1
 45
0.0
1001
ACAD
1000
AcDbSavedByObjectVersion
1070
     0
  0
VISUALSTYLE
  5
2C
102
{ACAD_XDICTIONARY
360
83B
102
}
102
{ACAD_REACTORS
330
29
102
}
330
29
100
AcDbVisualStyle
  2

 70
     2
 71
     2
 72
     2
 73
     1
 90
        2
 40
-0.6
 41
30.0
 62
     5
 63
     7
 74
     0
 91
        0
 64
     7
 65
   257
 75
     1
175
     1
 42
1.0
 92
        0
 66
     7
 43
1.0
 76
     1
 77
     6
 78
     2
 67
     7
 79
     5
170
     0
171
     0
290
     0
174
     0
 93
       13
 44
0.0
173
     0
291
     1
 45
0.0
1001
ACAD
1000
AcDbSavedByObjectVersion
1070
     0
  0
VISUALSTYLE
  5
2D
102
{ACAD_XDICTIONARY
360
83D
102
}
102
{ACAD_REACTORS
330
29
102
}
330
29
100
AcDbVisualStyle
  2

 70
     3
 71
     2
 72
     2
 73
     1
 90
        2
 40
-0.6
 41
30.0
 62
     5
 63
     7
 74
     1
 91
        0
 64
     7
 65
   257
 75
     1
175
     1
 42
1.0
 92
        0
 66
   257
 43
1.0
 76
     1
 77
     6
 78
     2
 67
     7
 79
     5
170
     0
171
     0
290
     0
174
     0
 93
       13
 44
0.0
173
     0
291
     1
 45
0.0
1001
ACAD
1000
AcDbSavedByObjectVersion
1070
     0
  0
VISUALSTYLE
  5
31
102
{ACAD_XDICTIONARY
360
845
102
}
102
{ACAD_REACTORS
330
29
102
}
330
29
100
AcDbVisualStyle
  2

 70
     6
 71
     1
 72
     2
 73
     2
 90
        0
 40
-0.6
 41
-30.0
 62
     5
 63
     7
 74
     2
 91
        2
 64
     7
 65
   257
 75
     2
175
     1
 42
40.0
 92
        0
 66
   257
 43
1.0
 76
     1
 77
     6
 78
     2
 67
     7
 79
     3
170
     0
171
     0
290
     0
174
     0
 93
        1
 44
0.0
173
     0
291
     0
 45
0.0
1001
ACAD
1000
AcDbSavedByObjectVersion
1070
     0
  0
VISUALSTYLE
  5
3F
102
{ACAD_XDICTIONARY
360
861
102
}
102
{ACAD_REACTORS
330
29
102
}
330
29
100
AcDbVisualStyle
  2

 70
    20
 71
     2
 72
     2
 73
     0
 90
        0
 40
-0.6
 41
-30.0
 62
     5
 63
     7
 74
     1
 91
        4
 64
     7
 65
   257
 75
     1
175
     1
 42
1.0
 92
       10
 66
     7
 43
1.0
 76
     1
 77
     6
 78
     2
 67
     7
 79
     5
170
     0
171
     0
290
     0
174
     0
 93
        1
 44
0.0
173
     0
291
     1
 45
0.0
1001
ACAD
1000
AcDbSavedByObjectVersion
1070
     0
  0
VISUALSTYLE
  5
37
102
{ACAD_XDICTIONARY
360
851
102
}
102
{ACAD_REACTORS
330
29
102
}
330
29
100
AcDbVisualStyle
  2

 70
    14
 71
     2
 72
     2
 73
     0
 90
        0
 40
-0.6
 41
-30.0
 62
     5
 63
     7
 74
     1
 91
        4
 64
     7
 65
   257
 75
     7
175
     7
 42
1.0
 92
        8
 66
     7
 43
1.0
 76
     1
 77
     6
 78
     2
 67
     7
 79
     5
170
     0
171
     0
290
     0
174
     0
 93
        1
 44
0.0
173
     0
291
     1
 45
0.0
1001
ACAD
1000
AcDbSavedByObjectVersion
1070
     0
  0
VISUALSTYLE
  5
40
102
{ACAD_XDICTIONARY
360
863
102
}
102
{ACAD_REACTORS
330
29
102
}
330
29
100
AcDbVisualStyle
  2

 70
    21
 71
     2
 72
     2
 73
     0
 90
        0
 40
-0.6
 41
-30.0
 62
     5
 63
     7
 74
     1
 91
        4
 64
     7
 65
   257
 75
     1
175
     1
 42
1.0
 92
        9
 66
     7
 43
1.0
 76
     1
 77
     6
 78
     2
 67
     7
 79
     5
170
     0
171
     0
290
     0
174
     0
 93
        1
 44
0.0
173
     0
291
     1
 45
0.0
1001
ACAD
1000
AcDbSavedByObjectVersion
1070
     0
  0
VISUALSTYLE
  5
33
102
{ACAD_XDICTIONARY
360
849
102
}
102
{ACAD_REACTORS
330
29
102
}
330
29
100
AcDbVisualStyle
  2

 70
     8
 71
     2
 72
     3
 73
     0
 90
        2
 40
-0.6
 41
30.0
 62
     5
 63
     7
 74
     0
 91
        0
 64
     7
 65
   257
 75
     1
175
     1
 42
1.0
 92
        8
 66
   257
 43
1.0
 76
     1
 77
     6
 78
     2
 67
     7
 79
     3
170
     0
171
     0
290
     0
174
     0
 93
       13
 44
0.0
173
     0
291
     0
 45
0.0
1001
ACAD
1000
AcDbSavedByObjectVersion
1070
     0
  0
VISUALSTYLE
  5
3E
102
{ACAD_XDICTIONARY
360
85F
102
}
102
{ACAD_REACTORS
330
29
102
}
330
29
100
AcDbVisualStyle
  2

 70
    27
 71
     2
 72
     2
 73
     1
 90
        2
 40
-0.6
 41
30.0
 62
     5
 63
     7
 74
     0
 91
        4
 64
     7
 65
   257
 75
     1
175
     1
 42
1.0
 92
        8
 66
   257
 43
1.0
 76
     1
 77
     6
 78
     2
 67
     8
 79
     3
170
     0
171
     0
290
     0
174
     0
 93
        5
 44
0.0
173
     0
291
     0
 45
0.0
1001
ACAD
1000
AcDbSavedByObjectVersion
1070
     0
  0
VISUALSTYLE
  5
3D
102
{ACAD_XDICTIONARY
360
85D
102
}
102
{ACAD_REACTORS
330
29
102
}
330
29
100
AcDbVisualStyle
  2

 70
    26
 71
     2
 72
     2
 73
     1
 90
        2
 40
-0.6
 41
30.0
 62
     5
 63
     7
 74
     1
 91
        2
 64
     7
 65
   257
 75
     2
175
     1
 42
1.0
 92
        8
 66
   257
 43
1.0
 76
     1
 77
     6
 78
     2
 67
     7
 79
     3
170
     0
171
     0
290
     0
174
     0
 93
        5
 44
0.0
173
     0
291
     0
 45
0.0
1001
ACAD
1000
AcDbSavedByObjectVersion
1070
     0
  0
VISUALSTYLE
  5
3A
102
{ACAD_XDICTIONARY
360
857
102
}
102
{ACAD_REACTORS
330
29
102
}
330
29
100
AcDbVisualStyle
  2

 70
    23
 71
     2
 72
     2
 73
     3
 90
        0
 40
-0.6
 41
-30.0
 62
     5
 63
     7
 74
     2
 91
        2
 64
     7
 65
     7
 75
     1
175
     1
 42
40.0
 92
        8
 66
     7
 43
1.0
 76
     1
 77
     6
 78
     2
 67
     7
 79
     3
170
     0
171
     0
290
     0
174
     0
 93
        1
 44
0.0
173
     0
291
     0
 45
0.0
1001
ACAD
1000
AcDbSavedByObjectVersion
1070
     0
  0
VISUALSTYLE
  5
3B
102
{ACAD_XDICTIONARY
360
859
102
}
102
{ACAD_REACTORS
330
29
102
}
330
29
100
AcDbVisualStyle
  2

 70
    24
 71
     1
 72
     2
 73
     2
 90
        0
 40
-0.6
 41
-30.0
 62
     5
 63
     7
 74
     2
 91
        2
 64
     7
 65
     7
 75
     1
175
     1
 42
40.0
 92
       11
 66
     7
 43
1.0
 76
     1
 77
     6
 78
     2
 67
     7
 79
     6
170
     0
171
     0
290
     0
174
     0
 93
        1
 44
0.0
173
     0
291
     0
 45
0.0
1001
ACAD
1000
AcDbSavedByObjectVersion
1070
     0
  0
VISUALSTYLE
  5
36
102
{ACAD_XDICTIONARY
360
84F
102
}
102
{ACAD_REACTORS
330
29
102
}
330
29
100
AcDbVisualStyle
  2

 70
    13
 71
     2
 72
     2
 73
     0
 90
        0
 40
-0.6
 41
-30.0
 62
     5
 63
     7
 74
     1
 91
        4
 64
     7
 65
   257
 75
     1
175
     1
 42
1.0
 92
       12
 66
     7
 43
1.0
 76
     1
 77
     6
 78
     2
 67
     7
 79
     5
170
     0
171
     0
290
     0
174
     0
 93
        1
 44
0.0
173
     0
291
     1
 45
0.0
1001
ACAD
1000
AcDbSavedByObjectVersion
1070
     0
  0
VISUALSTYLE
  5
30
102
{ACAD_XDICTIONARY
360
843
102
}
102
{ACAD_REACTORS
330
29
102
}
330
29
100
AcDbVisualStyle
  2

 70
     5
 71
     0
 72
     2
 73
     0
 90
        0
 40
-0.6
 41
-30.0
 62
     5
 63
     7
 74
     1
 91
        4
 64
     7
 65
   257
 75
     1
175
     1
 42
1.0
 92
        0
 66
   257
 43
1.0
 76
     1
 77
     6
 78
     2
 67
     7
 79
     3
170
     0
171
     0
290
     0
174
     0
 93
        1
 44
0.0
173
     0
291
     0
 45
0.0
1001
ACAD
1000
AcDbSavedByObjectVersion
1070
     0
  0
VISUALSTYLE
  5
3C
102
{ACAD_XDICTIONARY
360
85B
102
}
102
{ACAD_REACTORS
330
29
102
}
330
29
100
AcDbVisualStyle
  2

 70
    25
 71
     2
 72
     2
 73
     1
 90
        1
 40
0.5
 41
-30.0
 62
     5
 63
     7
 74
     1
 91
        0
 64
     7
 65
   257
 75
     1
175
     1
 42
1.0
 92
        8
 66
     7
 43
1.0
 76
     1
 77
     6
 78
     2
 67
     7
 79
     3
170
     0
171
     0
290
     0
174
     0
 93
       13
 44
0.0
173
     0
291
     0
 45
0.0
1001
ACAD
1000
AcDbSavedByObjectVersion
1070
     0
  0
DICTIONARYVAR
  5
7E5
102
{ACAD_REACTORS
330
7E0
102
}
330
7E0
100
DictionaryVariables
280
     0
  1
1:1
  0
DICTIONARYVAR
  5
7E2
102
{ACAD_REACTORS
330
7E0
102
}
330
7E0
100
DictionaryVariables
280
     0
  1
STANDARD
  0
DICTIONARYVAR
  5
7E1
102
{ACAD_REACTORS
330
7E0
102
}
330
7E0
100
DictionaryVariables
280
     0
  1
STANDARD
  0
DICTIONARYVAR
  5
7E3
102
{ACAD_REACTORS
330
7E0
102
}
330
7E0
100
DictionaryVariables
280
     0
  1
Imperial24
  0
DICTIONARYVAR
  5
7E4
102
{ACAD_REACTORS
330
7E0
102
}
330
7E0
100
DictionaryVariables
280
     0
  1
Imperial24
  0
DICTIONARYVAR
  5
7E8
102
{ACAD_REACTORS
330
7E0
102
}
330
7E0
100
DictionaryVariables
280
     0
  1
1
  0
DICTIONARYVAR
  5
7E7
102
{ACAD_REACTORS
330
7E0
102
}
330
7E0
100
DictionaryVariables
280
     0
  1
0
  0
DICTIONARYVAR
  5
7E6
102
{ACAD_REACTORS
330
7E0
102
}
330
7E0
100
DictionaryVariables
280
     0
  1
127
  0
DICTIONARYVAR
  5
833
102
{ACAD_REACTORS
330
7E0
102
}
330
7E0
100
DictionaryVariables
280
     0
  1
2
  0
DICTIONARY
  5
86A
330
6A
100
AcDbDictionary
280
     1
281
     1
  3
ACAD_XREC_ROUNDTRIP
360
86B
  0
DICTIONARY
  5
86E
330
72
100
AcDbDictionary
280
     1
281
     1
  3
ACAD_XREC_ROUNDTRIP
360
86F
  0
DICTIONARY
  5
86C
330
6E
100
AcDbDictionary
280
     1
281
     1
  3
ACAD_XREC_ROUNDTRIP
360
86D
  0
DICTIONARY
  5
1A
330
19
100
AcDbDictionary
280
     1
281
     1
  3
ACAD_XREC_ROUNDTRIP
360
7F0
  3
BUMPTILE
360
1C
  3
DIFFUSETILE
360
1B
  3
OPACITYTILE
360
1F
  3
REFLECTIONTILE
360
1E
  3
REFRACTIONTILE
360
20
  3
SPECULARTILE
360
1D
  0
DICTIONARY
  5
12
330
11
100
AcDbDictionary
280
     1
281
     1
  3
ACAD_XREC_ROUNDTRIP
360
7EF
  3
BUMPTILE
360
14
  3
DIFFUSETILE
360
13
  3
OPACITYTILE
360
17
  3
REFLECTIONTILE
360
16
  3
REFRACTIONTILE
360
18
  3
SPECULARTILE
360
15
  0
DICTIONARY
  5
22
330
21
100
AcDbDictionary
280
     1
281
     1
  3
ACAD_XREC_ROUNDTRIP
360
7F1
  3
BUMPTILE
360
24
  3
DIFFUSETILE
360
23
  3
OPACITYTILE
360
27
  3
REFLECTIONTILE
360
26
  3
REFRACTIONTILE
360
28
  3
SPECULARTILE
360
25
  0
DICTIONARY
  5
868
330
68
100
AcDbDictionary
280
     1
281
     1
  3
ACAD_XREC_ROUNDTRIP
360
869
  0
DICTIONARY
  5
7EB
330
64
100
AcDbDictionary
280
     1
281
     1
  3
ACAD_ROUNDTRIP_2008_TABLESTYLE_CELLSTYLEMAP
360
834
  3
ACAD_XREC_ROUNDTRIP
360
867
  0
DICTIONARY
  5
841
330
2F
100
AcDbDictionary
280
     1
281
     1
  3
ACAD_XREC_ROUNDTRIP
360
842
  0
DICTIONARY
  5
83F
330
2E
100
AcDbDictionary
280
     1
281
     1
  3
ACAD_XREC_ROUNDTRIP
360
840
  0
DICTIONARY
  5
84D
330
35
100
AcDbDictionary
280
     1
281
     1
  3
ACAD_XREC_ROUNDTRIP
360
84E
  0
DICTIONARY
  5
855
330
39
100
AcDbDictionary
280
     1
281
     1
  3
ACAD_XREC_ROUNDTRIP
360
856
  0
DICTIONARY
  5
847
330
32
100
AcDbDictionary
280
     1
281
     1
  3
ACAD_XREC_ROUNDTRIP
360
848
  0
DICTIONARY
  5
84B
330
34
100
AcDbDictionary
280
     1
281
     1
  3
ACAD_XREC_ROUNDTRIP
360
84C
  0
DICTIONARY
  5
865
330
41
100
AcDbDictionary
280
     1
281
     1
  3
ACAD_XREC_ROUNDTRIP
360
866
  0
DICTIONARY
  5
853
330
38
100
AcDbDictionary
280
     1
281
     1
  3
ACAD_XREC_ROUNDTRIP
360
854
  0
DICTIONARY
  5
837
330
2A
100
AcDbDictionary
280
     1
281
     1
  3
ACAD_XREC_ROUNDTRIP
360
838
  0
DICTIONARY
  5
839
330
2B
100
AcDbDictionary
280
     1
281
     1
  3
ACAD_XREC_ROUNDTRIP
360
83A
  0
DICTIONARY
  5
83B
330
2C
100
AcDbDictionary
280
     1
281
     1
  3
ACAD_XREC_ROUNDTRIP
360
83C
  0
DICTIONARY
  5
83D
330
2D
100
AcDbDictionary
280
     1
281
     1
  3
ACAD_XREC_ROUNDTRIP
360
83E
  0
DICTIONARY
  5
845
330
31
100
AcDbDictionary
280
     1
281
     1
  3
ACAD_XREC_ROUNDTRIP
360
846
  0
DICTIONARY
  5
861
330
3F
100
AcDbDictionary
280
     1
281
     1
  3
ACAD_XREC_ROUNDTRIP
360
862
  0
DICTIONARY
  5
851
330
37
100
AcDbDictionary
280
     1
281
     1
  3
ACAD_XREC_ROUNDTRIP
360
852
  0
DICTIONARY
  5
863
330
40
100
AcDbDictionary
280
     1
281
     1
  3
ACAD_XREC_ROUNDTRIP
360
864
  0
DICTIONARY
  5
849
330
33
100
AcDbDictionary
280
     1
281
     1
  3
ACAD_XREC_ROUNDTRIP
360
84A
  0
DICTIONARY
  5
85F
330
3E
100
AcDbDictionary
280
     1
281
     1
  3
ACAD_XREC_ROUNDTRIP
360
860
  0
DICTIONARY
  5
85D
330
3D
100
AcDbDictionary
280
     1
281
     1
  3
ACAD_XREC_ROUNDTRIP
360
85E
  0
DICTIONARY
  5
857
330
3A
100
AcDbDictionary
280
     1
281
     1
  3
ACAD_XREC_ROUNDTRIP
360
858
  0
DICTIONARY
  5
859
330
3B
100
AcDbDictionary
280
     1
281
     1
  3
ACAD_XREC_ROUNDTRIP
360
85A
  0
DICTIONARY
  5
84F
330
36
100
AcDbDictionary
280
     1
281
     1
  3
ACAD_XREC_ROUNDTRIP
360
850
  0
DICTIONARY
  5
843
330
30
100
AcDbDictionary
280
     1
281
     1
  3
ACAD_XREC_ROUNDTRIP
360
844
  0
DICTIONARY
  5
85B
330
3C
100
AcDbDictionary
280
     1
281
     1
  3
ACAD_XREC_ROUNDTRIP
360
85C
  0
XRECORD
  5
86B
102
{ACAD_REACTORS
330
86A
102
}
330
86A
100
AcDbXrecord
280
     1
102
DISPLAYNAME
  1
Imperial24
102
FLAGS
 90
        0
  0
XRECORD
  5
86F
102
{ACAD_REACTORS
330
86E
102
}
330
86E
100
AcDbXrecord
280
     1
102
SHADEPLOT
 70
     0
102
SHADEPLOTRESLEVEL
 70
     2
102
SHADEPLOTCUSTOMDPI
 70
   300
  0
XRECORD
  5
86D
102
{ACAD_REACTORS
330
86C
102
}
330
86C
100
AcDbXrecord
280
     1
102
SHADEPLOT
 70
     0
102
SHADEPLOTRESLEVEL
 70
     2
102
SHADEPLOTCUSTOMDPI
 70
   300
  0
XRECORD
  5
7F0
102
{ACAD_REACTORS
330
1A
102
}
330
1A
100
AcDbXrecord
280
     1
102
MATERIAL
148
0.0
149
0.0
149
0.0
 93
        0
 94
      127
282
     0
 72
     0
 77
     0
171
     0
175
     0
179
     0
273
     0
  0
XRECORD
  5
1C
102
{ACAD_REACTORS
330
1A
102
}
330
1A
100
AcDbXrecord
280
     1
270
     1
271
     1
  0
XRECORD
  5
1B
102
{ACAD_REACTORS
330
1A
102
}
330
1A
100
AcDbXrecord
280
     1
270
     1
271
     1
  0
XRECORD
  5
1F
102
{ACAD_REACTORS
330
1A
102
}
330
1A
100
AcDbXrecord
280
     1
270
     1
271
     1
  0
XRECORD
  5
1E
102
{ACAD_REACTORS
330
1A
102
}
330
1A
100
AcDbXrecord
280
     1
270
     1
271
     1
  0
XRECORD
  5
20
102
{ACAD_REACTORS
330
1A
102
}
330
1A
100
AcDbXrecord
280
     1
270
     1
271
     1
  0
XRECORD
  5
1D
102
{ACAD_REACTORS
330
1A
102
}
330
1A
100
AcDbXrecord
280
     1
270
     1
271
     1
  0
XRECORD
  5
7EF
102
{ACAD_REACTORS
330
12
102
}
330
12
100
AcDbXrecord
280
     1
102
MATERIAL
148
0.0
149
0.0
149
0.0
 93
        0
 94
      127
282
     0
 72
     0
 77
     0
171
     0
175
     0
179
     0
273
     0
  0
XRECORD
  5
14
102
{ACAD_REACTORS
330
12
102
}
330
12
100
AcDbXrecord
280
     1
270
     1
271
     1
  0
XRECORD
  5
13
102
{ACAD_REACTORS
330
12
102
}
330
12
100
AcDbXrecord
280
     1
270
     1
271
     1
  0
XRECORD
  5
17
102
{ACAD_REACTORS
330
12
102
}
330
12
100
AcDbXrecord
280
     1
270
     1
271
     1
  0
XRECORD
  5
16
102
{ACAD_REACTORS
330
12
102
}
330
12
100
AcDbXrecord
280
     1
270
     1
271
     1
  0
XRECORD
  5
18
102
{ACAD_REACTORS
330
12
102
}
330
12
100
AcDbXrecord
280
     1
270
     1
271
     1
  0
XRECORD
  5
15
102
{ACAD_REACTORS
330
12
102
}
330
12
100
AcDbXrecord
280
     1
270
     1
271
     1
  0
XRECORD
  5
7F1
102
{ACAD_REACTORS
330
22
102
}
330
22
100
AcDbXrecord
280
     1
102
MATERIAL
148
0.0
149
0.0
149
0.0
 93
        0
 94
      127
282
     0
 72
     0
 77
     0
171
     0
175
     0
179
     0
273
     0
  0
XRECORD
  5
24
102
{ACAD_REACTORS
330
22
102
}
330
22
100
AcDbXrecord
280
     1
270
     1
271
     1
  0
XRECORD
  5
23
102
{ACAD_REACTORS
330
22
102
}
330
22
100
AcDbXrecord
280
     1
270
     1
271
     1
  0
XRECORD
  5
27
102
{ACAD_REACTORS
330
22
102
}
330
22
100
AcDbXrecord
280
     1
270
     1
271
     1
  0
XRECORD
  5
26
102
{ACAD_REACTORS
330
22
102
}
330
22
100
AcDbXrecord
280
     1
270
     1
271
     1
  0
XRECORD
  5
28
102
{ACAD_REACTORS
330
22
102
}
330
22
100
AcDbXrecord
280
     1
270
     1
271
     1
  0
XRECORD
  5
25
102
{ACAD_REACTORS
330
22
102
}
330
22
100
AcDbXrecord
280
     1
270
     1
271
     1
  0
XRECORD
  5
869
102
{ACAD_REACTORS
330
868
102
}
330
868
100
AcDbXrecord
280
     1
102
DISPLAYNAME
  1
Imperial24
102
FLAGS
 90
        0
  0
CELLSTYLEMAP
  5
834
102
{ACAD_REACTORS
330
7EB
102
}
330
7EB
100
AcDbCellStyleMap
 90
        3
300
CELLSTYLE
  1
TABLEFORMAT_BEGIN
 90
        5
170
     1
 91
        0
 92
    32768
 62
   257
 93
        1
300
CONTENTFORMAT
  1
CONTENTFORMAT_BEGIN
 90
        0
 91
        0
 92
      512
 93
        0
300

 40
0.0
140
1.0
 94
        5
 62
     0
340
55
144
0.25
309
CONTENTFORMAT_END
171
     1
301
MARGIN
  1
CELLMARGIN_BEGIN
 40
0.06
 40
0.06
 40
0.06
 40
0.06
 40
0.18
 40
0.18
309
CELLMARGIN_END
 94
        6
 95
        1
302
GRIDFORMAT
  1
GRIDFORMAT_BEGIN
 90
        0
 91
        1
 62
     0
 92
       -2
340
0
 93
        0
 40
0.045
309
GRIDFORMAT_END
 95
        2
302
GRIDFORMAT
  1
GRIDFORMAT_BEGIN
 90
        0
 91
        1
 62
     0
 92
       -2
340
0
 93
        0
 40
0.045
309
GRIDFORMAT_END
 95
        4
302
GRIDFORMAT
  1
GRIDFORMAT_BEGIN
 90
        0
 91
        1
 62
     0
 92
       -2
340
0
 93
        0
 40
0.045
309
GRIDFORMAT_END
 95
        8
302
GRIDFORMAT
  1
GRIDFORMAT_BEGIN
 90
        0
 91
        1
 62
     0
 92
       -2
340
0
 93
        0
 40
0.045
309
GRIDFORMAT_END
 95
       16
302
GRIDFORMAT
  1
GRIDFORMAT_BEGIN
 90
        0
 91
        1
 62
     0
 92
       -2
340
0
 93
        0
 40
0.045
309
GRIDFORMAT_END
 95
       32
302
GRIDFORMAT
  1
GRIDFORMAT_BEGIN
 90
        0
 91
        1
 62
     0
 92
       -2
340
0
 93
        0
 40
0.045
309
GRIDFORMAT_END
309
TABLEFORMAT_END
  1
CELLSTYLE_BEGIN
 90
        1
 91
        1
300
_TITLE
309
CELLSTYLE_END
300
CELLSTYLE
  1
TABLEFORMAT_BEGIN
 90
        5
170
     1
 91
        0
 92
        0
 62
   257
 93
        1
300
CONTENTFORMAT
  1
CONTENTFORMAT_BEGIN
 90
        0
 91
        0
 92
      512
 93
        0
300

 40
0.0
140
1.0
 94
        5
 62
     0
340
55
144
0.18
309
CONTENTFORMAT_END
171
     1
301
MARGIN
  1
CELLMARGIN_BEGIN
 40
0.06
 40
0.06
 40
0.06
 40
0.06
 40
0.18
 40
0.18
309
CELLMARGIN_END
 94
        6
 95
        1
302
GRIDFORMAT
  1
GRIDFORMAT_BEGIN
 90
        0
 91
        1
 62
     0
 92
       -2
340
0
 93
        0
 40
0.045
309
GRIDFORMAT_END
 95
        2
302
GRIDFORMAT
  1
GRIDFORMAT_BEGIN
 90
        0
 91
        1
 62
     0
 92
       -2
340
0
 93
        0
 40
0.045
309
GRIDFORMAT_END
 95
        4
302
GRIDFORMAT
  1
GRIDFORMAT_BEGIN
 90
        0
 91
        1
 62
     0
 92
       -2
340
0
 93
        0
 40
0.045
309
GRIDFORMAT_END
 95
        8
302
GRIDFORMAT
  1
GRIDFORMAT_BEGIN
 90
        0
 91
        1
 62
     0
 92
       -2
340
0
 93
        0
 40
0.045
309
GRIDFORMAT_END
 95
       16
302
GRIDFORMAT
  1
GRIDFORMAT_BEGIN
 90
        0
 91
        1
 62
     0
 92
       -2
340
0
 93
        0
 40
0.045
309
GRIDFORMAT_END
 95
       32
302
GRIDFORMAT
  1
GRIDFORMAT_BEGIN
 90
        0
 91
        1
 62
     0
 92
       -2
340
0
 93
        0
 40
0.045
309
GRIDFORMAT_END
309
TABLEFORMAT_END
  1
CELLSTYLE_BEGIN
 90
        2
 91
        1
300
_HEADER
309
CELLSTYLE_END
300
CELLSTYLE
  1
TABLEFORMAT_BEGIN
 90
        5
170
     1
 91
        0
 92
        0
 62
   257
 93
        1
300
CONTENTFORMAT
  1
CONTENTFORMAT_BEGIN
 90
        0
 91
        0
 92
      512
 93
        0
300

 40
0.0
140
1.0
 94
        2
 62
     0
340
55
144
0.18
309
CONTENTFORMAT_END
171
     1
301
MARGIN
  1
CELLMARGIN_BEGIN
 40
0.06
 40
0.06
 40
0.06
 40
0.06
 40
0.18
 40
0.18
309
CELLMARGIN_END
 94
        6
 95
        1
302
GRIDFORMAT
  1
GRIDFORMAT_BEGIN
 90
        0
 91
        1
 62
     0
 92
       -2
340
0
 93
        0
 40
0.045
309
GRIDFORMAT_END
 95
        2
302
GRIDFORMAT
  1
GRIDFORMAT_BEGIN
 90
        0
 91
        1
 62
     0
 92
       -2
340
0
 93
        0
 40
0.045
309
GRIDFORMAT_END
 95
        4
302
GRIDFORMAT
  1
GRIDFORMAT_BEGIN
 90
        0
 91
        1
 62
     0
 92
       -2
340
0
 93
        0
 40
0.045
309
GRIDFORMAT_END
 95
        8
302
GRIDFORMAT
  1
GRIDFORMAT_BEGIN
 90
        0
 91
        1
 62
     0
 92
       -2
340
0
 93
        0
 40
0.045
309
GRIDFORMAT_END
 95
       16
302
GRIDFORMAT
  1
GRIDFORMAT_BEGIN
 90
        0
 91
        1
 62
     0
 92
       -2
340
0
 93
        0
 40
0.045
309
GRIDFORMAT_END
 95
       32
302
GRIDFORMAT
  1
GRIDFORMAT_BEGIN
 90
        0
 91
        1
 62
     0
 92
       -2
340
0
 93
        0
 40
0.045
309
GRIDFORMAT_END
309
TABLEFORMAT_END
  1
CELLSTYLE_BEGIN
 90
        3
 91
        2
300
_DATA
309
CELLSTYLE_END
  0
XRECORD
  5
867
102
{ACAD_REACTORS
330
7EB
102
}
330
7EB
100
AcDbXrecord
280
     1
102
ACAD_ROUNDTRIP_PRE2007_TABLESTYLE
 90
      512
 91
        0
  1

 92
      512
 93
        0
  2

 94
      512
 95
        0
  3

  0
XRECORD
  5
842
102
{ACAD_REACTORS
330
841
102
}
330
841
100
AcDbXrecord
280
     1
102
RTVSPost2010Prop28
280
     1
102
RTVSPost2010PropOp28
 70
     1
102
RTVSPost2010Prop29
280
     1
102
RTVSPost2010PropOp29
 70
     1
102
RTVSPost2010Prop30
280
     0
102
RTVSPost2010PropOp30
 70
     1
102
RTVSPost2010Prop31
280
     0
102
RTVSPost2010PropOp31
 70
     1
102
RTVSPost2010Prop32
280
     0
102
RTVSPost2010PropOp32
 70
     1
102
RTVSPost2010Prop33
280
     0
102
RTVSPost2010PropOp33
 70
     1
102
RTVSPost2010Prop34
280
     0
102
RTVSPost2010PropOp34
 70
     1
102
RTVSPost2010Prop35
280
     0
102
RTVSPost2010PropOp35
 70
     1
102
RTVSPost2010Prop36
280
     0
102
RTVSPost2010PropOp36
 70
     1
102
RTVSPost2010Prop37
 90
       50
102
RTVSPost2010PropOp37
 70
     1
102
RTVSPost2010Prop38
140
0.0
102
RTVSPost2010PropOp38
 70
     1
102
RTVSPost2010Prop39
140
1.0
102
RTVSPost2010PropOp39
 70
     1
102
RTVSPost2010Prop40
 90
        0
102
RTVSPost2010PropOp40
 70
     1
102
RTVSPost2010Prop41ColorIndex
 90
       18
102
RTVSPost2010Prop41ColorRGB
 90
        0
102
RTVSPost2010PropOp41
 70
     1
102
RTVSPost2010Prop42
 90
       50
102
RTVSPost2010PropOp42
 70
     1
102
RTVSPost2010Prop43
 90
        3
102
RTVSPost2010PropOp43
 70
     1
102
RTVSPost2010Prop44ColorIndex
 90
        5
102
RTVSPost2010Prop44ColorRGB
 90
      255
102
RTVSPost2010PropOp44
 70
     1
102
RTVSPost2010Prop45
280
     0
102
RTVSPost2010PropOp45
 70
     1
102
RTVSPost2010Prop46
 90
       50
102
RTVSPost2010PropOp46
 70
     1
102
RTVSPost2010Prop47
 90
       50
102
RTVSPost2010PropOp47
 70
     1
102
RTVSPost2010Prop48
 90
       50
102
RTVSPost2010PropOp48
 70
     1
102
RTVSPost2010Prop49
280
     0
102
RTVSPost2010PropOp49
 70
     1
102
RTVSPost2010Prop50
 90
       50
102
RTVSPost2010PropOp50
 70
     1
102
RTVSPost2010Prop51ColorIndex
 90
      256
102
RTVSPost2010Prop51ColorRGB
 90
-16777216
102
RTVSPost2010PropOp51
 70
     0
102
RTVSPost2010Prop52
140
1.0
102
RTVSPost2010PropOp52
 70
     0
102
RTVSPost2010Prop53
 90
        2
102
RTVSPost2010PropOp53
 70
     1
102
RTVSPost2010Prop54
  1
strokes_ogs.tif
102
RTVSPost2010PropOp54
 70
     1
102
RTVSPost2010Prop55
280
     0
102
RTVSPost2010PropOp55
 70
     1
102
RTVSPost2010Prop56
140
1.0
102
RTVSPost2010PropOp56
 70
     1
102
RTVSPost2010Prop57
140
1.0
102
RTVSPost2010PropOp57
 70
     1
102
RTVSPropertyOp0
 70
     1
102
RTVSPropertyOp1
 70
     1
102
RTVSPropertyOp2
 70
     1
102
RTVSPropertyOp3
 70
     1
102
RTVSPropertyOp4
 70
     1
102
RTVSPropertyOp5
 70
     1
102
RTVSPropertyOp6
 70
     1
102
RTVSPropertyOp7
 70
     1
102
RTVSPropertyOp8
 70
     1
102
RTVSPropertyOp9
 70
     1
102
RTVSPropertyOp10
 70
     1
102
RTVSPropertyOp11
 70
     1
102
RTVSPropertyOp12
 70
     1
102
RTVSPropertyOp13
 70
     1
102
RTVSPropertyOp14
 70
     1
102
RTVSPropertyOp15
 70
     1
102
RTVSPropertyOp16
 70
     1
102
RTVSPropertyOp17
 70
     1
102
RTVSPropertyOp18
 70
     1
102
RTVSPropertyOp19
 70
     1
102
RTVSPropertyOp20
 70
     1
102
RTVSPropertyOp21
 70
     1
102
RTVSPropertyOp22
 70
     1
102
RTVSPropertyOp23
 70
     1
102
RTVSPropertyOp24
 70
     1
102
RTVSPropertyOp25
 70
     1
102
RTVSPropertyOp26
 70
     1
102
RTVSPropertyOp27
 70
     1
102
RTVSPropertyOp28
 70
     1
102
RTVSPropertyOp29
 70
     1
102
RTVSPropertyOp30
 70
     1
102
RTVSPropertyOp31
 70
     1
102
RTVSPropertyOp32
 70
     1
102
RTVSPropertyOp33
 70
     1
102
RTVSPropertyOp34
 70
     1
102
RTVSPropertyOp35
 70
     1
102
RTVSPropertyOp36
 70
     1
102
RTVSPropertyOp37
 70
     1
102
RTVSPropertyOp38
 70
     1
102
RTVSPropertyOp39
 70
     1
102
RTVSPropertyOp40
 70
     1
102
RTVSPropertyOp41
 70
     1
102
RTVSPropertyOp42
 70
     1
102
RTVSPropertyOp43
 70
     1
102
RTVSPropertyOp44
 70
     1
102
RTVSPropertyOp45
 70
     1
102
RTVSPropertyOp46
 70
     1
102
RTVSPropertyOp47
 70
     1
102
RTVSPropertyOp48
 70
     1
102
RTVSPropertyOp49
 70
     1
102
RTVSPropertyOp50
 70
     1
102
RTVSPropertyOp51
 70
     0
102
RTVSPropertyOp52
 70
     0
102
RTVSPropertyOp53
 70
     1
102
RTVSPropertyOp54
 70
     1
102
RTVSPropertyOp55
 70
     1
102
RTVSPropertyOp56
 70
     1
102
RTVSPropertyOp57
 70
     1
102
RTVSPropertyOp58
 70
     1
102
RTVSPropertyOp59
 70
     1
102
RTVSPropertyOp60
 70
     1
102
RTVSPropertyOp61
 70
     1
102
RTVSPropertyOp62
 70
     1
  0
XRECORD
  5
840
102
{ACAD_REACTORS
330
83F
102
}
330
83F
100
AcDbXrecord
280
     1
102
RTVSPost2010Prop28
280
     0
102
RTVSPost2010PropOp28
 70
     1
102
RTVSPost2010Prop29
280
     1
102
RTVSPost2010PropOp29
 70
     1
102
RTVSPost2010Prop30
280
     1
102
RTVSPost2010PropOp30
 70
     1
102
RTVSPost2010Prop31
280
     0
102
RTVSPost2010PropOp31
 70
     1
102
RTVSPost2010Prop32
280
     0
102
RTVSPost2010PropOp32
 70
     1
102
RTVSPost2010Prop33
280
     0
102
RTVSPost2010PropOp33
 70
     1
102
RTVSPost2010Prop34
280
     0
102
RTVSPost2010PropOp34
 70
     1
102
RTVSPost2010Prop35
280
     0
102
RTVSPost2010PropOp35
 70
     1
102
RTVSPost2010Prop36
280
     0
102
RTVSPost2010PropOp36
 70
     1
102
RTVSPost2010Prop37
 90
       50
102
RTVSPost2010PropOp37
 70
     1
102
RTVSPost2010Prop38
140
0.0
102
RTVSPost2010PropOp38
 70
     1
102
RTVSPost2010Prop39
140
1.0
102
RTVSPost2010PropOp39
 70
     1
102
RTVSPost2010Prop40
 90
        0
102
RTVSPost2010PropOp40
 70
     1
102
RTVSPost2010Prop41ColorIndex
 90
       18
102
RTVSPost2010Prop41ColorRGB
 90
        0
102
RTVSPost2010PropOp41
 70
     1
102
RTVSPost2010Prop42
 90
       50
102
RTVSPost2010PropOp42
 70
     1
102
RTVSPost2010Prop43
 90
        3
102
RTVSPost2010PropOp43
 70
     1
102
RTVSPost2010Prop44ColorIndex
 90
        5
102
RTVSPost2010Prop44ColorRGB
 90
      255
102
RTVSPost2010PropOp44
 70
     1
102
RTVSPost2010Prop45
280
     0
102
RTVSPost2010PropOp45
 70
     1
102
RTVSPost2010Prop46
 90
       50
102
RTVSPost2010PropOp46
 70
     1
102
RTVSPost2010Prop47
 90
       50
102
RTVSPost2010PropOp47
 70
     1
102
RTVSPost2010Prop48
 90
       50
102
RTVSPost2010PropOp48
 70
     1
102
RTVSPost2010Prop49
280
     0
102
RTVSPost2010PropOp49
 70
     1
102
RTVSPost2010Prop50
 90
       50
102
RTVSPost2010PropOp50
 70
     1
102
RTVSPost2010Prop51ColorIndex
 90
      256
102
RTVSPost2010Prop51ColorRGB
 90
-16777216
102
RTVSPost2010PropOp51
 70
     0
102
RTVSPost2010Prop52
140
1.0
102
RTVSPost2010PropOp52
 70
     0
102
RTVSPost2010Prop53
 90
        2
102
RTVSPost2010PropOp53
 70
     1
102
RTVSPost2010Prop54
  1
strokes_ogs.tif
102
RTVSPost2010PropOp54
 70
     1
102
RTVSPost2010Prop55
280
     0
102
RTVSPost2010PropOp55
 70
     1
102
RTVSPost2010Prop56
140
1.0
102
RTVSPost2010PropOp56
 70
     1
102
RTVSPost2010Prop57
140
1.0
102
RTVSPost2010PropOp57
 70
     1
102
RTVSPropertyOp0
 70
     1
102
RTVSPropertyOp1
 70
     1
102
RTVSPropertyOp2
 70
     1
102
RTVSPropertyOp3
 70
     1
102
RTVSPropertyOp4
 70
     1
102
RTVSPropertyOp5
 70
     1
102
RTVSPropertyOp6
 70
     1
102
RTVSPropertyOp7
 70
     1
102
RTVSPropertyOp8
 70
     1
102
RTVSPropertyOp9
 70
     1
102
RTVSPropertyOp10
 70
     1
102
RTVSPropertyOp11
 70
     1
102
RTVSPropertyOp12
 70
     1
102
RTVSPropertyOp13
 70
     1
102
RTVSPropertyOp14
 70
     1
102
RTVSPropertyOp15
 70
     1
102
RTVSPropertyOp16
 70
     1
102
RTVSPropertyOp17
 70
     1
102
RTVSPropertyOp18
 70
     1
102
RTVSPropertyOp19
 70
     1
102
RTVSPropertyOp20
 70
     1
102
RTVSPropertyOp21
 70
     1
102
RTVSPropertyOp22
 70
     1
102
RTVSPropertyOp23
 70
     1
102
RTVSPropertyOp24
 70
     1
102
RTVSPropertyOp25
 70
     1
102
RTVSPropertyOp26
 70
     1
102
RTVSPropertyOp27
 70
     1
102
RTVSPropertyOp28
 70
     1
102
RTVSPropertyOp29
 70
     1
102
RTVSPropertyOp30
 70
     1
102
RTVSPropertyOp31
 70
     1
102
RTVSPropertyOp32
 70
     1
102
RTVSPropertyOp33
 70
     1
102
RTVSPropertyOp34
 70
     1
102
RTVSPropertyOp35
 70
     1
102
RTVSPropertyOp36
 70
     1
102
RTVSPropertyOp37
 70
     1
102
RTVSPropertyOp38
 70
     1
102
RTVSPropertyOp39
 70
     1
102
RTVSPropertyOp40
 70
     1
102
RTVSPropertyOp41
 70
     1
102
RTVSPropertyOp42
 70
     1
102
RTVSPropertyOp43
 70
     1
102
RTVSPropertyOp44
 70
     1
102
RTVSPropertyOp45
 70
     1
102
RTVSPropertyOp46
 70
     1
102
RTVSPropertyOp47
 70
     1
102
RTVSPropertyOp48
 70
     1
102
RTVSPropertyOp49
 70
     1
102
RTVSPropertyOp50
 70
     1
102
RTVSPropertyOp51
 70
     0
102
RTVSPropertyOp52
 70
     0
102
RTVSPropertyOp53
 70
     1
102
RTVSPropertyOp54
 70
     1
102
RTVSPropertyOp55
 70
     1
102
RTVSPropertyOp56
 70
     1
102
RTVSPropertyOp57
 70
     1
102
RTVSPropertyOp58
 70
     1
102
RTVSPropertyOp59
 70
     1
102
RTVSPropertyOp60
 70
     1
102
RTVSPropertyOp61
 70
     1
102
RTVSPropertyOp62
 70
     1
  0
XRECORD
  5
84E
102
{ACAD_REACTORS
330
84D
102
}
330
84D
100
AcDbXrecord
280
     1
102
RTVSPost2010Prop28
280
     0
102
RTVSPost2010PropOp28
 70
     1
102
RTVSPost2010Prop29
280
     1
102
RTVSPost2010PropOp29
 70
     1
102
RTVSPost2010Prop30
280
     1
102
RTVSPost2010PropOp30
 70
     1
102
RTVSPost2010Prop31
280
     0
102
RTVSPost2010PropOp31
 70
     1
102
RTVSPost2010Prop32
280
     0
102
RTVSPost2010PropOp32
 70
     1
102
RTVSPost2010Prop33
280
     0
102
RTVSPost2010PropOp33
 70
     1
102
RTVSPost2010Prop34
280
     0
102
RTVSPost2010PropOp34
 70
     1
102
RTVSPost2010Prop35
280
     0
102
RTVSPost2010PropOp35
 70
     1
102
RTVSPost2010Prop36
280
     0
102
RTVSPost2010PropOp36
 70
     1
102
RTVSPost2010Prop37
 90
       50
102
RTVSPost2010PropOp37
 70
     1
102
RTVSPost2010Prop38
140
0.0
102
RTVSPost2010PropOp38
 70
     1
102
RTVSPost2010Prop39
140
1.0
102
RTVSPost2010PropOp39
 70
     1
102
RTVSPost2010Prop40
 90
        0
102
RTVSPost2010PropOp40
 70
     1
102
RTVSPost2010Prop41ColorIndex
 90
       18
102
RTVSPost2010Prop41ColorRGB
 90
        0
102
RTVSPost2010PropOp41
 70
     1
102
RTVSPost2010Prop42
 90
       50
102
RTVSPost2010PropOp42
 70
     1
102
RTVSPost2010Prop43
 90
        3
102
RTVSPost2010PropOp43
 70
     1
102
RTVSPost2010Prop44ColorIndex
 90
        5
102
RTVSPost2010Prop44ColorRGB
 90
      255
102
RTVSPost2010PropOp44
 70
     1
102
RTVSPost2010Prop45
280
     0
102
RTVSPost2010PropOp45
 70
     1
102
RTVSPost2010Prop46
 90
       50
102
RTVSPost2010PropOp46
 70
     1
102
RTVSPost2010Prop47
 90
       50
102
RTVSPost2010PropOp47
 70
     1
102
RTVSPost2010Prop48
 90
       50
102
RTVSPost2010PropOp48
 70
     1
102
RTVSPost2010Prop49
280
     0
102
RTVSPost2010PropOp49
 70
     1
102
RTVSPost2010Prop50
 90
       50
102
RTVSPost2010PropOp50
 70
     1
102
RTVSPost2010Prop51ColorIndex
 90
      256
102
RTVSPost2010Prop51ColorRGB
 90
-16777216
102
RTVSPost2010PropOp51
 70
     0
102
RTVSPost2010Prop52
140
1.0
102
RTVSPost2010PropOp52
 70
     0
102
RTVSPost2010Prop53
 90
        2
102
RTVSPost2010PropOp53
 70
     1
102
RTVSPost2010Prop54
  1
strokes_ogs.tif
102
RTVSPost2010PropOp54
 70
     1
102
RTVSPost2010Prop55
280
     0
102
RTVSPost2010PropOp55
 70
     1
102
RTVSPost2010Prop56
140
1.0
102
RTVSPost2010PropOp56
 70
     1
102
RTVSPost2010Prop57
140
1.0
102
RTVSPost2010PropOp57
 70
     1
102
RTVSPropertyOp0
 70
     1
102
RTVSPropertyOp1
 70
     1
102
RTVSPropertyOp2
 70
     1
102
RTVSPropertyOp3
 70
     1
102
RTVSPropertyOp4
 70
     1
102
RTVSPropertyOp5
 70
     1
102
RTVSPropertyOp6
 70
     1
102
RTVSPropertyOp7
 70
     1
102
RTVSPropertyOp8
 70
     1
102
RTVSPropertyOp9
 70
     1
102
RTVSPropertyOp10
 70
     1
102
RTVSPropertyOp11
 70
     1
102
RTVSPropertyOp12
 70
     1
102
RTVSPropertyOp13
 70
     1
102
RTVSPropertyOp14
 70
     1
102
RTVSPropertyOp15
 70
     1
102
RTVSPropertyOp16
 70
     1
102
RTVSPropertyOp17
 70
     1
102
RTVSPropertyOp18
 70
     1
102
RTVSPropertyOp19
 70
     1
102
RTVSPropertyOp20
 70
     1
102
RTVSPropertyOp21
 70
     1
102
RTVSPropertyOp22
 70
     1
102
RTVSPropertyOp23
 70
     1
102
RTVSPropertyOp24
 70
     1
102
RTVSPropertyOp25
 70
     1
102
RTVSPropertyOp26
 70
     1
102
RTVSPropertyOp27
 70
     1
102
RTVSPropertyOp28
 70
     1
102
RTVSPropertyOp29
 70
     1
102
RTVSPropertyOp30
 70
     1
102
RTVSPropertyOp31
 70
     1
102
RTVSPropertyOp32
 70
     1
102
RTVSPropertyOp33
 70
     1
102
RTVSPropertyOp34
 70
     1
102
RTVSPropertyOp35
 70
     1
102
RTVSPropertyOp36
 70
     1
102
RTVSPropertyOp37
 70
     1
102
RTVSPropertyOp38
 70
     1
102
RTVSPropertyOp39
 70
     1
102
RTVSPropertyOp40
 70
     1
102
RTVSPropertyOp41
 70
     1
102
RTVSPropertyOp42
 70
     1
102
RTVSPropertyOp43
 70
     1
102
RTVSPropertyOp44
 70
     1
102
RTVSPropertyOp45
 70
     1
102
RTVSPropertyOp46
 70
     1
102
RTVSPropertyOp47
 70
     1
102
RTVSPropertyOp48
 70
     1
102
RTVSPropertyOp49
 70
     1
102
RTVSPropertyOp50
 70
     1
102
RTVSPropertyOp51
 70
     0
102
RTVSPropertyOp52
 70
     0
102
RTVSPropertyOp53
 70
     1
102
RTVSPropertyOp54
 70
     1
102
RTVSPropertyOp55
 70
     1
102
RTVSPropertyOp56
 70
     1
102
RTVSPropertyOp57
 70
     1
102
RTVSPropertyOp58
 70
     1
102
RTVSPropertyOp59
 70
     1
102
RTVSPropertyOp60
 70
     1
102
RTVSPropertyOp61
 70
     1
102
RTVSPropertyOp62
 70
     1
  0
XRECORD
  5
856
102
{ACAD_REACTORS
330
855
102
}
330
855
100
AcDbXrecord
280
     1
102
RTVSPost2010Prop28
280
     0
102
RTVSPost2010PropOp28
 70
     1
102
RTVSPost2010Prop29
280
     1
102
RTVSPost2010PropOp29
 70
     1
102
RTVSPost2010Prop30
280
     1
102
RTVSPost2010PropOp30
 70
     1
102
RTVSPost2010Prop31
280
     0
102
RTVSPost2010PropOp31
 70
     1
102
RTVSPost2010Prop32
280
     0
102
RTVSPost2010PropOp32
 70
     1
102
RTVSPost2010Prop33
280
     0
102
RTVSPost2010PropOp33
 70
     1
102
RTVSPost2010Prop34
280
     0
102
RTVSPost2010PropOp34
 70
     1
102
RTVSPost2010Prop35
280
     0
102
RTVSPost2010PropOp35
 70
     1
102
RTVSPost2010Prop36
280
     0
102
RTVSPost2010PropOp36
 70
     1
102
RTVSPost2010Prop37
 90
       50
102
RTVSPost2010PropOp37
 70
     1
102
RTVSPost2010Prop38
140
0.0
102
RTVSPost2010PropOp38
 70
     1
102
RTVSPost2010Prop39
140
1.0
102
RTVSPost2010PropOp39
 70
     1
102
RTVSPost2010Prop40
 90
        0
102
RTVSPost2010PropOp40
 70
     1
102
RTVSPost2010Prop41ColorIndex
 90
       18
102
RTVSPost2010Prop41ColorRGB
 90
        0
102
RTVSPost2010PropOp41
 70
     1
102
RTVSPost2010Prop42
 90
       50
102
RTVSPost2010PropOp42
 70
     1
102
RTVSPost2010Prop43
 90
        3
102
RTVSPost2010PropOp43
 70
     1
102
RTVSPost2010Prop44ColorIndex
 90
        5
102
RTVSPost2010Prop44ColorRGB
 90
      255
102
RTVSPost2010PropOp44
 70
     1
102
RTVSPost2010Prop45
280
     0
102
RTVSPost2010PropOp45
 70
     1
102
RTVSPost2010Prop46
 90
       50
102
RTVSPost2010PropOp46
 70
     1
102
RTVSPost2010Prop47
 90
       50
102
RTVSPost2010PropOp47
 70
     1
102
RTVSPost2010Prop48
 90
       50
102
RTVSPost2010PropOp48
 70
     1
102
RTVSPost2010Prop49
280
     0
102
RTVSPost2010PropOp49
 70
     1
102
RTVSPost2010Prop50
 90
       50
102
RTVSPost2010PropOp50
 70
     1
102
RTVSPost2010Prop51ColorIndex
 90
      256
102
RTVSPost2010Prop51ColorRGB
 90
-16777216
102
RTVSPost2010PropOp51
 70
     0
102
RTVSPost2010Prop52
140
1.0
102
RTVSPost2010PropOp52
 70
     0
102
RTVSPost2010Prop53
 90
        2
102
RTVSPost2010PropOp53
 70
     1
102
RTVSPost2010Prop54
  1
strokes_ogs.tif
102
RTVSPost2010PropOp54
 70
     1
102
RTVSPost2010Prop55
280
     0
102
RTVSPost2010PropOp55
 70
     1
102
RTVSPost2010Prop56
140
1.0
102
RTVSPost2010PropOp56
 70
     1
102
RTVSPost2010Prop57
140
1.0
102
RTVSPost2010PropOp57
 70
     1
102
RTVSPropertyOp0
 70
     1
102
RTVSPropertyOp1
 70
     1
102
RTVSPropertyOp2
 70
     1
102
RTVSPropertyOp3
 70
     1
102
RTVSPropertyOp4
 70
     1
102
RTVSPropertyOp5
 70
     1
102
RTVSPropertyOp6
 70
     1
102
RTVSPropertyOp7
 70
     1
102
RTVSPropertyOp8
 70
     1
102
RTVSPropertyOp9
 70
     1
102
RTVSPropertyOp10
 70
     1
102
RTVSPropertyOp11
 70
     1
102
RTVSPropertyOp12
 70
     1
102
RTVSPropertyOp13
 70
     1
102
RTVSPropertyOp14
 70
     1
102
RTVSPropertyOp15
 70
     1
102
RTVSPropertyOp16
 70
     1
102
RTVSPropertyOp17
 70
     1
102
RTVSPropertyOp18
 70
     1
102
RTVSPropertyOp19
 70
     1
102
RTVSPropertyOp20
 70
     1
102
RTVSPropertyOp21
 70
     1
102
RTVSPropertyOp22
 70
     1
102
RTVSPropertyOp23
 70
     1
102
RTVSPropertyOp24
 70
     1
102
RTVSPropertyOp25
 70
     1
102
RTVSPropertyOp26
 70
     1
102
RTVSPropertyOp27
 70
     1
102
RTVSPropertyOp28
 70
     1
102
RTVSPropertyOp29
 70
     1
102
RTVSPropertyOp30
 70
     1
102
RTVSPropertyOp31
 70
     1
102
RTVSPropertyOp32
 70
     1
102
RTVSPropertyOp33
 70
     1
102
RTVSPropertyOp34
 70
     1
102
RTVSPropertyOp35
 70
     1
102
RTVSPropertyOp36
 70
     1
102
RTVSPropertyOp37
 70
     1
102
RTVSPropertyOp38
 70
     1
102
RTVSPropertyOp39
 70
     1
102
RTVSPropertyOp40
 70
     1
102
RTVSPropertyOp41
 70
     1
102
RTVSPropertyOp42
 70
     1
102
RTVSPropertyOp43
 70
     1
102
RTVSPropertyOp44
 70
     1
102
RTVSPropertyOp45
 70
     1
102
RTVSPropertyOp46
 70
     1
102
RTVSPropertyOp47
 70
     1
102
RTVSPropertyOp48
 70
     1
102
RTVSPropertyOp49
 70
     1
102
RTVSPropertyOp50
 70
     1
102
RTVSPropertyOp51
 70
     0
102
RTVSPropertyOp52
 70
     0
102
RTVSPropertyOp53
 70
     1
102
RTVSPropertyOp54
 70
     1
102
RTVSPropertyOp55
 70
     1
102
RTVSPropertyOp56
 70
     1
102
RTVSPropertyOp57
 70
     1
102
RTVSPropertyOp58
 70
     1
102
RTVSPropertyOp59
 70
     1
102
RTVSPropertyOp60
 70
     1
102
RTVSPropertyOp61
 70
     1
102
RTVSPropertyOp62
 70
     1
  0
XRECORD
  5
848
102
{ACAD_REACTORS
330
847
102
}
330
847
100
AcDbXrecord
280
     1
102
RTVSPost2010Prop28
280
     0
102
RTVSPost2010PropOp28
 70
     1
102
RTVSPost2010Prop29
280
     1
102
RTVSPost2010PropOp29
 70
     1
102
RTVSPost2010Prop30
280
     1
102
RTVSPost2010PropOp30
 70
     1
102
RTVSPost2010Prop31
280
     0
102
RTVSPost2010PropOp31
 70
     1
102
RTVSPost2010Prop32
280
     0
102
RTVSPost2010PropOp32
 70
     1
102
RTVSPost2010Prop33
280
     0
102
RTVSPost2010PropOp33
 70
     1
102
RTVSPost2010Prop34
280
     0
102
RTVSPost2010PropOp34
 70
     1
102
RTVSPost2010Prop35
280
     0
102
RTVSPost2010PropOp35
 70
     1
102
RTVSPost2010Prop36
280
     0
102
RTVSPost2010PropOp36
 70
     1
102
RTVSPost2010Prop37
 90
       50
102
RTVSPost2010PropOp37
 70
     1
102
RTVSPost2010Prop38
140
0.0
102
RTVSPost2010PropOp38
 70
     1
102
RTVSPost2010Prop39
140
1.0
102
RTVSPost2010PropOp39
 70
     1
102
RTVSPost2010Prop40
 90
        0
102
RTVSPost2010PropOp40
 70
     1
102
RTVSPost2010Prop41ColorIndex
 90
       18
102
RTVSPost2010Prop41ColorRGB
 90
        0
102
RTVSPost2010PropOp41
 70
     1
102
RTVSPost2010Prop42
 90
       50
102
RTVSPost2010PropOp42
 70
     1
102
RTVSPost2010Prop43
 90
        3
102
RTVSPost2010PropOp43
 70
     1
102
RTVSPost2010Prop44ColorIndex
 90
        5
102
RTVSPost2010Prop44ColorRGB
 90
      255
102
RTVSPost2010PropOp44
 70
     1
102
RTVSPost2010Prop45
280
     0
102
RTVSPost2010PropOp45
 70
     1
102
RTVSPost2010Prop46
 90
       50
102
RTVSPost2010PropOp46
 70
     1
102
RTVSPost2010Prop47
 90
       50
102
RTVSPost2010PropOp47
 70
     1
102
RTVSPost2010Prop48
 90
       50
102
RTVSPost2010PropOp48
 70
     1
102
RTVSPost2010Prop49
280
     0
102
RTVSPost2010PropOp49
 70
     1
102
RTVSPost2010Prop50
 90
       50
102
RTVSPost2010PropOp50
 70
     1
102
RTVSPost2010Prop51ColorIndex
 90
      256
102
RTVSPost2010Prop51ColorRGB
 90
-16777216
102
RTVSPost2010PropOp51
 70
     0
102
RTVSPost2010Prop52
140
1.0
102
RTVSPost2010PropOp52
 70
     0
102
RTVSPost2010Prop53
 90
        2
102
RTVSPost2010PropOp53
 70
     1
102
RTVSPost2010Prop54
  1
strokes_ogs.tif
102
RTVSPost2010PropOp54
 70
     1
102
RTVSPost2010Prop55
280
     0
102
RTVSPost2010PropOp55
 70
     1
102
RTVSPost2010Prop56
140
1.0
102
RTVSPost2010PropOp56
 70
     1
102
RTVSPost2010Prop57
140
1.0
102
RTVSPost2010PropOp57
 70
     1
102
RTVSPropertyOp0
 70
     1
102
RTVSPropertyOp1
 70
     1
102
RTVSPropertyOp2
 70
     1
102
RTVSPropertyOp3
 70
     1
102
RTVSPropertyOp4
 70
     1
102
RTVSPropertyOp5
 70
     1
102
RTVSPropertyOp6
 70
     1
102
RTVSPropertyOp7
 70
     1
102
RTVSPropertyOp8
 70
     1
102
RTVSPropertyOp9
 70
     1
102
RTVSPropertyOp10
 70
     1
102
RTVSPropertyOp11
 70
     1
102
RTVSPropertyOp12
 70
     1
102
RTVSPropertyOp13
 70
     1
102
RTVSPropertyOp14
 70
     1
102
RTVSPropertyOp15
 70
     1
102
RTVSPropertyOp16
 70
     1
102
RTVSPropertyOp17
 70
     1
102
RTVSPropertyOp18
 70
     1
102
RTVSPropertyOp19
 70
     1
102
RTVSPropertyOp20
 70
     1
102
RTVSPropertyOp21
 70
     1
102
RTVSPropertyOp22
 70
     1
102
RTVSPropertyOp23
 70
     1
102
RTVSPropertyOp24
 70
     1
102
RTVSPropertyOp25
 70
     1
102
RTVSPropertyOp26
 70
     1
102
RTVSPropertyOp27
 70
     1
102
RTVSPropertyOp28
 70
     1
102
RTVSPropertyOp29
 70
     1
102
RTVSPropertyOp30
 70
     1
102
RTVSPropertyOp31
 70
     1
102
RTVSPropertyOp32
 70
     1
102
RTVSPropertyOp33
 70
     1
102
RTVSPropertyOp34
 70
     1
102
RTVSPropertyOp35
 70
     1
102
RTVSPropertyOp36
 70
     1
102
RTVSPropertyOp37
 70
     1
102
RTVSPropertyOp38
 70
     1
102
RTVSPropertyOp39
 70
     1
102
RTVSPropertyOp40
 70
     1
102
RTVSPropertyOp41
 70
     1
102
RTVSPropertyOp42
 70
     1
102
RTVSPropertyOp43
 70
     1
102
RTVSPropertyOp44
 70
     1
102
RTVSPropertyOp45
 70
     1
102
RTVSPropertyOp46
 70
     1
102
RTVSPropertyOp47
 70
     1
102
RTVSPropertyOp48
 70
     1
102
RTVSPropertyOp49
 70
     1
102
RTVSPropertyOp50
 70
     1
102
RTVSPropertyOp51
 70
     0
102
RTVSPropertyOp52
 70
     0
102
RTVSPropertyOp53
 70
     1
102
RTVSPropertyOp54
 70
     1
102
RTVSPropertyOp55
 70
     1
102
RTVSPropertyOp56
 70
     1
102
RTVSPropertyOp57
 70
     1
102
RTVSPropertyOp58
 70
     1
102
RTVSPropertyOp59
 70
     1
102
RTVSPropertyOp60
 70
     1
102
RTVSPropertyOp61
 70
     1
102
RTVSPropertyOp62
 70
     1
  0
XRECORD
  5
84C
102
{ACAD_REACTORS
330
84B
102
}
330
84B
100
AcDbXrecord
280
     1
102
RTVSPost2010Prop28
280
     0
102
RTVSPost2010PropOp28
 70
     1
102
RTVSPost2010Prop29
280
     1
102
RTVSPost2010PropOp29
 70
     1
102
RTVSPost2010Prop30
280
     1
102
RTVSPost2010PropOp30
 70
     1
102
RTVSPost2010Prop31
280
     0
102
RTVSPost2010PropOp31
 70
     1
102
RTVSPost2010Prop32
280
     0
102
RTVSPost2010PropOp32
 70
     1
102
RTVSPost2010Prop33
280
     0
102
RTVSPost2010PropOp33
 70
     1
102
RTVSPost2010Prop34
280
     0
102
RTVSPost2010PropOp34
 70
     1
102
RTVSPost2010Prop35
280
     0
102
RTVSPost2010PropOp35
 70
     1
102
RTVSPost2010Prop36
280
     0
102
RTVSPost2010PropOp36
 70
     1
102
RTVSPost2010Prop37
 90
       50
102
RTVSPost2010PropOp37
 70
     1
102
RTVSPost2010Prop38
140
0.0
102
RTVSPost2010PropOp38
 70
     1
102
RTVSPost2010Prop39
140
1.0
102
RTVSPost2010PropOp39
 70
     1
102
RTVSPost2010Prop40
 90
        0
102
RTVSPost2010PropOp40
 70
     1
102
RTVSPost2010Prop41ColorIndex
 90
       18
102
RTVSPost2010Prop41ColorRGB
 90
        0
102
RTVSPost2010PropOp41
 70
     1
102
RTVSPost2010Prop42
 90
       50
102
RTVSPost2010PropOp42
 70
     1
102
RTVSPost2010Prop43
 90
        3
102
RTVSPost2010PropOp43
 70
     1
102
RTVSPost2010Prop44ColorIndex
 90
        5
102
RTVSPost2010Prop44ColorRGB
 90
      255
102
RTVSPost2010PropOp44
 70
     1
102
RTVSPost2010Prop45
280
     0
102
RTVSPost2010PropOp45
 70
     1
102
RTVSPost2010Prop46
 90
       50
102
RTVSPost2010PropOp46
 70
     1
102
RTVSPost2010Prop47
 90
       50
102
RTVSPost2010PropOp47
 70
     1
102
RTVSPost2010Prop48
 90
       50
102
RTVSPost2010PropOp48
 70
     1
102
RTVSPost2010Prop49
280
     0
102
RTVSPost2010PropOp49
 70
     1
102
RTVSPost2010Prop50
 90
       50
102
RTVSPost2010PropOp50
 70
     1
102
RTVSPost2010Prop51ColorIndex
 90
      256
102
RTVSPost2010Prop51ColorRGB
 90
-16777216
102
RTVSPost2010PropOp51
 70
     0
102
RTVSPost2010Prop52
140
1.0
102
RTVSPost2010PropOp52
 70
     0
102
RTVSPost2010Prop53
 90
        2
102
RTVSPost2010PropOp53
 70
     1
102
RTVSPost2010Prop54
  1
strokes_ogs.tif
102
RTVSPost2010PropOp54
 70
     1
102
RTVSPost2010Prop55
280
     0
102
RTVSPost2010PropOp55
 70
     1
102
RTVSPost2010Prop56
140
1.0
102
RTVSPost2010PropOp56
 70
     1
102
RTVSPost2010Prop57
140
1.0
102
RTVSPost2010PropOp57
 70
     1
102
RTVSPropertyOp0
 70
     1
102
RTVSPropertyOp1
 70
     1
102
RTVSPropertyOp2
 70
     1
102
RTVSPropertyOp3
 70
     1
102
RTVSPropertyOp4
 70
     1
102
RTVSPropertyOp5
 70
     1
102
RTVSPropertyOp6
 70
     1
102
RTVSPropertyOp7
 70
     1
102
RTVSPropertyOp8
 70
     1
102
RTVSPropertyOp9
 70
     1
102
RTVSPropertyOp10
 70
     1
102
RTVSPropertyOp11
 70
     1
102
RTVSPropertyOp12
 70
     1
102
RTVSPropertyOp13
 70
     1
102
RTVSPropertyOp14
 70
     1
102
RTVSPropertyOp15
 70
     1
102
RTVSPropertyOp16
 70
     1
102
RTVSPropertyOp17
 70
     1
102
RTVSPropertyOp18
 70
     1
102
RTVSPropertyOp19
 70
     1
102
RTVSPropertyOp20
 70
     1
102
RTVSPropertyOp21
 70
     1
102
RTVSPropertyOp22
 70
     1
102
RTVSPropertyOp23
 70
     1
102
RTVSPropertyOp24
 70
     1
102
RTVSPropertyOp25
 70
     1
102
RTVSPropertyOp26
 70
     1
102
RTVSPropertyOp27
 70
     1
102
RTVSPropertyOp28
 70
     1
102
RTVSPropertyOp29
 70
     1
102
RTVSPropertyOp30
 70
     1
102
RTVSPropertyOp31
 70
     1
102
RTVSPropertyOp32
 70
     1
102
RTVSPropertyOp33
 70
     1
102
RTVSPropertyOp34
 70
     1
102
RTVSPropertyOp35
 70
     1
102
RTVSPropertyOp36
 70
     1
102
RTVSPropertyOp37
 70
     1
102
RTVSPropertyOp38
 70
     1
102
RTVSPropertyOp39
 70
     1
102
RTVSPropertyOp40
 70
     1
102
RTVSPropertyOp41
 70
     1
102
RTVSPropertyOp42
 70
     1
102
RTVSPropertyOp43
 70
     1
102
RTVSPropertyOp44
 70
     1
102
RTVSPropertyOp45
 70
     1
102
RTVSPropertyOp46
 70
     1
102
RTVSPropertyOp47
 70
     1
102
RTVSPropertyOp48
 70
     1
102
RTVSPropertyOp49
 70
     1
102
RTVSPropertyOp50
 70
     1
102
RTVSPropertyOp51
 70
     0
102
RTVSPropertyOp52
 70
     0
102
RTVSPropertyOp53
 70
     1
102
RTVSPropertyOp54
 70
     1
102
RTVSPropertyOp55
 70
     1
102
RTVSPropertyOp56
 70
     1
102
RTVSPropertyOp57
 70
     1
102
RTVSPropertyOp58
 70
     1
102
RTVSPropertyOp59
 70
     1
102
RTVSPropertyOp60
 70
     1
102
RTVSPropertyOp61
 70
     1
102
RTVSPropertyOp62
 70
     1
  0
XRECORD
  5
866
102
{ACAD_REACTORS
330
865
102
}
330
865
100
AcDbXrecord
280
     1
102
RTVSPost2010Prop28
280
     0
102
RTVSPost2010PropOp28
 70
     1
102
RTVSPost2010Prop29
280
     1
102
RTVSPost2010PropOp29
 70
     1
102
RTVSPost2010Prop30
280
     1
102
RTVSPost2010PropOp30
 70
     1
102
RTVSPost2010Prop31
280
     0
102
RTVSPost2010PropOp31
 70
     1
102
RTVSPost2010Prop32
280
     0
102
RTVSPost2010PropOp32
 70
     1
102
RTVSPost2010Prop33
280
     0
102
RTVSPost2010PropOp33
 70
     1
102
RTVSPost2010Prop34
280
     0
102
RTVSPost2010PropOp34
 70
     1
102
RTVSPost2010Prop35
280
     0
102
RTVSPost2010PropOp35
 70
     1
102
RTVSPost2010Prop36
280
     0
102
RTVSPost2010PropOp36
 70
     1
102
RTVSPost2010Prop37
 90
       50
102
RTVSPost2010PropOp37
 70
     0
102
RTVSPost2010Prop38
140
0.0
102
RTVSPost2010PropOp38
 70
     0
102
RTVSPost2010Prop39
140
1.0
102
RTVSPost2010PropOp39
 70
     0
102
RTVSPost2010Prop40
 90
        0
102
RTVSPost2010PropOp40
 70
     0
102
RTVSPost2010Prop41ColorIndex
 90
       18
102
RTVSPost2010Prop41ColorRGB
 90
        0
102
RTVSPost2010PropOp41
 70
     0
102
RTVSPost2010Prop42
 90
       50
102
RTVSPost2010PropOp42
 70
     0
102
RTVSPost2010Prop43
 90
        3
102
RTVSPost2010PropOp43
 70
     0
102
RTVSPost2010Prop44ColorIndex
 90
        5
102
RTVSPost2010Prop44ColorRGB
 90
      255
102
RTVSPost2010PropOp44
 70
     0
102
RTVSPost2010Prop45
280
     0
102
RTVSPost2010PropOp45
 70
     1
102
RTVSPost2010Prop46
 90
       50
102
RTVSPost2010PropOp46
 70
     0
102
RTVSPost2010Prop47
 90
       50
102
RTVSPost2010PropOp47
 70
     0
102
RTVSPost2010Prop48
 90
       50
102
RTVSPost2010PropOp48
 70
     0
102
RTVSPost2010Prop49
280
     0
102
RTVSPost2010PropOp49
 70
     1
102
RTVSPost2010Prop50
 90
       50
102
RTVSPost2010PropOp50
 70
     0
102
RTVSPost2010Prop51ColorIndex
 90
      256
102
RTVSPost2010Prop51ColorRGB
 90
-16777216
102
RTVSPost2010PropOp51
 70
     0
102
RTVSPost2010Prop52
140
1.0
102
RTVSPost2010PropOp52
 70
     0
102
RTVSPost2010Prop53
 90
        2
102
RTVSPost2010PropOp53
 70
     0
102
RTVSPost2010Prop54
  1
strokes_ogs.tif
102
RTVSPost2010PropOp54
 70
     0
102
RTVSPost2010Prop55
280
     0
102
RTVSPost2010PropOp55
 70
     1
102
RTVSPost2010Prop56
140
1.0
102
RTVSPost2010PropOp56
 70
     0
102
RTVSPost2010Prop57
140
1.0
102
RTVSPost2010PropOp57
 70
     0
102
RTVSPropertyOp0
 70
     0
102
RTVSPropertyOp1
 70
     0
102
RTVSPropertyOp2
 70
     0
102
RTVSPropertyOp3
 70
     0
102
RTVSPropertyOp4
 70
     0
102
RTVSPropertyOp5
 70
     0
102
RTVSPropertyOp6
 70
     0
102
RTVSPropertyOp7
 70
     0
102
RTVSPropertyOp8
 70
     0
102
RTVSPropertyOp9
 70
     0
102
RTVSPropertyOp10
 70
     0
102
RTVSPropertyOp11
 70
     0
102
RTVSPropertyOp12
 70
     0
102
RTVSPropertyOp13
 70
     0
102
RTVSPropertyOp14
 70
     2
102
RTVSPropertyOp15
 70
     0
102
RTVSPropertyOp16
 70
     0
102
RTVSPropertyOp17
 70
     0
102
RTVSPropertyOp18
 70
     0
102
RTVSPropertyOp19
 70
     0
102
RTVSPropertyOp20
 70
     0
102
RTVSPropertyOp21
 70
     0
102
RTVSPropertyOp22
 70
     0
102
RTVSPropertyOp23
 70
     0
102
RTVSPropertyOp24
 70
     0
102
RTVSPropertyOp25
 70
     0
102
RTVSPropertyOp26
 70
     0
102
RTVSPropertyOp27
 70
     0
102
RTVSPropertyOp28
 70
     1
102
RTVSPropertyOp29
 70
     1
102
RTVSPropertyOp30
 70
     1
102
RTVSPropertyOp31
 70
     1
102
RTVSPropertyOp32
 70
     1
102
RTVSPropertyOp33
 70
     1
102
RTVSPropertyOp34
 70
     1
102
RTVSPropertyOp35
 70
     1
102
RTVSPropertyOp36
 70
     1
102
RTVSPropertyOp37
 70
     0
102
RTVSPropertyOp38
 70
     0
102
RTVSPropertyOp39
 70
     0
102
RTVSPropertyOp40
 70
     0
102
RTVSPropertyOp41
 70
     0
102
RTVSPropertyOp42
 70
     0
102
RTVSPropertyOp43
 70
     0
102
RTVSPropertyOp44
 70
     0
102
RTVSPropertyOp45
 70
     1
102
RTVSPropertyOp46
 70
     0
102
RTVSPropertyOp47
 70
     0
102
RTVSPropertyOp48
 70
     0
102
RTVSPropertyOp49
 70
     1
102
RTVSPropertyOp50
 70
     0
102
RTVSPropertyOp51
 70
     0
102
RTVSPropertyOp52
 70
     0
102
RTVSPropertyOp53
 70
     0
102
RTVSPropertyOp54
 70
     0
102
RTVSPropertyOp55
 70
     1
102
RTVSPropertyOp56
 70
     0
102
RTVSPropertyOp57
 70
     0
102
RTVSPropertyOp58
 70
     0
102
RTVSPropertyOp59
 70
     0
102
RTVSPropertyOp60
 70
     0
102
RTVSPropertyOp61
 70
     0
102
RTVSPropertyOp62
 70
     0
  0
XRECORD
  5
854
102
{ACAD_REACTORS
330
853
102
}
330
853
100
AcDbXrecord
280
     1
102
RTVSPost2010Prop28
280
     0
102
RTVSPost2010PropOp28
 70
     1
102
RTVSPost2010Prop29
280
     1
102
RTVSPost2010PropOp29
 70
     1
102
RTVSPost2010Prop30
280
     1
102
RTVSPost2010PropOp30
 70
     1
102
RTVSPost2010Prop31
280
     0
102
RTVSPost2010PropOp31
 70
     1
102
RTVSPost2010Prop32
280
     0
102
RTVSPost2010PropOp32
 70
     1
102
RTVSPost2010Prop33
280
     0
102
RTVSPost2010PropOp33
 70
     1
102
RTVSPost2010Prop34
280
     0
102
RTVSPost2010PropOp34
 70
     1
102
RTVSPost2010Prop35
280
     0
102
RTVSPost2010PropOp35
 70
     1
102
RTVSPost2010Prop36
280
     0
102
RTVSPost2010PropOp36
 70
     1
102
RTVSPost2010Prop37
 90
       50
102
RTVSPost2010PropOp37
 70
     1
102
RTVSPost2010Prop38
140
0.0
102
RTVSPost2010PropOp38
 70
     1
102
RTVSPost2010Prop39
140
1.0
102
RTVSPost2010PropOp39
 70
     1
102
RTVSPost2010Prop40
 90
        0
102
RTVSPost2010PropOp40
 70
     1
102
RTVSPost2010Prop41ColorIndex
 90
       18
102
RTVSPost2010Prop41ColorRGB
 90
        0
102
RTVSPost2010PropOp41
 70
     1
102
RTVSPost2010Prop42
 90
       50
102
RTVSPost2010PropOp42
 70
     1
102
RTVSPost2010Prop43
 90
        3
102
RTVSPost2010PropOp43
 70
     1
102
RTVSPost2010Prop44ColorIndex
 90
        5
102
RTVSPost2010Prop44ColorRGB
 90
      255
102
RTVSPost2010PropOp44
 70
     1
102
RTVSPost2010Prop45
280
     0
102
RTVSPost2010PropOp45
 70
     1
102
RTVSPost2010Prop46
 90
       50
102
RTVSPost2010PropOp46
 70
     1
102
RTVSPost2010Prop47
 90
       50
102
RTVSPost2010PropOp47
 70
     1
102
RTVSPost2010Prop48
 90
       50
102
RTVSPost2010PropOp48
 70
     1
102
RTVSPost2010Prop49
280
     0
102
RTVSPost2010PropOp49
 70
     1
102
RTVSPost2010Prop50
 90
       50
102
RTVSPost2010PropOp50
 70
     1
102
RTVSPost2010Prop51ColorIndex
 90
      256
102
RTVSPost2010Prop51ColorRGB
 90
-16777216
102
RTVSPost2010PropOp51
 70
     0
102
RTVSPost2010Prop52
140
1.0
102
RTVSPost2010PropOp52
 70
     0
102
RTVSPost2010Prop53
 90
        2
102
RTVSPost2010PropOp53
 70
     1
102
RTVSPost2010Prop54
  1
strokes_ogs.tif
102
RTVSPost2010PropOp54
 70
     1
102
RTVSPost2010Prop55
280
     0
102
RTVSPost2010PropOp55
 70
     1
102
RTVSPost2010Prop56
140
1.0
102
RTVSPost2010PropOp56
 70
     1
102
RTVSPost2010Prop57
140
1.0
102
RTVSPost2010PropOp57
 70
     1
102
RTVSPropertyOp0
 70
     1
102
RTVSPropertyOp1
 70
     1
102
RTVSPropertyOp2
 70
     1
102
RTVSPropertyOp3
 70
     1
102
RTVSPropertyOp4
 70
     1
102
RTVSPropertyOp5
 70
     1
102
RTVSPropertyOp6
 70
     1
102
RTVSPropertyOp7
 70
     1
102
RTVSPropertyOp8
 70
     1
102
RTVSPropertyOp9
 70
     1
102
RTVSPropertyOp10
 70
     1
102
RTVSPropertyOp11
 70
     1
102
RTVSPropertyOp12
 70
     1
102
RTVSPropertyOp13
 70
     1
102
RTVSPropertyOp14
 70
     1
102
RTVSPropertyOp15
 70
     1
102
RTVSPropertyOp16
 70
     1
102
RTVSPropertyOp17
 70
     1
102
RTVSPropertyOp18
 70
     1
102
RTVSPropertyOp19
 70
     1
102
RTVSPropertyOp20
 70
     1
102
RTVSPropertyOp21
 70
     1
102
RTVSPropertyOp22
 70
     1
102
RTVSPropertyOp23
 70
     1
102
RTVSPropertyOp24
 70
     1
102
RTVSPropertyOp25
 70
     1
102
RTVSPropertyOp26
 70
     1
102
RTVSPropertyOp27
 70
     1
102
RTVSPropertyOp28
 70
     1
102
RTVSPropertyOp29
 70
     1
102
RTVSPropertyOp30
 70
     1
102
RTVSPropertyOp31
 70
     1
102
RTVSPropertyOp32
 70
     1
102
RTVSPropertyOp33
 70
     1
102
RTVSPropertyOp34
 70
     1
102
RTVSPropertyOp35
 70
     1
102
RTVSPropertyOp36
 70
     1
102
RTVSPropertyOp37
 70
     1
102
RTVSPropertyOp38
 70
     1
102
RTVSPropertyOp39
 70
     1
102
RTVSPropertyOp40
 70
     1
102
RTVSPropertyOp41
 70
     1
102
RTVSPropertyOp42
 70
     1
102
RTVSPropertyOp43
 70
     1
102
RTVSPropertyOp44
 70
     1
102
RTVSPropertyOp45
 70
     1
102
RTVSPropertyOp46
 70
     1
102
RTVSPropertyOp47
 70
     1
102
RTVSPropertyOp48
 70
     1
102
RTVSPropertyOp49
 70
     1
102
RTVSPropertyOp50
 70
     1
102
RTVSPropertyOp51
 70
     0
102
RTVSPropertyOp52
 70
     0
102
RTVSPropertyOp53
 70
     1
102
RTVSPropertyOp54
 70
     1
102
RTVSPropertyOp55
 70
     1
102
RTVSPropertyOp56
 70
     1
102
RTVSPropertyOp57
 70
     1
102
RTVSPropertyOp58
 70
     1
102
RTVSPropertyOp59
 70
     1
102
RTVSPropertyOp60
 70
     1
102
RTVSPropertyOp61
 70
     1
102
RTVSPropertyOp62
 70
     1
  0
XRECORD
  5
838
102
{ACAD_REACTORS
330
837
102
}
330
837
100
AcDbXrecord
280
     1
102
RTVSPost2010Prop28
280
     0
102
RTVSPost2010PropOp28
 70
     1
102
RTVSPost2010Prop29
280
     1
102
RTVSPost2010PropOp29
 70
     1
102
RTVSPost2010Prop30
280
     1
102
RTVSPost2010PropOp30
 70
     1
102
RTVSPost2010Prop31
280
     0
102
RTVSPost2010PropOp31
 70
     1
102
RTVSPost2010Prop32
280
     0
102
RTVSPost2010PropOp32
 70
     1
102
RTVSPost2010Prop33
280
     0
102
RTVSPost2010PropOp33
 70
     1
102
RTVSPost2010Prop34
280
     0
102
RTVSPost2010PropOp34
 70
     1
102
RTVSPost2010Prop35
280
     0
102
RTVSPost2010PropOp35
 70
     1
102
RTVSPost2010Prop36
280
     0
102
RTVSPost2010PropOp36
 70
     1
102
RTVSPost2010Prop37
 90
       50
102
RTVSPost2010PropOp37
 70
     1
102
RTVSPost2010Prop38
140
0.0
102
RTVSPost2010PropOp38
 70
     1
102
RTVSPost2010Prop39
140
1.0
102
RTVSPost2010PropOp39
 70
     1
102
RTVSPost2010Prop40
 90
        0
102
RTVSPost2010PropOp40
 70
     1
102
RTVSPost2010Prop41ColorIndex
 90
       18
102
RTVSPost2010Prop41ColorRGB
 90
        0
102
RTVSPost2010PropOp41
 70
     1
102
RTVSPost2010Prop42
 90
       50
102
RTVSPost2010PropOp42
 70
     1
102
RTVSPost2010Prop43
 90
        3
102
RTVSPost2010PropOp43
 70
     1
102
RTVSPost2010Prop44ColorIndex
 90
        5
102
RTVSPost2010Prop44ColorRGB
 90
      255
102
RTVSPost2010PropOp44
 70
     1
102
RTVSPost2010Prop45
280
     0
102
RTVSPost2010PropOp45
 70
     1
102
RTVSPost2010Prop46
 90
       50
102
RTVSPost2010PropOp46
 70
     1
102
RTVSPost2010Prop47
 90
       50
102
RTVSPost2010PropOp47
 70
     1
102
RTVSPost2010Prop48
 90
       50
102
RTVSPost2010PropOp48
 70
     1
102
RTVSPost2010Prop49
280
     0
102
RTVSPost2010PropOp49
 70
     1
102
RTVSPost2010Prop50
 90
       50
102
RTVSPost2010PropOp50
 70
     1
102
RTVSPost2010Prop51ColorIndex
 90
      256
102
RTVSPost2010Prop51ColorRGB
 90
-16777216
102
RTVSPost2010PropOp51
 70
     0
102
RTVSPost2010Prop52
140
1.0
102
RTVSPost2010PropOp52
 70
     0
102
RTVSPost2010Prop53
 90
        2
102
RTVSPost2010PropOp53
 70
     1
102
RTVSPost2010Prop54
  1
strokes_ogs.tif
102
RTVSPost2010PropOp54
 70
     1
102
RTVSPost2010Prop55
280
     0
102
RTVSPost2010PropOp55
 70
     1
102
RTVSPost2010Prop56
140
1.0
102
RTVSPost2010PropOp56
 70
     1
102
RTVSPost2010Prop57
140
1.0
102
RTVSPost2010PropOp57
 70
     1
102
RTVSPropertyOp0
 70
     1
102
RTVSPropertyOp1
 70
     1
102
RTVSPropertyOp2
 70
     1
102
RTVSPropertyOp3
 70
     1
102
RTVSPropertyOp4
 70
     1
102
RTVSPropertyOp5
 70
     1
102
RTVSPropertyOp6
 70
     1
102
RTVSPropertyOp7
 70
     1
102
RTVSPropertyOp8
 70
     1
102
RTVSPropertyOp9
 70
     1
102
RTVSPropertyOp10
 70
     1
102
RTVSPropertyOp11
 70
     1
102
RTVSPropertyOp12
 70
     1
102
RTVSPropertyOp13
 70
     1
102
RTVSPropertyOp14
 70
     1
102
RTVSPropertyOp15
 70
     1
102
RTVSPropertyOp16
 70
     1
102
RTVSPropertyOp17
 70
     1
102
RTVSPropertyOp18
 70
     1
102
RTVSPropertyOp19
 70
     1
102
RTVSPropertyOp20
 70
     1
102
RTVSPropertyOp21
 70
     1
102
RTVSPropertyOp22
 70
     1
102
RTVSPropertyOp23
 70
     1
102
RTVSPropertyOp24
 70
     1
102
RTVSPropertyOp25
 70
     1
102
RTVSPropertyOp26
 70
     1
102
RTVSPropertyOp27
 70
     1
102
RTVSPropertyOp28
 70
     1
102
RTVSPropertyOp29
 70
     1
102
RTVSPropertyOp30
 70
     1
102
RTVSPropertyOp31
 70
     1
102
RTVSPropertyOp32
 70
     1
102
RTVSPropertyOp33
 70
     1
102
RTVSPropertyOp34
 70
     1
102
RTVSPropertyOp35
 70
     1
102
RTVSPropertyOp36
 70
     1
102
RTVSPropertyOp37
 70
     1
102
RTVSPropertyOp38
 70
     1
102
RTVSPropertyOp39
 70
     1
102
RTVSPropertyOp40
 70
     1
102
RTVSPropertyOp41
 70
     1
102
RTVSPropertyOp42
 70
     1
102
RTVSPropertyOp43
 70
     1
102
RTVSPropertyOp44
 70
     1
102
RTVSPropertyOp45
 70
     1
102
RTVSPropertyOp46
 70
     1
102
RTVSPropertyOp47
 70
     1
102
RTVSPropertyOp48
 70
     1
102
RTVSPropertyOp49
 70
     1
102
RTVSPropertyOp50
 70
     1
102
RTVSPropertyOp51
 70
     0
102
RTVSPropertyOp52
 70
     0
102
RTVSPropertyOp53
 70
     1
102
RTVSPropertyOp54
 70
     1
102
RTVSPropertyOp55
 70
     1
102
RTVSPropertyOp56
 70
     1
102
RTVSPropertyOp57
 70
     1
102
RTVSPropertyOp58
 70
     1
102
RTVSPropertyOp59
 70
     1
102
RTVSPropertyOp60
 70
     1
102
RTVSPropertyOp61
 70
     1
102
RTVSPropertyOp62
 70
     1
  0
XRECORD
  5
83A
102
{ACAD_REACTORS
330
839
102
}
330
839
100
AcDbXrecord
280
     1
102
RTVSPost2010Prop28
280
     0
102
RTVSPost2010PropOp28
 70
     1
102
RTVSPost2010Prop29
280
     1
102
RTVSPost2010PropOp29
 70
     1
102
RTVSPost2010Prop30
280
     1
102
RTVSPost2010PropOp30
 70
     1
102
RTVSPost2010Prop31
280
     0
102
RTVSPost2010PropOp31
 70
     1
102
RTVSPost2010Prop32
280
     0
102
RTVSPost2010PropOp32
 70
     1
102
RTVSPost2010Prop33
280
     0
102
RTVSPost2010PropOp33
 70
     1
102
RTVSPost2010Prop34
280
     0
102
RTVSPost2010PropOp34
 70
     1
102
RTVSPost2010Prop35
280
     0
102
RTVSPost2010PropOp35
 70
     1
102
RTVSPost2010Prop36
280
     0
102
RTVSPost2010PropOp36
 70
     1
102
RTVSPost2010Prop37
 90
       50
102
RTVSPost2010PropOp37
 70
     1
102
RTVSPost2010Prop38
140
0.0
102
RTVSPost2010PropOp38
 70
     1
102
RTVSPost2010Prop39
140
1.0
102
RTVSPost2010PropOp39
 70
     1
102
RTVSPost2010Prop40
 90
        0
102
RTVSPost2010PropOp40
 70
     1
102
RTVSPost2010Prop41ColorIndex
 90
       18
102
RTVSPost2010Prop41ColorRGB
 90
        0
102
RTVSPost2010PropOp41
 70
     1
102
RTVSPost2010Prop42
 90
       50
102
RTVSPost2010PropOp42
 70
     1
102
RTVSPost2010Prop43
 90
        3
102
RTVSPost2010PropOp43
 70
     1
102
RTVSPost2010Prop44ColorIndex
 90
        5
102
RTVSPost2010Prop44ColorRGB
 90
      255
102
RTVSPost2010PropOp44
 70
     1
102
RTVSPost2010Prop45
280
     0
102
RTVSPost2010PropOp45
 70
     1
102
RTVSPost2010Prop46
 90
       50
102
RTVSPost2010PropOp46
 70
     1
102
RTVSPost2010Prop47
 90
       50
102
RTVSPost2010PropOp47
 70
     1
102
RTVSPost2010Prop48
 90
       50
102
RTVSPost2010PropOp48
 70
     1
102
RTVSPost2010Prop49
280
     0
102
RTVSPost2010PropOp49
 70
     1
102
RTVSPost2010Prop50
 90
       50
102
RTVSPost2010PropOp50
 70
     1
102
RTVSPost2010Prop51ColorIndex
 90
      256
102
RTVSPost2010Prop51ColorRGB
 90
-16777216
102
RTVSPost2010PropOp51
 70
     0
102
RTVSPost2010Prop52
140
1.0
102
RTVSPost2010PropOp52
 70
     0
102
RTVSPost2010Prop53
 90
        2
102
RTVSPost2010PropOp53
 70
     1
102
RTVSPost2010Prop54
  1
strokes_ogs.tif
102
RTVSPost2010PropOp54
 70
     1
102
RTVSPost2010Prop55
280
     0
102
RTVSPost2010PropOp55
 70
     1
102
RTVSPost2010Prop56
140
1.0
102
RTVSPost2010PropOp56
 70
     1
102
RTVSPost2010Prop57
140
1.0
102
RTVSPost2010PropOp57
 70
     1
102
RTVSPropertyOp0
 70
     1
102
RTVSPropertyOp1
 70
     1
102
RTVSPropertyOp2
 70
     1
102
RTVSPropertyOp3
 70
     1
102
RTVSPropertyOp4
 70
     1
102
RTVSPropertyOp5
 70
     1
102
RTVSPropertyOp6
 70
     1
102
RTVSPropertyOp7
 70
     1
102
RTVSPropertyOp8
 70
     1
102
RTVSPropertyOp9
 70
     1
102
RTVSPropertyOp10
 70
     1
102
RTVSPropertyOp11
 70
     1
102
RTVSPropertyOp12
 70
     1
102
RTVSPropertyOp13
 70
     1
102
RTVSPropertyOp14
 70
     1
102
RTVSPropertyOp15
 70
     1
102
RTVSPropertyOp16
 70
     1
102
RTVSPropertyOp17
 70
     1
102
RTVSPropertyOp18
 70
     1
102
RTVSPropertyOp19
 70
     1
102
RTVSPropertyOp20
 70
     1
102
RTVSPropertyOp21
 70
     1
102
RTVSPropertyOp22
 70
     1
102
RTVSPropertyOp23
 70
     1
102
RTVSPropertyOp24
 70
     1
102
RTVSPropertyOp25
 70
     1
102
RTVSPropertyOp26
 70
     1
102
RTVSPropertyOp27
 70
     1
102
RTVSPropertyOp28
 70
     1
102
RTVSPropertyOp29
 70
     1
102
RTVSPropertyOp30
 70
     1
102
RTVSPropertyOp31
 70
     1
102
RTVSPropertyOp32
 70
     1
102
RTVSPropertyOp33
 70
     1
102
RTVSPropertyOp34
 70
     1
102
RTVSPropertyOp35
 70
     1
102
RTVSPropertyOp36
 70
     1
102
RTVSPropertyOp37
 70
     1
102
RTVSPropertyOp38
 70
     1
102
RTVSPropertyOp39
 70
     1
102
RTVSPropertyOp40
 70
     1
102
RTVSPropertyOp41
 70
     1
102
RTVSPropertyOp42
 70
     1
102
RTVSPropertyOp43
 70
     1
102
RTVSPropertyOp44
 70
     1
102
RTVSPropertyOp45
 70
     1
102
RTVSPropertyOp46
 70
     1
102
RTVSPropertyOp47
 70
     1
102
RTVSPropertyOp48
 70
     1
102
RTVSPropertyOp49
 70
     1
102
RTVSPropertyOp50
 70
     1
102
RTVSPropertyOp51
 70
     0
102
RTVSPropertyOp52
 70
     0
102
RTVSPropertyOp53
 70
     1
102
RTVSPropertyOp54
 70
     1
102
RTVSPropertyOp55
 70
     1
102
RTVSPropertyOp56
 70
     1
102
RTVSPropertyOp57
 70
     1
102
RTVSPropertyOp58
 70
     1
102
RTVSPropertyOp59
 70
     1
102
RTVSPropertyOp60
 70
     1
102
RTVSPropertyOp61
 70
     1
102
RTVSPropertyOp62
 70
     1
  0
XRECORD
  5
83C
102
{ACAD_REACTORS
330
83B
102
}
330
83B
100
AcDbXrecord
280
     1
102
RTVSPost2010Prop28
280
     0
102
RTVSPost2010PropOp28
 70
     1
102
RTVSPost2010Prop29
280
     1
102
RTVSPost2010PropOp29
 70
     1
102
RTVSPost2010Prop30
280
     1
102
RTVSPost2010PropOp30
 70
     1
102
RTVSPost2010Prop31
280
     0
102
RTVSPost2010PropOp31
 70
     1
102
RTVSPost2010Prop32
280
     0
102
RTVSPost2010PropOp32
 70
     1
102
RTVSPost2010Prop33
280
     0
102
RTVSPost2010PropOp33
 70
     1
102
RTVSPost2010Prop34
280
     0
102
RTVSPost2010PropOp34
 70
     1
102
RTVSPost2010Prop35
280
     0
102
RTVSPost2010PropOp35
 70
     1
102
RTVSPost2010Prop36
280
     0
102
RTVSPost2010PropOp36
 70
     1
102
RTVSPost2010Prop37
 90
       50
102
RTVSPost2010PropOp37
 70
     1
102
RTVSPost2010Prop38
140
0.0
102
RTVSPost2010PropOp38
 70
     1
102
RTVSPost2010Prop39
140
1.0
102
RTVSPost2010PropOp39
 70
     1
102
RTVSPost2010Prop40
 90
        0
102
RTVSPost2010PropOp40
 70
     1
102
RTVSPost2010Prop41ColorIndex
 90
       18
102
RTVSPost2010Prop41ColorRGB
 90
        0
102
RTVSPost2010PropOp41
 70
     1
102
RTVSPost2010Prop42
 90
       50
102
RTVSPost2010PropOp42
 70
     1
102
RTVSPost2010Prop43
 90
        3
102
RTVSPost2010PropOp43
 70
     1
102
RTVSPost2010Prop44ColorIndex
 90
        5
102
RTVSPost2010Prop44ColorRGB
 90
      255
102
RTVSPost2010PropOp44
 70
     1
102
RTVSPost2010Prop45
280
     0
102
RTVSPost2010PropOp45
 70
     1
102
RTVSPost2010Prop46
 90
       50
102
RTVSPost2010PropOp46
 70
     1
102
RTVSPost2010Prop47
 90
       50
102
RTVSPost2010PropOp47
 70
     1
102
RTVSPost2010Prop48
 90
       50
102
RTVSPost2010PropOp48
 70
     1
102
RTVSPost2010Prop49
280
     0
102
RTVSPost2010PropOp49
 70
     1
102
RTVSPost2010Prop50
 90
       50
102
RTVSPost2010PropOp50
 70
     1
102
RTVSPost2010Prop51ColorIndex
 90
      256
102
RTVSPost2010Prop51ColorRGB
 90
-16777216
102
RTVSPost2010PropOp51
 70
     0
102
RTVSPost2010Prop52
140
1.0
102
RTVSPost2010PropOp52
 70
     0
102
RTVSPost2010Prop53
 90
        2
102
RTVSPost2010PropOp53
 70
     1
102
RTVSPost2010Prop54
  1
strokes_ogs.tif
102
RTVSPost2010PropOp54
 70
     1
102
RTVSPost2010Prop55
280
     0
102
RTVSPost2010PropOp55
 70
     1
102
RTVSPost2010Prop56
140
1.0
102
RTVSPost2010PropOp56
 70
     1
102
RTVSPost2010Prop57
140
1.0
102
RTVSPost2010PropOp57
 70
     1
102
RTVSPropertyOp0
 70
     1
102
RTVSPropertyOp1
 70
     1
102
RTVSPropertyOp2
 70
     1
102
RTVSPropertyOp3
 70
     1
102
RTVSPropertyOp4
 70
     1
102
RTVSPropertyOp5
 70
     1
102
RTVSPropertyOp6
 70
     1
102
RTVSPropertyOp7
 70
     1
102
RTVSPropertyOp8
 70
     1
102
RTVSPropertyOp9
 70
     1
102
RTVSPropertyOp10
 70
     1
102
RTVSPropertyOp11
 70
     1
102
RTVSPropertyOp12
 70
     1
102
RTVSPropertyOp13
 70
     1
102
RTVSPropertyOp14
 70
     1
102
RTVSPropertyOp15
 70
     1
102
RTVSPropertyOp16
 70
     1
102
RTVSPropertyOp17
 70
     1
102
RTVSPropertyOp18
 70
     1
102
RTVSPropertyOp19
 70
     1
102
RTVSPropertyOp20
 70
     1
102
RTVSPropertyOp21
 70
     1
102
RTVSPropertyOp22
 70
     1
102
RTVSPropertyOp23
 70
     1
102
RTVSPropertyOp24
 70
     1
102
RTVSPropertyOp25
 70
     1
102
RTVSPropertyOp26
 70
     1
102
RTVSPropertyOp27
 70
     1
102
RTVSPropertyOp28
 70
     1
102
RTVSPropertyOp29
 70
     1
102
RTVSPropertyOp30
 70
     1
102
RTVSPropertyOp31
 70
     1
102
RTVSPropertyOp32
 70
     1
102
RTVSPropertyOp33
 70
     1
102
RTVSPropertyOp34
 70
     1
102
RTVSPropertyOp35
 70
     1
102
RTVSPropertyOp36
 70
     1
102
RTVSPropertyOp37
 70
     1
102
RTVSPropertyOp38
 70
     1
102
RTVSPropertyOp39
 70
     1
102
RTVSPropertyOp40
 70
     1
102
RTVSPropertyOp41
 70
     1
102
RTVSPropertyOp42
 70
     1
102
RTVSPropertyOp43
 70
     1
102
RTVSPropertyOp44
 70
     1
102
RTVSPropertyOp45
 70
     1
102
RTVSPropertyOp46
 70
     1
102
RTVSPropertyOp47
 70
     1
102
RTVSPropertyOp48
 70
     1
102
RTVSPropertyOp49
 70
     1
102
RTVSPropertyOp50
 70
     1
102
RTVSPropertyOp51
 70
     0
102
RTVSPropertyOp52
 70
     0
102
RTVSPropertyOp53
 70
     1
102
RTVSPropertyOp54
 70
     1
102
RTVSPropertyOp55
 70
     1
102
RTVSPropertyOp56
 70
     1
102
RTVSPropertyOp57
 70
     1
102
RTVSPropertyOp58
 70
     1
102
RTVSPropertyOp59
 70
     1
102
RTVSPropertyOp60
 70
     1
102
RTVSPropertyOp61
 70
     1
102
RTVSPropertyOp62
 70
     1
  0
XRECORD
  5
83E
102
{ACAD_REACTORS
330
83D
102
}
330
83D
100
AcDbXrecord
280
     1
102
RTVSPost2010Prop28
280
     0
102
RTVSPost2010PropOp28
 70
     1
102
RTVSPost2010Prop29
280
     1
102
RTVSPost2010PropOp29
 70
     1
102
RTVSPost2010Prop30
280
     1
102
RTVSPost2010PropOp30
 70
     1
102
RTVSPost2010Prop31
280
     0
102
RTVSPost2010PropOp31
 70
     1
102
RTVSPost2010Prop32
280
     0
102
RTVSPost2010PropOp32
 70
     1
102
RTVSPost2010Prop33
280
     0
102
RTVSPost2010PropOp33
 70
     1
102
RTVSPost2010Prop34
280
     0
102
RTVSPost2010PropOp34
 70
     1
102
RTVSPost2010Prop35
280
     0
102
RTVSPost2010PropOp35
 70
     1
102
RTVSPost2010Prop36
280
     0
102
RTVSPost2010PropOp36
 70
     1
102
RTVSPost2010Prop37
 90
       50
102
RTVSPost2010PropOp37
 70
     1
102
RTVSPost2010Prop38
140
0.0
102
RTVSPost2010PropOp38
 70
     1
102
RTVSPost2010Prop39
140
1.0
102
RTVSPost2010PropOp39
 70
     1
102
RTVSPost2010Prop40
 90
        0
102
RTVSPost2010PropOp40
 70
     1
102
RTVSPost2010Prop41ColorIndex
 90
       18
102
RTVSPost2010Prop41ColorRGB
 90
        0
102
RTVSPost2010PropOp41
 70
     1
102
RTVSPost2010Prop42
 90
       50
102
RTVSPost2010PropOp42
 70
     1
102
RTVSPost2010Prop43
 90
        3
102
RTVSPost2010PropOp43
 70
     1
102
RTVSPost2010Prop44ColorIndex
 90
        5
102
RTVSPost2010Prop44ColorRGB
 90
      255
102
RTVSPost2010PropOp44
 70
     1
102
RTVSPost2010Prop45
280
     0
102
RTVSPost2010PropOp45
 70
     1
102
RTVSPost2010Prop46
 90
       50
102
RTVSPost2010PropOp46
 70
     1
102
RTVSPost2010Prop47
 90
       50
102
RTVSPost2010PropOp47
 70
     1
102
RTVSPost2010Prop48
 90
       50
102
RTVSPost2010PropOp48
 70
     1
102
RTVSPost2010Prop49
280
     0
102
RTVSPost2010PropOp49
 70
     1
102
RTVSPost2010Prop50
 90
       50
102
RTVSPost2010PropOp50
 70
     1
102
RTVSPost2010Prop51ColorIndex
 90
      256
102
RTVSPost2010Prop51ColorRGB
 90
-16777216
102
RTVSPost2010PropOp51
 70
     0
102
RTVSPost2010Prop52
140
1.0
102
RTVSPost2010PropOp52
 70
     0
102
RTVSPost2010Prop53
 90
        2
102
RTVSPost2010PropOp53
 70
     1
102
RTVSPost2010Prop54
  1
strokes_ogs.tif
102
RTVSPost2010PropOp54
 70
     1
102
RTVSPost2010Prop55
280
     0
102
RTVSPost2010PropOp55
 70
     1
102
RTVSPost2010Prop56
140
1.0
102
RTVSPost2010PropOp56
 70
     1
102
RTVSPost2010Prop57
140
1.0
102
RTVSPost2010PropOp57
 70
     1
102
RTVSPropertyOp0
 70
     1
102
RTVSPropertyOp1
 70
     1
102
RTVSPropertyOp2
 70
     1
102
RTVSPropertyOp3
 70
     1
102
RTVSPropertyOp4
 70
     1
102
RTVSPropertyOp5
 70
     1
102
RTVSPropertyOp6
 70
     1
102
RTVSPropertyOp7
 70
     1
102
RTVSPropertyOp8
 70
     1
102
RTVSPropertyOp9
 70
     1
102
RTVSPropertyOp10
 70
     1
102
RTVSPropertyOp11
 70
     1
102
RTVSPropertyOp12
 70
     1
102
RTVSPropertyOp13
 70
     1
102
RTVSPropertyOp14
 70
     1
102
RTVSPropertyOp15
 70
     1
102
RTVSPropertyOp16
 70
     1
102
RTVSPropertyOp17
 70
     1
102
RTVSPropertyOp18
 70
     1
102
RTVSPropertyOp19
 70
     1
102
RTVSPropertyOp20
 70
     1
102
RTVSPropertyOp21
 70
     1
102
RTVSPropertyOp22
 70
     1
102
RTVSPropertyOp23
 70
     1
102
RTVSPropertyOp24
 70
     1
102
RTVSPropertyOp25
 70
     1
102
RTVSPropertyOp26
 70
     1
102
RTVSPropertyOp27
 70
     1
102
RTVSPropertyOp28
 70
     1
102
RTVSPropertyOp29
 70
     1
102
RTVSPropertyOp30
 70
     1
102
RTVSPropertyOp31
 70
     1
102
RTVSPropertyOp32
 70
     1
102
RTVSPropertyOp33
 70
     1
102
RTVSPropertyOp34
 70
     1
102
RTVSPropertyOp35
 70
     1
102
RTVSPropertyOp36
 70
     1
102
RTVSPropertyOp37
 70
     1
102
RTVSPropertyOp38
 70
     1
102
RTVSPropertyOp39
 70
     1
102
RTVSPropertyOp40
 70
     1
102
RTVSPropertyOp41
 70
     1
102
RTVSPropertyOp42
 70
     1
102
RTVSPropertyOp43
 70
     1
102
RTVSPropertyOp44
 70
     1
102
RTVSPropertyOp45
 70
     1
102
RTVSPropertyOp46
 70
     1
102
RTVSPropertyOp47
 70
     1
102
RTVSPropertyOp48
 70
     1
102
RTVSPropertyOp49
 70
     1
102
RTVSPropertyOp50
 70
     1
102
RTVSPropertyOp51
 70
     0
102
RTVSPropertyOp52
 70
     0
102
RTVSPropertyOp53
 70
     1
102
RTVSPropertyOp54
 70
     1
102
RTVSPropertyOp55
 70
     1
102
RTVSPropertyOp56
 70
     1
102
RTVSPropertyOp57
 70
     1
102
RTVSPropertyOp58
 70
     1
102
RTVSPropertyOp59
 70
     1
102
RTVSPropertyOp60
 70
     1
102
RTVSPropertyOp61
 70
     1
102
RTVSPropertyOp62
 70
     1
  0
XRECORD
  5
846
102
{ACAD_REACTORS
330
845
102
}
330
845
100
AcDbXrecord
280
     1
102
RTVSPost2010Prop28
280
     0
102
RTVSPost2010PropOp28
 70
     1
102
RTVSPost2010Prop29
280
     1
102
RTVSPost2010PropOp29
 70
     1
102
RTVSPost2010Prop30
280
     1
102
RTVSPost2010PropOp30
 70
     1
102
RTVSPost2010Prop31
280
     0
102
RTVSPost2010PropOp31
 70
     1
102
RTVSPost2010Prop32
280
     0
102
RTVSPost2010PropOp32
 70
     1
102
RTVSPost2010Prop33
280
     0
102
RTVSPost2010PropOp33
 70
     1
102
RTVSPost2010Prop34
280
     0
102
RTVSPost2010PropOp34
 70
     1
102
RTVSPost2010Prop35
280
     0
102
RTVSPost2010PropOp35
 70
     1
102
RTVSPost2010Prop36
280
     0
102
RTVSPost2010PropOp36
 70
     1
102
RTVSPost2010Prop37
 90
       50
102
RTVSPost2010PropOp37
 70
     1
102
RTVSPost2010Prop38
140
0.0
102
RTVSPost2010PropOp38
 70
     1
102
RTVSPost2010Prop39
140
1.0
102
RTVSPost2010PropOp39
 70
     1
102
RTVSPost2010Prop40
 90
        0
102
RTVSPost2010PropOp40
 70
     1
102
RTVSPost2010Prop41ColorIndex
 90
       18
102
RTVSPost2010Prop41ColorRGB
 90
        0
102
RTVSPost2010PropOp41
 70
     1
102
RTVSPost2010Prop42
 90
       50
102
RTVSPost2010PropOp42
 70
     1
102
RTVSPost2010Prop43
 90
        3
102
RTVSPost2010PropOp43
 70
     1
102
RTVSPost2010Prop44ColorIndex
 90
        5
102
RTVSPost2010Prop44ColorRGB
 90
      255
102
RTVSPost2010PropOp44
 70
     1
102
RTVSPost2010Prop45
280
     0
102
RTVSPost2010PropOp45
 70
     1
102
RTVSPost2010Prop46
 90
       50
102
RTVSPost2010PropOp46
 70
     1
102
RTVSPost2010Prop47
 90
       50
102
RTVSPost2010PropOp47
 70
     1
102
RTVSPost2010Prop48
 90
       50
102
RTVSPost2010PropOp48
 70
     1
102
RTVSPost2010Prop49
280
     0
102
RTVSPost2010PropOp49
 70
     1
102
RTVSPost2010Prop50
 90
       50
102
RTVSPost2010PropOp50
 70
     1
102
RTVSPost2010Prop51ColorIndex
 90
      256
102
RTVSPost2010Prop51ColorRGB
 90
-16777216
102
RTVSPost2010PropOp51
 70
     0
102
RTVSPost2010Prop52
140
1.0
102
RTVSPost2010PropOp52
 70
     0
102
RTVSPost2010Prop53
 90
        2
102
RTVSPost2010PropOp53
 70
     1
102
RTVSPost2010Prop54
  1
strokes_ogs.tif
102
RTVSPost2010PropOp54
 70
     1
102
RTVSPost2010Prop55
280
     0
102
RTVSPost2010PropOp55
 70
     1
102
RTVSPost2010Prop56
140
1.0
102
RTVSPost2010PropOp56
 70
     1
102
RTVSPost2010Prop57
140
1.0
102
RTVSPost2010PropOp57
 70
     1
102
RTVSPropertyOp0
 70
     1
102
RTVSPropertyOp1
 70
     1
102
RTVSPropertyOp2
 70
     1
102
RTVSPropertyOp3
 70
     1
102
RTVSPropertyOp4
 70
     1
102
RTVSPropertyOp5
 70
     1
102
RTVSPropertyOp6
 70
     1
102
RTVSPropertyOp7
 70
     1
102
RTVSPropertyOp8
 70
     1
102
RTVSPropertyOp9
 70
     1
102
RTVSPropertyOp10
 70
     1
102
RTVSPropertyOp11
 70
     1
102
RTVSPropertyOp12
 70
     1
102
RTVSPropertyOp13
 70
     1
102
RTVSPropertyOp14
 70
     1
102
RTVSPropertyOp15
 70
     1
102
RTVSPropertyOp16
 70
     1
102
RTVSPropertyOp17
 70
     1
102
RTVSPropertyOp18
 70
     1
102
RTVSPropertyOp19
 70
     1
102
RTVSPropertyOp20
 70
     1
102
RTVSPropertyOp21
 70
     1
102
RTVSPropertyOp22
 70
     1
102
RTVSPropertyOp23
 70
     1
102
RTVSPropertyOp24
 70
     1
102
RTVSPropertyOp25
 70
     1
102
RTVSPropertyOp26
 70
     1
102
RTVSPropertyOp27
 70
     1
102
RTVSPropertyOp28
 70
     1
102
RTVSPropertyOp29
 70
     1
102
RTVSPropertyOp30
 70
     1
102
RTVSPropertyOp31
 70
     1
102
RTVSPropertyOp32
 70
     1
102
RTVSPropertyOp33
 70
     1
102
RTVSPropertyOp34
 70
     1
102
RTVSPropertyOp35
 70
     1
102
RTVSPropertyOp36
 70
     1
102
RTVSPropertyOp37
 70
     1
102
RTVSPropertyOp38
 70
     1
102
RTVSPropertyOp39
 70
     1
102
RTVSPropertyOp40
 70
     1
102
RTVSPropertyOp41
 70
     1
102
RTVSPropertyOp42
 70
     1
102
RTVSPropertyOp43
 70
     1
102
RTVSPropertyOp44
 70
     1
102
RTVSPropertyOp45
 70
     1
102
RTVSPropertyOp46
 70
     1
102
RTVSPropertyOp47
 70
     1
102
RTVSPropertyOp48
 70
     1
102
RTVSPropertyOp49
 70
     1
102
RTVSPropertyOp50
 70
     1
102
RTVSPropertyOp51
 70
     0
102
RTVSPropertyOp52
 70
     0
102
RTVSPropertyOp53
 70
     1
102
RTVSPropertyOp54
 70
     1
102
RTVSPropertyOp55
 70
     1
102
RTVSPropertyOp56
 70
     1
102
RTVSPropertyOp57
 70
     1
102
RTVSPropertyOp58
 70
     1
102
RTVSPropertyOp59
 70
     1
102
RTVSPropertyOp60
 70
     1
102
RTVSPropertyOp61
 70
     1
102
RTVSPropertyOp62
 70
     1
  0
XRECORD
  5
862
102
{ACAD_REACTORS
330
861
102
}
330
861
100
AcDbXrecord
280
     1
102
RTVSPost2010Prop28
280
     0
102
RTVSPost2010PropOp28
 70
     1
102
RTVSPost2010Prop29
280
     1
102
RTVSPost2010PropOp29
 70
     1
102
RTVSPost2010Prop30
280
     1
102
RTVSPost2010PropOp30
 70
     1
102
RTVSPost2010Prop31
280
     0
102
RTVSPost2010PropOp31
 70
     1
102
RTVSPost2010Prop32
280
     0
102
RTVSPost2010PropOp32
 70
     1
102
RTVSPost2010Prop33
280
     0
102
RTVSPost2010PropOp33
 70
     1
102
RTVSPost2010Prop34
280
     0
102
RTVSPost2010PropOp34
 70
     1
102
RTVSPost2010Prop35
280
     0
102
RTVSPost2010PropOp35
 70
     1
102
RTVSPost2010Prop36
280
     0
102
RTVSPost2010PropOp36
 70
     1
102
RTVSPost2010Prop37
 90
       50
102
RTVSPost2010PropOp37
 70
     0
102
RTVSPost2010Prop38
140
0.0
102
RTVSPost2010PropOp38
 70
     0
102
RTVSPost2010Prop39
140
1.0
102
RTVSPost2010PropOp39
 70
     0
102
RTVSPost2010Prop40
 90
        0
102
RTVSPost2010PropOp40
 70
     0
102
RTVSPost2010Prop41ColorIndex
 90
       18
102
RTVSPost2010Prop41ColorRGB
 90
        0
102
RTVSPost2010PropOp41
 70
     0
102
RTVSPost2010Prop42
 90
       50
102
RTVSPost2010PropOp42
 70
     0
102
RTVSPost2010Prop43
 90
        3
102
RTVSPost2010PropOp43
 70
     0
102
RTVSPost2010Prop44ColorIndex
 90
        5
102
RTVSPost2010Prop44ColorRGB
 90
      255
102
RTVSPost2010PropOp44
 70
     0
102
RTVSPost2010Prop45
280
     0
102
RTVSPost2010PropOp45
 70
     1
102
RTVSPost2010Prop46
 90
       50
102
RTVSPost2010PropOp46
 70
     0
102
RTVSPost2010Prop47
 90
       50
102
RTVSPost2010PropOp47
 70
     0
102
RTVSPost2010Prop48
 90
       50
102
RTVSPost2010PropOp48
 70
     0
102
RTVSPost2010Prop49
280
     0
102
RTVSPost2010PropOp49
 70
     1
102
RTVSPost2010Prop50
 90
       50
102
RTVSPost2010PropOp50
 70
     0
102
RTVSPost2010Prop51ColorIndex
 90
      256
102
RTVSPost2010Prop51ColorRGB
 90
-16777216
102
RTVSPost2010PropOp51
 70
     0
102
RTVSPost2010Prop52
140
1.0
102
RTVSPost2010PropOp52
 70
     0
102
RTVSPost2010Prop53
 90
        2
102
RTVSPost2010PropOp53
 70
     0
102
RTVSPost2010Prop54
  1
strokes_ogs.tif
102
RTVSPost2010PropOp54
 70
     0
102
RTVSPost2010Prop55
280
     0
102
RTVSPost2010PropOp55
 70
     1
102
RTVSPost2010Prop56
140
1.0
102
RTVSPost2010PropOp56
 70
     0
102
RTVSPost2010Prop57
140
1.0
102
RTVSPost2010PropOp57
 70
     0
102
RTVSPropertyOp0
 70
     0
102
RTVSPropertyOp1
 70
     0
102
RTVSPropertyOp2
 70
     0
102
RTVSPropertyOp3
 70
     0
102
RTVSPropertyOp4
 70
     0
102
RTVSPropertyOp5
 70
     0
102
RTVSPropertyOp6
 70
     0
102
RTVSPropertyOp7
 70
     0
102
RTVSPropertyOp8
 70
     0
102
RTVSPropertyOp9
 70
     0
102
RTVSPropertyOp10
 70
     0
102
RTVSPropertyOp11
 70
     0
102
RTVSPropertyOp12
 70
     0
102
RTVSPropertyOp13
 70
     0
102
RTVSPropertyOp14
 70
     2
102
RTVSPropertyOp15
 70
     0
102
RTVSPropertyOp16
 70
     0
102
RTVSPropertyOp17
 70
     0
102
RTVSPropertyOp18
 70
     0
102
RTVSPropertyOp19
 70
     0
102
RTVSPropertyOp20
 70
     0
102
RTVSPropertyOp21
 70
     0
102
RTVSPropertyOp22
 70
     0
102
RTVSPropertyOp23
 70
     0
102
RTVSPropertyOp24
 70
     0
102
RTVSPropertyOp25
 70
     0
102
RTVSPropertyOp26
 70
     0
102
RTVSPropertyOp27
 70
     0
102
RTVSPropertyOp28
 70
     1
102
RTVSPropertyOp29
 70
     1
102
RTVSPropertyOp30
 70
     1
102
RTVSPropertyOp31
 70
     1
102
RTVSPropertyOp32
 70
     1
102
RTVSPropertyOp33
 70
     1
102
RTVSPropertyOp34
 70
     1
102
RTVSPropertyOp35
 70
     1
102
RTVSPropertyOp36
 70
     1
102
RTVSPropertyOp37
 70
     0
102
RTVSPropertyOp38
 70
     0
102
RTVSPropertyOp39
 70
     0
102
RTVSPropertyOp40
 70
     0
102
RTVSPropertyOp41
 70
     0
102
RTVSPropertyOp42
 70
     0
102
RTVSPropertyOp43
 70
     0
102
RTVSPropertyOp44
 70
     0
102
RTVSPropertyOp45
 70
     1
102
RTVSPropertyOp46
 70
     0
102
RTVSPropertyOp47
 70
     0
102
RTVSPropertyOp48
 70
     0
102
RTVSPropertyOp49
 70
     1
102
RTVSPropertyOp50
 70
     0
102
RTVSPropertyOp51
 70
     0
102
RTVSPropertyOp52
 70
     0
102
RTVSPropertyOp53
 70
     0
102
RTVSPropertyOp54
 70
     0
102
RTVSPropertyOp55
 70
     1
102
RTVSPropertyOp56
 70
     0
102
RTVSPropertyOp57
 70
     0
102
RTVSPropertyOp58
 70
     0
102
RTVSPropertyOp59
 70
     0
102
RTVSPropertyOp60
 70
     0
102
RTVSPropertyOp61
 70
     0
102
RTVSPropertyOp62
 70
     0
  0
XRECORD
  5
852
102
{ACAD_REACTORS
330
851
102
}
330
851
100
AcDbXrecord
280
     1
102
RTVSPost2010Prop28
280
     0
102
RTVSPost2010PropOp28
 70
     1
102
RTVSPost2010Prop29
280
     1
102
RTVSPost2010PropOp29
 70
     1
102
RTVSPost2010Prop30
280
     1
102
RTVSPost2010PropOp30
 70
     1
102
RTVSPost2010Prop31
280
     0
102
RTVSPost2010PropOp31
 70
     1
102
RTVSPost2010Prop32
280
     0
102
RTVSPost2010PropOp32
 70
     1
102
RTVSPost2010Prop33
280
     0
102
RTVSPost2010PropOp33
 70
     1
102
RTVSPost2010Prop34
280
     0
102
RTVSPost2010PropOp34
 70
     1
102
RTVSPost2010Prop35
280
     0
102
RTVSPost2010PropOp35
 70
     1
102
RTVSPost2010Prop36
280
     0
102
RTVSPost2010PropOp36
 70
     1
102
RTVSPost2010Prop37
 90
       50
102
RTVSPost2010PropOp37
 70
     1
102
RTVSPost2010Prop38
140
0.0
102
RTVSPost2010PropOp38
 70
     1
102
RTVSPost2010Prop39
140
1.0
102
RTVSPost2010PropOp39
 70
     1
102
RTVSPost2010Prop40
 90
        0
102
RTVSPost2010PropOp40
 70
     1
102
RTVSPost2010Prop41ColorIndex
 90
       18
102
RTVSPost2010Prop41ColorRGB
 90
        0
102
RTVSPost2010PropOp41
 70
     1
102
RTVSPost2010Prop42
 90
       50
102
RTVSPost2010PropOp42
 70
     1
102
RTVSPost2010Prop43
 90
        3
102
RTVSPost2010PropOp43
 70
     1
102
RTVSPost2010Prop44ColorIndex
 90
        5
102
RTVSPost2010Prop44ColorRGB
 90
      255
102
RTVSPost2010PropOp44
 70
     1
102
RTVSPost2010Prop45
280
     0
102
RTVSPost2010PropOp45
 70
     1
102
RTVSPost2010Prop46
 90
       50
102
RTVSPost2010PropOp46
 70
     1
102
RTVSPost2010Prop47
 90
       50
102
RTVSPost2010PropOp47
 70
     1
102
RTVSPost2010Prop48
 90
       50
102
RTVSPost2010PropOp48
 70
     1
102
RTVSPost2010Prop49
280
     0
102
RTVSPost2010PropOp49
 70
     1
102
RTVSPost2010Prop50
 90
       50
102
RTVSPost2010PropOp50
 70
     1
102
RTVSPost2010Prop51ColorIndex
 90
      256
102
RTVSPost2010Prop51ColorRGB
 90
-16777216
102
RTVSPost2010PropOp51
 70
     0
102
RTVSPost2010Prop52
140
1.0
102
RTVSPost2010PropOp52
 70
     0
102
RTVSPost2010Prop53
 90
        2
102
RTVSPost2010PropOp53
 70
     1
102
RTVSPost2010Prop54
  1
strokes_ogs.tif
102
RTVSPost2010PropOp54
 70
     1
102
RTVSPost2010Prop55
280
     0
102
RTVSPost2010PropOp55
 70
     1
102
RTVSPost2010Prop56
140
1.0
102
RTVSPost2010PropOp56
 70
     1
102
RTVSPost2010Prop57
140
1.0
102
RTVSPost2010PropOp57
 70
     1
102
RTVSPropertyOp0
 70
     1
102
RTVSPropertyOp1
 70
     1
102
RTVSPropertyOp2
 70
     1
102
RTVSPropertyOp3
 70
     1
102
RTVSPropertyOp4
 70
     1
102
RTVSPropertyOp5
 70
     1
102
RTVSPropertyOp6
 70
     1
102
RTVSPropertyOp7
 70
     1
102
RTVSPropertyOp8
 70
     1
102
RTVSPropertyOp9
 70
     1
102
RTVSPropertyOp10
 70
     1
102
RTVSPropertyOp11
 70
     1
102
RTVSPropertyOp12
 70
     1
102
RTVSPropertyOp13
 70
     1
102
RTVSPropertyOp14
 70
     1
102
RTVSPropertyOp15
 70
     1
102
RTVSPropertyOp16
 70
     1
102
RTVSPropertyOp17
 70
     1
102
RTVSPropertyOp18
 70
     1
102
RTVSPropertyOp19
 70
     1
102
RTVSPropertyOp20
 70
     1
102
RTVSPropertyOp21
 70
     1
102
RTVSPropertyOp22
 70
     1
102
RTVSPropertyOp23
 70
     1
102
RTVSPropertyOp24
 70
     1
102
RTVSPropertyOp25
 70
     1
102
RTVSPropertyOp26
 70
     1
102
RTVSPropertyOp27
 70
     1
102
RTVSPropertyOp28
 70
     1
102
RTVSPropertyOp29
 70
     1
102
RTVSPropertyOp30
 70
     1
102
RTVSPropertyOp31
 70
     1
102
RTVSPropertyOp32
 70
     1
102
RTVSPropertyOp33
 70
     1
102
RTVSPropertyOp34
 70
     1
102
RTVSPropertyOp35
 70
     1
102
RTVSPropertyOp36
 70
     1
102
RTVSPropertyOp37
 70
     1
102
RTVSPropertyOp38
 70
     1
102
RTVSPropertyOp39
 70
     1
102
RTVSPropertyOp40
 70
     1
102
RTVSPropertyOp41
 70
     1
102
RTVSPropertyOp42
 70
     1
102
RTVSPropertyOp43
 70
     1
102
RTVSPropertyOp44
 70
     1
102
RTVSPropertyOp45
 70
     1
102
RTVSPropertyOp46
 70
     1
102
RTVSPropertyOp47
 70
     1
102
RTVSPropertyOp48
 70
     1
102
RTVSPropertyOp49
 70
     1
102
RTVSPropertyOp50
 70
     1
102
RTVSPropertyOp51
 70
     0
102
RTVSPropertyOp52
 70
     0
102
RTVSPropertyOp53
 70
     1
102
RTVSPropertyOp54
 70
     1
102
RTVSPropertyOp55
 70
     1
102
RTVSPropertyOp56
 70
     1
102
RTVSPropertyOp57
 70
     1
102
RTVSPropertyOp58
 70
     1
102
RTVSPropertyOp59
 70
     1
102
RTVSPropertyOp60
 70
     1
102
RTVSPropertyOp61
 70
     1
102
RTVSPropertyOp62
 70
     1
  0
XRECORD
  5
864
102
{ACAD_REACTORS
330
863
102
}
330
863
100
AcDbXrecord
280
     1
102
RTVSPost2010Prop28
280
     0
102
RTVSPost2010PropOp28
 70
     1
102
RTVSPost2010Prop29
280
     1
102
RTVSPost2010PropOp29
 70
     1
102
RTVSPost2010Prop30
280
     1
102
RTVSPost2010PropOp30
 70
     1
102
RTVSPost2010Prop31
280
     0
102
RTVSPost2010PropOp31
 70
     1
102
RTVSPost2010Prop32
280
     0
102
RTVSPost2010PropOp32
 70
     1
102
RTVSPost2010Prop33
280
     0
102
RTVSPost2010PropOp33
 70
     1
102
RTVSPost2010Prop34
280
     0
102
RTVSPost2010PropOp34
 70
     1
102
RTVSPost2010Prop35
280
     0
102
RTVSPost2010PropOp35
 70
     1
102
RTVSPost2010Prop36
280
     0
102
RTVSPost2010PropOp36
 70
     1
102
RTVSPost2010Prop37
 90
       50
102
RTVSPost2010PropOp37
 70
     0
102
RTVSPost2010Prop38
140
0.0
102
RTVSPost2010PropOp38
 70
     0
102
RTVSPost2010Prop39
140
1.0
102
RTVSPost2010PropOp39
 70
     0
102
RTVSPost2010Prop40
 90
        0
102
RTVSPost2010PropOp40
 70
     0
102
RTVSPost2010Prop41ColorIndex
 90
       18
102
RTVSPost2010Prop41ColorRGB
 90
        0
102
RTVSPost2010PropOp41
 70
     0
102
RTVSPost2010Prop42
 90
       50
102
RTVSPost2010PropOp42
 70
     0
102
RTVSPost2010Prop43
 90
        3
102
RTVSPost2010PropOp43
 70
     0
102
RTVSPost2010Prop44ColorIndex
 90
        5
102
RTVSPost2010Prop44ColorRGB
 90
      255
102
RTVSPost2010PropOp44
 70
     0
102
RTVSPost2010Prop45
280
     0
102
RTVSPost2010PropOp45
 70
     1
102
RTVSPost2010Prop46
 90
       50
102
RTVSPost2010PropOp46
 70
     0
102
RTVSPost2010Prop47
 90
       50
102
RTVSPost2010PropOp47
 70
     0
102
RTVSPost2010Prop48
 90
       50
102
RTVSPost2010PropOp48
 70
     0
102
RTVSPost2010Prop49
280
     0
102
RTVSPost2010PropOp49
 70
     1
102
RTVSPost2010Prop50
 90
       50
102
RTVSPost2010PropOp50
 70
     0
102
RTVSPost2010Prop51ColorIndex
 90
      256
102
RTVSPost2010Prop51ColorRGB
 90
-16777216
102
RTVSPost2010PropOp51
 70
     0
102
RTVSPost2010Prop52
140
1.0
102
RTVSPost2010PropOp52
 70
     0
102
RTVSPost2010Prop53
 90
        2
102
RTVSPost2010PropOp53
 70
     0
102
RTVSPost2010Prop54
  1
strokes_ogs.tif
102
RTVSPost2010PropOp54
 70
     0
102
RTVSPost2010Prop55
280
     0
102
RTVSPost2010PropOp55
 70
     1
102
RTVSPost2010Prop56
140
1.0
102
RTVSPost2010PropOp56
 70
     0
102
RTVSPost2010Prop57
140
1.0
102
RTVSPost2010PropOp57
 70
     0
102
RTVSPropertyOp0
 70
     0
102
RTVSPropertyOp1
 70
     0
102
RTVSPropertyOp2
 70
     0
102
RTVSPropertyOp3
 70
     0
102
RTVSPropertyOp4
 70
     0
102
RTVSPropertyOp5
 70
     0
102
RTVSPropertyOp6
 70
     0
102
RTVSPropertyOp7
 70
     0
102
RTVSPropertyOp8
 70
     0
102
RTVSPropertyOp9
 70
     0
102
RTVSPropertyOp10
 70
     0
102
RTVSPropertyOp11
 70
     0
102
RTVSPropertyOp12
 70
     0
102
RTVSPropertyOp13
 70
     0
102
RTVSPropertyOp14
 70
     2
102
RTVSPropertyOp15
 70
     0
102
RTVSPropertyOp16
 70
     0
102
RTVSPropertyOp17
 70
     0
102
RTVSPropertyOp18
 70
     0
102
RTVSPropertyOp19
 70
     0
102
RTVSPropertyOp20
 70
     0
102
RTVSPropertyOp21
 70
     0
102
RTVSPropertyOp22
 70
     0
102
RTVSPropertyOp23
 70
     0
102
RTVSPropertyOp24
 70
     0
102
RTVSPropertyOp25
 70
     0
102
RTVSPropertyOp26
 70
     0
102
RTVSPropertyOp27
 70
     0
102
RTVSPropertyOp28
 70
     1
102
RTVSPropertyOp29
 70
     1
102
RTVSPropertyOp30
 70
     1
102
RTVSPropertyOp31
 70
     1
102
RTVSPropertyOp32
 70
     1
102
RTVSPropertyOp33
 70
     1
102
RTVSPropertyOp34
 70
     1
102
RTVSPropertyOp35
 70
     1
102
RTVSPropertyOp36
 70
     1
102
RTVSPropertyOp37
 70
     0
102
RTVSPropertyOp38
 70
     0
102
RTVSPropertyOp39
 70
     0
102
RTVSPropertyOp40
 70
     0
102
RTVSPropertyOp41
 70
     0
102
RTVSPropertyOp42
 70
     0
102
RTVSPropertyOp43
 70
     0
102
RTVSPropertyOp44
 70
     0
102
RTVSPropertyOp45
 70
     1
102
RTVSPropertyOp46
 70
     0
102
RTVSPropertyOp47
 70
     0
102
RTVSPropertyOp48
 70
     0
102
RTVSPropertyOp49
 70
     1
102
RTVSPropertyOp50
 70
     0
102
RTVSPropertyOp51
 70
     0
102
RTVSPropertyOp52
 70
     0
102
RTVSPropertyOp53
 70
     0
102
RTVSPropertyOp54
 70
     0
102
RTVSPropertyOp55
 70
     1
102
RTVSPropertyOp56
 70
     0
102
RTVSPropertyOp57
 70
     0
102
RTVSPropertyOp58
 70
     0
102
RTVSPropertyOp59
 70
     0
102
RTVSPropertyOp60
 70
     0
102
RTVSPropertyOp61
 70
     0
102
RTVSPropertyOp62
 70
     0
  0
XRECORD
  5
84A
102
{ACAD_REACTORS
330
849
102
}
330
849
100
AcDbXrecord
280
     1
102
RTVSPost2010Prop28
280
     0
102
RTVSPost2010PropOp28
 70
     1
102
RTVSPost2010Prop29
280
     1
102
RTVSPost2010PropOp29
 70
     1
102
RTVSPost2010Prop30
280
     1
102
RTVSPost2010PropOp30
 70
     1
102
RTVSPost2010Prop31
280
     0
102
RTVSPost2010PropOp31
 70
     1
102
RTVSPost2010Prop32
280
     0
102
RTVSPost2010PropOp32
 70
     1
102
RTVSPost2010Prop33
280
     0
102
RTVSPost2010PropOp33
 70
     1
102
RTVSPost2010Prop34
280
     0
102
RTVSPost2010PropOp34
 70
     1
102
RTVSPost2010Prop35
280
     0
102
RTVSPost2010PropOp35
 70
     1
102
RTVSPost2010Prop36
280
     0
102
RTVSPost2010PropOp36
 70
     1
102
RTVSPost2010Prop37
 90
       50
102
RTVSPost2010PropOp37
 70
     1
102
RTVSPost2010Prop38
140
0.0
102
RTVSPost2010PropOp38
 70
     1
102
RTVSPost2010Prop39
140
1.0
102
RTVSPost2010PropOp39
 70
     1
102
RTVSPost2010Prop40
 90
        0
102
RTVSPost2010PropOp40
 70
     1
102
RTVSPost2010Prop41ColorIndex
 90
       18
102
RTVSPost2010Prop41ColorRGB
 90
        0
102
RTVSPost2010PropOp41
 70
     1
102
RTVSPost2010Prop42
 90
       50
102
RTVSPost2010PropOp42
 70
     1
102
RTVSPost2010Prop43
 90
        3
102
RTVSPost2010PropOp43
 70
     1
102
RTVSPost2010Prop44ColorIndex
 90
        5
102
RTVSPost2010Prop44ColorRGB
 90
      255
102
RTVSPost2010PropOp44
 70
     1
102
RTVSPost2010Prop45
280
     0
102
RTVSPost2010PropOp45
 70
     1
102
RTVSPost2010Prop46
 90
       50
102
RTVSPost2010PropOp46
 70
     1
102
RTVSPost2010Prop47
 90
       50
102
RTVSPost2010PropOp47
 70
     1
102
RTVSPost2010Prop48
 90
       50
102
RTVSPost2010PropOp48
 70
     1
102
RTVSPost2010Prop49
280
     0
102
RTVSPost2010PropOp49
 70
     1
102
RTVSPost2010Prop50
 90
       50
102
RTVSPost2010PropOp50
 70
     1
102
RTVSPost2010Prop51ColorIndex
 90
      256
102
RTVSPost2010Prop51ColorRGB
 90
-16777216
102
RTVSPost2010PropOp51
 70
     0
102
RTVSPost2010Prop52
140
1.0
102
RTVSPost2010PropOp52
 70
     0
102
RTVSPost2010Prop53
 90
        2
102
RTVSPost2010PropOp53
 70
     1
102
RTVSPost2010Prop54
  1
strokes_ogs.tif
102
RTVSPost2010PropOp54
 70
     1
102
RTVSPost2010Prop55
280
     0
102
RTVSPost2010PropOp55
 70
     1
102
RTVSPost2010Prop56
140
1.0
102
RTVSPost2010PropOp56
 70
     1
102
RTVSPost2010Prop57
140
1.0
102
RTVSPost2010PropOp57
 70
     1
102
RTVSPropertyOp0
 70
     1
102
RTVSPropertyOp1
 70
     1
102
RTVSPropertyOp2
 70
     1
102
RTVSPropertyOp3
 70
     1
102
RTVSPropertyOp4
 70
     1
102
RTVSPropertyOp5
 70
     1
102
RTVSPropertyOp6
 70
     1
102
RTVSPropertyOp7
 70
     1
102
RTVSPropertyOp8
 70
     1
102
RTVSPropertyOp9
 70
     1
102
RTVSPropertyOp10
 70
     1
102
RTVSPropertyOp11
 70
     1
102
RTVSPropertyOp12
 70
     1
102
RTVSPropertyOp13
 70
     1
102
RTVSPropertyOp14
 70
     1
102
RTVSPropertyOp15
 70
     1
102
RTVSPropertyOp16
 70
     1
102
RTVSPropertyOp17
 70
     1
102
RTVSPropertyOp18
 70
     1
102
RTVSPropertyOp19
 70
     1
102
RTVSPropertyOp20
 70
     1
102
RTVSPropertyOp21
 70
     1
102
RTVSPropertyOp22
 70
     1
102
RTVSPropertyOp23
 70
     1
102
RTVSPropertyOp24
 70
     1
102
RTVSPropertyOp25
 70
     1
102
RTVSPropertyOp26
 70
     1
102
RTVSPropertyOp27
 70
     1
102
RTVSPropertyOp28
 70
     1
102
RTVSPropertyOp29
 70
     1
102
RTVSPropertyOp30
 70
     1
102
RTVSPropertyOp31
 70
     1
102
RTVSPropertyOp32
 70
     1
102
RTVSPropertyOp33
 70
     1
102
RTVSPropertyOp34
 70
     1
102
RTVSPropertyOp35
 70
     1
102
RTVSPropertyOp36
 70
     1
102
RTVSPropertyOp37
 70
     1
102
RTVSPropertyOp38
 70
     1
102
RTVSPropertyOp39
 70
     1
102
RTVSPropertyOp40
 70
     1
102
RTVSPropertyOp41
 70
     1
102
RTVSPropertyOp42
 70
     1
102
RTVSPropertyOp43
 70
     1
102
RTVSPropertyOp44
 70
     1
102
RTVSPropertyOp45
 70
     1
102
RTVSPropertyOp46
 70
     1
102
RTVSPropertyOp47
 70
     1
102
RTVSPropertyOp48
 70
     1
102
RTVSPropertyOp49
 70
     1
102
RTVSPropertyOp50
 70
     1
102
RTVSPropertyOp51
 70
     0
102
RTVSPropertyOp52
 70
     0
102
RTVSPropertyOp53
 70
     1
102
RTVSPropertyOp54
 70
     1
102
RTVSPropertyOp55
 70
     1
102
RTVSPropertyOp56
 70
     1
102
RTVSPropertyOp57
 70
     1
102
RTVSPropertyOp58
 70
     1
102
RTVSPropertyOp59
 70
     1
102
RTVSPropertyOp60
 70
     1
102
RTVSPropertyOp61
 70
     1
102
RTVSPropertyOp62
 70
     1
  0
XRECORD
  5
860
102
{ACAD_REACTORS
330
85F
102
}
330
85F
100
AcDbXrecord
280
     1
102
RTVSPost2010Prop28
280
     0
102
RTVSPost2010PropOp28
 70
     1
102
RTVSPost2010Prop29
280
     1
102
RTVSPost2010PropOp29
 70
     1
102
RTVSPost2010Prop30
280
     1
102
RTVSPost2010PropOp30
 70
     1
102
RTVSPost2010Prop31
280
     0
102
RTVSPost2010PropOp31
 70
     1
102
RTVSPost2010Prop32
280
     0
102
RTVSPost2010PropOp32
 70
     1
102
RTVSPost2010Prop33
280
     0
102
RTVSPost2010PropOp33
 70
     1
102
RTVSPost2010Prop34
280
     0
102
RTVSPost2010PropOp34
 70
     1
102
RTVSPost2010Prop35
280
     0
102
RTVSPost2010PropOp35
 70
     1
102
RTVSPost2010Prop36
280
     0
102
RTVSPost2010PropOp36
 70
     1
102
RTVSPost2010Prop37
 90
       50
102
RTVSPost2010PropOp37
 70
     1
102
RTVSPost2010Prop38
140
0.0
102
RTVSPost2010PropOp38
 70
     1
102
RTVSPost2010Prop39
140
1.0
102
RTVSPost2010PropOp39
 70
     1
102
RTVSPost2010Prop40
 90
        0
102
RTVSPost2010PropOp40
 70
     1
102
RTVSPost2010Prop41ColorIndex
 90
       18
102
RTVSPost2010Prop41ColorRGB
 90
        0
102
RTVSPost2010PropOp41
 70
     1
102
RTVSPost2010Prop42
 90
       50
102
RTVSPost2010PropOp42
 70
     1
102
RTVSPost2010Prop43
 90
        3
102
RTVSPost2010PropOp43
 70
     1
102
RTVSPost2010Prop44ColorIndex
 90
        5
102
RTVSPost2010Prop44ColorRGB
 90
      255
102
RTVSPost2010PropOp44
 70
     1
102
RTVSPost2010Prop45
280
     0
102
RTVSPost2010PropOp45
 70
     1
102
RTVSPost2010Prop46
 90
       50
102
RTVSPost2010PropOp46
 70
     1
102
RTVSPost2010Prop47
 90
       50
102
RTVSPost2010PropOp47
 70
     1
102
RTVSPost2010Prop48
 90
       50
102
RTVSPost2010PropOp48
 70
     1
102
RTVSPost2010Prop49
280
     0
102
RTVSPost2010PropOp49
 70
     1
102
RTVSPost2010Prop50
 90
       50
102
RTVSPost2010PropOp50
 70
     1
102
RTVSPost2010Prop51ColorIndex
 90
      256
102
RTVSPost2010Prop51ColorRGB
 90
-16777216
102
RTVSPost2010PropOp51
 70
     0
102
RTVSPost2010Prop52
140
1.0
102
RTVSPost2010PropOp52
 70
     0
102
RTVSPost2010Prop53
 90
        2
102
RTVSPost2010PropOp53
 70
     1
102
RTVSPost2010Prop54
  1
strokes_ogs.tif
102
RTVSPost2010PropOp54
 70
     1
102
RTVSPost2010Prop55
280
     0
102
RTVSPost2010PropOp55
 70
     1
102
RTVSPost2010Prop56
140
1.0
102
RTVSPost2010PropOp56
 70
     1
102
RTVSPost2010Prop57
140
1.0
102
RTVSPost2010PropOp57
 70
     1
102
RTVSPropertyOp0
 70
     1
102
RTVSPropertyOp1
 70
     1
102
RTVSPropertyOp2
 70
     1
102
RTVSPropertyOp3
 70
     1
102
RTVSPropertyOp4
 70
     1
102
RTVSPropertyOp5
 70
     1
102
RTVSPropertyOp6
 70
     1
102
RTVSPropertyOp7
 70
     1
102
RTVSPropertyOp8
 70
     1
102
RTVSPropertyOp9
 70
     1
102
RTVSPropertyOp10
 70
     1
102
RTVSPropertyOp11
 70
     1
102
RTVSPropertyOp12
 70
     1
102
RTVSPropertyOp13
 70
     1
102
RTVSPropertyOp14
 70
     1
102
RTVSPropertyOp15
 70
     1
102
RTVSPropertyOp16
 70
     1
102
RTVSPropertyOp17
 70
     1
102
RTVSPropertyOp18
 70
     1
102
RTVSPropertyOp19
 70
     1
102
RTVSPropertyOp20
 70
     1
102
RTVSPropertyOp21
 70
     1
102
RTVSPropertyOp22
 70
     1
102
RTVSPropertyOp23
 70
     1
102
RTVSPropertyOp24
 70
     1
102
RTVSPropertyOp25
 70
     1
102
RTVSPropertyOp26
 70
     1
102
RTVSPropertyOp27
 70
     1
102
RTVSPropertyOp28
 70
     1
102
RTVSPropertyOp29
 70
     1
102
RTVSPropertyOp30
 70
     1
102
RTVSPropertyOp31
 70
     1
102
RTVSPropertyOp32
 70
     1
102
RTVSPropertyOp33
 70
     1
102
RTVSPropertyOp34
 70
     1
102
RTVSPropertyOp35
 70
     1
102
RTVSPropertyOp36
 70
     1
102
RTVSPropertyOp37
 70
     1
102
RTVSPropertyOp38
 70
     1
102
RTVSPropertyOp39
 70
     1
102
RTVSPropertyOp40
 70
     1
102
RTVSPropertyOp41
 70
     1
102
RTVSPropertyOp42
 70
     1
102
RTVSPropertyOp43
 70
     1
102
RTVSPropertyOp44
 70
     1
102
RTVSPropertyOp45
 70
     1
102
RTVSPropertyOp46
 70
     1
102
RTVSPropertyOp47
 70
     1
102
RTVSPropertyOp48
 70
     1
102
RTVSPropertyOp49
 70
     1
102
RTVSPropertyOp50
 70
     1
102
RTVSPropertyOp51
 70
     0
102
RTVSPropertyOp52
 70
     0
102
RTVSPropertyOp53
 70
     1
102
RTVSPropertyOp54
 70
     1
102
RTVSPropertyOp55
 70
     1
102
RTVSPropertyOp56
 70
     1
102
RTVSPropertyOp57
 70
     1
102
RTVSPropertyOp58
 70
     1
102
RTVSPropertyOp59
 70
     1
102
RTVSPropertyOp60
 70
     1
102
RTVSPropertyOp61
 70
     1
102
RTVSPropertyOp62
 70
     1
  0
XRECORD
  5
85E
102
{ACAD_REACTORS
330
85D
102
}
330
85D
100
AcDbXrecord
280
     1
102
RTVSPost2010Prop28
280
     0
102
RTVSPost2010PropOp28
 70
     1
102
RTVSPost2010Prop29
280
     1
102
RTVSPost2010PropOp29
 70
     1
102
RTVSPost2010Prop30
280
     1
102
RTVSPost2010PropOp30
 70
     1
102
RTVSPost2010Prop31
280
     0
102
RTVSPost2010PropOp31
 70
     1
102
RTVSPost2010Prop32
280
     0
102
RTVSPost2010PropOp32
 70
     1
102
RTVSPost2010Prop33
280
     0
102
RTVSPost2010PropOp33
 70
     1
102
RTVSPost2010Prop34
280
     0
102
RTVSPost2010PropOp34
 70
     1
102
RTVSPost2010Prop35
280
     0
102
RTVSPost2010PropOp35
 70
     1
102
RTVSPost2010Prop36
280
     0
102
RTVSPost2010PropOp36
 70
     1
102
RTVSPost2010Prop37
 90
       50
102
RTVSPost2010PropOp37
 70
     1
102
RTVSPost2010Prop38
140
0.0
102
RTVSPost2010PropOp38
 70
     1
102
RTVSPost2010Prop39
140
1.0
102
RTVSPost2010PropOp39
 70
     1
102
RTVSPost2010Prop40
 90
        0
102
RTVSPost2010PropOp40
 70
     1
102
RTVSPost2010Prop41ColorIndex
 90
       18
102
RTVSPost2010Prop41ColorRGB
 90
        0
102
RTVSPost2010PropOp41
 70
     1
102
RTVSPost2010Prop42
 90
       50
102
RTVSPost2010PropOp42
 70
     1
102
RTVSPost2010Prop43
 90
        3
102
RTVSPost2010PropOp43
 70
     1
102
RTVSPost2010Prop44ColorIndex
 90
        5
102
RTVSPost2010Prop44ColorRGB
 90
      255
102
RTVSPost2010PropOp44
 70
     1
102
RTVSPost2010Prop45
280
     0
102
RTVSPost2010PropOp45
 70
     1
102
RTVSPost2010Prop46
 90
       50
102
RTVSPost2010PropOp46
 70
     1
102
RTVSPost2010Prop47
 90
       50
102
RTVSPost2010PropOp47
 70
     1
102
RTVSPost2010Prop48
 90
       50
102
RTVSPost2010PropOp48
 70
     1
102
RTVSPost2010Prop49
280
     0
102
RTVSPost2010PropOp49
 70
     1
102
RTVSPost2010Prop50
 90
       50
102
RTVSPost2010PropOp50
 70
     1
102
RTVSPost2010Prop51ColorIndex
 90
      256
102
RTVSPost2010Prop51ColorRGB
 90
-16777216
102
RTVSPost2010PropOp51
 70
     0
102
RTVSPost2010Prop52
140
1.0
102
RTVSPost2010PropOp52
 70
     0
102
RTVSPost2010Prop53
 90
        2
102
RTVSPost2010PropOp53
 70
     1
102
RTVSPost2010Prop54
  1
strokes_ogs.tif
102
RTVSPost2010PropOp54
 70
     1
102
RTVSPost2010Prop55
280
     0
102
RTVSPost2010PropOp55
 70
     1
102
RTVSPost2010Prop56
140
1.0
102
RTVSPost2010PropOp56
 70
     1
102
RTVSPost2010Prop57
140
1.0
102
RTVSPost2010PropOp57
 70
     1
102
RTVSPropertyOp0
 70
     1
102
RTVSPropertyOp1
 70
     1
102
RTVSPropertyOp2
 70
     1
102
RTVSPropertyOp3
 70
     1
102
RTVSPropertyOp4
 70
     1
102
RTVSPropertyOp5
 70
     1
102
RTVSPropertyOp6
 70
     1
102
RTVSPropertyOp7
 70
     1
102
RTVSPropertyOp8
 70
     1
102
RTVSPropertyOp9
 70
     1
102
RTVSPropertyOp10
 70
     1
102
RTVSPropertyOp11
 70
     1
102
RTVSPropertyOp12
 70
     1
102
RTVSPropertyOp13
 70
     1
102
RTVSPropertyOp14
 70
     1
102
RTVSPropertyOp15
 70
     1
102
RTVSPropertyOp16
 70
     1
102
RTVSPropertyOp17
 70
     1
102
RTVSPropertyOp18
 70
     1
102
RTVSPropertyOp19
 70
     1
102
RTVSPropertyOp20
 70
     1
102
RTVSPropertyOp21
 70
     1
102
RTVSPropertyOp22
 70
     1
102
RTVSPropertyOp23
 70
     1
102
RTVSPropertyOp24
 70
     1
102
RTVSPropertyOp25
 70
     1
102
RTVSPropertyOp26
 70
     1
102
RTVSPropertyOp27
 70
     1
102
RTVSPropertyOp28
 70
     1
102
RTVSPropertyOp29
 70
     1
102
RTVSPropertyOp30
 70
     1
102
RTVSPropertyOp31
 70
     1
102
RTVSPropertyOp32
 70
     1
102
RTVSPropertyOp33
 70
     1
102
RTVSPropertyOp34
 70
     1
102
RTVSPropertyOp35
 70
     1
102
RTVSPropertyOp36
 70
     1
102
RTVSPropertyOp37
 70
     1
102
RTVSPropertyOp38
 70
     1
102
RTVSPropertyOp39
 70
     1
102
RTVSPropertyOp40
 70
     1
102
RTVSPropertyOp41
 70
     1
102
RTVSPropertyOp42
 70
     1
102
RTVSPropertyOp43
 70
     1
102
RTVSPropertyOp44
 70
     1
102
RTVSPropertyOp45
 70
     1
102
RTVSPropertyOp46
 70
     1
102
RTVSPropertyOp47
 70
     1
102
RTVSPropertyOp48
 70
     1
102
RTVSPropertyOp49
 70
     1
102
RTVSPropertyOp50
 70
     1
102
RTVSPropertyOp51
 70
     0
102
RTVSPropertyOp52
 70
     0
102
RTVSPropertyOp53
 70
     1
102
RTVSPropertyOp54
 70
     1
102
RTVSPropertyOp55
 70
     1
102
RTVSPropertyOp56
 70
     1
102
RTVSPropertyOp57
 70
     1
102
RTVSPropertyOp58
 70
     1
102
RTVSPropertyOp59
 70
     1
102
RTVSPropertyOp60
 70
     1
102
RTVSPropertyOp61
 70
     1
102
RTVSPropertyOp62
 70
     1
  0
XRECORD
  5
858
102
{ACAD_REACTORS
330
857
102
}
330
857
100
AcDbXrecord
280
     1
102
RTVSPost2010Prop28
280
     0
102
RTVSPost2010PropOp28
 70
     1
102
RTVSPost2010Prop29
280
     1
102
RTVSPost2010PropOp29
 70
     1
102
RTVSPost2010Prop30
280
     1
102
RTVSPost2010PropOp30
 70
     1
102
RTVSPost2010Prop31
280
     0
102
RTVSPost2010PropOp31
 70
     1
102
RTVSPost2010Prop32
280
     0
102
RTVSPost2010PropOp32
 70
     1
102
RTVSPost2010Prop33
280
     0
102
RTVSPost2010PropOp33
 70
     1
102
RTVSPost2010Prop34
280
     0
102
RTVSPost2010PropOp34
 70
     1
102
RTVSPost2010Prop35
280
     0
102
RTVSPost2010PropOp35
 70
     1
102
RTVSPost2010Prop36
280
     0
102
RTVSPost2010PropOp36
 70
     1
102
RTVSPost2010Prop37
 90
       50
102
RTVSPost2010PropOp37
 70
     1
102
RTVSPost2010Prop38
140
0.0
102
RTVSPost2010PropOp38
 70
     1
102
RTVSPost2010Prop39
140
1.0
102
RTVSPost2010PropOp39
 70
     1
102
RTVSPost2010Prop40
 90
        0
102
RTVSPost2010PropOp40
 70
     1
102
RTVSPost2010Prop41ColorIndex
 90
       18
102
RTVSPost2010Prop41ColorRGB
 90
        0
102
RTVSPost2010PropOp41
 70
     1
102
RTVSPost2010Prop42
 90
       50
102
RTVSPost2010PropOp42
 70
     1
102
RTVSPost2010Prop43
 90
        3
102
RTVSPost2010PropOp43
 70
     1
102
RTVSPost2010Prop44ColorIndex
 90
        5
102
RTVSPost2010Prop44ColorRGB
 90
      255
102
RTVSPost2010PropOp44
 70
     1
102
RTVSPost2010Prop45
280
     0
102
RTVSPost2010PropOp45
 70
     1
102
RTVSPost2010Prop46
 90
       50
102
RTVSPost2010PropOp46
 70
     1
102
RTVSPost2010Prop47
 90
       50
102
RTVSPost2010PropOp47
 70
     1
102
RTVSPost2010Prop48
 90
       50
102
RTVSPost2010PropOp48
 70
     1
102
RTVSPost2010Prop49
280
     0
102
RTVSPost2010PropOp49
 70
     1
102
RTVSPost2010Prop50
 90
       50
102
RTVSPost2010PropOp50
 70
     1
102
RTVSPost2010Prop51ColorIndex
 90
      256
102
RTVSPost2010Prop51ColorRGB
 90
-16777216
102
RTVSPost2010PropOp51
 70
     0
102
RTVSPost2010Prop52
140
1.0
102
RTVSPost2010PropOp52
 70
     0
102
RTVSPost2010Prop53
 90
        2
102
RTVSPost2010PropOp53
 70
     1
102
RTVSPost2010Prop54
  1
strokes_ogs.tif
102
RTVSPost2010PropOp54
 70
     1
102
RTVSPost2010Prop55
280
     0
102
RTVSPost2010PropOp55
 70
     1
102
RTVSPost2010Prop56
140
1.0
102
RTVSPost2010PropOp56
 70
     1
102
RTVSPost2010Prop57
140
1.0
102
RTVSPost2010PropOp57
 70
     1
102
RTVSPropertyOp0
 70
     1
102
RTVSPropertyOp1
 70
     1
102
RTVSPropertyOp2
 70
     1
102
RTVSPropertyOp3
 70
     1
102
RTVSPropertyOp4
 70
     1
102
RTVSPropertyOp5
 70
     1
102
RTVSPropertyOp6
 70
     1
102
RTVSPropertyOp7
 70
     1
102
RTVSPropertyOp8
 70
     1
102
RTVSPropertyOp9
 70
     1
102
RTVSPropertyOp10
 70
     1
102
RTVSPropertyOp11
 70
     1
102
RTVSPropertyOp12
 70
     1
102
RTVSPropertyOp13
 70
     1
102
RTVSPropertyOp14
 70
     1
102
RTVSPropertyOp15
 70
     1
102
RTVSPropertyOp16
 70
     1
102
RTVSPropertyOp17
 70
     1
102
RTVSPropertyOp18
 70
     1
102
RTVSPropertyOp19
 70
     1
102
RTVSPropertyOp20
 70
     1
102
RTVSPropertyOp21
 70
     1
102
RTVSPropertyOp22
 70
     1
102
RTVSPropertyOp23
 70
     1
102
RTVSPropertyOp24
 70
     1
102
RTVSPropertyOp25
 70
     1
102
RTVSPropertyOp26
 70
     1
102
RTVSPropertyOp27
 70
     1
102
RTVSPropertyOp28
 70
     1
102
RTVSPropertyOp29
 70
     1
102
RTVSPropertyOp30
 70
     1
102
RTVSPropertyOp31
 70
     1
102
RTVSPropertyOp32
 70
     1
102
RTVSPropertyOp33
 70
     1
102
RTVSPropertyOp34
 70
     1
102
RTVSPropertyOp35
 70
     1
102
RTVSPropertyOp36
 70
     1
102
RTVSPropertyOp37
 70
     1
102
RTVSPropertyOp38
 70
     1
102
RTVSPropertyOp39
 70
     1
102
RTVSPropertyOp40
 70
     1
102
RTVSPropertyOp41
 70
     1
102
RTVSPropertyOp42
 70
     1
102
RTVSPropertyOp43
 70
     1
102
RTVSPropertyOp44
 70
     1
102
RTVSPropertyOp45
 70
     1
102
RTVSPropertyOp46
 70
     1
102
RTVSPropertyOp47
 70
     1
102
RTVSPropertyOp48
 70
     1
102
RTVSPropertyOp49
 70
     1
102
RTVSPropertyOp50
 70
     1
102
RTVSPropertyOp51
 70
     0
102
RTVSPropertyOp52
 70
     0
102
RTVSPropertyOp53
 70
     1
102
RTVSPropertyOp54
 70
     1
102
RTVSPropertyOp55
 70
     1
102
RTVSPropertyOp56
 70
     1
102
RTVSPropertyOp57
 70
     1
102
RTVSPropertyOp58
 70
     1
102
RTVSPropertyOp59
 70
     1
102
RTVSPropertyOp60
 70
     1
102
RTVSPropertyOp61
 70
     1
102
RTVSPropertyOp62
 70
     1
  0
XRECORD
  5
85A
102
{ACAD_REACTORS
330
859
102
}
330
859
100
AcDbXrecord
280
     1
102
RTVSPost2010Prop28
280
     0
102
RTVSPost2010PropOp28
 70
     1
102
RTVSPost2010Prop29
280
     1
102
RTVSPost2010PropOp29
 70
     1
102
RTVSPost2010Prop30
280
     1
102
RTVSPost2010PropOp30
 70
     1
102
RTVSPost2010Prop31
280
     0
102
RTVSPost2010PropOp31
 70
     1
102
RTVSPost2010Prop32
280
     0
102
RTVSPost2010PropOp32
 70
     1
102
RTVSPost2010Prop33
280
     0
102
RTVSPost2010PropOp33
 70
     1
102
RTVSPost2010Prop34
280
     0
102
RTVSPost2010PropOp34
 70
     1
102
RTVSPost2010Prop35
280
     0
102
RTVSPost2010PropOp35
 70
     1
102
RTVSPost2010Prop36
280
     0
102
RTVSPost2010PropOp36
 70
     1
102
RTVSPost2010Prop37
 90
       50
102
RTVSPost2010PropOp37
 70
     1
102
RTVSPost2010Prop38
140
0.0
102
RTVSPost2010PropOp38
 70
     1
102
RTVSPost2010Prop39
140
1.0
102
RTVSPost2010PropOp39
 70
     1
102
RTVSPost2010Prop40
 90
        0
102
RTVSPost2010PropOp40
 70
     1
102
RTVSPost2010Prop41ColorIndex
 90
       18
102
RTVSPost2010Prop41ColorRGB
 90
        0
102
RTVSPost2010PropOp41
 70
     1
102
RTVSPost2010Prop42
 90
       50
102
RTVSPost2010PropOp42
 70
     1
102
RTVSPost2010Prop43
 90
        3
102
RTVSPost2010PropOp43
 70
     1
102
RTVSPost2010Prop44ColorIndex
 90
        5
102
RTVSPost2010Prop44ColorRGB
 90
      255
102
RTVSPost2010PropOp44
 70
     1
102
RTVSPost2010Prop45
280
     0
102
RTVSPost2010PropOp45
 70
     1
102
RTVSPost2010Prop46
 90
       50
102
RTVSPost2010PropOp46
 70
     1
102
RTVSPost2010Prop47
 90
       50
102
RTVSPost2010PropOp47
 70
     1
102
RTVSPost2010Prop48
 90
       50
102
RTVSPost2010PropOp48
 70
     1
102
RTVSPost2010Prop49
280
     0
102
RTVSPost2010PropOp49
 70
     1
102
RTVSPost2010Prop50
 90
       50
102
RTVSPost2010PropOp50
 70
     1
102
RTVSPost2010Prop51ColorIndex
 90
      256
102
RTVSPost2010Prop51ColorRGB
 90
-16777216
102
RTVSPost2010PropOp51
 70
     0
102
RTVSPost2010Prop52
140
1.0
102
RTVSPost2010PropOp52
 70
     0
102
RTVSPost2010Prop53
 90
        2
102
RTVSPost2010PropOp53
 70
     1
102
RTVSPost2010Prop54
  1
strokes_ogs.tif
102
RTVSPost2010PropOp54
 70
     1
102
RTVSPost2010Prop55
280
     0
102
RTVSPost2010PropOp55
 70
     1
102
RTVSPost2010Prop56
140
1.0
102
RTVSPost2010PropOp56
 70
     1
102
RTVSPost2010Prop57
140
1.0
102
RTVSPost2010PropOp57
 70
     1
102
RTVSPropertyOp0
 70
     1
102
RTVSPropertyOp1
 70
     1
102
RTVSPropertyOp2
 70
     1
102
RTVSPropertyOp3
 70
     1
102
RTVSPropertyOp4
 70
     1
102
RTVSPropertyOp5
 70
     1
102
RTVSPropertyOp6
 70
     1
102
RTVSPropertyOp7
 70
     1
102
RTVSPropertyOp8
 70
     1
102
RTVSPropertyOp9
 70
     1
102
RTVSPropertyOp10
 70
     1
102
RTVSPropertyOp11
 70
     1
102
RTVSPropertyOp12
 70
     1
102
RTVSPropertyOp13
 70
     1
102
RTVSPropertyOp14
 70
     1
102
RTVSPropertyOp15
 70
     1
102
RTVSPropertyOp16
 70
     1
102
RTVSPropertyOp17
 70
     1
102
RTVSPropertyOp18
 70
     1
102
RTVSPropertyOp19
 70
     1
102
RTVSPropertyOp20
 70
     1
102
RTVSPropertyOp21
 70
     1
102
RTVSPropertyOp22
 70
     1
102
RTVSPropertyOp23
 70
     1
102
RTVSPropertyOp24
 70
     1
102
RTVSPropertyOp25
 70
     1
102
RTVSPropertyOp26
 70
     1
102
RTVSPropertyOp27
 70
     1
102
RTVSPropertyOp28
 70
     1
102
RTVSPropertyOp29
 70
     1
102
RTVSPropertyOp30
 70
     1
102
RTVSPropertyOp31
 70
     1
102
RTVSPropertyOp32
 70
     1
102
RTVSPropertyOp33
 70
     1
102
RTVSPropertyOp34
 70
     1
102
RTVSPropertyOp35
 70
     1
102
RTVSPropertyOp36
 70
     1
102
RTVSPropertyOp37
 70
     1
102
RTVSPropertyOp38
 70
     1
102
RTVSPropertyOp39
 70
     1
102
RTVSPropertyOp40
 70
     1
102
RTVSPropertyOp41
 70
     1
102
RTVSPropertyOp42
 70
     1
102
RTVSPropertyOp43
 70
     1
102
RTVSPropertyOp44
 70
     1
102
RTVSPropertyOp45
 70
     1
102
RTVSPropertyOp46
 70
     1
102
RTVSPropertyOp47
 70
     1
102
RTVSPropertyOp48
 70
     1
102
RTVSPropertyOp49
 70
     1
102
RTVSPropertyOp50
 70
     1
102
RTVSPropertyOp51
 70
     0
102
RTVSPropertyOp52
 70
     0
102
RTVSPropertyOp53
 70
     1
102
RTVSPropertyOp54
 70
     1
102
RTVSPropertyOp55
 70
     1
102
RTVSPropertyOp56
 70
     1
102
RTVSPropertyOp57
 70
     1
102
RTVSPropertyOp58
 70
     1
102
RTVSPropertyOp59
 70
     1
102
RTVSPropertyOp60
 70
     1
102
RTVSPropertyOp61
 70
     1
102
RTVSPropertyOp62
 70
     1
  0
XRECORD
  5
850
102
{ACAD_REACTORS
330
84F
102
}
330
84F
100
AcDbXrecord
280
     1
102
RTVSPost2010Prop28
280
     0
102
RTVSPost2010PropOp28
 70
     1
102
RTVSPost2010Prop29
280
     1
102
RTVSPost2010PropOp29
 70
     1
102
RTVSPost2010Prop30
280
     1
102
RTVSPost2010PropOp30
 70
     1
102
RTVSPost2010Prop31
280
     0
102
RTVSPost2010PropOp31
 70
     1
102
RTVSPost2010Prop32
280
     0
102
RTVSPost2010PropOp32
 70
     1
102
RTVSPost2010Prop33
280
     0
102
RTVSPost2010PropOp33
 70
     1
102
RTVSPost2010Prop34
280
     0
102
RTVSPost2010PropOp34
 70
     1
102
RTVSPost2010Prop35
280
     0
102
RTVSPost2010PropOp35
 70
     1
102
RTVSPost2010Prop36
280
     0
102
RTVSPost2010PropOp36
 70
     1
102
RTVSPost2010Prop37
 90
       50
102
RTVSPost2010PropOp37
 70
     1
102
RTVSPost2010Prop38
140
0.0
102
RTVSPost2010PropOp38
 70
     1
102
RTVSPost2010Prop39
140
1.0
102
RTVSPost2010PropOp39
 70
     1
102
RTVSPost2010Prop40
 90
        0
102
RTVSPost2010PropOp40
 70
     1
102
RTVSPost2010Prop41ColorIndex
 90
       18
102
RTVSPost2010Prop41ColorRGB
 90
        0
102
RTVSPost2010PropOp41
 70
     1
102
RTVSPost2010Prop42
 90
       50
102
RTVSPost2010PropOp42
 70
     1
102
RTVSPost2010Prop43
 90
        3
102
RTVSPost2010PropOp43
 70
     1
102
RTVSPost2010Prop44ColorIndex
 90
        5
102
RTVSPost2010Prop44ColorRGB
 90
      255
102
RTVSPost2010PropOp44
 70
     1
102
RTVSPost2010Prop45
280
     0
102
RTVSPost2010PropOp45
 70
     1
102
RTVSPost2010Prop46
 90
       50
102
RTVSPost2010PropOp46
 70
     1
102
RTVSPost2010Prop47
 90
       50
102
RTVSPost2010PropOp47
 70
     1
102
RTVSPost2010Prop48
 90
       50
102
RTVSPost2010PropOp48
 70
     1
102
RTVSPost2010Prop49
280
     0
102
RTVSPost2010PropOp49
 70
     1
102
RTVSPost2010Prop50
 90
       50
102
RTVSPost2010PropOp50
 70
     1
102
RTVSPost2010Prop51ColorIndex
 90
      256
102
RTVSPost2010Prop51ColorRGB
 90
-16777216
102
RTVSPost2010PropOp51
 70
     0
102
RTVSPost2010Prop52
140
1.0
102
RTVSPost2010PropOp52
 70
     0
102
RTVSPost2010Prop53
 90
        2
102
RTVSPost2010PropOp53
 70
     1
102
RTVSPost2010Prop54
  1
strokes_ogs.tif
102
RTVSPost2010PropOp54
 70
     1
102
RTVSPost2010Prop55
280
     0
102
RTVSPost2010PropOp55
 70
     1
102
RTVSPost2010Prop56
140
1.0
102
RTVSPost2010PropOp56
 70
     1
102
RTVSPost2010Prop57
140
1.0
102
RTVSPost2010PropOp57
 70
     1
102
RTVSPropertyOp0
 70
     1
102
RTVSPropertyOp1
 70
     1
102
RTVSPropertyOp2
 70
     1
102
RTVSPropertyOp3
 70
     1
102
RTVSPropertyOp4
 70
     1
102
RTVSPropertyOp5
 70
     1
102
RTVSPropertyOp6
 70
     1
102
RTVSPropertyOp7
 70
     1
102
RTVSPropertyOp8
 70
     1
102
RTVSPropertyOp9
 70
     1
102
RTVSPropertyOp10
 70
     1
102
RTVSPropertyOp11
 70
     1
102
RTVSPropertyOp12
 70
     1
102
RTVSPropertyOp13
 70
     1
102
RTVSPropertyOp14
 70
     1
102
RTVSPropertyOp15
 70
     1
102
RTVSPropertyOp16
 70
     1
102
RTVSPropertyOp17
 70
     1
102
RTVSPropertyOp18
 70
     1
102
RTVSPropertyOp19
 70
     1
102
RTVSPropertyOp20
 70
     1
102
RTVSPropertyOp21
 70
     1
102
RTVSPropertyOp22
 70
     1
102
RTVSPropertyOp23
 70
     1
102
RTVSPropertyOp24
 70
     1
102
RTVSPropertyOp25
 70
     1
102
RTVSPropertyOp26
 70
     1
102
RTVSPropertyOp27
 70
     1
102
RTVSPropertyOp28
 70
     1
102
RTVSPropertyOp29
 70
     1
102
RTVSPropertyOp30
 70
     1
102
RTVSPropertyOp31
 70
     1
102
RTVSPropertyOp32
 70
     1
102
RTVSPropertyOp33
 70
     1
102
RTVSPropertyOp34
 70
     1
102
RTVSPropertyOp35
 70
     1
102
RTVSPropertyOp36
 70
     1
102
RTVSPropertyOp37
 70
     1
102
RTVSPropertyOp38
 70
     1
102
RTVSPropertyOp39
 70
     1
102
RTVSPropertyOp40
 70
     1
102
RTVSPropertyOp41
 70
     1
102
RTVSPropertyOp42
 70
     1
102
RTVSPropertyOp43
 70
     1
102
RTVSPropertyOp44
 70
     1
102
RTVSPropertyOp45
 70
     1
102
RTVSPropertyOp46
 70
     1
102
RTVSPropertyOp47
 70
     1
102
RTVSPropertyOp48
 70
     1
102
RTVSPropertyOp49
 70
     1
102
RTVSPropertyOp50
 70
     1
102
RTVSPropertyOp51
 70
     0
102
RTVSPropertyOp52
 70
     0
102
RTVSPropertyOp53
 70
     1
102
RTVSPropertyOp54
 70
     1
102
RTVSPropertyOp55
 70
     1
102
RTVSPropertyOp56
 70
     1
102
RTVSPropertyOp57
 70
     1
102
RTVSPropertyOp58
 70
     1
102
RTVSPropertyOp59
 70
     1
102
RTVSPropertyOp60
 70
     1
102
RTVSPropertyOp61
 70
     1
102
RTVSPropertyOp62
 70
     1
  0
XRECORD
  5
844
102
{ACAD_REACTORS
330
843
102
}
330
843
100
AcDbXrecord
280
     1
102
RTVSPost2010Prop28
280
     0
102
RTVSPost2010PropOp28
 70
     1
102
RTVSPost2010Prop29
280
     1
102
RTVSPost2010PropOp29
 70
     1
102
RTVSPost2010Prop30
280
     1
102
RTVSPost2010PropOp30
 70
     1
102
RTVSPost2010Prop31
280
     0
102
RTVSPost2010PropOp31
 70
     1
102
RTVSPost2010Prop32
280
     0
102
RTVSPost2010PropOp32
 70
     1
102
RTVSPost2010Prop33
280
     0
102
RTVSPost2010PropOp33
 70
     1
102
RTVSPost2010Prop34
280
     0
102
RTVSPost2010PropOp34
 70
     1
102
RTVSPost2010Prop35
280
     0
102
RTVSPost2010PropOp35
 70
     1
102
RTVSPost2010Prop36
280
     0
102
RTVSPost2010PropOp36
 70
     1
102
RTVSPost2010Prop37
 90
       50
102
RTVSPost2010PropOp37
 70
     1
102
RTVSPost2010Prop38
140
0.0
102
RTVSPost2010PropOp38
 70
     1
102
RTVSPost2010Prop39
140
1.0
102
RTVSPost2010PropOp39
 70
     1
102
RTVSPost2010Prop40
 90
        0
102
RTVSPost2010PropOp40
 70
     1
102
RTVSPost2010Prop41ColorIndex
 90
       18
102
RTVSPost2010Prop41ColorRGB
 90
        0
102
RTVSPost2010PropOp41
 70
     1
102
RTVSPost2010Prop42
 90
       50
102
RTVSPost2010PropOp42
 70
     1
102
RTVSPost2010Prop43
 90
        3
102
RTVSPost2010PropOp43
 70
     1
102
RTVSPost2010Prop44ColorIndex
 90
        5
102
RTVSPost2010Prop44ColorRGB
 90
      255
102
RTVSPost2010PropOp44
 70
     1
102
RTVSPost2010Prop45
280
     0
102
RTVSPost2010PropOp45
 70
     1
102
RTVSPost2010Prop46
 90
       50
102
RTVSPost2010PropOp46
 70
     1
102
RTVSPost2010Prop47
 90
       50
102
RTVSPost2010PropOp47
 70
     1
102
RTVSPost2010Prop48
 90
       50
102
RTVSPost2010PropOp48
 70
     1
102
RTVSPost2010Prop49
280
     0
102
RTVSPost2010PropOp49
 70
     1
102
RTVSPost2010Prop50
 90
       50
102
RTVSPost2010PropOp50
 70
     1
102
RTVSPost2010Prop51ColorIndex
 90
      256
102
RTVSPost2010Prop51ColorRGB
 90
-16777216
102
RTVSPost2010PropOp51
 70
     0
102
RTVSPost2010Prop52
140
1.0
102
RTVSPost2010PropOp52
 70
     0
102
RTVSPost2010Prop53
 90
        2
102
RTVSPost2010PropOp53
 70
     1
102
RTVSPost2010Prop54
  1
strokes_ogs.tif
102
RTVSPost2010PropOp54
 70
     1
102
RTVSPost2010Prop55
280
     0
102
RTVSPost2010PropOp55
 70
     1
102
RTVSPost2010Prop56
140
1.0
102
RTVSPost2010PropOp56
 70
     1
102
RTVSPost2010Prop57
140
1.0
102
RTVSPost2010PropOp57
 70
     1
102
RTVSPropertyOp0
 70
     1
102
RTVSPropertyOp1
 70
     1
102
RTVSPropertyOp2
 70
     1
102
RTVSPropertyOp3
 70
     1
102
RTVSPropertyOp4
 70
     1
102
RTVSPropertyOp5
 70
     1
102
RTVSPropertyOp6
 70
     1
102
RTVSPropertyOp7
 70
     1
102
RTVSPropertyOp8
 70
     1
102
RTVSPropertyOp9
 70
     1
102
RTVSPropertyOp10
 70
     1
102
RTVSPropertyOp11
 70
     1
102
RTVSPropertyOp12
 70
     1
102
RTVSPropertyOp13
 70
     1
102
RTVSPropertyOp14
 70
     1
102
RTVSPropertyOp15
 70
     1
102
RTVSPropertyOp16
 70
     1
102
RTVSPropertyOp17
 70
     1
102
RTVSPropertyOp18
 70
     1
102
RTVSPropertyOp19
 70
     1
102
RTVSPropertyOp20
 70
     1
102
RTVSPropertyOp21
 70
     1
102
RTVSPropertyOp22
 70
     1
102
RTVSPropertyOp23
 70
     1
102
RTVSPropertyOp24
 70
     1
102
RTVSPropertyOp25
 70
     1
102
RTVSPropertyOp26
 70
     1
102
RTVSPropertyOp27
 70
     1
102
RTVSPropertyOp28
 70
     1
102
RTVSPropertyOp29
 70
     1
102
RTVSPropertyOp30
 70
     1
102
RTVSPropertyOp31
 70
     1
102
RTVSPropertyOp32
 70
     1
102
RTVSPropertyOp33
 70
     1
102
RTVSPropertyOp34
 70
     1
102
RTVSPropertyOp35
 70
     1
102
RTVSPropertyOp36
 70
     1
102
RTVSPropertyOp37
 70
     1
102
RTVSPropertyOp38
 70
     1
102
RTVSPropertyOp39
 70
     1
102
RTVSPropertyOp40
 70
     1
102
RTVSPropertyOp41
 70
     1
102
RTVSPropertyOp42
 70
     1
102
RTVSPropertyOp43
 70
     1
102
RTVSPropertyOp44
 70
     1
102
RTVSPropertyOp45
 70
     1
102
RTVSPropertyOp46
 70
     1
102
RTVSPropertyOp47
 70
     1
102
RTVSPropertyOp48
 70
     1
102
RTVSPropertyOp49
 70
     1
102
RTVSPropertyOp50
 70
     1
102
RTVSPropertyOp51
 70
     0
102
RTVSPropertyOp52
 70
     0
102
RTVSPropertyOp53
 70
     1
102
RTVSPropertyOp54
 70
     1
102
RTVSPropertyOp55
 70
     1
102
RTVSPropertyOp56
 70
     1
102
RTVSPropertyOp57
 70
     1
102
RTVSPropertyOp58
 70
     1
102
RTVSPropertyOp59
 70
     1
102
RTVSPropertyOp60
 70
     1
102
RTVSPropertyOp61
 70
     1
102
RTVSPropertyOp62
 70
     1
  0
XRECORD
  5
85C
102
{ACAD_REACTORS
330
85B
102
}
330
85B
100
AcDbXrecord
280
     1
102
RTVSPost2010Prop28
280
     0
102
RTVSPost2010PropOp28
 70
     1
102
RTVSPost2010Prop29
280
     1
102
RTVSPost2010PropOp29
 70
     1
102
RTVSPost2010Prop30
280
     1
102
RTVSPost2010PropOp30
 70
     1
102
RTVSPost2010Prop31
280
     0
102
RTVSPost2010PropOp31
 70
     1
102
RTVSPost2010Prop32
280
     0
102
RTVSPost2010PropOp32
 70
     1
102
RTVSPost2010Prop33
280
     0
102
RTVSPost2010PropOp33
 70
     1
102
RTVSPost2010Prop34
280
     0
102
RTVSPost2010PropOp34
 70
     1
102
RTVSPost2010Prop35
280
     0
102
RTVSPost2010PropOp35
 70
     1
102
RTVSPost2010Prop36
280
     0
102
RTVSPost2010PropOp36
 70
     1
102
RTVSPost2010Prop37
 90
       50
102
RTVSPost2010PropOp37
 70
     1
102
RTVSPost2010Prop38
140
0.0
102
RTVSPost2010PropOp38
 70
     1
102
RTVSPost2010Prop39
140
1.0
102
RTVSPost2010PropOp39
 70
     1
102
RTVSPost2010Prop40
 90
        0
102
RTVSPost2010PropOp40
 70
     1
102
RTVSPost2010Prop41ColorIndex
 90
       18
102
RTVSPost2010Prop41ColorRGB
 90
        0
102
RTVSPost2010PropOp41
 70
     1
102
RTVSPost2010Prop42
 90
       50
102
RTVSPost2010PropOp42
 70
     1
102
RTVSPost2010Prop43
 90
        3
102
RTVSPost2010PropOp43
 70
     1
102
RTVSPost2010Prop44ColorIndex
 90
        5
102
RTVSPost2010Prop44ColorRGB
 90
      255
102
RTVSPost2010PropOp44
 70
     1
102
RTVSPost2010Prop45
280
     0
102
RTVSPost2010PropOp45
 70
     1
102
RTVSPost2010Prop46
 90
       50
102
RTVSPost2010PropOp46
 70
     1
102
RTVSPost2010Prop47
 90
       50
102
RTVSPost2010PropOp47
 70
     1
102
RTVSPost2010Prop48
 90
       50
102
RTVSPost2010PropOp48
 70
     1
102
RTVSPost2010Prop49
280
     0
102
RTVSPost2010PropOp49
 70
     1
102
RTVSPost2010Prop50
 90
       50
102
RTVSPost2010PropOp50
 70
     1
102
RTVSPost2010Prop51ColorIndex
 90
      256
102
RTVSPost2010Prop51ColorRGB
 90
-16777216
102
RTVSPost2010PropOp51
 70
     0
102
RTVSPost2010Prop52
140
1.0
102
RTVSPost2010PropOp52
 70
     0
102
RTVSPost2010Prop53
 90
        2
102
RTVSPost2010PropOp53
 70
     1
102
RTVSPost2010Prop54
  1
strokes_ogs.tif
102
RTVSPost2010PropOp54
 70
     1
102
RTVSPost2010Prop55
280
     0
102
RTVSPost2010PropOp55
 70
     1
102
RTVSPost2010Prop56
140
1.0
102
RTVSPost2010PropOp56
 70
     1
102
RTVSPost2010Prop57
140
1.0
102
RTVSPost2010PropOp57
 70
     1
102
RTVSPropertyOp0
 70
     1
102
RTVSPropertyOp1
 70
     1
102
RTVSPropertyOp2
 70
     1
102
RTVSPropertyOp3
 70
     1
102
RTVSPropertyOp4
 70
     1
102
RTVSPropertyOp5
 70
     1
102
RTVSPropertyOp6
 70
     1
102
RTVSPropertyOp7
 70
     1
102
RTVSPropertyOp8
 70
     1
102
RTVSPropertyOp9
 70
     1
102
RTVSPropertyOp10
 70
     1
102
RTVSPropertyOp11
 70
     1
102
RTVSPropertyOp12
 70
     1
102
RTVSPropertyOp13
 70
     1
102
RTVSPropertyOp14
 70
     1
102
RTVSPropertyOp15
 70
     1
102
RTVSPropertyOp16
 70
     1
102
RTVSPropertyOp17
 70
     1
102
RTVSPropertyOp18
 70
     1
102
RTVSPropertyOp19
 70
     1
102
RTVSPropertyOp20
 70
     1
102
RTVSPropertyOp21
 70
     1
102
RTVSPropertyOp22
 70
     1
102
RTVSPropertyOp23
 70
     1
102
RTVSPropertyOp24
 70
     1
102
RTVSPropertyOp25
 70
     1
102
RTVSPropertyOp26
 70
     1
102
RTVSPropertyOp27
 70
     1
102
RTVSPropertyOp28
 70
     1
102
RTVSPropertyOp29
 70
     1
102
RTVSPropertyOp30
 70
     1
102
RTVSPropertyOp31
 70
     1
102
RTVSPropertyOp32
 70
     1
102
RTVSPropertyOp33
 70
     1
102
RTVSPropertyOp34
 70
     1
102
RTVSPropertyOp35
 70
     1
102
RTVSPropertyOp36
 70
     1
102
RTVSPropertyOp37
 70
     1
102
RTVSPropertyOp38
 70
     1
102
RTVSPropertyOp39
 70
     1
102
RTVSPropertyOp40
 70
     1
102
RTVSPropertyOp41
 70
     1
102
RTVSPropertyOp42
 70
     1
102
RTVSPropertyOp43
 70
     1
102
RTVSPropertyOp44
 70
     1
102
RTVSPropertyOp45
 70
     1
102
RTVSPropertyOp46
 70
     1
102
RTVSPropertyOp47
 70
     1
102
RTVSPropertyOp48
 70
     1
102
RTVSPropertyOp49
 70
     1
102
RTVSPropertyOp50
 70
     1
102
RTVSPropertyOp51
 70
     0
102
RTVSPropertyOp52
 70
     0
102
RTVSPropertyOp53
 70
     1
102
RTVSPropertyOp54
 70
     1
102
RTVSPropertyOp55
 70
     1
102
RTVSPropertyOp56
 70
     1
102
RTVSPropertyOp57
 70
     1
102
RTVSPropertyOp58
 70
     1
102
RTVSPropertyOp59
 70
     1
102
RTVSPropertyOp60
 70
     1
102
RTVSPropertyOp61
 70
     1
102
RTVSPropertyOp62
 70
     1
  0
ENDSEC
  0
EOF
