  0
SECTION
  2
HEADER
  9
$ACADVER
  1
AC1009
  9
$INSBASE
 10
0.0
 20
0.0
 30
0.0
  9
$EXTMIN
 10
-1177.324764452816
 20
-508.48240149521371
 30
-0.0000000000000052
  9
$EXTMAX
 10
1927.7131419482321
 20
1764.862094195061
 30
0.00000000000001
  9
$LIMMIN
 10
-4267.1522210604817
 20
-2696.0832101984129
  9
$LIMMAX
 10
7190.7174225864646
 20
5141.155363923066
  9
$ORTHOMODE
 70
     0
  9
$REGENMODE
 70
     1
  9
$FILLMODE
 70
     1
  9
$QTEXTMODE
 70
     0
  9
$MIRRTEXT
 70
     0
  9
$DRAGMODE
 70
     2
  9
$LTSCALE
 40
20.0
  9
$OSMODE
 70
   431
  9
$ATTMODE
 70
     1
  9
$TEXTSIZE
 40
64.0
  9
$TRACEWID
 40
0.05
  9
$TEXTSTYLE
  7
STANDARD_MODELNAME
  9
$CLAYER
  8
SYMBOLLINE
  9
$CELTYPE
  6
CONTINUOUS
  9
$CECOLOR
 62
     7
  9
$DIMSCALE
 40
1.0
  9
$DIMASZ
 40
30.0
  9
$DIMEXO
 40
20.0
  9
$DIMDLI
 40
80.0
  9
$DIMRND
 40
0.0
  9
$DIMDLE
 40
0.0
  9
$DIMEXE
 40
20.0
  9
$DIMTP
 40
0.0
  9
$DIMTM
 40
0.0
  9
$DIMTXT
 40
60.0
  9
$DIMCEN
 40
0.09
  9
$DIMTSZ
 40
0.0
  9
$DIMTOL
 70
     0
  9
$DIMLIM
 70
     0
  9
$DIMTIH
 70
     0
  9
$DIMTOH
 70
     0
  9
$DIMSE1
 70
     0
  9
$DIMSE2
 70
     0
  9
$DIMTAD
 70
     1
  9
$DIMZIN
 70
     8
  9
$DIMBLK
  1
SMALL
  9
$DIMASO
 70
     1
  9
$DIMSHO
 70
     0
  9
$DIMPOST
  1

  9
$DIMAPOST
  1

  9
$DIMALT
 70
     0
  9
$DIMALTD
 70
     2
  9
$DIMALTF
 40
25.399999999999999
  9
$DIMLFAC
 40
1.0
  9
$DIMTOFL
 70
     1
  9
$DIMTVP
 40
0.0
  9
$DIMTIX
 70
     0
  9
$DIMSOXD
 70
     0
  9
$DIMSAH
 70
     0
  9
$DIMBLK1
  1

  9
$DIMBLK2
  1

  9
$DIMSTYLE
  2
STANDARD
  9
$DIMCLRD
 70
     0
  9
$DIMCLRE
 70
     0
  9
$DIMCLRT
 70
     0
  9
$DIMTFAC
 40
1.0
  9
$DIMGAP
 40
0.09
  9
$LUNITS
 70
     2
  9
$LUPREC
 70
     4
  9
$SKETCHINC
 40
0.1
  9
$FILLETRAD
 40
0.0
  9
$AUNITS
 70
     1
  9
$AUPREC
 70
     3
  9
$MENU
  1
ACAD
  9
$ELEVATION
 40
0.0
  9
$PELEVATION
 40
0.0
  9
$THICKNESS
 40
0.0
  9
$LIMCHECK
 70
     0
  9
$BLIPMODE
 70
     0
  9
$CHAMFERA
 40
0.0
  9
$CHAMFERB
 40
0.0
  9
$SKPOLY
 70
     0
  9
$TDCREATE
 40
2450330.4399309959
  9
$TDUPDATE
 40
2457002.6286663199
  9
$TDINDWG
 40
4.0240810185000004
  9
$TDUSRTIMER
 40
4.0240591088000004
  9
$USRTIMER
 70
     1
  9
$ANGBASE
 50
0.0
  9
$ANGDIR
 70
     0
  9
$PDMODE
 70
     3
  9
$PDSIZE
 40
-2.0
  9
$PLINEWID
 40
0.0
  9
$COORDS
 70
     1
  9
$SPLFRAME
 70
     0
  9
$SPLINETYPE
 70
     6
  9
$SPLINESEGS
 70
     8
  9
$ATTDIA
 70
     1
  9
$ATTREQ
 70
     1
  9
$HANDLING
 70
     1
  9
$HANDSEED
  5
7216
  9
$SURFTAB1
 70
     6
  9
$SURFTAB2
 70
     6
  9
$SURFTYPE
 70
     6
  9
$SURFU
 70
     6
  9
$SURFV
 70
     6
  9
$UCSNAME
  2

  9
$UCSORG
 10
0.0
 20
0.0
 30
0.0
  9
$UCSXDIR
 10
1.0
 20
0.0
 30
0.0
  9
$UCSYDIR
 10
0.0
 20
1.0
 30
0.0
  9
$PUCSNAME
  2

  9
$PUCSORG
 10
0.0
 20
0.0
 30
0.0
  9
$PUCSXDIR
 10
1.0
 20
0.0
 30
0.0
  9
$PUCSYDIR
 10
0.0
 20
1.0
 30
0.0
  9
$USERI1
 70
     0
  9
$USERI2
 70
     0
  9
$USERI3
 70
     0
  9
$USERI4
 70
     0
  9
$USERI5
 70
     0
  9
$USERR1
 40
20.0
  9
$USERR2
 40
0.0
  9
$USERR3
 40
0.0
  9
$USERR4
 40
0.0
  9
$USERR5
 40
0.0
  9
$WORLDVIEW
 70
     1
  9
$SHADEDGE
 70
     3
  9
$SHADEDIF
 70
    70
  9
$TILEMODE
 70
     1
  9
$MAXACTVP
 70
    64
  9
$PLIMCHECK
 70
     0
  9
$PEXTMIN
 10
1.0000000000000000E+020
 20
1.0000000000000000E+020
 30
1.0000000000000000E+020
  9
$PEXTMAX
 10
-1.0000000000000000E+020
 20
-1.0000000000000000E+020
 30
-1.0000000000000000E+020
  9
$PLIMMIN
 10
0.0
 20
0.0
  9
$PLIMMAX
 10
12.0
 20
9.0
  9
$UNITMODE
 70
     0
  9
$VISRETAIN
 70
     1
  9
$PLINEGEN
 70
     0
  9
$PSLTSCALE
 70
     1
  0
ENDSEC
  0
SECTION
  2
TABLES
  0
TABLE
  2
VPORT
 70
     1
  0
VPORT
  2
*ACTIVE
 70
     0
 10
0.0
 20
0.0
 11
1.0
 21
1.0
 12
375.1941887477077
 22
628.18984634992376
 13
0.0
 23
0.0
 14
50.0
 24
50.0
 15
100.0
 25
100.0
 16
0.0
 26
0.0
 36
1.0
 17
0.0
 27
0.0
 37
0.0
 40
2291.197986494125
 41
1.6159895150720831
 42
50.0
 43
0.0
 44
0.0
 50
0.0
 51
0.0
 71
     0
 72
  1000
 73
     1
 74
     0
 75
     0
 76
     0
 77
     0
 78
     0
  0
ENDTAB
  0
TABLE
  2
LTYPE
 70
     3
  0
LTYPE
  2
CONTINUOUS
 70
     0
  3
実線
 72
    65
 73
     0
 40
0.0
  0
LTYPE
  2
DASHDOT
 70
     0
  3
____ _ ____ _ ____ _ ____ _ ____ _ ____ _ ____
 72
    65
 73
     4
 40
5.5
 49
4.0
 49
-0.6
 49
0.3
 49
-0.6
  0
ENDTAB
  0
TABLE
  2
LAYER
 70
    12
  0
LAYER
  2
0
 70
     0
 62
     7
  6
CONTINUOUS
  0
LAYER
  2
SYMBOLLINE
 70
     0
 62
    15
  6
CONTINUOUS
  0
LAYER
  2
SIZE
 70
     0
 62
    30
  6
CONTINUOUS
  0
LAYER
  2
OUTLINE
 70
     0
 62
     3
  6
CONTINUOUS
  0
LAYER
  2
DETAIL
 70
     0
 62
     5
  6
CONTINUOUS
  0
LAYER
  2
BASIS
 70
     0
 62
     6
  6
DASHDOT
  0
LAYER
  2
NOTE
 70
     0
 62
     4
  6
CONTINUOUS
  0
LAYER
  2
ARRANGE
 70
     0
 62
     1
  6
CONTINUOUS
  0
LAYER
  2
FIX
 70
     0
 62
    11
  6
CONTINUOUS
  0
LAYER
  2
SERVICESPACE
 70
     0
 62
     2
  6
DASHDOT
  0
LAYER
  2
ETC
 70
     0
 62
    61
  6
CONTINUOUS
  0
LAYER
  2
DEFPOINTS
 70
     0
 62
     7
  6
CONTINUOUS
  0
ENDTAB
  0
TABLE
  2
STYLE
 70
     4
  0
STYLE
  2
STANDARD
 70
     0
 40
0.0
 41
0.9
 50
0.0
 71
     0
 42
64.0
  3
SIMPLEX
  4
BIGFONT
  0
STYLE
  2
ANNOTATIVE
 70
     0
 40
0.0
 41
1.0
 50
0.0
 71
     0
 42
0.2
  3
txt
  4

  0
STYLE
  2
STANDARD_MODELNAME
 70
     0
 40
80.0
 41
0.8
 50
0.0
 71
     0
 42
64.0
  3
MONOTXT.shx
  4
BIGFONT.shx
  0
STYLE
  2
STANDARD1
 70
     0
 40
60.0
 41
0.7
 50
0.0
 71
     0
 42
64.0
  3
MONOTXT.shx
  4
BIGFONT.shx
  0
ENDTAB
  0
TABLE
  2
VIEW
 70
     1
  0
VIEW
  2
ALL
 70
     0
 40
9000.0
 10
241.50664699999999
 20
0.0
 41
12483.01
 11
0.0
 21
0.0
 31
1.0
 12
0.0
 22
0.0
 32
0.0
 42
50.0
 43
0.0
 44
0.0
 50
0.0
 71
     0
  0
ENDTAB
  0
TABLE
  2
UCS
 70
     0
  0
ENDTAB
  0
TABLE
  2
APPID
 70
     5
  0
APPID
  2
ACAD
 70
     0
  0
APPID
  2
ACADANNOTATIVE
 70
     0
  0
APPID
  2
ACAD_MLEADERVER
 70
     0
  0
APPID
  2
ACAD_EXEMPT_FROM_CAD_STANDARDS
 70
     0
  0
APPID
  2
ACAD_NAV_VCDISPLAY
 70
     0
  0
ENDTAB
  0
TABLE
  2
DIMSTYLE
 70
     2
  0
DIMSTYLE
  2
STANDARD
 70
     0
  3

  4

  5

  6

  7

 40
1.0
 41
0.18
 42
0.0625
 43
0.38
 44
0.18
 45
0.0
 46
0.0
 47
0.0
 48
0.0
140
0.18
141
0.09
142
0.0
143
25.399999999999999
144
1.0
145
0.0
146
1.0
147
0.09
 71
     0
 72
     0
 73
     1
 74
     1
 75
     0
 76
     0
 77
     0
 78
     0
170
     0
171
     2
172
     0
173
     0
174
     0
175
     0
176
     0
177
     0
178
     0
  0
DIMSTYLE
  2
ANNOTATIVE
 70
     0
  3

  4

  5

  6

  7

 40
1.0
 41
0.18
 42
0.0625
 43
0.38
 44
0.18
 45
0.0
 46
0.0
 47
0.0
 48
0.0
140
0.18
141
0.09
142
0.0
143
25.399999999999999
144
1.0
145
0.0
146
1.0
147
0.09
 71
     0
 72
     0
 73
     1
 74
     1
 75
     0
 76
     0
 77
     0
 78
     0
170
     0
171
     2
172
     0
173
     0
174
     0
175
     0
176
     0
177
     0
178
     0
  0
ENDTAB
  0
ENDSEC
  0
SECTION
  2
BLOCKS
  0
BLOCK
  8
0
  2
$MODEL_SPACE
 70
     0
 10
0.0
 20
0.0
 30
0.0
  3
$MODEL_SPACE
  1

  0
ENDBLK
  5
7189
  8
0
  0
BLOCK
 67
     1
  8
0
  2
$PAPER_SPACE
 70
     0
 10
0.0
 20
0.0
 30
0.0
  3
$PAPER_SPACE
  1

  0
ENDBLK
  5
7185
 67
     1
  8
0
  0
BLOCK
  8
0
  2
_SMALL
 70
     0
 10
0.0
 20
0.0
 30
0.0
  3
_SMALL
  1

  0
CIRCLE
  5
8D
  8
0
  6
CONTINUOUS
 62
     7
 10
0.0
 20
0.0
 30
0.0
 40
0.25
  0
ENDBLK
  5
8E
  8
0
  0
BLOCK
  8
0
 62
     7
  2
A$C4C5460BC
 70
     0
 10
0.0
 20
0.0
 30
0.0
  3
A$C4C5460BC
  1

  0
LINE
  5
6525
  8
DETAIL
  6
CONTINUOUS
 62
     3
 10
-0.0000019888399549
 20
0.6000004106410302
 30
0.0
 11
-0.0000019888399549
 21
0.0000004106406664
 31
0.0
  0
ENDBLK
  5
6527
  8
0
 62
     7
  0
ENDSEC
  0
SECTION
  2
ENTITIES
  0
LINE
  5
8F
  8
NOTE
  6
CONTINUOUS
 62
     4
 10
-85.22564799999985
 20
286.00000600000021
 30
0.0
 11
-364.77435200000008
 21
286.00000600000021
 31
0.0
  0
LINE
  5
90
  8
NOTE
  6
CONTINUOUS
 62
     4
 10
-225.0
 20
425.77435800000001
 30
0.0
 11
-225.0
 21
146.2256540000003
 31
0.0
  0
LINE
  5
91
  8
NOTE
  6
CONTINUOUS
 62
     4
 10
363.4826680000001
 20
286.0
 30
0.0
 11
86.517332000000337
 21
286.0
 31
0.0
  0
LINE
  5
92
  8
NOTE
  6
CONTINUOUS
 62
     4
 10
225.00000000000031
 20
424.48266799999999
 30
0.0
 11
225.00000000000031
 21
147.51733200000001
 31
0.0
  0
LINE
  5
93
  8
NOTE
  6
CONTINUOUS
 62
     4
 10
-571.661654
 20
1.0
 30
0.0
 11
-551.661654
 21
21.0
 31
0.0
  0
LINE
  5
94
  8
NOTE
  6
CONTINUOUS
 62
     4
 10
-521.661654
 20
1.0
 30
0.0
 11
-501.661654
 21
21.0
 31
0.0
  0
LINE
  5
95
  8
NOTE
  6
CONTINUOUS
 62
     4
 10
-561.66165399999977
 20
1.0
 30
0.0
 11
-541.66165399999966
 21
21.0
 31
0.0
  0
LINE
  5
96
  8
NOTE
  6
CONTINUOUS
 62
     4
 10
-526.661654
 20
1.0
 30
0.0
 11
-506.661654
 21
21.0
 31
0.0
  0
LINE
  5
97
  8
NOTE
  6
CONTINUOUS
 62
     4
 10
-566.66165399999966
 20
1.0
 30
0.0
 11
-546.661654
 21
21.0
 31
0.0
  0
LINE
  5
98
  8
NOTE
  6
CONTINUOUS
 62
     4
 10
-531.661654
 20
1.0
 30
0.0
 11
-511.66165399999988
 21
21.0
 31
0.0
  0
LINE
  5
99
  8
NOTE
  6
CONTINUOUS
 62
     4
 10
-490.0
 20
1.0
 30
0.0
 11
-490.0
 21
21.0
 31
0.0
  0
LINE
  5
9A
  8
NOTE
  6
CONTINUOUS
 62
     4
 10
-490.0
 20
21.0
 30
0.0
 11
-582.7040939999996
 21
21.0
 31
0.0
  0
LINE
  5
9B
  8
NOTE
  6
CONTINUOUS
 62
     4
 10
-490.0
 20
1.0
 30
0.0
 11
-582.7040939999996
 21
1.0
 31
0.0
  0
LINE
  5
9C
  8
NOTE
  6
CONTINUOUS
 62
     4
 10
970.0
 20
1.0
 30
0.0
 11
870.0
 21
1.0
 31
0.0
  0
LINE
  5
9D
  8
NOTE
  6
CONTINUOUS
 62
     4
 10
970.0
 20
21.0
 30
0.0
 11
870.0
 21
21.0
 31
0.0
  0
LINE
  5
9E
  8
NOTE
  6
CONTINUOUS
 62
     4
 10
888.33834600000012
 20
1.0
 30
0.0
 11
908.33834600000034
 21
21.0
 31
0.0
  0
LINE
  5
9F
  8
NOTE
  6
CONTINUOUS
 62
     4
 10
928.33834600000034
 20
1.0
 30
0.0
 11
948.33834600000046
 21
21.0
 31
0.0
  0
LINE
  5
A0
  8
NOTE
  6
CONTINUOUS
 62
     4
 10
893.33834600000034
 20
1.0
 30
0.0
 11
913.33834600000012
 21
21.0
 31
0.0
  0
LINE
  5
A1
  8
NOTE
  6
CONTINUOUS
 62
     4
 10
933.33834600000034
 20
1.0
 30
0.0
 11
953.33834600000034
 21
21.0
 31
0.0
  0
LINE
  5
A2
  8
NOTE
  6
CONTINUOUS
 62
     4
 10
898.33834600000046
 20
1.0
 30
0.0
 11
918.33834600000034
 21
21.0
 31
0.0
  0
LINE
  5
A3
  8
NOTE
  6
CONTINUOUS
 62
     4
 10
938.33834600000012
 20
1.0
 30
0.0
 11
958.33834600000034
 21
21.0
 31
0.0
  0
LINE
  5
A4
  8
NOTE
  6
CONTINUOUS
 62
     4
 10
870.0
 20
1.0
 30
0.0
 11
870.0
 21
21.0
 31
0.0
  0
LINE
  5
A5
  8
DETAIL
  6
CONTINUOUS
 62
     5
 10
-510.0
 20
-4.0065080000003901
 30
0.0
 11
-510.0
 21
0.0
 31
0.0
  0
LINE
  5
A6
  8
DETAIL
  6
CONTINUOUS
 62
     5
 10
-478.46999999999991
 20
0.0
 30
0.0
 11
-478.46999999999991
 21
47.0
 31
0.0
  0
LINE
  5
A7
  8
DETAIL
  6
CONTINUOUS
 62
     5
 10
-478.46999999999991
 20
0.0
 30
0.0
 11
-483.46999999999969
 21
0.0
 31
0.0
  0
ARC
  5
A8
  8
DETAIL
  6
CONTINUOUS
 62
     5
 10
-479.30000000000013
 20
112.0
 30
0.0
 40
120.0
 50
255.17702999999881
 51
270.0
  0
LINE
  5
A9
  8
DETAIL
  6
CONTINUOUS
 62
     5
 10
858.47000000000014
 20
0.0
 30
0.0
 11
858.47000000000014
 21
47.0
 31
0.0
  0
LINE
  5
AA
  8
DETAIL
  6
CONTINUOUS
 62
     5
 10
858.47000000000014
 20
47.0
 30
0.0
 11
-478.46999999999991
 21
47.0
 31
0.0
  0
ARC
  5
AB
  8
DETAIL
  6
CONTINUOUS
 62
     5
 10
859.29999999999984
 20
112.0
 30
0.0
 40
120.0
 50
270.0
 51
284.82297000000119
  0
LINE
  5
AC
  8
DETAIL
  6
CONTINUOUS
 62
     5
 10
859.29999999999984
 20
-8.0
 30
0.0
 11
-479.30000000000013
 21
-8.0
 31
0.0
  0
LINE
  5
AD
  8
DETAIL
  6
CONTINUOUS
 62
     5
 10
890.0
 20
0.0
 30
0.0
 11
-510.0
 21
0.0
 31
0.0
  0
LINE
  5
AE
  8
DETAIL
  6
CONTINUOUS
 62
     5
 10
890.0
 20
-4.0065080000003901
 30
0.0
 11
890.0
 21
0.0
 31
0.0
  0
LINE
  5
AF
  8
DETAIL
  6
CONTINUOUS
 62
     5
 10
-500.0
 20
375.0
 30
0.0
 11
-500.0
 21
384.30000000000013
 31
0.0
  0
LINE
  5
B0
  8
DETAIL
  6
CONTINUOUS
 62
     5
 10
-497.5
 20
384.30000000000013
 30
0.0
 11
-497.5
 21
375.0
 31
0.0
  0
LINE
  5
B2
  8
DETAIL
  6
CONTINUOUS
 62
     5
 10
-451.49999999999989
 20
327.0
 30
0.0
 11
-451.49999999999989
 21
384.30000000000013
 31
0.0
  0
LINE
  5
B3
  8
DETAIL
  6
CONTINUOUS
 62
     5
 10
-450.19999999999982
 20
152.60000000000031
 30
0.0
 11
-450.19999999999982
 21
161.60000000000031
 31
0.0
  0
LINE
  5
B4
  8
DETAIL
  6
CONTINUOUS
 62
     5
 10
-450.0
 20
152.80000000000021
 30
0.0
 11
-450.0
 21
165.0
 31
0.0
  0
LINE
  5
B7
  8
DETAIL
  6
CONTINUOUS
 62
     5
 10
-450.0
 20
390.0
 30
0.0
 11
-450.0
 21
401.19999999999982
 31
0.0
  0
LINE
  5
B8
  8
DETAIL
  6
CONTINUOUS
 62
     5
 10
-449.5
 20
176.0
 30
0.0
 11
-449.5
 21
397.0
 31
0.0
  0
LINE
  5
BA
  8
DETAIL
  6
CONTINUOUS
 62
     5
 10
-449.39999999999958
 20
152.80000000000021
 30
0.0
 11
-449.39999999999958
 21
165.0
 31
0.0
  0
LINE
  5
BB
  8
DETAIL
  6
CONTINUOUS
 62
     5
 10
-449.39999999999958
 20
397.96334399999978
 30
0.0
 11
-449.39999999999958
 21
401.19999999999982
 31
0.0
  0
LINE
  5
BC
  8
DETAIL
  6
CONTINUOUS
 62
     5
 10
-449.19999999999987
 20
402.0
 30
0.0
 11
-449.19999999999987
 21
398.69827100000009
 31
0.0
  0
LINE
  5
BD
  8
DETAIL
  6
CONTINUOUS
 62
     5
 10
-449.19999999999987
 20
151.60000000000031
 30
0.0
 11
-449.19999999999987
 21
152.0
 31
0.0
  0
LINE
  5
BE
  8
DETAIL
  6
CONTINUOUS
 62
     5
 10
-449.19999999999987
 20
152.0
 30
0.0
 11
-449.19999999999987
 21
164.0
 31
0.0
  0
LINE
  5
C0
  8
DETAIL
  6
CONTINUOUS
 62
     5
 10
-449.0
 20
173.8218159999997
 30
0.0
 11
-449.0
 21
164.5983429999996
 31
0.0
  0
LINE
  5
C1
  8
DETAIL
  6
CONTINUOUS
 62
     5
 10
-448.96501399999988
 20
397.0
 30
0.0
 11
-448.96501399999988
 21
176.0
 31
0.0
  0
LINE
  5
C2
  8
DETAIL
  6
CONTINUOUS
 62
     5
 10
-439.515534
 20
377.27882300000061
 30
0.0
 11
-439.515534
 21
356.40542099999948
 31
0.0
  0
LINE
  5
C3
  8
DETAIL
  6
CONTINUOUS
 62
     5
 10
-439.515534
 20
216.59457900000041
 30
0.0
 11
-439.515534
 21
195.7211769999993
 31
0.0
  0
LINE
  5
C4
  8
DETAIL
  6
CONTINUOUS
 62
     5
 10
-439.15962499999978
 20
376.92297400000001
 30
0.0
 11
-439.15962499999978
 21
196.0770259999999
 31
0.0
  0
LINE
  5
C5
  8
DETAIL
  6
CONTINUOUS
 62
     5
 10
-434.0
 20
151.39999999999961
 30
0.0
 11
-434.0
 21
133.89999999999961
 31
0.0
  0
LINE
  5
C6
  8
DETAIL
  6
CONTINUOUS
 62
     5
 10
-433.0
 20
151.39999999999961
 30
0.0
 11
-433.0
 21
133.89999999999961
 31
0.0
  0
LINE
  5
C7
  8
DETAIL
  6
CONTINUOUS
 62
     5
 10
-433.0
 20
132.89999999999961
 30
0.0
 11
-433.0
 21
133.89999999999961
 31
0.0
  0
LINE
  5
C8
  8
DETAIL
  6
CONTINUOUS
 62
     5
 10
-432.69999999999987
 20
152.0
 30
0.0
 11
-432.69999999999987
 21
149.39999999999961
 31
0.0
  0
LINE
  5
C9
  8
DETAIL
  6
CONTINUOUS
 62
     5
 10
-430.0
 20
130.0
 30
0.0
 11
-430.0
 21
132.89999999999961
 31
0.0
  0
LINE
  5
CA
  8
DETAIL
  6
CONTINUOUS
 62
     5
 10
-429.87717999999978
 20
378.395106
 30
0.0
 11
-429.87717999999978
 21
194.604894
 31
0.0
  0
LINE
  5
CB
  8
DETAIL
  6
CONTINUOUS
 62
     5
 10
-412.5
 20
152.0
 30
0.0
 11
-412.5
 21
136.89999999999961
 31
0.0
  0
LINE
  5
CC
  8
DETAIL
  6
CONTINUOUS
 62
     5
 10
-400.0
 20
142.0
 30
0.0
 11
-400.0
 21
152.0
 31
0.0
  0
LINE
  5
CF
  8
DETAIL
  6
CONTINUOUS
 62
     5
 10
-408.52930099999918
 20
387.3471870000003
 30
0.0
 11
-408.53961499999963
 21
387.27736000000021
 31
0.0
  0
LINE
  5
D4
  8
DETAIL
  6
CONTINUOUS
 62
     5
 10
-422.19999999999982
 20
133.89999999999961
 30
0.0
 11
-432.69999999999987
 21
149.39999999999961
 31
0.0
  0
LINE
  5
D9
  8
DETAIL
  6
CONTINUOUS
 62
     5
 10
-408.53961499999963
 20
185.7226399999999
 30
0.0
 11
-408.52930300000003
 21
185.6528200000001
 31
0.0
  0
LINE
  5
E0
  8
DETAIL
  6
CONTINUOUS
 62
     5
 10
-456.85918700000002
 20
384.44081
 30
0.0
 11
-451.49999999999989
 21
379.08162299999822
 31
0.0
  0
LINE
  5
E5
  8
DETAIL
  6
CONTINUOUS
 62
     5
 10
439.515534
 20
216.251722
 30
0.0
 11
439.58535399999982
 21
216.2616959999996
 31
0.0
  0
LINE
  5
E6
  8
DETAIL
  6
CONTINUOUS
 62
     5
 10
430.0
 20
130.0
 30
0.0
 11
-430.0
 21
130.0
 31
0.0
  0
LINE
  5
E7
  8
DETAIL
  6
CONTINUOUS
 62
     5
 10
433.0
 20
132.89999999999961
 30
0.0
 11
-433.0
 21
132.89999999999961
 31
0.0
  0
LINE
  5
E8
  8
DETAIL
  6
CONTINUOUS
 62
     5
 10
-434.0
 20
133.89999999999961
 30
0.0
 11
-433.0
 21
133.89999999999961
 31
0.0
  0
LINE
  5
E9
  8
DETAIL
  6
CONTINUOUS
 62
     5
 10
434.0
 20
133.89999999999961
 30
0.0
 11
433.0
 21
133.89999999999961
 31
0.0
  0
LINE
  5
EA
  8
DETAIL
  6
CONTINUOUS
 62
     5
 10
433.0
 20
133.89999999999961
 30
0.0
 11
422.19999999999982
 21
133.89999999999961
 31
0.0
  0
LINE
  5
EB
  8
DETAIL
  6
CONTINUOUS
 62
     5
 10
422.19999999999982
 20
133.89999999999961
 30
0.0
 11
415.5
 21
133.89999999999961
 31
0.0
  0
LINE
  5
EC
  8
DETAIL
  6
CONTINUOUS
 62
     5
 10
415.5
 20
133.89999999999961
 30
0.0
 11
-415.5
 21
133.89999999999961
 31
0.0
  0
LINE
  5
ED
  8
DETAIL
  6
CONTINUOUS
 62
     5
 10
-415.5
 20
133.89999999999961
 30
0.0
 11
-422.19999999999982
 21
133.89999999999961
 31
0.0
  0
LINE
  5
EE
  8
DETAIL
  6
CONTINUOUS
 62
     5
 10
-422.19999999999982
 20
133.89999999999961
 30
0.0
 11
-433.0
 21
133.89999999999961
 31
0.0
  0
LINE
  5
EF
  8
DETAIL
  6
CONTINUOUS
 62
     5
 10
400.0
 20
142.0
 30
0.0
 11
-400.0
 21
142.0
 31
0.0
  0
LINE
  5
F0
  8
DETAIL
  6
CONTINUOUS
 62
     5
 10
400.0
 20
142.80000000000021
 30
0.0
 11
-400.0
 21
142.80000000000021
 31
0.0
  0
LINE
  5
F1
  8
DETAIL
  6
CONTINUOUS
 62
     5
 10
400.0
 20
151.19999999999979
 30
0.0
 11
-400.0
 21
151.19999999999979
 31
0.0
  0
LINE
  5
F2
  8
DETAIL
  6
CONTINUOUS
 62
     5
 10
434.0
 20
151.39999999999961
 30
0.0
 11
432.69999999999987
 21
151.39999999999961
 31
0.0
  0
LINE
  5
F3
  8
DETAIL
  6
CONTINUOUS
 62
     5
 10
432.69999999999987
 20
151.39999999999961
 30
0.0
 11
412.5
 21
151.39999999999961
 31
0.0
  0
LINE
  5
F4
  8
DETAIL
  6
CONTINUOUS
 62
     5
 10
-412.5
 20
151.39999999999961
 30
0.0
 11
-432.69999999999987
 21
151.39999999999961
 31
0.0
  0
LINE
  5
F5
  8
DETAIL
  6
CONTINUOUS
 62
     5
 10
-432.69999999999987
 20
151.39999999999961
 30
0.0
 11
-434.0
 21
151.39999999999961
 31
0.0
  0
LINE
  5
F6
  8
DETAIL
  6
CONTINUOUS
 62
     5
 10
449.19999999999987
 20
151.60000000000031
 30
0.0
 11
432.69999999999987
 21
151.60000000000031
 31
0.0
  0
LINE
  5
F7
  8
DETAIL
  6
CONTINUOUS
 62
     5
 10
-432.69999999999987
 20
151.60000000000031
 30
0.0
 11
-449.19999999999987
 21
151.60000000000031
 31
0.0
  0
LINE
  5
F8
  8
DETAIL
  6
CONTINUOUS
 62
     5
 10
-449.19999999999987
 20
152.0
 30
0.0
 11
449.19999999999987
 21
152.0
 31
0.0
  0
LINE
  5
F9
  8
DETAIL
  6
CONTINUOUS
 62
     5
 10
-449.19999999999987
 20
152.80000000000021
 30
0.0
 11
449.19999999999987
 21
152.80000000000021
 31
0.0
  0
LINE
  5
FA
  8
DETAIL
  6
CONTINUOUS
 62
     5
 10
450.0
 20
161.60000000000031
 30
0.0
 11
450.19999999999982
 21
161.60000000000031
 31
0.0
  0
LINE
  5
FB
  8
DETAIL
  6
CONTINUOUS
 62
     5
 10
-450.0
 20
161.60000000000031
 30
0.0
 11
-450.19999999999982
 21
161.60000000000031
 31
0.0
  0
LINE
  5
FC
  8
DETAIL
  6
CONTINUOUS
 62
     5
 10
-448.19999999999982
 20
165.0
 30
0.0
 11
448.19999999999982
 21
165.0
 31
0.0
  0
LINE
  5
FD
  8
DETAIL
  6
CONTINUOUS
 62
     5
 10
449.39999999999981
 20
165.0
 30
0.0
 11
450.0
 21
165.0
 31
0.0
  0
LINE
  5
FE
  8
DETAIL
  6
CONTINUOUS
 62
     5
 10
-449.39999999999958
 20
165.0
 30
0.0
 11
-450.0
 21
165.0
 31
0.0
  0
LINE
  5
101
  8
DETAIL
  6
CONTINUOUS
 62
     5
 10
444.5
 20
171.0
 30
0.0
 11
-444.5
 21
171.0
 31
0.0
  0
LINE
  5
102
  8
DETAIL
  6
CONTINUOUS
 62
     5
 10
-444.5
 20
171.5349860000004
 30
0.0
 11
444.5
 21
171.5349860000004
 31
0.0
  0
LINE
  5
103
  8
DETAIL
  6
CONTINUOUS
 62
     5
 10
-429.51699999999971
 20
185.7226399999999
 30
0.0
 11
-408.53961499999963
 21
185.7226399999999
 31
0.0
  0
LINE
  5
104
  8
DETAIL
  6
CONTINUOUS
 62
     5
 10
408.43961499999989
 20
185.7226399999999
 30
0.0
 11
429.51699999999971
 21
185.7226399999999
 31
0.0
  0
LINE
  5
10A
  8
DETAIL
  6
CONTINUOUS
 62
     5
 10
-439.58535799999981
 20
216.60455999999971
 30
0.0
 11
-439.515534
 21
216.59457900000041
 31
0.0
  0
LINE
  5
115
  8
DETAIL
  6
CONTINUOUS
 62
     5
 10
453.98254799999989
 20
344.24349799999987
 30
0.0
 11
483.0
 21
344.75
 31
0.0
  0
LINE
  5
116
  8
DETAIL
  6
CONTINUOUS
 62
     5
 10
429.16109999999992
 20
186.0
 30
0.0
 11
-429.16109999999992
 21
186.0
 31
0.0
  0
LINE
  5
117
  8
DETAIL
  6
CONTINUOUS
 62
     5
 10
-429.87717999999978
 20
194.604894
 30
0.0
 11
-265.58242849445332
 21
194.604894
 31
0.0
  0
LINE
  5
118
  8
DETAIL
  6
CONTINUOUS
 62
     5
 10
267.12125400000008
 20
194.604894
 30
0.0
 11
429.87684499999989
 21
194.604894
 31
0.0
  0
LINE
  5
119
  8
DETAIL
  6
CONTINUOUS
 62
     5
 10
-181.2767666263104
 20
196.0651470000002
 30
0.0
 11
181.2767666263104
 21
196.0651470000002
 31
0.0
  0
LINE
  5
11B
  8
DETAIL
  6
CONTINUOUS
 62
     5
 10
455.79999999999978
 20
217.0
 30
0.0
 11
449.5
 21
217.0
 31
0.0
  0
LINE
  5
11C
  8
DETAIL
  6
CONTINUOUS
 62
     5
 10
455.79999999999978
 20
222.0
 30
0.0
 11
449.5
 21
222.0
 31
0.0
  0
LINE
  5
127
  8
DETAIL
  6
CONTINUOUS
 62
     5
 10
449.5
 20
269.80000000000013
 30
0.0
 11
450.0
 21
269.80000000000013
 31
0.0
  0
LINE
  5
12A
  8
DETAIL
  6
CONTINUOUS
 62
     5
 10
449.5
 20
276.80000000000013
 30
0.0
 11
450.0
 21
276.80000000000013
 31
0.0
  0
LINE
  5
12D
  8
DETAIL
  6
CONTINUOUS
 62
     5
 10
-451.49999999999989
 20
327.0
 30
0.0
 11
-449.5
 21
327.0
 31
0.0
  0
LINE
  5
12E
  8
DETAIL
  6
CONTINUOUS
 62
     5
 10
451.49999999999989
 20
327.0
 30
0.0
 11
449.5
 21
327.0
 31
0.0
  0
LINE
  5
12F
  8
DETAIL
  6
CONTINUOUS
 62
     5
 10
451.49999999999989
 20
330.0
 30
0.0
 11
449.5
 21
330.0
 31
0.0
  0
LINE
  5
130
  8
DETAIL
  6
CONTINUOUS
 62
     5
 10
453.0
 20
333.5
 30
0.0
 11
451.49999999999989
 21
333.5
 31
0.0
  0
LINE
  5
131
  8
DETAIL
  6
CONTINUOUS
 62
     5
 10
453.0
 20
336.5
 30
0.0
 11
451.49999999999989
 21
336.5
 31
0.0
  0
LINE
  5
132
  8
DETAIL
  6
CONTINUOUS
 62
     5
 10
453.0
 20
346.40801400000061
 30
0.0
 11
451.49999999999989
 21
346.40801400000061
 31
0.0
  0
LINE
  5
133
  8
DETAIL
  6
CONTINUOUS
 62
     5
 10
453.0
 20
348.40801400000061
 30
0.0
 11
451.49999999999989
 21
348.40801400000061
 31
0.0
  0
LINE
  5
141
  8
DETAIL
  6
CONTINUOUS
 62
     5
 10
-439.515534
 20
356.40542099999948
 30
0.0
 11
-439.58535399999982
 21
356.39543899999978
 31
0.0
  0
LINE
  5
143
  8
DETAIL
  6
CONTINUOUS
 62
     5
 10
497.5
 20
375.0
 30
0.0
 11
500.0
 21
375.0
 31
0.0
  0
LINE
  5
144
  8
DETAIL
  6
CONTINUOUS
 62
     5
 10
-497.5
 20
375.0
 30
0.0
 11
-500.0
 21
375.0
 31
0.0
  0
LINE
  5
145
  8
DETAIL
  6
CONTINUOUS
 62
     5
 10
183.39647129044599
 20
376.93485299999969
 30
0.0
 11
-49.480874999999742
 21
376.93485299999969
 31
0.0
  0
LINE
  5
146
  8
DETAIL
  6
CONTINUOUS
 62
     5
 10
49.480875000000211
 20
376.93485299999969
 30
0.0
 11
-183.39647129044599
 21
376.93485299999969
 31
0.0
  0
LINE
  5
147
  8
DETAIL
  6
CONTINUOUS
 62
     5
 10
429.87684499999989
 20
378.395106
 30
0.0
 11
263.25108489951691
 21
378.395106
 31
0.0
  0
LINE
  5
148
  8
DETAIL
  6
CONTINUOUS
 62
     5
 10
-263.25108489951691
 20
378.395106
 30
0.0
 11
-429.87717999999978
 21
378.395106
 31
0.0
  0
LINE
  5
14B
  8
DETAIL
  6
CONTINUOUS
 62
     5
 10
451.69999999999982
 20
384.5
 30
0.0
 11
497.29999999999978
 21
384.5
 31
0.0
  0
LINE
  5
14C
  8
DETAIL
  6
CONTINUOUS
 62
     5
 10
-451.69999999999982
 20
384.5
 30
0.0
 11
-497.29999999999978
 21
384.5
 31
0.0
  0
LINE
  5
14E
  8
DETAIL
  6
CONTINUOUS
 62
     5
 10
429.16115391961279
 20
386.91980000000001
 30
0.0
 11
-427.84915599999988
 21
386.91980699999999
 31
0.0
  0
LINE
  5
14F
  8
DETAIL
  6
CONTINUOUS
 62
     5
 10
179.48087400000031
 20
386.93332999999978
 30
0.0
 11
-49.480874999999742
 21
386.93332999999978
 31
0.0
  0
LINE
  5
151
  8
DETAIL
  6
CONTINUOUS
 62
     5
 10
451.69999999999982
 20
387.0
 30
0.0
 11
497.29999999999978
 21
387.0
 31
0.0
  0
LINE
  5
152
  8
DETAIL
  6
CONTINUOUS
 62
     5
 10
-451.69999999999982
 20
387.0
 30
0.0
 11
-497.29999999999978
 21
387.0
 31
0.0
  0
LINE
  5
153
  8
DETAIL
  6
CONTINUOUS
 62
     5
 10
429.51699699999989
 20
387.27736000000021
 30
0.0
 11
408.43961499999989
 21
387.27736000000021
 31
0.0
  0
LINE
  5
154
  8
DETAIL
  6
CONTINUOUS
 62
     5
 10
-408.53961499999963
 20
387.27736000000021
 30
0.0
 11
-429.51699999999971
 21
387.27736000000021
 31
0.0
  0
LINE
  5
158
  8
DETAIL
  6
CONTINUOUS
 62
     5
 10
449.5
 20
390.0
 30
0.0
 11
450.0
 21
390.0
 31
0.0
  0
LINE
  5
159
  8
DETAIL
  6
CONTINUOUS
 62
     5
 10
-449.5
 20
390.0
 30
0.0
 11
-450.0
 21
390.0
 31
0.0
  0
LINE
  5
15A
  8
DETAIL
  6
CONTINUOUS
 62
     5
 10
444.5
 20
401.46501399999909
 30
0.0
 11
-444.5
 21
401.46501399999909
 31
0.0
  0
LINE
  5
15B
  8
DETAIL
  6
CONTINUOUS
 62
     5
 10
-449.19999999999987
 20
402.0
 30
0.0
 11
-444.5
 21
402.0
 31
0.0
  0
LINE
  5
15C
  8
DETAIL
  6
CONTINUOUS
 62
     5
 10
-444.5
 20
402.0
 30
0.0
 11
444.5
 21
402.0
 31
0.0
  0
LINE
  5
15D
  8
DETAIL
  6
CONTINUOUS
 62
     5
 10
444.5
 20
402.0
 30
0.0
 11
449.19999999999987
 21
402.0
 31
0.0
  0
LINE
  5
15E
  8
DETAIL
  6
CONTINUOUS
 62
     5
 10
-427.84915599999988
 20
386.91980699999999
 30
0.0
 11
-429.16114800000008
 21
386.92145100000022
 31
0.0
  0
LINE
  5
15F
  8
DETAIL
  6
CONTINUOUS
 62
     5
 10
453.98254799999989
 20
377.75650200000013
 30
0.0
 11
483.0
 21
377.25
 31
0.0
  0
LINE
  5
160
  8
DETAIL
  6
CONTINUOUS
 62
     5
 10
439.5853580000001
 20
356.73829699999987
 30
0.0
 11
439.515534
 21
356.74827800000008
 31
0.0
  0
LINE
  5
165
  8
DETAIL
  6
CONTINUOUS
 62
     5
 10
400.0
 20
142.0
 30
0.0
 11
400.0
 21
152.0
 31
0.0
  0
LINE
  5
166
  8
DETAIL
  6
CONTINUOUS
 62
     5
 10
412.5
 20
152.0
 30
0.0
 11
412.5
 21
136.89999999999961
 31
0.0
  0
LINE
  5
16A
  8
DETAIL
  6
CONTINUOUS
 62
     5
 10
456.85918700000002
 20
384.44081
 30
0.0
 11
451.49999999999989
 21
379.08162299999952
 31
0.0
  0
LINE
  5
16B
  8
DETAIL
  6
CONTINUOUS
 62
     5
 10
456.85979400000002
 20
384.44142099999948
 30
0.0
 11
456.89740999999998
 21
384.47095100000013
 31
0.0
  0
LINE
  5
16C
  8
DETAIL
  6
CONTINUOUS
 62
     5
 10
456.89740999999998
 20
384.47095100000013
 30
0.0
 11
456.94739299999992
 21
384.4926219999997
 31
0.0
  0
LINE
  5
16D
  8
DETAIL
  6
CONTINUOUS
 62
     5
 10
456.94739299999992
 20
384.4926219999997
 30
0.0
 11
457.00121399999989
 21
384.4999989999996
 31
0.0
  0
LINE
  5
171
  8
DETAIL
  6
CONTINUOUS
 62
     5
 10
408.43961499999989
 20
387.27736000000021
 30
0.0
 11
408.42930200000001
 21
387.3471799999997
 31
0.0
  0
LINE
  5
172
  8
DETAIL
  6
CONTINUOUS
 62
     5
 10
429.87684499999989
 20
194.604894
 30
0.0
 11
429.87684499999989
 21
378.395106
 31
0.0
  0
LINE
  5
173
  8
DETAIL
  6
CONTINUOUS
 62
     5
 10
430.0
 20
130.0
 30
0.0
 11
430.0
 21
132.89999999999961
 31
0.0
  0
LINE
  5
174
  8
DETAIL
  6
CONTINUOUS
 62
     5
 10
432.69999999999987
 20
152.0
 30
0.0
 11
432.69999999999987
 21
149.39999999999961
 31
0.0
  0
LINE
  5
175
  8
DETAIL
  6
CONTINUOUS
 62
     5
 10
433.0
 20
132.89999999999961
 30
0.0
 11
433.0
 21
133.89999999999961
 31
0.0
  0
LINE
  5
176
  8
DETAIL
  6
CONTINUOUS
 62
     5
 10
433.0
 20
133.89999999999961
 30
0.0
 11
433.0
 21
151.39999999999961
 31
0.0
  0
LINE
  5
177
  8
DETAIL
  6
CONTINUOUS
 62
     5
 10
434.0
 20
151.39999999999961
 30
0.0
 11
434.0
 21
133.89999999999961
 31
0.0
  0
LINE
  5
178
  8
DETAIL
  6
CONTINUOUS
 62
     5
 10
439.15962999999988
 20
196.077021
 30
0.0
 11
439.15962999999988
 21
376.922979
 31
0.0
  0
LINE
  5
179
  8
DETAIL
  6
CONTINUOUS
 62
     5
 10
439.515534
 20
195.7211769999993
 30
0.0
 11
439.515534
 21
216.251722
 31
0.0
  0
LINE
  5
17A
  8
DETAIL
  6
CONTINUOUS
 62
     5
 10
439.515534
 20
356.74827800000008
 30
0.0
 11
439.515534
 21
377.27882599999992
 31
0.0
  0
LINE
  5
17B
  8
DETAIL
  6
CONTINUOUS
 62
     5
 10
448.96501399999988
 20
176.0
 30
0.0
 11
448.96501399999988
 21
397.0
 31
0.0
  0
LINE
  5
17C
  8
DETAIL
  6
CONTINUOUS
 62
     5
 10
449.0
 20
173.8218159999997
 30
0.0
 11
449.0
 21
164.5983429999996
 31
0.0
  0
LINE
  5
17D
  8
DETAIL
  6
CONTINUOUS
 62
     5
 10
449.19999999999987
 20
151.60000000000031
 30
0.0
 11
449.19999999999987
 21
152.0
 31
0.0
  0
LINE
  5
17E
  8
DETAIL
  6
CONTINUOUS
 62
     5
 10
449.19999999999987
 20
152.0
 30
0.0
 11
449.19999999999987
 21
164.0
 31
0.0
  0
LINE
  5
17F
  8
DETAIL
  6
CONTINUOUS
 62
     5
 10
449.19999999999987
 20
398.69827100000009
 30
0.0
 11
449.19999999999987
 21
402.0
 31
0.0
  0
LINE
  5
180
  8
DETAIL
  6
CONTINUOUS
 62
     5
 10
449.39999999999981
 20
152.80000000000021
 30
0.0
 11
449.39999999999981
 21
165.0
 31
0.0
  0
LINE
  5
181
  8
DETAIL
  6
CONTINUOUS
 62
     5
 10
449.39999999999981
 20
397.96334399999978
 30
0.0
 11
449.39999999999981
 21
401.19999999999982
 31
0.0
  0
LINE
  5
182
  8
DETAIL
  6
CONTINUOUS
 62
     5
 10
449.5
 20
397.0
 30
0.0
 11
449.5
 21
176.0
 31
0.0
  0
LINE
  5
183
  8
DETAIL
  6
CONTINUOUS
 62
     5
 10
449.80000000000013
 20
217.0
 30
0.0
 11
449.80000000000013
 21
227.80000000000021
 31
0.0
  0
LINE
  5
184
  8
DETAIL
  6
CONTINUOUS
 62
     5
 10
450.0
 20
327.0
 30
0.0
 11
450.0
 21
269.80000000000013
 31
0.0
  0
LINE
  5
186
  8
DETAIL
  6
CONTINUOUS
 62
     5
 10
450.0
 20
217.0
 30
0.0
 11
450.0
 21
200.99999999999989
 31
0.0
  0
LINE
  5
187
  8
DETAIL
  6
CONTINUOUS
 62
     5
 10
450.0
 20
152.80000000000021
 30
0.0
 11
450.0
 21
165.0
 31
0.0
  0
LINE
  5
189
  8
DETAIL
  6
CONTINUOUS
 62
     5
 10
450.0
 20
390.0
 30
0.0
 11
450.0
 21
401.19999999999982
 31
0.0
  0
LINE
  5
18A
  8
DETAIL
  6
CONTINUOUS
 62
     5
 10
450.19999999999982
 20
152.60000000000031
 30
0.0
 11
450.19999999999982
 21
161.60000000000031
 31
0.0
  0
LINE
  5
18B
  8
DETAIL
  6
CONTINUOUS
 62
     5
 10
450.80000000000001
 20
217.0
 30
0.0
 11
450.80000000000001
 21
227.80000000000021
 31
0.0
  0
LINE
  5
18C
  8
DETAIL
  6
CONTINUOUS
 62
     5
 10
450.80000000000001
 20
296.30000000000018
 30
0.0
 11
450.80000000000001
 21
327.0
 31
0.0
  0
LINE
  5
18D
  8
DETAIL
  6
CONTINUOUS
 62
     5
 10
451.49999999999989
 20
327.0
 30
0.0
 11
451.49999999999989
 21
384.30000000000013
 31
0.0
  0
LINE
  5
190
  8
DETAIL
  6
CONTINUOUS
 62
     5
 10
453.0
 20
380.58162299999998
 30
0.0
 11
453.0
 21
333.5
 31
0.0
  0
LINE
  5
191
  8
DETAIL
  6
CONTINUOUS
 62
     5
 10
453.98254799999989
 20
377.75650200000013
 30
0.0
 11
453.98254799999989
 21
344.24349799999987
 31
0.0
  0
LINE
  5
192
  8
DETAIL
  6
CONTINUOUS
 62
     5
 10
455.79999999999978
 20
217.0
 30
0.0
 11
455.79999999999978
 21
227.80000000000021
 31
0.0
  0
LINE
  5
193
  8
DETAIL
  6
CONTINUOUS
 62
     5
 10
455.79999999999978
 20
296.30000000000018
 30
0.0
 11
455.79999999999978
 21
344.27522200000021
 31
0.0
  0
LINE
  5
194
  8
DETAIL
  6
CONTINUOUS
 62
     5
 10
483.0
 20
377.25
 30
0.0
 11
483.0
 21
344.75
 31
0.0
  0
LINE
  5
197
  8
DETAIL
  6
CONTINUOUS
 62
     5
 10
497.5
 20
375.0
 30
0.0
 11
497.5
 21
384.30000000000013
 31
0.0
  0
LINE
  5
198
  8
DETAIL
  6
CONTINUOUS
 62
     5
 10
500.0
 20
384.30000000000013
 30
0.0
 11
500.0
 21
375.0
 31
0.0
  0
LINE
  5
19A
  8
DETAIL
  6
CONTINUOUS
 62
     5
 10
508.0
 20
376.5
 30
0.0
 11
508.0
 21
345.5
 31
0.0
  0
LINE
  5
19F
  8
DETAIL
  6
CONTINUOUS
 62
     5
 10
408.42930100000001
 20
185.6528129999997
 30
0.0
 11
408.43961499999989
 21
185.7226399999999
 31
0.0
  0
LINE
  5
1A1
  8
DETAIL
  6
CONTINUOUS
 62
     5
 10
422.19999999999982
 20
133.89999999999961
 30
0.0
 11
432.69999999999987
 21
149.39999999999961
 31
0.0
  0
ARC
  5
1A5
  8
DETAIL
  6
CONTINUOUS
 62
     5
 10
-415.5
 20
136.89999999999961
 30
0.0
 40
3.0
 50
270.0
 51
0.0
  0
ARC
  5
1AA
  8
DETAIL
  6
CONTINUOUS
 62
     5
 10
-429.02207194206682
 20
196.1368002609388
 30
0.0
 40
10.13775361364935
 50
180.33782909355941
 51
269.2142272376293
  0
ARC
  5
1AB
  8
DETAIL
  6
CONTINUOUS
 62
     5
 10
-429.51851299999998
 20
195.71966100000009
 30
0.0
 40
9.9969859999999997
 50
179.99131499995241
 51
270.00867099998862
  0
ARC
  5
1AE
  8
DETAIL
  6
CONTINUOUS
 62
     5
 10
-444.5
 20
176.0
 30
0.0
 40
5.0
 50
180.0
 51
270.0
  0
ARC
  5
1AF
  8
DETAIL
  6
CONTINUOUS
 62
     5
 10
-444.5
 20
176.0
 30
0.0
 40
4.465012999999999
 50
180.0
 51
270.0
  0
ARC
  5
1B1
  8
DETAIL
  6
CONTINUOUS
 62
     5
 10
-448.19999999999982
 20
164.0
 30
0.0
 40
1.0
 50
90.0
 51
180.0
  0
ARC
  5
1B2
  8
DETAIL
  6
CONTINUOUS
 62
     5
 10
-449.19999999999987
 20
152.60000000000031
 30
0.0
 40
1.0
 50
180.0
 51
270.0
  0
ARC
  5
1B3
  8
DETAIL
  6
CONTINUOUS
 62
     5
 10
-449.19999999999987
 20
152.80000000000021
 30
0.0
 40
0.8
 50
180.0
 51
270.0
  0
ARC
  5
1B4
  8
DETAIL
  6
CONTINUOUS
 62
     5
 10
-449.19999999999987
 20
152.80000000000021
 30
0.0
 40
0.2
 50
180.0
 51
270.0
  0
ARC
  5
1B6
  8
DETAIL
  6
CONTINUOUS
 62
     5
 10
-429.15749799999998
 20
376.9193240000003
 30
0.0
 40
10.002152000000001
 50
90.020907999999224
 51
179.97909199997471
  0
ARC
  5
1B7
  8
DETAIL
  6
CONTINUOUS
 62
     5
 10
-429.51851299999998
 20
377.28033899999991
 30
0.0
 40
9.9969859999999997
 50
89.991329000011362
 51
180.00868499994331
  0
ARC
  5
1BA
  8
DETAIL
  6
CONTINUOUS
 62
     5
 10
-444.5
 20
397.0
 30
0.0
 40
5.0
 50
90.0
 51
180.0
  0
ARC
  5
1BB
  8
DETAIL
  6
CONTINUOUS
 62
     5
 10
-444.5
 20
397.0
 30
0.0
 40
4.465012999999999
 50
90.0
 51
180.0
  0
ARC
  5
1BD
  8
DETAIL
  6
CONTINUOUS
 62
     5
 10
-497.29999999999978
 20
384.30000000000013
 30
0.0
 40
2.7000000000000002
 50
90.0
 51
180.0
  0
ARC
  5
1BE
  8
DETAIL
  6
CONTINUOUS
 62
     5
 10
-451.69999999999982
 20
384.30000000000013
 30
0.0
 40
2.7000000000000002
 50
35.365659999990008
 51
90.0
  0
ARC
  5
1BF
  8
DETAIL
  6
CONTINUOUS
 62
     5
 10
-449.19999999999987
 20
401.19999999999982
 30
0.0
 40
0.8
 50
90.0
 51
180.0
  0
ARC
  5
1C0
  8
DETAIL
  6
CONTINUOUS
 62
     5
 10
-451.69999999999982
 20
384.30000000000013
 30
0.0
 40
0.2
 50
0.0
 51
90.0
  0
ARC
  5
1C1
  8
DETAIL
  6
CONTINUOUS
 62
     5
 10
-497.29999999999978
 20
384.30000000000013
 30
0.0
 40
0.2
 50
90.0
 51
180.0
  0
ARC
  5
1C2
  8
DETAIL
  6
CONTINUOUS
 62
     5
 10
-449.19999999999987
 20
401.19999999999982
 30
0.0
 40
0.2
 50
90.0
 51
180.0
  0
CIRCLE
  5
1D7
  8
DETAIL
  6
CONTINUOUS
 62
     5
 10
-225.0
 20
286.00000600000021
 30
0.0
 40
100.0
  0
CIRCLE
  5
1D8
  8
DETAIL
  6
CONTINUOUS
 62
     5
 10
-225.0
 20
286.00000600000021
 30
0.0
 40
97.0
  0
ARC
  5
1E0
  8
DETAIL
  6
CONTINUOUS
 62
     5
 10
429.0220857665131
 20
196.136791603847
 30
0.0
 40
10.13774476779402
 50
270.78569530868998
 51
359.66219128090808
  0
ARC
  5
1E1
  8
DETAIL
  6
CONTINUOUS
 62
     5
 10
429.51851299999998
 20
195.71966100000009
 30
0.0
 40
9.9969859999999997
 50
269.99133000000631
 51
0.0086839999484026
  0
ARC
  5
1E4
  8
DETAIL
  6
CONTINUOUS
 62
     5
 10
444.5
 20
176.0
 30
0.0
 40
5.0
 50
270.0
 51
0.0
  0
ARC
  5
1E5
  8
DETAIL
  6
CONTINUOUS
 62
     5
 10
444.5
 20
176.0
 30
0.0
 40
4.465012999999999
 50
270.0
 51
0.0
  0
ARC
  5
1E7
  8
DETAIL
  6
CONTINUOUS
 62
     5
 10
415.5
 20
136.89999999999961
 30
0.0
 40
3.0
 50
180.0
 51
270.0
  0
ARC
  5
1E8
  8
DETAIL
  6
CONTINUOUS
 62
     5
 10
448.19999999999982
 20
164.0
 30
0.0
 40
1.0
 50
0.0
 51
90.0
  0
ARC
  5
1E9
  8
DETAIL
  6
CONTINUOUS
 62
     5
 10
449.19999999999987
 20
152.60000000000031
 30
0.0
 40
1.0
 50
270.0
 51
0.0
  0
ARC
  5
1EA
  8
DETAIL
  6
CONTINUOUS
 62
     5
 10
449.19999999999987
 20
152.80000000000021
 30
0.0
 40
0.8
 50
270.0
 51
0.0
  0
ARC
  5
1EB
  8
DETAIL
  6
CONTINUOUS
 62
     5
 10
449.19999999999987
 20
152.80000000000021
 30
0.0
 40
0.2
 50
270.0
 51
0.0
  0
CIRCLE
  5
200
  8
DETAIL
  6
CONTINUOUS
 62
     5
 10
225.0
 20
286.00000600000021
 30
0.0
 40
100.0
  0
CIRCLE
  5
201
  8
DETAIL
  6
CONTINUOUS
 62
     5
 10
225.0
 20
286.00000600000021
 30
0.0
 40
97.0
  0
ARC
  5
204
  8
DETAIL
  6
CONTINUOUS
 62
     5
 10
454.0
 20
343.24365099999972
 30
0.0
 40
1.0
 50
91.000000000002117
 51
180.0
  0
ARC
  5
206
  8
DETAIL
  6
CONTINUOUS
 62
     5
 10
429.1603757295606
 20
376.92052012324228
 30
0.0
 40
9.9992799070388863
 50
0.0140946101576053
 51
89.995540978339534
  0
ARC
  5
207
  8
DETAIL
  6
CONTINUOUS
 62
     5
 10
429.51851299999998
 20
377.28033899999991
 30
0.0
 40
9.9969859999999997
 50
359.99132999998022
 51
90.008684000000457
  0
ARC
  5
20A
  8
DETAIL
  6
CONTINUOUS
 62
     5
 10
444.5
 20
397.0
 30
0.0
 40
5.0
 50
0.0
 51
90.0
  0
ARC
  5
20B
  8
DETAIL
  6
CONTINUOUS
 62
     5
 10
444.5
 20
397.0
 30
0.0
 40
4.465012999999999
 50
0.0
 51
90.0
  0
ARC
  5
20D
  8
DETAIL
  6
CONTINUOUS
 62
     5
 10
497.29999999999978
 20
384.30000000000013
 30
0.0
 40
2.7000000000000002
 50
0.0
 51
90.0
  0
ARC
  5
20E
  8
DETAIL
  6
CONTINUOUS
 62
     5
 10
451.69999999999982
 20
384.30000000000013
 30
0.0
 40
2.7000000000000002
 50
90.0
 51
144.5690553126588
  0
ARC
  5
20F
  8
DETAIL
  6
CONTINUOUS
 62
     5
 10
454.0
 20
378.75634900000023
 30
0.0
 40
1.0
 50
180.0
 51
268.99999999999773
  0
ARC
  5
210
  8
DETAIL
  6
CONTINUOUS
 62
     5
 10
449.19999999999987
 20
401.19999999999982
 30
0.0
 40
0.8
 50
0.0
 51
90.0
  0
ARC
  5
211
  8
DETAIL
  6
CONTINUOUS
 62
     5
 10
507.5
 20
376.5
 30
0.0
 40
0.5
 50
0.0
 51
90.0
  0
ARC
  5
212
  8
DETAIL
  6
CONTINUOUS
 62
     5
 10
507.5
 20
345.5
 30
0.0
 40
0.5
 50
270.0
 51
0.0
  0
ARC
  5
213
  8
DETAIL
  6
CONTINUOUS
 62
     5
 10
451.69999999999982
 20
384.30000000000013
 30
0.0
 40
0.2
 50
90.0
 51
180.0
  0
ARC
  5
214
  8
DETAIL
  6
CONTINUOUS
 62
     5
 10
497.29999999999978
 20
384.30000000000013
 30
0.0
 40
0.2
 50
0.0
 51
90.0
  0
ARC
  5
215
  8
DETAIL
  6
CONTINUOUS
 62
     5
 10
449.19999999999987
 20
401.19999999999982
 30
0.0
 40
0.2
 50
0.0
 51
90.0
  0
LINE
  5
AA1
  8
DETAIL
  6
CONTINUOUS
 62
     5
 10
408.42930200000001
 20
387.3471799999997
 30
0.0
 11
-408.52930099999918
 21
387.3471870000003
 31
0.0
  0
LINE
  5
D42
  8
DETAIL
  6
CONTINUOUS
 62
     5
 10
-408.52930300000003
 20
185.6528200000001
 30
0.0
 11
408.42930100000001
 21
185.6528129999997
 31
0.0
  0
LINE
  5
3981
  8
DETAIL
  6
CONTINUOUS
 62
     5
 10
-439.58535399999982
 20
356.39543899999978
 30
0.0
 11
-439.58535799999981
 21
216.60455999999971
 31
0.0
  0
LINE
  5
3982
  8
DETAIL
  6
CONTINUOUS
 62
     5
 10
439.58535399999982
 20
216.2616959999996
 30
0.0
 11
439.5853580000001
 21
356.73829699999987
 31
0.0
  0
LINE
  5
5EAD
  8
DETAIL
  6
CONTINUOUS
 62
     5
 10
412.5
 20
151.39999999999961
 30
0.0
 11
400.0
 21
151.39999999999961
 31
0.0
  0
LINE
  5
5EAE
  8
DETAIL
  6
CONTINUOUS
 62
     5
 10
-400.0
 20
151.39999999999961
 30
0.0
 11
-412.5
 21
151.39999999999961
 31
0.0
  0
LINE
  5
5EAF
  8
DETAIL
  6
CONTINUOUS
 62
     5
 10
449.0
 20
164.69999999999979
 30
0.0
 11
449.39999999999981
 21
164.69999999999979
 31
0.0
  0
LINE
  5
5EB4
  8
DETAIL
  6
CONTINUOUS
 62
     5
 10
449.5
 20
208.0
 30
0.0
 11
449.59999999999991
 21
208.0
 31
0.0
  0
LINE
  5
5EB5
  8
DETAIL
  6
CONTINUOUS
 62
     5
 10
449.5
 20
213.0
 30
0.0
 11
449.59999999999991
 21
213.0
 31
0.0
  0
LINE
  5
5EB6
  8
DETAIL
  6
CONTINUOUS
 62
     5
 10
449.5
 20
228.0
 30
0.0
 11
480.0
 21
228.0
 31
0.0
  0
LINE
  5
5EB7
  8
DETAIL
  6
CONTINUOUS
 62
     5
 10
449.5
 20
263.5
 30
0.0
 11
473.0
 21
263.5
 31
0.0
  0
LINE
  5
5EB8
  8
DETAIL
  6
CONTINUOUS
 62
     5
 10
473.0
 20
266.0
 30
0.0
 11
480.0
 21
266.0
 31
0.0
  0
LINE
  5
5EBD
  8
DETAIL
  6
CONTINUOUS
 62
     5
 10
450.0
 20
296.5
 30
0.0
 11
473.0
 21
296.5
 31
0.0
  0
LINE
  5
5EBE
  8
DETAIL
  6
CONTINUOUS
 62
     5
 10
483.0
 20
345.0
 30
0.0
 11
507.5
 21
345.0
 31
0.0
  0
LINE
  5
5EC1
  8
DETAIL
  6
CONTINUOUS
 62
     5
 10
483.0
 20
377.0
 30
0.0
 11
497.5
 21
377.0
 31
0.0
  0
LINE
  5
5EC2
  8
DETAIL
  6
CONTINUOUS
 62
     5
 10
500.0
 20
377.0
 30
0.0
 11
507.5
 21
377.0
 31
0.0
  0
LINE
  5
5EC9
  8
DETAIL
  6
CONTINUOUS
 62
     5
 10
449.59999999999991
 20
217.0
 30
0.0
 11
449.59999999999991
 21
200.99999999999989
 31
0.0
  0
LINE
  5
5ECA
  8
DETAIL
  6
CONTINUOUS
 62
     5
 10
473.0
 20
296.4992589999992
 30
0.0
 11
473.0
 21
263.50074099999972
 31
0.0
  0
LINE
  5
5ECB
  8
DETAIL
  6
CONTINUOUS
 62
     5
 10
480.0
 20
266.0
 30
0.0
 11
480.0
 21
228.0
 31
0.0
  0
LINE
  5
620A
  8
SIZE
  6
CONTINUOUS
 62
    30
 10
450.0
 20
421.19999999999982
 30
0.0
 11
450.0
 21
1126.74362043931
 31
0.0
  0
LINE
  5
620B
  8
SIZE
  6
CONTINUOUS
 62
    30
 10
225.0
 20
444.98266200000018
 30
0.0
 11
225.0
 21
1126.74362043931
 31
0.0
  0
LINE
  5
620C
  8
SIZE
  6
CONTINUOUS
 62
    30
 10
450.0
 20
1106.74362043931
 30
0.0
 11
225.0
 21
1106.74362043931
 31
0.0
  0
CIRCLE
  5
620D
  8
SIZE
  6
CONTINUOUS
 62
    30
 10
450.0
 20
1106.74362043931
 30
0.0
 40
7.5
  0
CIRCLE
  5
620E
  8
SIZE
  6
CONTINUOUS
 62
    30
 10
225.0
 20
1106.74362043931
 30
0.0
 40
7.5
  0
TEXT
  5
620F
  8
SIZE
  6
CONTINUOUS
 62
    30
 10
268.07142857142861
 20
1126.74362043931
 30
0.0
 40
60.0
  1
225
 41
0.9
 72
     1
 11
337.5
 21
1126.74362043931
 31
0.0
  0
POINT
  5
6210
  8
DEFPOINTS
  6
CONTINUOUS
 62
     7
 10
450.0
 20
401.19999999999982
 30
0.0
  0
POINT
  5
6211
  8
DEFPOINTS
  6
CONTINUOUS
 62
     7
 10
225.0
 20
424.98266200000018
 30
0.0
  0
POINT
  5
6212
  8
DEFPOINTS
  6
CONTINUOUS
 62
     7
 10
225.0
 20
1106.74362043931
 30
0.0
  0
LINE
  5
6213
  8
SIZE
  6
CONTINUOUS
 62
    30
 10
450.0
 20
133.80000000000021
 30
0.0
 11
450.0
 21
-264.0235341913704
 31
0.0
  0
LINE
  5
6214
  8
SIZE
  6
CONTINUOUS
 62
    30
 10
870.0
 20
-19.0
 30
0.0
 11
870.0
 21
-264.0235341913704
 31
0.0
  0
LINE
  5
6215
  8
SIZE
  6
CONTINUOUS
 62
    30
 10
450.0
 20
-244.02353419137029
 30
0.0
 11
870.0
 21
-244.02353419137029
 31
0.0
  0
CIRCLE
  5
6216
  8
SIZE
  6
CONTINUOUS
 62
    30
 10
450.0
 20
-244.02353419137029
 30
0.0
 40
7.5
  0
CIRCLE
  5
6217
  8
SIZE
  6
CONTINUOUS
 62
    30
 10
870.0
 20
-244.02353419137029
 30
0.0
 40
7.5
  0
TEXT
  5
6218
  8
SIZE
  6
CONTINUOUS
 62
    30
 10
590.57142857142856
 20
-224.02353419137029
 30
0.0
 40
60.0
  1
420
 41
0.9
 72
     1
 11
660.0
 21
-224.02353419137029
 31
0.0
  0
POINT
  5
6219
  8
DEFPOINTS
  6
CONTINUOUS
 62
     7
 10
450.0
 20
152.80000000000021
 30
0.0
  0
POINT
  5
621A
  8
DEFPOINTS
  6
CONTINUOUS
 62
     7
 10
870.0
 20
1.0
 30
0.0
  0
POINT
  5
621B
  8
DEFPOINTS
  6
CONTINUOUS
 62
     7
 10
870.0
 20
-244.02353419137029
 30
0.0
  0
LINE
  5
621C
  8
SIZE
  6
CONTINUOUS
 62
    30
 10
870.0
 20
-19.0
 30
0.0
 11
870.0
 21
-380.49780734223719
 31
0.0
  0
LINE
  5
621D
  8
SIZE
  6
CONTINUOUS
 62
    30
 10
890.0
 20
-20.0
 30
0.0
 11
890.0
 21
-380.49780734223719
 31
0.0
  0
LINE
  5
621E
  8
SIZE
  6
CONTINUOUS
 62
    30
 10
870.0
 20
-360.49780734223708
 30
0.0
 11
840.0
 21
-360.49780734223708
 31
0.0
  0
LINE
  5
621F
  8
SIZE
  6
CONTINUOUS
 62
    30
 10
890.0
 20
-360.49780734223708
 30
0.0
 11
1077.4285714285711
 21
-360.49780734223708
 31
0.0
  0
LINE
  5
6220
  8
SIZE
  6
CONTINUOUS
 62
    30
 10
870.0
 20
-360.49780734223708
 30
0.0
 11
890.0
 21
-360.49780734223708
 31
0.0
  0
CIRCLE
  5
6221
  8
SIZE
  6
CONTINUOUS
 62
    30
 10
870.0
 20
-360.49780734223708
 30
0.0
 40
7.5
  0
CIRCLE
  5
6222
  8
SIZE
  6
CONTINUOUS
 62
    30
 10
890.0
 20
-360.49780734223708
 30
0.0
 40
7.5
  0
TEXT
  5
6223
  8
SIZE
  6
CONTINUOUS
 62
    30
 10
970.00000000000023
 20
-340.49780734223708
 30
0.0
 40
60.0
  1
20
 41
0.9
 72
     1
 11
1013.714285714286
 21
-340.49780734223708
 31
0.0
  0
POINT
  5
6224
  8
DEFPOINTS
  6
CONTINUOUS
 62
     7
 10
870.0
 20
1.0
 30
0.0
  0
POINT
  5
6225
  8
DEFPOINTS
  6
CONTINUOUS
 62
     7
 10
890.0
 20
0.0
 30
0.0
  0
POINT
  5
6226
  8
DEFPOINTS
  6
CONTINUOUS
 62
     7
 10
890.0
 20
-360.49780734223708
 30
0.0
  0
LINE
  5
6227
  8
SIZE
  6
CONTINUOUS
 62
    30
 10
450.0
 20
421.19999999999982
 30
0.0
 11
450.0
 21
1263.3930936786001
 31
0.0
  0
LINE
  5
6228
  8
SIZE
  6
CONTINUOUS
 62
    30
 10
-450.0
 20
421.19999999999982
 30
0.0
 11
-449.99999999999989
 21
1263.3930936786001
 31
0.0
  0
LINE
  5
6229
  8
SIZE
  6
CONTINUOUS
 62
    30
 10
450.0
 20
1243.3930936786001
 30
0.0
 11
-449.99999999999989
 21
1243.3930936786001
 31
0.0
  0
CIRCLE
  5
622A
  8
SIZE
  6
CONTINUOUS
 62
    30
 10
450.0
 20
1243.3930936786001
 30
0.0
 40
7.5
  0
CIRCLE
  5
622B
  8
SIZE
  6
CONTINUOUS
 62
    30
 10
-449.99999999999989
 20
1243.3930936786001
 30
0.0
 40
7.5
  0
TEXT
  5
622C
  8
SIZE
  6
CONTINUOUS
 62
    30
 10
-69.428571428571374
 20
1263.3930936786001
 30
0.0
 40
60.0
  1
900
 41
0.9
 72
     1
 11
0.0000000000000568
 21
1263.3930936786001
 31
0.0
  0
POINT
  5
622D
  8
DEFPOINTS
  6
CONTINUOUS
 62
     7
 10
450.0
 20
401.19999999999982
 30
0.0
  0
POINT
  5
622E
  8
DEFPOINTS
  6
CONTINUOUS
 62
     7
 10
-450.0
 20
401.19999999999982
 30
0.0
  0
POINT
  5
622F
  8
DEFPOINTS
  6
CONTINUOUS
 62
     7
 10
-449.99999999999989
 20
1243.3930936786001
 30
0.0
  0
LINE
  5
6230
  8
SIZE
  6
CONTINUOUS
 62
    30
 10
-490.0
 20
-19.0
 30
0.0
 11
-490.0
 21
-380.49780734223719
 31
0.0
  0
LINE
  5
6231
  8
SIZE
  6
CONTINUOUS
 62
    30
 10
-510.0
 20
-20.0
 30
0.0
 11
-510.0
 21
-380.49780734223719
 31
0.0
  0
LINE
  5
6232
  8
SIZE
  6
CONTINUOUS
 62
    30
 10
-490.0
 20
-360.49780734223708
 30
0.0
 11
-460.0
 21
-360.49780734223708
 31
0.0
  0
LINE
  5
6233
  8
SIZE
  6
CONTINUOUS
 62
    30
 10
-510.0
 20
-360.49780734223708
 30
0.0
 11
-697.42857142857133
 21
-360.49780734223708
 31
0.0
  0
LINE
  5
6234
  8
SIZE
  6
CONTINUOUS
 62
    30
 10
-490.0
 20
-360.49780734223708
 30
0.0
 11
-510.0
 21
-360.49780734223708
 31
0.0
  0
CIRCLE
  5
6235
  8
SIZE
  6
CONTINUOUS
 62
    30
 10
-490.0
 20
-360.49780734223708
 30
0.0
 40
7.5
  0
CIRCLE
  5
6236
  8
SIZE
  6
CONTINUOUS
 62
    30
 10
-510.0
 20
-360.49780734223708
 30
0.0
 40
7.5
  0
TEXT
  5
6237
  8
SIZE
  6
CONTINUOUS
 62
    30
 10
-677.42857142857133
 20
-340.49780734223708
 30
0.0
 40
60.0
  1
20
 41
0.9
 72
     1
 11
-633.71428571428567
 21
-340.49780734223708
 31
0.0
  0
POINT
  5
6238
  8
DEFPOINTS
  6
CONTINUOUS
 62
     7
 10
-490.0
 20
1.0
 30
0.0
  0
POINT
  5
6239
  8
DEFPOINTS
  6
CONTINUOUS
 62
     7
 10
-510.0
 20
0.0
 30
0.0
  0
POINT
  5
623A
  8
DEFPOINTS
  6
CONTINUOUS
 62
     7
 10
-510.0
 20
-360.49780734223708
 30
0.0
  0
LINE
  5
623B
  8
SIZE
  6
CONTINUOUS
 62
    30
 10
225.0
 20
444.98266200000018
 30
0.0
 11
225.0
 21
1126.74362043931
 31
0.0
  0
LINE
  5
623C
  8
SIZE
  6
CONTINUOUS
 62
    30
 10
-225.0
 20
446.2677240000001
 30
0.0
 11
-225.0
 21
1126.74362043931
 31
0.0
  0
LINE
  5
623D
  8
SIZE
  6
CONTINUOUS
 62
    30
 10
225.0
 20
1106.74362043931
 30
0.0
 11
-225.0
 21
1106.74362043931
 31
0.0
  0
CIRCLE
  5
623E
  8
SIZE
  6
CONTINUOUS
 62
    30
 10
225.0
 20
1106.74362043931
 30
0.0
 40
7.5
  0
CIRCLE
  5
623F
  8
SIZE
  6
CONTINUOUS
 62
    30
 10
-225.0
 20
1106.74362043931
 30
0.0
 40
7.5
  0
TEXT
  5
6240
  8
SIZE
  6
CONTINUOUS
 62
    30
 10
-69.428571428571402
 20
1126.74362043931
 30
0.0
 40
60.0
  1
450
 41
0.9
 72
     1
 11
0.0000000000000284
 21
1126.74362043931
 31
0.0
  0
POINT
  5
6241
  8
DEFPOINTS
  6
CONTINUOUS
 62
     7
 10
225.0
 20
424.98266200000018
 30
0.0
  0
POINT
  5
6242
  8
DEFPOINTS
  6
CONTINUOUS
 62
     7
 10
-225.0
 20
426.2677240000001
 30
0.0
  0
POINT
  5
6243
  8
DEFPOINTS
  6
CONTINUOUS
 62
     7
 10
-225.0
 20
1106.74362043931
 30
0.0
  0
LINE
  5
6244
  8
SIZE
  6
CONTINUOUS
 62
    30
 10
870.0
 20
-19.0
 30
0.0
 11
870.0
 21
-380.49780734223719
 31
0.0
  0
LINE
  5
6245
  8
SIZE
  6
CONTINUOUS
 62
    30
 10
-490.0
 20
-19.0
 30
0.0
 11
-490.0
 21
-380.49780734223719
 31
0.0
  0
LINE
  5
6246
  8
SIZE
  6
CONTINUOUS
 62
    30
 10
870.0
 20
-360.49780734223708
 30
0.0
 11
-490.0
 21
-360.49780734223708
 31
0.0
  0
CIRCLE
  5
6247
  8
SIZE
  6
CONTINUOUS
 62
    30
 10
870.0
 20
-360.49780734223708
 30
0.0
 40
7.5
  0
CIRCLE
  5
6248
  8
SIZE
  6
CONTINUOUS
 62
    30
 10
-490.0
 20
-360.49780734223708
 30
0.0
 40
7.5
  0
TEXT
  5
6249
  8
SIZE
  6
CONTINUOUS
 62
    30
 10
-247.21928443237331
 20
-324.78352162795142
 30
0.0
 40
60.0
  1
1360(天井開口寸法)
 41
0.9
 72
     1
 11
71.8950012819123
 21
-324.78352162795142
 31
0.0
  0
POINT
  5
624A
  8
DEFPOINTS
  6
CONTINUOUS
 62
     7
 10
870.0
 20
1.0
 30
0.0
  0
POINT
  5
624B
  8
DEFPOINTS
  6
CONTINUOUS
 62
     7
 10
-490.0
 20
1.0
 30
0.0
  0
POINT
  5
624C
  8
DEFPOINTS
  6
CONTINUOUS
 62
     7
 10
-490.0
 20
-360.49780734223708
 30
0.0
  0
LINE
  5
624D
  8
SIZE
  6
CONTINUOUS
 62
    30
 10
508.0
 20
400.19999999999879
 30
0.0
 11
508.0
 21
993.3086109708911
 31
0.0
  0
LINE
  5
624E
  8
SIZE
  6
CONTINUOUS
 62
    30
 10
450.0
 20
421.19999999999982
 30
0.0
 11
450.0
 21
993.3086109708911
 31
0.0
  0
LINE
  5
624F
  8
SIZE
  6
CONTINUOUS
 62
    30
 10
450.0
 20
973.3086109708903
 30
0.0
 11
508.0
 21
973.3086109708903
 31
0.0
  0
LINE
  5
6250
  8
SIZE
  6
CONTINUOUS
 62
    30
 10
508.0
 20
973.3086109708903
 30
0.0
 11
665.42857142857144
 21
973.3086109708903
 31
0.0
  0
CIRCLE
  5
6251
  8
SIZE
  6
CONTINUOUS
 62
    30
 10
450.0
 20
973.3086109708903
 30
0.0
 40
7.5
  0
CIRCLE
  5
6252
  8
SIZE
  6
CONTINUOUS
 62
    30
 10
508.0
 20
973.3086109708903
 30
0.0
 40
7.5
  0
TEXT
  5
6253
  8
SIZE
  6
CONTINUOUS
 62
    30
 10
558.0
 20
993.3086109708911
 30
0.0
 40
60.0
  1
58
 41
0.9
 72
     1
 11
601.71428571428555
 21
993.3086109708911
 31
0.0
  0
POINT
  5
6254
  8
DEFPOINTS
  6
CONTINUOUS
 62
     7
 10
508.0
 20
380.19999999999879
 30
0.0
  0
POINT
  5
6255
  8
DEFPOINTS
  6
CONTINUOUS
 62
     7
 10
450.0
 20
401.19999999999982
 30
0.0
  0
POINT
  5
6256
  8
DEFPOINTS
  6
CONTINUOUS
 62
     7
 10
450.0
 20
973.3086109708903
 30
0.0
  0
LINE
  5
6257
  8
SIZE
  6
CONTINUOUS
 62
    30
 10
450.0
 20
421.19999999999982
 30
0.0
 11
450.0
 21
856.8807517103287
 31
0.0
  0
LINE
  5
6258
  8
SIZE
  6
CONTINUOUS
 62
    30
 10
507.0
 20
319.19999999999891
 30
0.0
 11
507.0
 21
856.8807517103287
 31
0.0
  0
LINE
  5
6259
  8
SIZE
  6
CONTINUOUS
 62
    30
 10
450.0
 20
836.88075171032858
 30
0.0
 11
507.0
 21
836.88075171032858
 31
0.0
  0
LINE
  5
625A
  8
SIZE
  6
CONTINUOUS
 62
    30
 10
507.0
 20
836.88075171032858
 30
0.0
 11
670.55867982295285
 21
836.88075171032858
 31
0.0
  0
CIRCLE
  5
625B
  8
SIZE
  6
CONTINUOUS
 62
    30
 10
450.0
 20
836.88075171032858
 30
0.0
 40
7.5
  0
CIRCLE
  5
625C
  8
SIZE
  6
CONTINUOUS
 62
    30
 10
507.0
 20
836.88075171032858
 30
0.0
 40
7.5
  0
TEXT
  5
625D
  8
SIZE
  6
CONTINUOUS
 62
    30
 10
563.13010839438152
 20
856.8807517103287
 30
0.0
 40
60.0
  1
57
 41
0.9
 72
     1
 11
606.84439410866707
 21
856.8807517103287
 31
0.0
  0
POINT
  5
625E
  8
DEFPOINTS
  6
CONTINUOUS
 62
     7
 10
450.0
 20
401.19999999999982
 30
0.0
  0
POINT
  5
625F
  8
DEFPOINTS
  6
CONTINUOUS
 62
     7
 10
507.0
 20
299.19999999999891
 30
0.0
  0
POINT
  5
6260
  8
DEFPOINTS
  6
CONTINUOUS
 62
     7
 10
507.0
 20
836.88075171032858
 30
0.0
  0
LINE
  5
6261
  8
SIZE
  6
CONTINUOUS
 62
    30
 10
528.0
 20
286.19999999999891
 30
0.0
 11
528.0
 21
1126.74362043931
 31
0.0
  0
LINE
  5
6262
  8
SIZE
  6
CONTINUOUS
 62
    30
 10
450.0
 20
421.19999999999982
 30
0.0
 11
450.0
 21
1126.74362043931
 31
0.0
  0
LINE
  5
6263
  8
SIZE
  6
CONTINUOUS
 62
    30
 10
450.0
 20
1106.74362043931
 30
0.0
 11
528.0
 21
1106.74362043931
 31
0.0
  0
LINE
  5
6264
  8
SIZE
  6
CONTINUOUS
 62
    30
 10
528.0
 20
1106.74362043931
 30
0.0
 11
685.42857142857144
 21
1106.74362043931
 31
0.0
  0
CIRCLE
  5
6265
  8
SIZE
  6
CONTINUOUS
 62
    30
 10
450.0
 20
1106.74362043931
 30
0.0
 40
7.5
  0
CIRCLE
  5
6266
  8
SIZE
  6
CONTINUOUS
 62
    30
 10
528.0
 20
1106.74362043931
 30
0.0
 40
7.5
  0
TEXT
  5
6267
  8
SIZE
  6
CONTINUOUS
 62
    30
 10
578.0
 20
1126.74362043931
 30
0.0
 40
60.0
  1
78
 41
0.9
 72
     1
 11
621.71428571428567
 21
1126.74362043931
 31
0.0
  0
POINT
  5
6268
  8
DEFPOINTS
  6
CONTINUOUS
 62
     7
 10
528.0
 20
266.19999999999891
 30
0.0
  0
POINT
  5
6269
  8
DEFPOINTS
  6
CONTINUOUS
 62
     7
 10
450.0
 20
401.19999999999982
 30
0.0
  0
POINT
  5
626A
  8
DEFPOINTS
  6
CONTINUOUS
 62
     7
 10
450.0
 20
1106.74362043931
 30
0.0
  0
LINE
  5
626B
  8
SIZE
  6
CONTINUOUS
 62
    30
 10
490.0
 20
225.0
 30
0.0
 11
490.0
 21
726.43151817243961
 31
0.0
  0
LINE
  5
626C
  8
SIZE
  6
CONTINUOUS
 62
    30
 10
450.0
 20
421.49999999999989
 30
0.0
 11
450.0
 21
726.43151817243961
 31
0.0
  0
LINE
  5
626D
  8
SIZE
  6
CONTINUOUS
 62
    30
 10
450.0
 20
706.43151817243961
 30
0.0
 11
490.0
 21
706.43151817243961
 31
0.0
  0
LINE
  5
626E
  8
SIZE
  6
CONTINUOUS
 62
    30
 10
490.0
 20
706.43151817243961
 30
0.0
 11
669.74907477842157
 21
706.43151817243961
 31
0.0
  0
CIRCLE
  5
626F
  8
SIZE
  6
CONTINUOUS
 62
    30
 10
450.0
 20
706.43151817243961
 30
0.0
 40
7.5
  0
CIRCLE
  5
6270
  8
SIZE
  6
CONTINUOUS
 62
    30
 10
490.0
 20
706.43151817243961
 30
0.0
 40
7.5
  0
TEXT
  5
6271
  8
SIZE
  6
CONTINUOUS
 62
    30
 10
562.32050334985024
 20
726.43151817243961
 30
0.0
 40
60.0
  1
40
 41
0.9
 72
     1
 11
606.03478906413591
 21
726.43151817243961
 31
0.0
  0
POINT
  5
6272
  8
DEFPOINTS
  6
CONTINUOUS
 62
     7
 10
490.0
 20
205.0
 30
0.0
  0
POINT
  5
6273
  8
DEFPOINTS
  6
CONTINUOUS
 62
     7
 10
450.0
 20
401.49999999999989
 30
0.0
  0
POINT
  5
6274
  8
DEFPOINTS
  6
CONTINUOUS
 62
     7
 10
450.0
 20
706.43151817243961
 30
0.0
  0
LINE
  5
6275
  8
SIZE
  6
CONTINUOUS
 62
    30
 10
469.19999999999987
 20
402.0
 30
0.0
 11
1260.4228388900749
 21
401.9999999999996
 31
0.0
  0
LINE
  5
6276
  8
SIZE
  6
CONTINUOUS
 62
    30
 10
547.5
 20
361.0
 30
0.0
 11
1260.4228388900749
 21
360.99999999999977
 31
0.0
  0
LINE
  5
6277
  8
SIZE
  6
CONTINUOUS
 62
    30
 10
1240.4228388900749
 20
360.99999999999977
 30
0.0
 11
1240.4228388900749
 21
401.9999999999996
 31
0.0
  0
LINE
  5
6278
  8
SIZE
  6
CONTINUOUS
 62
    30
 10
1240.4228388900749
 20
401.9999999999996
 30
0.0
 11
1240.4228388900749
 21
536.58530443777272
 31
0.0
  0
CIRCLE
  5
6279
  8
SIZE
  6
CONTINUOUS
 62
    30
 10
1240.4228388900749
 20
360.99999999999977
 30
0.0
 40
7.5
  0
CIRCLE
  5
627A
  8
SIZE
  6
CONTINUOUS
 62
    30
 10
1240.4228388900749
 20
401.9999999999996
 30
0.0
 40
7.5
  0
TEXT
  5
627B
  8
SIZE
  6
CONTINUOUS
 62
    30
 10
1220.422838890074
 20
452.29959015205861
 30
0.0
 40
60.0
  1
41
 50
90.0
 41
0.9
 72
     1
 11
1220.422838890074
 21
484.44244729491572
 31
0.0
  0
POINT
  5
627C
  8
DEFPOINTS
  6
CONTINUOUS
 62
     7
 10
449.19999999999987
 20
402.0
 30
0.0
  0
POINT
  5
627D
  8
DEFPOINTS
  6
CONTINUOUS
 62
     7
 10
527.5
 20
361.0
 30
0.0
  0
POINT
  5
627E
  8
DEFPOINTS
  6
CONTINUOUS
 62
     7
 10
1240.4228388900749
 20
360.99999999999977
 30
0.0
  0
LINE
  5
627F
  8
SIZE
  6
CONTINUOUS
 62
    30
 10
546.1999999999997
 20
280.0
 30
0.0
 11
1528.748732753804
 21
279.99999999999972
 31
0.0
  0
LINE
  5
6280
  8
SIZE
  6
CONTINUOUS
 62
    30
 10
469.19999999999987
 20
402.0
 30
0.0
 11
1528.748732753804
 21
401.9999999999996
 31
0.0
  0
LINE
  5
6281
  8
SIZE
  6
CONTINUOUS
 62
    30
 10
1508.7487327538049
 20
279.99999999999972
 30
0.0
 11
1508.7487327538049
 21
401.9999999999996
 31
0.0
  0
LINE
  5
6282
  8
SIZE
  6
CONTINUOUS
 62
    30
 10
1508.7487327538049
 20
401.9999999999996
 30
0.0
 11
1508.7487327538049
 21
600.57142857142946
 31
0.0
  0
CIRCLE
  5
6283
  8
SIZE
  6
CONTINUOUS
 62
    30
 10
1508.7487327538049
 20
279.99999999999972
 30
0.0
 40
7.5
  0
CIRCLE
  5
6284
  8
SIZE
  6
CONTINUOUS
 62
    30
 10
1508.7487327538049
 20
401.9999999999996
 30
0.0
 40
7.5
  0
TEXT
  5
6285
  8
SIZE
  6
CONTINUOUS
 62
    30
 10
1488.748732753804
 20
452.0000000000008
 30
0.0
 40
60.0
  1
122
 50
90.0
 41
0.9
 72
     1
 11
1488.748732753804
 21
516.28571428571513
 31
0.0
  0
POINT
  5
6286
  8
DEFPOINTS
  6
CONTINUOUS
 62
     7
 10
526.19999999999982
 20
280.0
 30
0.0
  0
POINT
  5
6287
  8
DEFPOINTS
  6
CONTINUOUS
 62
     7
 10
449.19999999999987
 20
402.0
 30
0.0
  0
POINT
  5
6288
  8
DEFPOINTS
  6
CONTINUOUS
 62
     7
 10
1508.7487327538049
 20
401.9999999999996
 30
0.0
  0
LINE
  5
6289
  8
SIZE
  6
CONTINUOUS
 62
    30
 10
546.1999999999997
 20
280.0
 30
0.0
 11
1394.0199635063259
 21
279.99999999999972
 31
0.0
  0
LINE
  5
628A
  8
SIZE
  6
CONTINUOUS
 62
    30
 10
567.1999999999997
 20
247.0
 30
0.0
 11
1394.0199635063259
 21
246.99999999999969
 31
0.0
  0
LINE
  5
628B
  8
SIZE
  6
CONTINUOUS
 62
    30
 10
1374.0199635063259
 20
246.99999999999969
 30
0.0
 11
1374.0199635063259
 21
216.99999999999969
 31
0.0
  0
LINE
  5
628C
  8
SIZE
  6
CONTINUOUS
 62
    30
 10
1374.0199635063259
 20
279.99999999999972
 30
0.0
 11
1374.019963506327
 21
557.8935517820438
 31
0.0
  0
LINE
  5
628D
  8
SIZE
  6
CONTINUOUS
 62
    30
 10
1374.0199635063259
 20
246.99999999999969
 30
0.0
 11
1374.0199635063259
 21
279.99999999999972
 31
0.0
  0
CIRCLE
  5
628E
  8
SIZE
  6
CONTINUOUS
 62
    30
 10
1374.0199635063259
 20
246.99999999999969
 30
0.0
 40
7.5
  0
CIRCLE
  5
628F
  8
SIZE
  6
CONTINUOUS
 62
    30
 10
1374.0199635063259
 20
279.99999999999972
 30
0.0
 40
7.5
  0
TEXT
  5
6290
  8
SIZE
  6
CONTINUOUS
 62
    30
 10
1354.0199635063259
 20
450.46498035347253
 30
0.0
 40
60.0
  1
33
 50
90.0
 41
0.9
 72
     1
 11
1354.0199635063259
 21
494.17926606775831
 31
0.0
  0
POINT
  5
6291
  8
DEFPOINTS
  6
CONTINUOUS
 62
     7
 10
526.19999999999982
 20
280.0
 30
0.0
  0
POINT
  5
6292
  8
DEFPOINTS
  6
CONTINUOUS
 62
     7
 10
547.19999999999982
 20
247.0
 30
0.0
  0
POINT
  5
6293
  8
DEFPOINTS
  6
CONTINUOUS
 62
     7
 10
1374.0199635063259
 20
246.99999999999969
 30
0.0
  0
LINE
  5
6294
  8
NOTE
  6
CONTINUOUS
 62
     4
 10
-477.0
 20
406.20000000000078
 30
0.0
 11
-477.0
 21
367.7999999999991
 31
0.0
  0
LINE
  5
6295
  8
NOTE
  6
CONTINUOUS
 62
     4
 10
477.0
 20
406.20000000000078
 30
0.0
 11
477.0
 21
367.7999999999991
 31
0.0
  0
CIRCLE
  5
6296
  8
FIX
  6
CONTINUOUS
 62
    11
 10
-477.0
 20
387.0
 30
0.0
 40
12.42149793872491
  0
CIRCLE
  5
6297
  8
FIX
  6
CONTINUOUS
 62
    11
 10
477.0
 20
387.0
 30
0.0
 40
12.42149793872491
  0
LINE
  5
6298
  8
SIZE
  6
CONTINUOUS
 62
    30
 10
469.19999999999987
 20
152.0
 30
0.0
 11
1799.54002492052
 21
151.9999999999996
 31
0.0
  0
LINE
  5
6299
  8
SIZE
  6
CONTINUOUS
 62
    30
 10
469.19999999999987
 20
402.0
 30
0.0
 11
1799.54002492052
 21
401.99999999999949
 31
0.0
  0
LINE
  5
629A
  8
SIZE
  6
CONTINUOUS
 62
    30
 10
1779.54002492052
 20
151.9999999999996
 30
0.0
 11
1779.54002492052
 21
401.99999999999949
 31
0.0
  0
CIRCLE
  5
629B
  8
SIZE
  6
CONTINUOUS
 62
    30
 10
1779.54002492052
 20
151.9999999999996
 30
0.0
 40
7.5
  0
CIRCLE
  5
629C
  8
SIZE
  6
CONTINUOUS
 62
    30
 10
1779.54002492052
 20
401.99999999999949
 30
0.0
 40
7.5
  0
TEXT
  5
629D
  8
SIZE
  6
CONTINUOUS
 62
    30
 10
1759.54002492052
 20
207.57142857142941
 30
0.0
 40
60.0
  1
250
 50
90.0
 41
0.9
 72
     1
 11
1759.54002492052
 21
277.0000000000008
 31
0.0
  0
POINT
  5
629E
  8
DEFPOINTS
  6
CONTINUOUS
 62
     7
 10
449.19999999999987
 20
152.0
 30
0.0
  0
POINT
  5
629F
  8
DEFPOINTS
  6
CONTINUOUS
 62
     7
 10
449.19999999999987
 20
402.0
 30
0.0
  0
POINT
  5
62A0
  8
DEFPOINTS
  6
CONTINUOUS
 62
     7
 10
1779.54002492052
 20
401.99999999999949
 30
0.0
  0
LINE
  5
62A1
  8
SIZE
  6
CONTINUOUS
 62
    30
 10
469.19999999999987
 20
402.0
 30
0.0
 11
1927.4719827809979
 21
401.99999999999937
 31
0.0
  0
LINE
  5
62A2
  8
SIZE
  6
CONTINUOUS
 62
    30
 10
450.0
 20
130.0
 30
0.0
 11
1927.4719827809979
 21
129.9999999999996
 31
0.0
  0
LINE
  5
62A3
  8
SIZE
  6
CONTINUOUS
 62
    30
 10
1907.4719827809979
 20
401.99999999999937
 30
0.0
 11
1907.4719827809979
 21
129.9999999999996
 31
0.0
  0
CIRCLE
  5
62A4
  8
SIZE
  6
CONTINUOUS
 62
    30
 10
1907.4719827809979
 20
401.99999999999937
 30
0.0
 40
7.5
  0
CIRCLE
  5
62A5
  8
SIZE
  6
CONTINUOUS
 62
    30
 10
1907.4719827809979
 20
129.9999999999996
 30
0.0
 40
7.5
  0
TEXT
  5
62A6
  8
SIZE
  6
CONTINUOUS
 62
    30
 10
1887.471982780997
 20
196.57142857142841
 30
0.0
 40
60.0
  1
272
 50
90.0
 41
0.9
 72
     1
 11
1887.471982780997
 21
265.99999999999989
 31
0.0
  0
POINT
  5
62A7
  8
DEFPOINTS
  6
CONTINUOUS
 62
     7
 10
449.19999999999987
 20
402.0
 30
0.0
  0
POINT
  5
62A8
  8
DEFPOINTS
  6
CONTINUOUS
 62
     7
 10
430.0
 20
130.0
 30
0.0
  0
POINT
  5
62A9
  8
DEFPOINTS
  6
CONTINUOUS
 62
     7
 10
1907.4719827809979
 20
129.9999999999996
 30
0.0
  0
LINE
  5
62AA
  8
NOTE
  6
CONTINUOUS
 62
     4
 10
488.79999999999978
 20
361.0
 30
0.0
 11
527.19999999999982
 21
361.0
 31
0.0
  0
LINE
  5
62AB
  8
NOTE
  6
CONTINUOUS
 62
     4
 10
508.0
 20
380.19999999999879
 30
0.0
 11
508.0
 21
341.80000000000109
 31
0.0
  0
LINE
  5
62AC
  8
NOTE
  6
CONTINUOUS
 62
     4
 10
487.80000000000013
 20
280.0
 30
0.0
 11
526.19999999999982
 21
280.0
 31
0.0
  0
LINE
  5
62AD
  8
NOTE
  6
CONTINUOUS
 62
     4
 10
507.0
 20
299.19999999999891
 30
0.0
 11
507.0
 21
260.80000000000109
 31
0.0
  0
LINE
  5
62AE
  8
NOTE
  6
CONTINUOUS
 62
     4
 10
508.80000000000001
 20
247.0
 30
0.0
 11
547.19999999999982
 21
247.0
 31
0.0
  0
LINE
  5
62AF
  8
NOTE
  6
CONTINUOUS
 62
     4
 10
528.0
 20
266.19999999999891
 30
0.0
 11
528.0
 21
227.80000000000109
 31
0.0
  0
LINE
  5
62B0
  8
NOTE
  6
CONTINUOUS
 62
     4
 10
470.80000000000013
 20
185.0
 30
0.0
 11
509.19999999999959
 21
185.0
 31
0.0
  0
LINE
  5
62B1
  8
NOTE
  6
CONTINUOUS
 62
     4
 10
490.0
 20
204.19999999999891
 30
0.0
 11
490.0
 21
165.80000000000109
 31
0.0
  0
LINE
  5
62B2
  8
SIZE
  6
CONTINUOUS
 62
    30
 10
469.19999999999987
 20
402.0
 30
0.0
 11
1667.969487333402
 21
401.99999999999949
 31
0.0
  0
LINE
  5
62B3
  8
SIZE
  6
CONTINUOUS
 62
    30
 10
529.19999999999982
 20
185.0
 30
0.0
 11
1667.969487333402
 21
184.99999999999969
 31
0.0
  0
LINE
  5
62B4
  8
SIZE
  6
CONTINUOUS
 62
    30
 10
1647.969487333402
 20
401.9999999999996
 30
0.0
 11
1647.969487333402
 21
184.99999999999969
 31
0.0
  0
CIRCLE
  5
62B5
  8
SIZE
  6
CONTINUOUS
 62
    30
 10
1647.969487333402
 20
401.9999999999996
 30
0.0
 40
7.5
  0
CIRCLE
  5
62B6
  8
SIZE
  6
CONTINUOUS
 62
    30
 10
1647.969487333402
 20
184.99999999999969
 30
0.0
 40
7.5
  0
TEXT
  5
62B7
  8
SIZE
  6
CONTINUOUS
 62
    30
 10
1627.969487333402
 20
232.59084245712211
 30
0.0
 40
60.0
  1
217
 50
90.0
 41
0.9
 72
     1
 11
1627.969487333402
 21
296.87655674283639
 31
0.0
  0
POINT
  5
62B8
  8
DEFPOINTS
  6
CONTINUOUS
 62
     7
 10
449.19999999999987
 20
402.0
 30
0.0
  0
POINT
  5
62B9
  8
DEFPOINTS
  6
CONTINUOUS
 62
     7
 10
509.19999999999959
 20
185.0
 30
0.0
  0
POINT
  5
62BA
  8
DEFPOINTS
  6
CONTINUOUS
 62
     7
 10
1647.969487333402
 20
184.99999999999969
 30
0.0
  0
LINE
  5
62BB
  8
SIZE
  6
CONTINUOUS
 62
    30
 10
-450.0
 20
133.80000000000021
 30
0.0
 11
-450.0
 21
-258.73415522745012
 31
0.0
  0
LINE
  5
62BC
  8
SIZE
  6
CONTINUOUS
 62
    30
 10
-490.0
 20
-19.0
 30
0.0
 11
-490.0
 21
-258.73415522745012
 31
0.0
  0
LINE
  5
62BD
  8
SIZE
  6
CONTINUOUS
 62
    30
 10
-450.0
 20
-238.7341552274502
 30
0.0
 11
-490.0
 21
-238.7341552274502
 31
0.0
  0
LINE
  5
62BE
  8
SIZE
  6
CONTINUOUS
 62
    30
 10
-490.0
 20
-238.7341552274502
 30
0.0
 11
-676.14858567549015
 21
-238.7341552274502
 31
0.0
  0
CIRCLE
  5
62BF
  8
SIZE
  6
CONTINUOUS
 62
    30
 10
-450.0
 20
-238.7341552274502
 30
0.0
 40
7.5
  0
CIRCLE
  5
62C0
  8
SIZE
  6
CONTINUOUS
 62
    30
 10
-490.0
 20
-238.7341552274502
 30
0.0
 40
7.5
  0
TEXT
  5
62C1
  8
SIZE
  6
CONTINUOUS
 62
    30
 10
-656.14858567549015
 20
-218.7341552274502
 30
0.0
 40
60.0
  1
40
 41
0.9
 72
     1
 11
-612.43429996120449
 21
-218.7341552274502
 31
0.0
  0
POINT
  5
62C2
  8
DEFPOINTS
  6
CONTINUOUS
 62
     7
 10
-450.0
 20
152.80000000000021
 30
0.0
  0
POINT
  5
62C3
  8
DEFPOINTS
  6
CONTINUOUS
 62
     7
 10
-490.0
 20
1.0
 30
0.0
  0
POINT
  5
62C4
  8
DEFPOINTS
  6
CONTINUOUS
 62
     7
 10
-490.0
 20
-238.7341552274502
 30
0.0
  0
LINE
  5
62C5
  8
SIZE
  6
CONTINUOUS
 62
    30
 10
450.0
 20
421.19999999999982
 30
0.0
 11
450.0
 21
1263.3930936786001
 31
0.0
  0
LINE
  5
62C6
  8
SIZE
  6
CONTINUOUS
 62
    30
 10
500.0
 20
404.30000000000001
 30
0.0
 11
500.0
 21
1263.3930936786001
 31
0.0
  0
LINE
  5
62C7
  8
SIZE
  6
CONTINUOUS
 62
    30
 10
450.0
 20
1243.3930936786001
 30
0.0
 11
500.0
 21
1243.3930936786001
 31
0.0
  0
LINE
  5
62C8
  8
SIZE
  6
CONTINUOUS
 62
    30
 10
500.0
 20
1243.3930936786001
 30
0.0
 11
657.42857142857144
 21
1243.3930936786001
 31
0.0
  0
CIRCLE
  5
62C9
  8
SIZE
  6
CONTINUOUS
 62
    30
 10
450.0
 20
1243.3930936786001
 30
0.0
 40
7.5
  0
CIRCLE
  5
62CA
  8
SIZE
  6
CONTINUOUS
 62
    30
 10
500.0
 20
1243.3930936786001
 30
0.0
 40
7.5
  0
TEXT
  5
62CB
  8
SIZE
  6
CONTINUOUS
 62
    30
 10
550.0
 20
1263.3930936786001
 30
0.0
 40
60.0
  1
50
 41
0.9
 72
     1
 11
593.71428571428555
 21
1263.3930936786001
 31
0.0
  0
POINT
  5
62CC
  8
DEFPOINTS
  6
CONTINUOUS
 62
     7
 10
450.0
 20
401.19999999999982
 30
0.0
  0
POINT
  5
62CD
  8
DEFPOINTS
  6
CONTINUOUS
 62
     7
 10
500.0
 20
384.30000000000013
 30
0.0
  0
POINT
  5
62CE
  8
DEFPOINTS
  6
CONTINUOUS
 62
     7
 10
500.0
 20
1243.3930936786001
 30
0.0
  0
LINE
  5
62CF
  8
SIZE
  6
CONTINUOUS
 62
    30
 10
-450.0
 20
421.19999999999982
 30
0.0
 11
-449.99999999999989
 21
1263.3930936786001
 31
0.0
  0
LINE
  5
62D0
  8
SIZE
  6
CONTINUOUS
 62
    30
 10
-500.0
 20
404.30000000000001
 30
0.0
 11
-499.99999999999989
 21
1263.3930936786001
 31
0.0
  0
LINE
  5
62D1
  8
SIZE
  6
CONTINUOUS
 62
    30
 10
-449.99999999999989
 20
1243.3930936786001
 30
0.0
 11
-499.99999999999989
 21
1243.3930936786001
 31
0.0
  0
LINE
  5
62D2
  8
SIZE
  6
CONTINUOUS
 62
    30
 10
-499.99999999999989
 20
1243.3930936786001
 30
0.0
 11
-657.42857142857122
 21
1243.3930936786001
 31
0.0
  0
CIRCLE
  5
62D3
  8
SIZE
  6
CONTINUOUS
 62
    30
 10
-449.99999999999989
 20
1243.3930936786001
 30
0.0
 40
7.5
  0
CIRCLE
  5
62D4
  8
SIZE
  6
CONTINUOUS
 62
    30
 10
-499.99999999999989
 20
1243.3930936786001
 30
0.0
 40
7.5
  0
TEXT
  5
62D5
  8
SIZE
  6
CONTINUOUS
 62
    30
 10
-637.42857142857133
 20
1263.3930936786001
 30
0.0
 40
60.0
  1
50
 41
0.9
 72
     1
 11
-593.71428571428555
 21
1263.3930936786001
 31
0.0
  0
POINT
  5
62D6
  8
DEFPOINTS
  6
CONTINUOUS
 62
     7
 10
-450.0
 20
401.19999999999982
 30
0.0
  0
POINT
  5
62D7
  8
DEFPOINTS
  6
CONTINUOUS
 62
     7
 10
-500.0
 20
384.30000000000013
 30
0.0
  0
POINT
  5
62D8
  8
DEFPOINTS
  6
CONTINUOUS
 62
     7
 10
-499.99999999999989
 20
1243.3930936786001
 30
0.0
  0
LINE
  5
62D9
  8
SIZE
  6
CONTINUOUS
 62
    30
 10
477.0
 20
423.70000000000061
 30
0.0
 11
477.0
 21
1392.1964922576899
 31
0.0
  0
LINE
  5
62DA
  8
SIZE
  6
CONTINUOUS
 62
    30
 10
-477.0
 20
423.70000000000061
 30
0.0
 11
-476.99999999999989
 21
1392.1964922576899
 31
0.0
  0
LINE
  5
62DB
  8
SIZE
  6
CONTINUOUS
 62
    30
 10
477.0
 20
1372.1964922576899
 30
0.0
 11
-476.99999999999989
 21
1372.1964922576899
 31
0.0
  0
CIRCLE
  5
62DC
  8
SIZE
  6
CONTINUOUS
 62
    30
 10
477.0
 20
1372.1964922576899
 30
0.0
 40
7.5
  0
CIRCLE
  5
62DD
  8
SIZE
  6
CONTINUOUS
 62
    30
 10
-476.99999999999989
 20
1372.1964922576899
 30
0.0
 40
7.5
  0
TEXT
  5
62DE
  8
SIZE
  6
CONTINUOUS
 62
    30
 10
-363.3428571428571
 20
1407.910777971975
 30
0.0
 40
60.0
  1
954(吊りボルトピッチ)
 41
0.9
 72
     1
 11
0.0000000000000568
 21
1407.910777971975
 31
0.0
  0
POINT
  5
62E1
  8
DEFPOINTS
  6
CONTINUOUS
 62
     7
 10
-476.99999999999989
 20
1372.1964922576899
 30
0.0
  0
LINE
  5
62E2
  8
SIZE
  6
CONTINUOUS
 62
    30
 10
-477.0
 20
423.70000000000061
 30
0.0
 11
-476.99999999999989
 21
1392.1964922576899
 31
0.0
  0
LINE
  5
62E3
  8
SIZE
  6
CONTINUOUS
 62
    30
 10
-500.0
 20
404.30000000000001
 30
0.0
 11
-499.99999999999989
 21
1392.1964922576899
 31
0.0
  0
LINE
  5
62E4
  8
SIZE
  6
CONTINUOUS
 62
    30
 10
-476.99999999999989
 20
1372.1964922576899
 30
0.0
 11
-446.99999999999989
 21
1372.1964922576899
 31
0.0
  0
LINE
  5
62E5
  8
SIZE
  6
CONTINUOUS
 62
    30
 10
-499.99999999999989
 20
1372.1964922576899
 30
0.0
 11
-687.42857142857133
 21
1372.1964922576899
 31
0.0
  0
LINE
  5
62E6
  8
SIZE
  6
CONTINUOUS
 62
    30
 10
-476.99999999999989
 20
1372.1964922576899
 30
0.0
 11
-499.99999999999989
 21
1372.1964922576899
 31
0.0
  0
CIRCLE
  5
62E7
  8
SIZE
  6
CONTINUOUS
 62
    30
 10
-476.99999999999989
 20
1372.1964922576899
 30
0.0
 40
7.5
  0
CIRCLE
  5
62E8
  8
SIZE
  6
CONTINUOUS
 62
    30
 10
-499.99999999999989
 20
1372.1964922576899
 30
0.0
 40
7.5
  0
TEXT
  5
62E9
  8
SIZE
  6
CONTINUOUS
 62
    30
 10
-667.42857142857133
 20
1392.1964922576899
 30
0.0
 40
60.0
  1
23
 41
0.9
 72
     1
 11
-623.71428571428555
 21
1392.1964922576899
 31
0.0
  0
POINT
  5
62EB
  8
DEFPOINTS
  6
CONTINUOUS
 62
     7
 10
-500.0
 20
384.30000000000013
 30
0.0
  0
POINT
  5
62EC
  8
DEFPOINTS
  6
CONTINUOUS
 62
     7
 10
-499.99999999999989
 20
1372.1964922576899
 30
0.0
  0
LINE
  5
62ED
  8
SIZE
  6
CONTINUOUS
 62
    30
 10
477.0
 20
423.70000000000061
 30
0.0
 11
477.0
 21
1392.1964922576899
 31
0.0
  0
LINE
  5
62EE
  8
SIZE
  6
CONTINUOUS
 62
    30
 10
500.0
 20
404.30000000000001
 30
0.0
 11
500.0
 21
1392.1964922576899
 31
0.0
  0
LINE
  5
62EF
  8
SIZE
  6
CONTINUOUS
 62
    30
 10
477.0
 20
1372.1964922576899
 30
0.0
 11
447.0
 21
1372.1964922576899
 31
0.0
  0
LINE
  5
62F0
  8
SIZE
  6
CONTINUOUS
 62
    30
 10
500.0
 20
1372.1964922576899
 30
0.0
 11
687.42857142857133
 21
1372.1964922576899
 31
0.0
  0
LINE
  5
62F1
  8
SIZE
  6
CONTINUOUS
 62
    30
 10
477.0
 20
1372.1964922576899
 30
0.0
 11
500.0
 21
1372.1964922576899
 31
0.0
  0
CIRCLE
  5
62F2
  8
SIZE
  6
CONTINUOUS
 62
    30
 10
477.0
 20
1372.1964922576899
 30
0.0
 40
7.5
  0
CIRCLE
  5
62F3
  8
SIZE
  6
CONTINUOUS
 62
    30
 10
500.0
 20
1372.1964922576899
 30
0.0
 40
7.5
  0
TEXT
  5
62F4
  8
SIZE
  6
CONTINUOUS
 62
    30
 10
580.0
 20
1392.1964922576899
 30
0.0
 40
60.0
  1
23
 41
0.9
 72
     1
 11
623.71428571428555
 21
1392.1964922576899
 31
0.0
  0
POINT
  5
62F6
  8
DEFPOINTS
  6
CONTINUOUS
 62
     7
 10
500.0
 20
384.30000000000013
 30
0.0
  0
POINT
  5
62F7
  8
DEFPOINTS
  6
CONTINUOUS
 62
     7
 10
500.0
 20
1372.1964922576899
 30
0.0
  0
LINE
  5
62F8
  8
SIZE
  6
CONTINUOUS
 62
    30
 10
-530.0
 20
0.0000000000000057
 30
0.0
 11
-747.31691025554653
 21
0.0000000000000672
 31
0.0
  0
LINE
  5
62F9
  8
SIZE
  6
CONTINUOUS
 62
    30
 10
-499.30000000000013
 20
-7.9999999999999929
 30
0.0
 11
-747.31691025554653
 21
-7.9999999999999201
 31
0.0
  0
LINE
  5
62FA
  8
SIZE
  6
CONTINUOUS
 62
    30
 10
-727.31691025554653
 20
0.0000000000000616
 30
0.0
 11
-727.31691025554653
 21
30.00000000000006
 31
0.0
  0
LINE
  5
62FB
  8
SIZE
  6
CONTINUOUS
 62
    30
 10
-727.31691025554653
 20
-7.9999999999999281
 30
0.0
 11
-727.31691025554653
 21
-110.8667062638533
 31
0.0
  0
LINE
  5
62FC
  8
SIZE
  6
CONTINUOUS
 62
    30
 10
-727.31691025554653
 20
0.0000000000000616
 30
0.0
 11
-727.31691025554653
 21
-7.9999999999999281
 31
0.0
  0
CIRCLE
  5
62FD
  8
SIZE
  6
CONTINUOUS
 62
    30
 10
-727.31691025554653
 20
0.0000000000000616
 30
0.0
 40
7.5
  0
CIRCLE
  5
62FE
  8
SIZE
  6
CONTINUOUS
 62
    30
 10
-727.31691025554653
 20
-7.9999999999999281
 30
0.0
 40
7.5
  0
TEXT
  5
62FF
  8
SIZE
  6
CONTINUOUS
 62
    30
 10
-747.31691025554653
 20
-89.396268462155575
 30
0.0
 40
60.0
  1
8
 50
90.0
 41
0.9
 72
     1
 11
-747.31691025554653
 21
-71.396268462155589
 31
0.0
  0
POINT
  5
6300
  8
DEFPOINTS
  6
CONTINUOUS
 62
     7
 10
-510.0
 20
0.0
 30
0.0
  0
POINT
  5
6301
  8
DEFPOINTS
  6
CONTINUOUS
 62
     7
 10
-479.30000000000013
 20
-8.0
 30
0.0
  0
POINT
  5
6302
  8
DEFPOINTS
  6
CONTINUOUS
 62
     7
 10
-727.31691025554653
 20
-7.9999999999999281
 30
0.0
  0
LINE
  5
6303
  8
SIZE
  6
CONTINUOUS
 62
    30
 10
-530.0
 20
0.0000000000000057
 30
0.0
 11
-747.31691025554653
 21
0.0000000000000672
 31
0.0
  0
LINE
  5
6304
  8
SIZE
  6
CONTINUOUS
 62
    30
 10
-498.4699999999998
 20
47.000000000000007
 30
0.0
 11
-747.31691025554653
 21
47.000000000000057
 31
0.0
  0
LINE
  5
6305
  8
SIZE
  6
CONTINUOUS
 62
    30
 10
-727.31691025554653
 20
0.0000000000000616
 30
0.0
 11
-727.31691025554653
 21
47.000000000000057
 31
0.0
  0
LINE
  5
6306
  8
SIZE
  6
CONTINUOUS
 62
    30
 10
-727.31691025554653
 20
47.000000000000057
 30
0.0
 11
-727.31691025554653
 21
204.4285714285715
 31
0.0
  0
CIRCLE
  5
6307
  8
SIZE
  6
CONTINUOUS
 62
    30
 10
-727.31691025554653
 20
0.0000000000000616
 30
0.0
 40
7.5
  0
CIRCLE
  5
6308
  8
SIZE
  6
CONTINUOUS
 62
    30
 10
-727.31691025554653
 20
47.000000000000057
 30
0.0
 40
7.5
  0
TEXT
  5
6309
  8
SIZE
  6
CONTINUOUS
 62
    30
 10
-747.31691025554653
 20
96.999999999999886
 30
0.0
 40
60.0
  1
47
 50
90.0
 41
0.9
 72
     1
 11
-747.31691025554653
 21
140.71428571428561
 31
0.0
  0
POINT
  5
630A
  8
DEFPOINTS
  6
CONTINUOUS
 62
     7
 10
-510.0
 20
0.0
 30
0.0
  0
POINT
  5
630B
  8
DEFPOINTS
  6
CONTINUOUS
 62
     7
 10
-478.46999999999991
 20
47.0
 30
0.0
  0
POINT
  5
630C
  8
DEFPOINTS
  6
CONTINUOUS
 62
     7
 10
-727.31691025554653
 20
47.000000000000057
 30
0.0
  0
LINE
  5
630D
  8
SIZE
  6
CONTINUOUS
 62
    30
 10
-510.0
 20
-24.006508000000402
 30
0.0
 11
-510.0
 21
-508.46635708849851
 31
0.0
  0
LINE
  5
630E
  8
SIZE
  6
CONTINUOUS
 62
    30
 10
890.0
 20
-24.006508000000402
 30
0.0
 11
890.0
 21
-508.46635708849851
 31
0.0
  0
LINE
  5
630F
  8
SIZE
  6
CONTINUOUS
 62
    30
 10
-510.0
 20
-488.46635708849851
 30
0.0
 11
890.0
 21
-488.46635708849851
 31
0.0
  0
CIRCLE
  5
6310
  8
SIZE
  6
CONTINUOUS
 62
    30
 10
-510.0
 20
-488.46635708849851
 30
0.0
 40
7.5
  0
CIRCLE
  5
6311
  8
SIZE
  6
CONTINUOUS
 62
    30
 10
890.0
 20
-488.46635708849851
 30
0.0
 40
7.5
  0
TEXT
  5
6312
  8
SIZE
  6
CONTINUOUS
 62
    30
 10
100.0
 20
-468.46635708849851
 30
0.0
 40
60.0
  1
1400
 41
0.9
 72
     1
 11
190.0
 21
-468.46635708849851
 31
0.0
  0
POINT
  5
6313
  8
DEFPOINTS
  6
CONTINUOUS
 62
     7
 10
-510.0
 20
-4.0065080000003901
 30
0.0
  0
POINT
  5
6314
  8
DEFPOINTS
  6
CONTINUOUS
 62
     7
 10
890.0
 20
-4.0065080000003901
 30
0.0
  0
POINT
  5
6315
  8
DEFPOINTS
  6
CONTINUOUS
 62
     7
 10
890.0
 20
-488.46635708849851
 30
0.0
  0
LINE
  5
6316
  8
SIZE
  6
CONTINUOUS
 62
    30
 10
500.0
 20
404.30000000000001
 30
0.0
 11
500.0
 21
1538.8310160260951
 31
0.0
  0
LINE
  5
6317
  8
SIZE
  6
CONTINUOUS
 62
    30
 10
-500.0
 20
404.30000000000001
 30
0.0
 11
-499.99999999999989
 21
1538.8310160260951
 31
0.0
  0
LINE
  5
6318
  8
SIZE
  6
CONTINUOUS
 62
    30
 10
500.0
 20
1518.8310160260951
 30
0.0
 11
-499.99999999999989
 21
1518.8310160260951
 31
0.0
  0
CIRCLE
  5
6319
  8
SIZE
  6
CONTINUOUS
 62
    30
 10
500.0
 20
1518.8310160260951
 30
0.0
 40
7.5
  0
CIRCLE
  5
631A
  8
SIZE
  6
CONTINUOUS
 62
    30
 10
-499.99999999999989
 20
1518.8310160260951
 30
0.0
 40
7.5
  0
TEXT
  5
631B
  8
SIZE
  6
CONTINUOUS
 62
    30
 10
-89.999999999999943
 20
1538.8310160260951
 30
0.0
 40
60.0
  1
1000
 41
0.9
 72
     1
 11
0.0000000000000568
 21
1538.8310160260951
 31
0.0
  0
POINT
  5
631C
  8
DEFPOINTS
  6
CONTINUOUS
 62
     7
 10
500.0
 20
384.30000000000013
 30
0.0
  0
POINT
  5
631D
  8
DEFPOINTS
  6
CONTINUOUS
 62
     7
 10
-500.0
 20
384.30000000000013
 30
0.0
  0
POINT
  5
631E
  8
DEFPOINTS
  6
CONTINUOUS
 62
     7
 10
-499.99999999999989
 20
1518.8310160260951
 30
0.0
  0
TEXT
  5
6320
  8
NOTE
  6
CONTINUOUS
 62
     4
 10
1189.918867334738
 20
1112.966870548845
 30
0.0
 40
60.0
  1
RL %%C6.35
 50
0.0000025044165917
 41
0.7
  7
STANDARD1
  0
TEXT
  5
6321
  8
NOTE
  6
CONTINUOUS
 62
     4
 10
1184.5489192993309
 20
965.1366905727682
 30
0.0
 40
60.0
  1
RG %%C12.7
 50
0.0000025044165917
 41
0.7
  7
STANDARD1
  0
TEXT
  5
6322
  8
NOTE
  6
CONTINUOUS
 62
     4
 10
1189.918867334738
 20
1262.229783130422
 30
0.0
 40
60.0
  1
D1 O.D. %%C32
 50
0.0000025044165917
 41
0.7
  7
STANDARD1
  0
TEXT
  5
6323
  8
NOTE
  6
CONTINUOUS
 62
     4
 10
1189.918867334738
 20
802.81557666949629
 30
0.0
 40
60.0
  1
D2 O.D. %%C32
 50
0.0000025044165917
 41
0.7
  7
STANDARD1
  0
TEXT
  5
6324
  8
NOTE
  6
CONTINUOUS
 62
     4
 10
1188.0852970248461
 20
685.52272882592831
 30
0.0
 40
60.0
  1
(自然排水用)
 50
0.0000025044165917
 41
0.7
  7
STANDARD1
  0
LINE
  5
6325
  8
BASIS
  6
DASHDOT
 62
     6
 10
0.0
 20
439.00159288153361
 30
0.0
 11
0.0
 21
-79.252679068620623
 31
0.0
  0
CIRCLE
  5
6326
  8
ARRANGE
  6
CONTINUOUS
 62
     1
 10
0.0
 20
0.0
 30
0.0
 40
50.0
  0
LINE
  5
6327
  8
ARRANGE
  6
CONTINUOUS
 62
     1
 10
50.037350031328963
 20
-49.522353150325202
 30
0.0
 11
-50.037350031328963
 21
49.522353150325202
 31
0.0
  0
LINE
  5
6328
  8
ARRANGE
  6
CONTINUOUS
 62
     1
 10
49.963763310501221
 20
49.596594797985738
 30
0.0
 11
-49.963763310501221
 21
-49.5965947979821
 31
0.0
  0
LINE
  5
63A4
  8
OUTLINE
  6
CONTINUOUS
 62
     3
 10
449.19999999999987
 20
151.60000000000031
 30
0.0
 11
449.19999999999987
 21
164.0
 31
0.0
  0
LINE
  5
63A6
  8
OUTLINE
  6
CONTINUOUS
 62
     3
 10
449.5
 20
397.0
 30
0.0
 11
449.5
 21
176.0
 31
0.0
  0
LINE
  5
63A7
  8
OUTLINE
  6
CONTINUOUS
 62
     3
 10
434.0
 20
151.39999999999961
 30
0.0
 11
434.0
 21
133.89999999999961
 31
0.0
  0
LINE
  5
63A8
  8
OUTLINE
  6
CONTINUOUS
 62
     3
 10
433.0
 20
132.89999999999961
 30
0.0
 11
433.0
 21
133.89999999999961
 31
0.0
  0
LINE
  5
63A9
  8
OUTLINE
  6
CONTINUOUS
 62
     3
 10
432.7000000000001
 20
151.60000000000031
 30
0.0
 11
432.7000000000001
 21
151.39999999999961
 31
0.0
  0
LINE
  5
63AA
  8
OUTLINE
  6
CONTINUOUS
 62
     3
 10
430.0
 20
130.0
 30
0.0
 11
430.0
 21
132.89999999999961
 31
0.0
  0
LINE
  5
63AC
  8
OUTLINE
  6
CONTINUOUS
 62
     3
 10
-444.5
 20
402.0
 30
0.0
 11
444.5
 21
402.0
 31
0.0
  0
LINE
  5
63C4
  8
OUTLINE
  6
CONTINUOUS
 62
     3
 10
-432.69999999999987
 20
151.60000000000119
 30
0.0
 11
-449.19999999999987
 21
151.60000000000031
 31
0.0
  0
LINE
  5
63C5
  8
OUTLINE
  6
CONTINUOUS
 62
     3
 10
449.19999999999987
 20
151.60000000000031
 30
0.0
 11
432.7000000000001
 21
151.60000000000031
 31
0.0
  0
LINE
  5
63C6
  8
OUTLINE
  6
CONTINUOUS
 62
     3
 10
-432.69999999999987
 20
151.39999999999961
 30
0.0
 11
-434.0
 21
151.39999999999961
 31
0.0
  0
LINE
  5
63C7
  8
OUTLINE
  6
CONTINUOUS
 62
     3
 10
434.0
 20
151.39999999999961
 30
0.0
 11
432.7000000000001
 21
151.39999999999961
 31
0.0
  0
LINE
  5
63C8
  8
OUTLINE
  6
CONTINUOUS
 62
     3
 10
434.0
 20
133.89999999999961
 30
0.0
 11
433.0
 21
133.89999999999961
 31
0.0
  0
LINE
  5
63C9
  8
OUTLINE
  6
CONTINUOUS
 62
     3
 10
-434.0
 20
133.89999999999961
 30
0.0
 11
-433.0
 21
133.89999999999961
 31
0.0
  0
LINE
  5
63CA
  8
OUTLINE
  6
CONTINUOUS
 62
     3
 10
433.0
 20
132.89999999999961
 30
0.0
 11
430.0000000000004
 21
132.89999999999961
 31
0.0
  0
LINE
  5
63CB
  8
OUTLINE
  6
CONTINUOUS
 62
     3
 10
430.0
 20
130.0
 30
0.0
 11
-430.0
 21
130.0
 31
0.0
  0
LINE
  5
63CC
  8
OUTLINE
  6
CONTINUOUS
 62
     3
 10
-430.0
 20
130.0
 30
0.0
 11
-430.0
 21
132.89999999999961
 31
0.0
  0
LINE
  5
63CD
  8
OUTLINE
  6
CONTINUOUS
 62
     3
 10
-432.69999999999987
 20
151.60000000000119
 30
0.0
 11
-432.69999999999987
 21
151.39999999999961
 31
0.0
  0
LINE
  5
63CE
  8
OUTLINE
  6
CONTINUOUS
 62
     3
 10
-433.0
 20
132.89999999999961
 30
0.0
 11
-433.0
 21
133.89999999999961
 31
0.0
  0
LINE
  5
63CF
  8
OUTLINE
  6
CONTINUOUS
 62
     3
 10
-434.0
 20
151.39999999999961
 30
0.0
 11
-434.0
 21
133.89999999999961
 31
0.0
  0
LINE
  5
63D0
  8
OUTLINE
  6
CONTINUOUS
 62
     3
 10
-448.99999999999989
 20
173.8205505282296
 30
0.0
 11
-449.0
 21
164.5999999999998
 31
0.0
  0
LINE
  5
63D9
  8
OUTLINE
  6
CONTINUOUS
 62
     3
 10
890.0
 20
-4.0065080000003901
 30
0.0
 11
890.0
 21
0.0
 31
0.0
  0
LINE
  5
63DA
  8
OUTLINE
  6
CONTINUOUS
 62
     3
 10
890.0
 20
0.0
 30
0.0
 11
-510.0
 21
0.0
 31
0.0
  0
LINE
  5
63DB
  8
OUTLINE
  6
CONTINUOUS
 62
     3
 10
859.29999999999984
 20
-8.0
 30
0.0
 11
-479.30000000000013
 21
-8.0
 31
0.0
  0
ARC
  5
63DC
  8
OUTLINE
  6
CONTINUOUS
 62
     3
 10
859.29999999999984
 20
112.0
 30
0.0
 40
120.0
 50
270.0
 51
284.82297000000119
  0
LINE
  5
63DD
  8
OUTLINE
  6
CONTINUOUS
 62
     3
 10
858.47000000000014
 20
47.0
 30
0.0
 11
-478.46999999999991
 21
47.0
 31
0.0
  0
LINE
  5
63DE
  8
OUTLINE
  6
CONTINUOUS
 62
     3
 10
858.47000000000014
 20
0.0
 30
0.0
 11
858.47000000000014
 21
47.0
 31
0.0
  0
ARC
  5
63DF
  8
OUTLINE
  6
CONTINUOUS
 62
     3
 10
-479.30000000000013
 20
112.0
 30
0.0
 40
120.0
 50
255.17702999999881
 51
270.0
  0
LINE
  5
63E1
  8
OUTLINE
  6
CONTINUOUS
 62
     3
 10
-478.46999999999991
 20
0.0
 30
0.0
 11
-478.46999999999991
 21
47.0
 31
0.0
  0
LINE
  5
63E2
  8
OUTLINE
  6
CONTINUOUS
 62
     3
 10
-510.0
 20
-4.0065080000003901
 30
0.0
 11
-510.0
 21
0.0
 31
0.0
  0
LINE
  5
63E3
  8
OUTLINE
  6
CONTINUOUS
 62
     3
 10
-449.5
 20
176.0
 30
0.0
 11
-449.5
 21
397.0
 31
0.0
  0
LINE
  5
63E4
  8
OUTLINE
  6
CONTINUOUS
 62
     3
 10
-430.0
 20
132.89999999999961
 30
0.0
 11
-433.0
 21
132.89999999999961
 31
0.0
  0
LINE
  5
63F3
  8
SIZE
  6
CONTINUOUS
 62
    30
 10
450.0
 20
130.0
 30
0.0
 11
1927.4719827809979
 21
129.9999999999996
 31
0.0
  0
LINE
  5
63F4
  8
SIZE
  6
CONTINUOUS
 62
    30
 10
896.31324419370753
 20
-0.0000000000000056
 30
0.0
 11
1927.4719827809979
 21
-0.0000000000002712
 31
0.0
  0
LINE
  5
63F5
  8
SIZE
  6
CONTINUOUS
 62
    30
 10
1907.4719827809979
 20
129.9999999999996
 30
0.0
 11
1907.4719827809979
 21
-0.0000000000002658
 31
0.0
  0
LINE
  5
63F6
  8
SIZE
  6
CONTINUOUS
 62
    30
 10
1907.4719827809979
 20
-0.0000000000002658
 30
0.0
 11
1907.4719827809979
 21
-419.71428571428561
 31
0.0
  0
CIRCLE
  5
63F7
  8
SIZE
  6
CONTINUOUS
 62
    30
 10
1907.4719827809979
 20
129.9999999999996
 30
0.0
 40
7.5
  0
CIRCLE
  5
63F8
  8
SIZE
  6
CONTINUOUS
 62
    30
 10
1907.4719827809979
 20
-0.0000000000002658
 30
0.0
 40
7.5
  0
TEXT
  5
63F9
  8
SIZE
  6
CONTINUOUS
 62
    30
 10
1887.471982780997
 20
-399.71428571428578
 30
0.0
 40
60.0
  1
130~280
 50
90.0
 41
0.9
 72
     1
 11
1887.471982780997
 21
-224.85714285714289
 31
0.0
  0
POINT
  5
63FA
  8
DEFPOINTS
  6
CONTINUOUS
 62
     7
 10
430.0
 20
130.0
 30
0.0
  0
POINT
  5
63FC
  8
DEFPOINTS
  6
CONTINUOUS
 62
     7
 10
1907.4719827809979
 20
-0.0000000000002658
 30
0.0
  0
LINE
  5
63FD
  8
NOTE
  6
CONTINUOUS
 62
     4
 10
490.0
 20
185.0
 30
0.0
 11
1162.987178151111
 21
774.30604264639624
 31
0.0
  0
LINE
  5
63FE
  8
NOTE
  6
CONTINUOUS
 62
     4
 10
1162.987178151111
 20
774.30604264639624
 30
0.0
 11
1622.979990473782
 21
774.30604264639624
 31
0.0
  0
LINE
  5
63FF
  8
NOTE
  6
CONTINUOUS
 62
     4
 10
517.86557267535397
 20
198.7159378481403
 30
0.0
 11
490.0
 21
185.0
 31
0.0
  0
LINE
  5
6400
  8
NOTE
  6
CONTINUOUS
 62
     4
 10
490.0
 20
185.0
 30
0.0
 11
507.27432502088112
 21
210.8111368725294
 31
0.0
  0
LINE
  5
6401
  8
NOTE
  6
CONTINUOUS
 62
     4
 10
508.0
 20
361.00000000000023
 30
0.0
 11
1162.987178151111
 21
1233.7202491073219
 31
0.0
  0
LINE
  5
6402
  8
NOTE
  6
CONTINUOUS
 62
     4
 10
1162.987178151111
 20
1233.7202491073219
 30
0.0
 11
1622.979990473782
 21
1233.7202491073219
 31
0.0
  0
LINE
  5
6403
  8
NOTE
  6
CONTINUOUS
 62
     4
 10
532.43706382384426
 20
380.16890720017301
 30
0.0
 11
508.0
 21
361.0
 31
0.0
  0
LINE
  5
6404
  8
NOTE
  6
CONTINUOUS
 62
     4
 10
508.0
 20
361.0
 30
0.0
 11
519.57866459600405
 21
389.8192924575315
 31
0.0
  0
LINE
  5
6405
  8
NOTE
  6
CONTINUOUS
 62
     4
 10
507.0
 20
280.0
 30
0.0
 11
1162.987178151111
 21
1084.457336525744
 31
0.0
  0
LINE
  5
6406
  8
NOTE
  6
CONTINUOUS
 62
     4
 10
1162.987178151111
 20
1084.457336525744
 30
0.0
 11
1517.7583632867329
 21
1084.457336525744
 31
0.0
  0
LINE
  5
6407
  8
NOTE
  6
CONTINUOUS
 62
     4
 10
532.18872940011795
 20
298.16989275662132
 30
0.0
 11
507.0
 21
280.0
 31
0.0
  0
LINE
  5
6408
  8
NOTE
  6
CONTINUOUS
 62
     4
 10
507.0
 20
280.0
 30
0.0
 11
519.72913329976325
 21
308.32995335358572
 31
0.0
  0
LINE
  5
6409
  8
NOTE
  6
CONTINUOUS
 62
     4
 10
528.0
 20
247.0
 30
0.0
 11
1164.2308385320871
 21
937.68243978617079
 31
0.0
  0
LINE
  5
640A
  8
NOTE
  6
CONTINUOUS
 62
     4
 10
1164.2308385320871
 20
937.68243978617079
 30
0.0
 11
1513.095985989313
 21
937.68243978617079
 31
0.0
  0
LINE
  5
640B
  8
NOTE
  6
CONTINUOUS
 62
     4
 10
554.23792293041845
 20
263.61891969644569
 30
0.0
 11
528.0
 21
247.0
 31
0.0
  0
LINE
  5
640C
  8
NOTE
  6
CONTINUOUS
 62
     4
 10
528.0
 20
247.0
 30
0.0
 11
542.41324807686408
 21
274.51136804039862
 31
0.0
  0
LINE
  5
640D
  8
NOTE
  6
CONTINUOUS
 62
     4
 10
-225.0
 20
286.00000600000021
 30
0.0
 11
-563.36022299703825
 21
994.12679319300514
 31
0.0
  0
LINE
  5
640F
  8
NOTE
  6
CONTINUOUS
 62
     4
 10
-231.1432865669922
 20
316.44466270253679
 30
0.0
 11
-225.0
 21
286.00000600000021
 31
0.0
  0
LINE
  5
6410
  8
NOTE
  6
CONTINUOUS
 62
     4
 10
-225.0
 20
286.00000600000021
 30
0.0
 11
-245.54257047533619
 21
309.29420892358911
 31
0.0
  0
LINE
  5
6411
  8
SIZE
  6
CONTINUOUS
 62
    30
 10
-385.11020046671172
 20
286.0
 30
0.0
 11
-742.3353233878214
 21
286.0
 31
0.0
  0
LINE
  5
6412
  8
SIZE
  6
CONTINUOUS
 62
    30
 10
-469.19999999999987
 20
402.0
 30
0.0
 11
-742.3353233878214
 21
402.0
 31
0.0
  0
LINE
  5
6413
  8
SIZE
  6
CONTINUOUS
 62
    30
 10
-722.3353233878214
 20
286.0
 30
0.0
 11
-722.3353233878214
 21
402.0
 31
0.0
  0
LINE
  5
6414
  8
SIZE
  6
CONTINUOUS
 62
    30
 10
-722.3353233878214
 20
402.0
 30
0.0
 11
-722.3353233878214
 21
587.71428571428555
 31
0.0
  0
CIRCLE
  5
6415
  8
SIZE
  6
CONTINUOUS
 62
    30
 10
-722.3353233878214
 20
286.0
 30
0.0
 40
7.5
  0
CIRCLE
  5
6416
  8
SIZE
  6
CONTINUOUS
 62
    30
 10
-722.3353233878214
 20
402.0
 30
0.0
 40
7.5
  0
TEXT
  5
6417
  8
SIZE
  6
CONTINUOUS
 62
    30
 10
-742.3353233878214
 20
451.9999999999996
 30
0.0
 40
60.0
  1
116
 50
90.0
 41
0.9
 72
     1
 11
-742.3353233878214
 21
509.85714285714249
 31
0.0
  0
POINT
  5
6418
  8
DEFPOINTS
  6
CONTINUOUS
 62
     7
 10
-365.11020046671172
 20
286.0
 30
0.0
  0
POINT
  5
6419
  8
DEFPOINTS
  6
CONTINUOUS
 62
     7
 10
-449.19999999999987
 20
402.0
 30
0.0
  0
POINT
  5
641A
  8
DEFPOINTS
  6
CONTINUOUS
 62
     7
 10
-722.3353233878214
 20
402.0
 30
0.0
  0
TEXT
  5
6424
  8
NOTE
  6
CONTINUOUS
 62
     4
 10
-1052.1425642797799
 20
812.84222733402385
 30
0.0
 40
60.0
  1
AH 4-M10
 50
0.0000025044165917
 41
0.7
  7
STANDARD1
  0
LINE
  5
6425
  8
NOTE
  6
CONTINUOUS
 62
     4
 10
-1079.074253463408
 20
784.3326933109239
 30
0.0
 11
-723.88443733888721
 21
784.3326933109239
 31
0.0
  0
LINE
  5
6426
  8
NOTE
  6
CONTINUOUS
 62
     4
 10
-477.0000000000004
 20
387.0000000000008
 30
0.0
 11
-723.88443733888721
 21
784.3326933109239
 31
0.0
  0
LINE
  5
6427
  8
NOTE
  6
CONTINUOUS
 62
     4
 10
-486.00485094554222
 20
416.72422835042272
 30
0.0
 11
-477.0000000000004
 21
387.00000000000051
 31
0.0
  0
LINE
  5
6428
  8
NOTE
  6
CONTINUOUS
 62
     4
 10
-477.0000000000004
 20
387.00000000000051
 30
0.0
 11
-499.6605437549897
 21
408.23951148938482
 31
0.0
  0
ARC
  5
6445
  8
OUTLINE
  6
CONTINUOUS
 62
     3
 10
-444.5
 20
397.0
 30
0.0
 40
5.0
 50
90.0
 51
180.0
  0
ARC
  5
644B
  8
OUTLINE
  6
CONTINUOUS
 62
     3
 10
444.5
 20
397.0
 30
0.0
 40
5.0
 50
0.0
 51
90.0
  0
LINE
  5
6492
  8
DETAIL
  6
CONTINUOUS
 62
     5
 10
450.0
 20
263.5
 30
0.0
 11
472.99999999999949
 21
263.5
 31
0.0
  0
LINE
  5
6493
  8
DETAIL
  6
CONTINUOUS
 62
     5
 10
450.0
 20
296.5
 30
0.0
 11
472.99999999999949
 21
296.5
 31
0.0
  0
LINE
  5
6496
  8
DETAIL
  6
CONTINUOUS
 62
     5
 10
448.99999999999989
 20
169.0
 30
0.0
 11
489.99999999999972
 21
169.0
 31
0.0
  0
LINE
  5
6497
  8
DETAIL
  6
CONTINUOUS
 62
     5
 10
449.5
 20
200.99999999999989
 30
0.0
 11
489.99999999999972
 21
200.99999999999989
 31
0.0
  0
LINE
  5
6498
  8
DETAIL
  6
CONTINUOUS
 62
     5
 10
472.99999999999949
 20
296.5
 30
0.0
 11
472.99999999999949
 21
263.5
 31
0.0
  0
LINE
  5
6499
  8
DETAIL
  6
CONTINUOUS
 62
     5
 10
479.99999999999977
 20
265.34863500000017
 30
0.0
 11
479.99999999999977
 21
227.99999999999989
 31
0.0
  0
LINE
  5
649A
  8
DETAIL
  6
CONTINUOUS
 62
     5
 10
489.99999999999972
 20
200.99999999999989
 30
0.0
 11
489.99999999999972
 21
169.0
 31
0.0
  0
LINE
  5
649B
  8
DETAIL
  6
CONTINUOUS
 62
     5
 10
528.0
 20
258.25
 30
0.0
 11
528.0
 21
235.74999999999989
 31
0.0
  0
LINE
  5
649C
  8
DETAIL
  6
CONTINUOUS
 62
     5
 10
479.99999999999977
 20
235.5
 30
0.0
 11
503.01829699999939
 21
235.5
 31
0.0
  0
LINE
  5
649D
  8
DETAIL
  6
CONTINUOUS
 62
     5
 10
479.99999999999977
 20
258.50000000000028
 30
0.0
 11
503.01829699999939
 21
258.5
 31
0.0
  0
LINE
  5
649E
  8
DETAIL
  6
CONTINUOUS
 62
     5
 10
509.01829699999979
 20
236.00000000000011
 30
0.0
 11
511.01829699999939
 21
234.00000000000011
 31
0.0
  0
LINE
  5
649F
  8
DETAIL
  6
CONTINUOUS
 62
     5
 10
509.01829699999979
 20
236.00000000000011
 30
0.0
 11
511.01829699999939
 21
234.00000000000011
 31
0.0
  0
LINE
  5
64A0
  8
DETAIL
  6
CONTINUOUS
 62
     5
 10
509.01829699999979
 20
258.0
 30
0.0
 11
511.01829699999939
 21
260.0
 31
0.0
  0
LINE
  5
64A1
  8
DETAIL
  6
CONTINUOUS
 62
     5
 10
509.01829699999979
 20
258.0
 30
0.0
 11
511.01829699999939
 21
260.0
 31
0.0
  0
LINE
  5
64A2
  8
DETAIL
  6
CONTINUOUS
 62
     5
 10
528.0
 20
235.74999999999989
 30
0.0
 11
525.01829699999996
 21
234.00000000000011
 31
0.0
  0
LINE
  5
64A3
  8
DETAIL
  6
CONTINUOUS
 62
     5
 10
525.01829699999996
 20
260.0
 30
0.0
 11
528.0
 21
258.24999600000001
 31
0.0
  0
LINE
  5
64A4
  8
DETAIL
  6
CONTINUOUS
 62
     5
 10
525.01829699999996
 20
260.0
 30
0.0
 11
525.01829699999996
 21
234.00000000000011
 31
0.0
  0
LINE
  5
64A5
  8
DETAIL
  6
CONTINUOUS
 62
     5
 10
525.01829699999996
 20
260.0
 30
0.0
 11
525.01829699999996
 21
234.00000000000011
 31
0.0
  0
LINE
  5
64A6
  8
DETAIL
  6
CONTINUOUS
 62
     5
 10
509.01829699999979
 20
258.0
 30
0.0
 11
509.01829699999979
 21
236.00000000000011
 31
0.0
  0
LINE
  5
64A7
  8
DETAIL
  6
CONTINUOUS
 62
     5
 10
509.01829699999979
 20
258.0
 30
0.0
 11
509.01829699999979
 21
236.00000000000011
 31
0.0
  0
LINE
  5
64A8
  8
DETAIL
  6
CONTINUOUS
 62
     5
 10
511.01829699999939
 20
234.00000000000011
 30
0.0
 11
525.01829699999996
 21
234.00000000000011
 31
0.0
  0
LINE
  5
64A9
  8
DETAIL
  6
CONTINUOUS
 62
     5
 10
511.01829699999939
 20
234.00000000000011
 30
0.0
 11
525.01829699999996
 21
234.00000000000011
 31
0.0
  0
LINE
  5
64AA
  8
DETAIL
  6
CONTINUOUS
 62
     5
 10
511.01829699999939
 20
260.0
 30
0.0
 11
525.01829699999996
 21
260.0
 31
0.0
  0
LINE
  5
64AB
  8
DETAIL
  6
CONTINUOUS
 62
     5
 10
511.01829699999939
 20
260.0
 30
0.0
 11
525.01829699999996
 21
260.0
 31
0.0
  0
LINE
  5
64AC
  8
DETAIL
  6
CONTINUOUS
 62
     5
 10
509.01829699999979
 20
255.00000000000011
 30
0.0
 11
509.01829699999979
 21
239.00000000000011
 31
0.0
  0
LINE
  5
64AD
  8
DETAIL
  6
CONTINUOUS
 62
     5
 10
509.01829699999979
 20
240.65000000000001
 30
0.0
 11
505.01829699999979
 21
240.65000000000001
 31
0.0
  0
LINE
  5
64AE
  8
DETAIL
  6
CONTINUOUS
 62
     5
 10
509.01829699999979
 20
253.34999999999999
 30
0.0
 11
505.01829699999979
 21
253.34999999999999
 31
0.0
  0
LINE
  5
64AF
  8
DETAIL
  6
CONTINUOUS
 62
     5
 10
505.01829699999979
 20
256.50000000000011
 30
0.0
 11
503.01829699999939
 21
258.5
 31
0.0
  0
LINE
  5
64B0
  8
DETAIL
  6
CONTINUOUS
 62
     5
 10
505.01829699999979
 20
237.5
 30
0.0
 11
503.01829699999939
 21
235.5
 31
0.0
  0
LINE
  5
64B1
  8
DETAIL
  6
CONTINUOUS
 62
     5
 10
505.01829699999979
 20
256.50000000000011
 30
0.0
 11
505.01829699999979
 21
237.5
 31
0.0
  0
LINE
  5
64B2
  8
DETAIL
  6
CONTINUOUS
 62
     5
 10
509.01829699999979
 20
236.00000000000011
 30
0.0
 11
511.01829699999939
 21
234.00000000000011
 31
0.0
  0
LINE
  5
64B3
  8
DETAIL
  6
CONTINUOUS
 62
     5
 10
509.01829699999979
 20
258.0
 30
0.0
 11
511.01829699999939
 21
260.0
 31
0.0
  0
LINE
  5
64B4
  8
DETAIL
  6
CONTINUOUS
 62
     5
 10
525.01829699999996
 20
260.0
 30
0.0
 11
525.01829699999996
 21
234.00000000000011
 31
0.0
  0
LINE
  5
64B5
  8
DETAIL
  6
CONTINUOUS
 62
     5
 10
509.01829699999979
 20
258.0
 30
0.0
 11
509.01829699999979
 21
236.00000000000011
 31
0.0
  0
LINE
  5
64B6
  8
DETAIL
  6
CONTINUOUS
 62
     5
 10
509.01829699999979
 20
258.0
 30
0.0
 11
509.01829699999979
 21
236.00000000000011
 31
0.0
  0
LINE
  5
64B7
  8
DETAIL
  6
CONTINUOUS
 62
     5
 10
511.01829699999939
 20
234.00000000000011
 30
0.0
 11
525.01829699999996
 21
234.00000000000011
 31
0.0
  0
LINE
  5
64B8
  8
DETAIL
  6
CONTINUOUS
 62
     5
 10
511.01829699999939
 20
260.0
 30
0.0
 11
525.01829699999996
 21
260.0
 31
0.0
  0
LINE
  5
64B9
  8
DETAIL
  6
CONTINUOUS
 62
     5
 10
509.01829699999979
 20
255.00000000000011
 30
0.0
 11
509.01829699999979
 21
239.00000000000011
 31
0.0
  0
LINE
  5
64BA
  8
DETAIL
  6
CONTINUOUS
 62
     5
 10
485.4999997872265
 20
270.49999341226351
 30
0.0
 11
472.99999999999949
 21
270.49999341226351
 31
0.0
  0
LINE
  5
64BB
  8
DETAIL
  6
CONTINUOUS
 62
     5
 10
485.4999997872265
 20
289.49999341226351
 30
0.0
 11
472.99999999999949
 21
289.49999341226351
 31
0.0
  0
LINE
  5
64BC
  8
DETAIL
  6
CONTINUOUS
 62
     5
 10
502.4999997872265
 20
269.49999341226339
 30
0.0
 11
488.49999978722678
 21
269.49999341226339
 31
0.0
  0
LINE
  5
64BD
  8
DETAIL
  6
CONTINUOUS
 62
     5
 10
486.49999978722639
 20
271.49999341226339
 30
0.0
 11
485.4999997872265
 21
270.49999341226351
 31
0.0
  0
LINE
  5
64BE
  8
DETAIL
  6
CONTINUOUS
 62
     5
 10
488.49999978722678
 20
276.8249934122635
 30
0.0
 11
486.49999978722639
 21
276.8249934122635
 31
0.0
  0
LINE
  5
64BF
  8
DETAIL
  6
CONTINUOUS
 62
     5
 10
486.49999978722639
 20
271.49999341226339
 30
0.0
 11
486.49999978722639
 21
288.49999341226339
 31
0.0
  0
LINE
  5
64C0
  8
DETAIL
  6
CONTINUOUS
 62
     5
 10
488.49999978722678
 20
269.49999341226339
 30
0.0
 11
488.49999978722678
 21
289.49999341226351
 31
0.0
  0
LINE
  5
64C1
  8
DETAIL
  6
CONTINUOUS
 62
     5
 10
507.0
 20
290.5
 30
0.0
 11
488.49999978722678
 21
290.49999341226339
 31
0.0
  0
LINE
  5
64C2
  8
DETAIL
  6
CONTINUOUS
 62
     5
 10
486.49999978722639
 20
288.49999341226339
 30
0.0
 11
485.4999997872265
 21
289.49999341226351
 31
0.0
  0
LINE
  5
64C3
  8
DETAIL
  6
CONTINUOUS
 62
     5
 10
488.49999978722678
 20
283.17499341226352
 30
0.0
 11
486.49999978722639
 21
283.17499341226352
 31
0.0
  0
LINE
  5
64C4
  8
DETAIL
  6
CONTINUOUS
 62
     5
 10
486.49999978722639
 20
271.49999341226339
 30
0.0
 11
486.49999978722639
 21
288.49999341226339
 31
0.0
  0
LINE
  5
64C5
  8
DETAIL
  6
CONTINUOUS
 62
     5
 10
488.49999978722678
 20
269.49999341226339
 30
0.0
 11
488.49999978722678
 21
290.49999341226339
 31
0.0
  0
LINE
  5
64C6
  8
DETAIL
  6
CONTINUOUS
 62
     5
 10
506.99999953117862
 20
269.49999976229719
 30
0.0
 11
488.49999953117822
 21
269.49999976229719
 31
0.0
  0
LINE
  5
64C7
  8
DETAIL
  6
CONTINUOUS
 62
     5
 10
507.0
 20
269.5
 30
0.0
 11
507.0
 21
290.5
 31
0.0
  0
LINE
  5
64D6
  8
OUTLINE
  6
CONTINUOUS
 62
     3
 10
449.0
 20
164.5983429999996
 30
0.0
 11
449.0
 21
173.8218159999997
 31
0.0
  0
ARC
  5
64DC
  8
OUTLINE
  6
CONTINUOUS
 62
     3
 10
444.5
 20
176.0
 30
0.0
 40
5.0
 50
334.1580672368317
 51
0.0
  0
ARC
  5
64E2
  8
OUTLINE
  6
CONTINUOUS
 62
     3
 10
448.19999999999982
 20
164.0
 30
0.0
 40
1.0
 50
0.0
 51
36.869897645830342
  0
LINE
  5
64EC
  8
OUTLINE
  6
CONTINUOUS
 62
     3
 10
-449.19999999999987
 20
163.99999985859111
 30
0.0
 11
-449.19999955039748
 21
151.5999986192472
 31
0.0
  0
ARC
  5
64FB
  8
OUTLINE
  6
CONTINUOUS
 62
     3
 10
-448.19999999999982
 20
164.0
 30
0.0
 40
1.0
 50
143.13010235416709
 51
180.0
  0
ARC
  5
6503
  8
OUTLINE
  6
CONTINUOUS
 62
     3
 10
-444.5
 20
176.0
 30
0.0
 40
5.0
 50
180.0
 51
205.8419327631683
  0
TEXT
  5
6EDD
  8
NOTE
  6
CONTINUOUS
 62
     4
 10
-1161.6645785231401
 20
1022.247097626008
 30
0.0
 40
60.0
  1
%%C200 吹出円形フランジ
 50
359.99999749558327
 41
0.7
  7
STANDARD1
  0
LINE
  5
6EDE
  8
NOTE
  6
CONTINUOUS
 62
     4
 10
-563.36022299703825
 20
994.12679319300514
 30
0.0
 11
-1176.6148828180101
 21
994.12679319300514
 31
0.0
  0
LINE
  5
6EEA
  8
NOTE
  6
CONTINUOUS
 62
     4
 10
-496.20000000000078
 20
387.0
 30
0.0
 11
-457.7999999999991
 21
387.0
 31
0.0
  0
LINE
  5
6EFF
  8
NOTE
  6
CONTINUOUS
 62
     4
 10
457.7999999999991
 20
387.0
 30
0.0
 11
496.20000000000078
 21
387.0
 31
0.0
  0
TEXT
  5
71B0
  8
ETC
  6
CONTINUOUS
 62
    61
 10
896.92074958829426
 20
1700.3915290197899
 30
0.0
 40
64.0
  1
PDFY-P45_56GMG3_2
 50
0.0000029998804485
 41
0.9
  7
STANDARD_MODELNAME
  0
ENDSEC
  0
EOF
