  0
SECTION
  2
HEADER
  9
$ACADVER
  1
AC1015
  9
$ACADMAINTVER
 70
    20
  9
$DWGCODEPAGE
  3
ANSI_932
  9
$INSBASE
 10
0.0
 20
0.0
 30
0.0
  9
$EXTMIN
 10
-1483.282892805553
 20
-607.141487053952
 30
-0.0015258207003583
  9
$EXTMAX
 10
1416.325984558661
 20
1499.37946396428
 30
0.0000000349246037
  9
$LIMMIN
 10
-4267.152221060482
 20
-2696.083210198413
  9
$LIMMAX
 10
7190.717422586465
 20
5141.155363923066
  9
$ORTHOMODE
 70
     0
  9
$REGENMODE
 70
     1
  9
$FILLMODE
 70
     1
  9
$QTEXTMODE
 70
     0
  9
$MIRRTEXT
 70
     0
  9
$LTSCALE
 40
20.0
  9
$ATTMODE
 70
     1
  9
$TEXTSIZE
 40
64.0
  9
$TRACEWID
 40
0.05
  9
$TEXTSTYLE
  7
STANDARD_MODELNAME
  9
$CLAYER
  8
SYMBOLLINE
  9
$CELTYPE
  6
CONTINUOUS
  9
$CECOLOR
 62
     7
  9
$CELTSCALE
 40
1.0
  9
$DISPSILH
 70
     0
  9
$DIMSCALE
 40
1.0
  9
$DIMASZ
 40
30.0
  9
$DIMEXO
 40
20.0
  9
$DIMDLI
 40
80.0
  9
$DIMRND
 40
0.0
  9
$DIMDLE
 40
0.0
  9
$DIMEXE
 40
20.0
  9
$DIMTP
 40
0.0
  9
$DIMTM
 40
0.0
  9
$DIMTXT
 40
60.0
  9
$DIMCEN
 40
0.09
  9
$DIMTSZ
 40
0.0
  9
$DIMTOL
 70
     0
  9
$DIMLIM
 70
     0
  9
$DIMTIH
 70
     0
  9
$DIMTOH
 70
     0
  9
$DIMSE1
 70
     0
  9
$DIMSE2
 70
     0
  9
$DIMTAD
 70
     1
  9
$DIMZIN
 70
     8
  9
$DIMBLK
  1

  9
$DIMASO
 70
     1
  9
$DIMSHO
 70
     0
  9
$DIMPOST
  1

  9
$DIMAPOST
  1

  9
$DIMALT
 70
     0
  9
$DIMALTD
 70
     2
  9
$DIMALTF
 40
25.4
  9
$DIMLFAC
 40
1.0
  9
$DIMTOFL
 70
     1
  9
$DIMTVP
 40
0.0
  9
$DIMTIX
 70
     0
  9
$DIMSOXD
 70
     0
  9
$DIMSAH
 70
     0
  9
$DIMBLK1
  1

  9
$DIMBLK2
  1

  9
$DIMSTYLE
  2
Standard
  9
$DIMCLRD
 70
     0
  9
$DIMCLRE
 70
     0
  9
$DIMCLRT
 70
     0
  9
$DIMTFAC
 40
1.0
  9
$DIMGAP
 40
0.09
  9
$DIMJUST
 70
     0
  9
$DIMSD1
 70
     0
  9
$DIMSD2
 70
     0
  9
$DIMTOLJ
 70
     1
  9
$DIMTZIN
 70
     0
  9
$DIMALTZ
 70
     0
  9
$DIMALTTZ
 70
     0
  9
$DIMUPT
 70
     0
  9
$DIMDEC
 70
     4
  9
$DIMTDEC
 70
     4
  9
$DIMALTU
 70
     2
  9
$DIMALTTD
 70
     2
  9
$DIMTXSTY
  7
STANDARD
  9
$DIMAUNIT
 70
     0
  9
$DIMADEC
 70
     0
  9
$DIMALTRND
 40
0.0
  9
$DIMAZIN
 70
     0
  9
$DIMDSEP
 70
    46
  9
$DIMATFIT
 70
     3
  9
$DIMFRAC
 70
     0
  9
$DIMLDRBLK
  1

  9
$DIMLUNIT
 70
     2
  9
$DIMLWD
 70
    -2
  9
$DIMLWE
 70
    -2
  9
$DIMTMOVE
 70
     0
  9
$LUNITS
 70
     2
  9
$LUPREC
 70
     4
  9
$SKETCHINC
 40
0.1
  9
$FILLETRAD
 40
0.0
  9
$AUNITS
 70
     1
  9
$AUPREC
 70
     3
  9
$MENU
  1
ACAD
  9
$ELEVATION
 40
0.0
  9
$PELEVATION
 40
0.0
  9
$THICKNESS
 40
0.0
  9
$LIMCHECK
 70
     0
  9
$CHAMFERA
 40
0.0
  9
$CHAMFERB
 40
0.0
  9
$CHAMFERC
 40
0.0
  9
$CHAMFERD
 40
0.0
  9
$SKPOLY
 70
     0
  9
$TDCREATE
 40
2450330.439930984
  9
$TDUCREATE
 40
2450330.064930984
  9
$TDUPDATE
 40
2457897.548666528
  9
$TDUUPDATE
 40
2457897.173666528
  9
$TDINDWG
 40
3.9964255787
  9
$TDUSRTIMER
 40
3.9964221528
  9
$USRTIMER
 70
     1
  9
$ANGBASE
 50
0.0
  9
$ANGDIR
 70
     0
  9
$PDMODE
 70
     3
  9
$PDSIZE
 40
-2.0
  9
$PLINEWID
 40
0.0
  9
$SPLFRAME
 70
     0
  9
$SPLINETYPE
 70
     6
  9
$SPLINESEGS
 70
     8
  9
$HANDSEED
  5
39B
  9
$SURFTAB1
 70
     6
  9
$SURFTAB2
 70
     6
  9
$SURFTYPE
 70
     6
  9
$SURFU
 70
     6
  9
$SURFV
 70
     6
  9
$UCSBASE
  2

  9
$UCSNAME
  2

  9
$UCSORG
 10
0.0
 20
0.0
 30
0.0
  9
$UCSXDIR
 10
1.0
 20
0.0
 30
0.0
  9
$UCSYDIR
 10
0.0
 20
1.0
 30
0.0
  9
$UCSORTHOREF
  2

  9
$UCSORTHOVIEW
 70
     0
  9
$UCSORGTOP
 10
0.0
 20
0.0
 30
0.0
  9
$UCSORGBOTTOM
 10
0.0
 20
0.0
 30
0.0
  9
$UCSORGLEFT
 10
0.0
 20
0.0
 30
0.0
  9
$UCSORGRIGHT
 10
0.0
 20
0.0
 30
0.0
  9
$UCSORGFRONT
 10
0.0
 20
0.0
 30
0.0
  9
$UCSORGBACK
 10
0.0
 20
0.0
 30
0.0
  9
$PUCSBASE
  2

  9
$PUCSNAME
  2

  9
$PUCSORG
 10
0.0
 20
0.0
 30
0.0
  9
$PUCSXDIR
 10
1.0
 20
0.0
 30
0.0
  9
$PUCSYDIR
 10
0.0
 20
1.0
 30
0.0
  9
$PUCSORTHOREF
  2

  9
$PUCSORTHOVIEW
 70
     0
  9
$PUCSORGTOP
 10
0.0
 20
0.0
 30
0.0
  9
$PUCSORGBOTTOM
 10
0.0
 20
0.0
 30
0.0
  9
$PUCSORGLEFT
 10
0.0
 20
0.0
 30
0.0
  9
$PUCSORGRIGHT
 10
0.0
 20
0.0
 30
0.0
  9
$PUCSORGFRONT
 10
0.0
 20
0.0
 30
0.0
  9
$PUCSORGBACK
 10
0.0
 20
0.0
 30
0.0
  9
$USERI1
 70
     0
  9
$USERI2
 70
     0
  9
$USERI3
 70
     0
  9
$USERI4
 70
     0
  9
$USERI5
 70
     0
  9
$USERR1
 40
20.0
  9
$USERR2
 40
0.0
  9
$USERR3
 40
0.0
  9
$USERR4
 40
0.0
  9
$USERR5
 40
0.0
  9
$WORLDVIEW
 70
     1
  9
$SHADEDGE
 70
     3
  9
$SHADEDIF
 70
    70
  9
$TILEMODE
 70
     1
  9
$MAXACTVP
 70
    64
  9
$PINSBASE
 10
0.0
 20
0.0
 30
0.0
  9
$PLIMCHECK
 70
     0
  9
$PEXTMIN
 10
1.000000000000000E+20
 20
1.000000000000000E+20
 30
1.000000000000000E+20
  9
$PEXTMAX
 10
-1.000000000000000E+20
 20
-1.000000000000000E+20
 30
-1.000000000000000E+20
  9
$PLIMMIN
 10
0.0
 20
0.0
  9
$PLIMMAX
 10
12.0
 20
9.0
  9
$UNITMODE
 70
     0
  9
$VISRETAIN
 70
     1
  9
$PLINEGEN
 70
     0
  9
$PSLTSCALE
 70
     1
  9
$TREEDEPTH
 70
  3020
  9
$CMLSTYLE
  2
Standard
  9
$CMLJUST
 70
     0
  9
$CMLSCALE
 40
1.0
  9
$PROXYGRAPHICS
 70
     1
  9
$MEASUREMENT
 70
     0
  9
$CELWEIGHT
370
    -1
  9
$ENDCAPS
280
     0
  9
$JOINSTYLE
280
     0
  9
$LWDISPLAY
290
     0
  9
$INSUNITS
 70
     0
  9
$HYPERLINKBASE
  1

  9
$STYLESHEET
  1

  9
$XEDIT
290
     1
  9
$CEPSNTYPE
380
     0
  9
$PSTYLEMODE
290
     1
  9
$FINGERPRINTGUID
  2
{C2404232-B6CB-4D22-A4DD-95F23B513C06}
  9
$VERSIONGUID
  2
{D15ECCBE-8EC1-405F-AF22-DD97374CEA8E}
  9
$EXTNAMES
290
     1
  9
$PSVPSCALE
 40
0.0
  9
$OLESTARTUP
290
     0
  0
ENDSEC
  0
SECTION
  2
CLASSES
  0
CLASS
  1
ACDBDICTIONARYWDFLT
  2
AcDbDictionaryWithDefault
  3
ObjectDBX Classes
 90
        0
280
     0
281
     0
  0
CLASS
  1
MATERIAL
  2
AcDbMaterial
  3
ObjectDBX Classes
 90
     1153
280
     0
281
     0
  0
CLASS
  1
VISUALSTYLE
  2
AcDbVisualStyle
  3
ObjectDBX Classes
 90
     4095
280
     0
281
     0
  0
CLASS
  1
SCALE
  2
AcDbScale
  3
ObjectDBX Classes
 90
     1153
280
     0
281
     0
  0
CLASS
  1
TABLESTYLE
  2
AcDbTableStyle
  3
ObjectDBX Classes
 90
     4095
280
     0
281
     0
  0
CLASS
  1
MLEADERSTYLE
  2
AcDbMLeaderStyle
  3
ACDB_MLEADERSTYLE_CLASS
 90
     4095
280
     0
281
     0
  0
CLASS
  1
ACDBSECTIONVIEWSTYLE
  2
AcDbSectionViewStyle
  3
ObjectDBX Classes
 90
     1025
280
     0
281
     0
  0
CLASS
  1
ACDBDETAILVIEWSTYLE
  2
AcDbDetailViewStyle
  3
ObjectDBX Classes
 90
     1025
280
     0
281
     0
  0
CLASS
  1
DICTIONARYVAR
  2
AcDbDictionaryVar
  3
ObjectDBX Classes
 90
        0
280
     0
281
     0
  0
CLASS
  1
CELLSTYLEMAP
  2
AcDbCellStyleMap
  3
ObjectDBX Classes
 90
     1152
280
     0
281
     0
  0
CLASS
  1
ACDBPLACEHOLDER
  2
AcDbPlaceHolder
  3
ObjectDBX Classes
 90
        0
280
     0
281
     0
  0
CLASS
  1
LAYOUT
  2
AcDbLayout
  3
ObjectDBX Classes
 90
        0
280
     0
281
     0
  0
ENDSEC
  0
SECTION
  2
TABLES
  0
TABLE
  2
VPORT
  5
8
330
0
100
AcDbSymbolTable
 70
     1
  0
VPORT
  5
82
330
8
100
AcDbSymbolTableRecord
100
AcDbViewportTableRecord
  2
*ACTIVE
 70
     0
 10
0.0
 20
0.0
 11
1.0
 21
1.0
 12
-33.47845412344566
 22
446.118988455164
 13
0.0
 23
0.0
 14
50.0
 24
50.0
 15
100.0
 25
100.0
 16
0.0
 26
0.0
 36
1.0
 17
0.0
 27
0.0
 37
0.0
 40
2122.621748096079
 41
2.307397959183673
 42
50.0
 43
0.0
 44
0.0
 50
0.0
 51
0.0
 71
     0
 72
  1000
 73
     1
 74
     0
 75
     0
 76
     0
 77
     0
 78
     0
281
     0
 65
     1
110
0.0
120
0.0
130
0.0
111
1.0
121
0.0
131
0.0
112
0.0
122
1.0
132
0.0
 79
     0
146
0.0
1001
ACAD_NAV_VCDISPLAY
1070
     3
  0
ENDTAB
  0
TABLE
  2
LTYPE
  5
5
330
0
100
AcDbSymbolTable
 70
     2
  0
LTYPE
  5
5A
330
5
100
AcDbSymbolTableRecord
100
AcDbLinetypeTableRecord
  2
ByBlock
 70
     0
  3

 72
    65
 73
     0
 40
0.0
  0
LTYPE
  5
5B
330
5
100
AcDbSymbolTableRecord
100
AcDbLinetypeTableRecord
  2
ByLayer
 70
     0
  3

 72
    65
 73
     0
 40
0.0
  0
LTYPE
  5
5C
330
5
100
AcDbSymbolTableRecord
100
AcDbLinetypeTableRecord
  2
CONTINUOUS
 70
     0
  3
実線
 72
    65
 73
     0
 40
0.0
  0
LTYPE
  5
75
330
5
100
AcDbSymbolTableRecord
100
AcDbLinetypeTableRecord
  2
DASHDOT
 70
     0
  3
____ _ ____ _ ____ _ ____ _ ____ _ ____ _ ____
 72
    65
 73
     4
 40
5.5
 49
4.0
 74
     0
 49
-0.6
 74
     0
 49
0.3
 74
     0
 49
-0.6
 74
     0
  0
ENDTAB
  0
TABLE
  2
LAYER
  5
2
330
0
100
AcDbSymbolTable
 70
    12
  0
LAYER
  5
54
102
{ACAD_XDICTIONARY
360
339
102
}
330
2
100
AcDbSymbolTableRecord
100
AcDbLayerTableRecord
  2
0
 70
     0
 62
     7
  6
CONTINUOUS
370
    -3
390
F
  0
LAYER
  5
73
102
{ACAD_XDICTIONARY
360
33B
102
}
330
2
100
AcDbSymbolTableRecord
100
AcDbLayerTableRecord
  2
SYMBOLLINE
 70
     0
 62
    15
  6
CONTINUOUS
370
    -3
390
F
  0
LAYER
  5
76
102
{ACAD_XDICTIONARY
360
33D
102
}
330
2
100
AcDbSymbolTableRecord
100
AcDbLayerTableRecord
  2
OUTLINE
 70
     0
 62
     3
  6
CONTINUOUS
370
    -3
390
F
  0
LAYER
  5
77
102
{ACAD_XDICTIONARY
360
33F
102
}
330
2
100
AcDbSymbolTableRecord
100
AcDbLayerTableRecord
  2
DETAIL
 70
     0
 62
     5
  6
CONTINUOUS
370
    -3
390
F
  0
LAYER
  5
78
102
{ACAD_XDICTIONARY
360
341
102
}
330
2
100
AcDbSymbolTableRecord
100
AcDbLayerTableRecord
  2
BASIS
 70
     0
 62
     6
  6
DASHDOT
370
    -3
390
F
  0
LAYER
  5
79
102
{ACAD_XDICTIONARY
360
343
102
}
330
2
100
AcDbSymbolTableRecord
100
AcDbLayerTableRecord
  2
SIZE
 70
     0
 62
    30
  6
CONTINUOUS
370
    -3
390
F
  0
LAYER
  5
7A
102
{ACAD_XDICTIONARY
360
345
102
}
330
2
100
AcDbSymbolTableRecord
100
AcDbLayerTableRecord
  2
NOTE
 70
     0
 62
     4
  6
CONTINUOUS
370
    -3
390
F
  0
LAYER
  5
7B
102
{ACAD_XDICTIONARY
360
347
102
}
330
2
100
AcDbSymbolTableRecord
100
AcDbLayerTableRecord
  2
ARRANGE
 70
     0
 62
     1
  6
CONTINUOUS
370
    -3
390
F
  0
LAYER
  5
7C
102
{ACAD_XDICTIONARY
360
349
102
}
330
2
100
AcDbSymbolTableRecord
100
AcDbLayerTableRecord
  2
FIX
 70
     0
 62
    11
  6
CONTINUOUS
370
    -3
390
F
  0
LAYER
  5
7D
102
{ACAD_XDICTIONARY
360
34B
102
}
330
2
100
AcDbSymbolTableRecord
100
AcDbLayerTableRecord
  2
SERVICESPACE
 70
     0
 62
     2
  6
DASHDOT
370
    -3
390
F
  0
LAYER
  5
7E
102
{ACAD_XDICTIONARY
360
34D
102
}
330
2
100
AcDbSymbolTableRecord
100
AcDbLayerTableRecord
  2
ETC
 70
     0
 62
    61
  6
CONTINUOUS
370
    -3
390
F
  0
LAYER
  5
7F
330
2
100
AcDbSymbolTableRecord
100
AcDbLayerTableRecord
  2
DEFPOINTS
 70
     0
 62
     7
  6
CONTINUOUS
290
     0
370
    -3
390
F
  0
ENDTAB
  0
TABLE
  2
STYLE
  5
3
330
0
100
AcDbSymbolTable
 70
     4
  0
STYLE
  5
55
330
3
100
AcDbSymbolTableRecord
100
AcDbTextStyleTableRecord
  2
STANDARD
 70
     0
 40
0.0
 41
0.9
 50
0.0
 71
     0
 42
64.0
  3
SIMPLEX
  4
BIGFONT
  0
STYLE
  5
59
330
3
100
AcDbSymbolTableRecord
100
AcDbTextStyleTableRecord
  2
Annotative
 70
     0
 40
0.0
 41
1.0
 50
0.0
 71
     0
 42
0.2
  3
txt
  4

1001
AcadAnnotative
1000
AnnotativeData
1002
{
1070
     1
1070
     1
1002
}
  0
STYLE
  5
74
330
3
100
AcDbSymbolTableRecord
100
AcDbTextStyleTableRecord
  2
STANDARD_MODELNAME
 70
     0
 40
80.0
 41
0.8
 50
0.0
 71
     0
 42
64.0
  3
MONOTXT.shx
  4
BIGFONT.shx
  0
STYLE
  5
80
330
3
100
AcDbSymbolTableRecord
100
AcDbTextStyleTableRecord
  2
STANDARD1
 70
     0
 40
60.0
 41
0.7
 50
0.0
 71
     0
 42
64.0
  3
MONOTXT.shx
  4
BIGFONT.shx
  0
ENDTAB
  0
TABLE
  2
VIEW
  5
6
330
0
100
AcDbSymbolTable
 70
     1
  0
VIEW
  5
81
330
6
100
AcDbSymbolTableRecord
100
AcDbViewTableRecord
  2
ALL
 70
     0
 40
9000.0
 10
241.506647
 20
0.0
 41
12483.01
 11
0.0
 21
0.0
 31
1.0
 12
0.0
 22
0.0
 32
0.0
 42
50.0
 43
0.0
 44
0.0
 50
0.0
 71
     0
281
     0
 72
     0
  0
ENDTAB
  0
TABLE
  2
UCS
  5
7
330
0
100
AcDbSymbolTable
 70
     0
  0
ENDTAB
  0
TABLE
  2
APPID
  5
9
330
0
100
AcDbSymbolTable
 70
     4
  0
APPID
  5
56
330
9
100
AcDbSymbolTableRecord
100
AcDbRegAppTableRecord
  2
ACAD
 70
     0
  0
APPID
  5
5D
330
9
100
AcDbSymbolTableRecord
100
AcDbRegAppTableRecord
  2
AcadAnnotative
 70
     0
  0
APPID
  5
359
330
9
100
AcDbSymbolTableRecord
100
AcDbRegAppTableRecord
  2
ACAD_NAV_VCDISPLAY
 70
     0
  0
APPID
  5
392
330
9
100
AcDbSymbolTableRecord
100
AcDbRegAppTableRecord
  2
ACAD_MLEADERVER
 70
     0
  0
ENDTAB
  0
TABLE
  2
DIMSTYLE
  5
A
330
0
100
AcDbSymbolTable
 70
     2
100
AcDbDimStyleTable
 71
     0
  0
DIMSTYLE
105
57
330
A
100
AcDbSymbolTableRecord
100
AcDbDimStyleTableRecord
  2
Standard
 70
     0
340
55
  0
DIMSTYLE
105
58
330
A
100
AcDbSymbolTableRecord
100
AcDbDimStyleTableRecord
  2
Annotative
 70
     0
340
55
1001
AcadAnnotative
1000
AnnotativeData
1002
{
1070
     1
1070
     1
1002
}
  0
ENDTAB
  0
TABLE
  2
BLOCK_RECORD
  5
1
330
0
100
AcDbSymbolTable
 70
     0
  0
BLOCK_RECORD
  5
6F
330
1
100
AcDbSymbolTableRecord
100
AcDbBlockTableRecord
  2
*Model_Space
340
72
  0
BLOCK_RECORD
  5
6B
330
1
100
AcDbSymbolTableRecord
100
AcDbBlockTableRecord
  2
*Paper_Space
340
6E
  0
ENDTAB
  0
ENDSEC
  0
SECTION
  2
BLOCKS
  0
BLOCK
  5
70
330
6F
100
AcDbEntity
  8
0
100
AcDbBlockBegin
  2
*Model_Space
 70
     0
 10
0.0
 20
0.0
 30
0.0
  3
*Model_Space
  1

  0
ENDBLK
  5
71
330
6F
100
AcDbEntity
  8
0
100
AcDbBlockEnd
  0
BLOCK
  5
6C
330
6B
100
AcDbEntity
 67
     1
  8
0
100
AcDbBlockBegin
  2
*Paper_Space
 70
     0
 10
0.0
 20
0.0
 30
0.0
  3
*Paper_Space
  1

  0
ENDBLK
  5
6D
330
6B
100
AcDbEntity
 67
     1
  8
0
100
AcDbBlockEnd
  0
ENDSEC
  0
SECTION
  2
ENTITIES
  0
CIRCLE
  5
87
330
6F
100
AcDbEntity
  8
NOTE
  6
Continuous
 62
     4
100
AcDbCircle
 10
-197.5
 20
266.9999999999991
 30
0.0
 40
62.5
  0
LINE
  5
88
330
6F
100
AcDbEntity
  8
NOTE
  6
Continuous
 62
     4
100
AcDbLine
 10
-122.5
 20
266.9999999999991
 30
0.0
 11
-272.5
 21
266.9999999999991
 31
0.0
  0
LINE
  5
89
330
6F
100
AcDbEntity
  8
NOTE
  6
Continuous
 62
     4
100
AcDbLine
 10
-197.5
 20
341.9999999999991
 30
0.0
 11
-197.5
 21
191.9999999999991
 31
0.0
  0
LINE
  5
8A
330
6F
100
AcDbEntity
  8
NOTE
  6
Continuous
 62
     4
100
AcDbLine
 10
158.5
 20
1.0
 30
0.0
 11
158.5
 21
21.0
 31
0.0
  0
LINE
  5
8B
330
6F
100
AcDbEntity
  8
NOTE
  6
Continuous
 62
     4
100
AcDbLine
 10
258.5
 20
1.0
 30
0.0
 11
158.5
 21
1.0
 31
0.0
  0
LINE
  5
8C
330
6F
100
AcDbEntity
  8
NOTE
  6
Continuous
 62
     4
100
AcDbLine
 10
258.5
 20
21.0
 30
0.0
 11
158.5
 21
21.0
 31
0.0
  0
LINE
  5
8D
330
6F
100
AcDbEntity
  8
NOTE
  6
Continuous
 62
     4
100
AcDbLine
 10
176.838346
 20
1.0
 30
0.0
 11
196.838346
 21
21.0
 31
0.0
  0
LINE
  5
8E
330
6F
100
AcDbEntity
  8
NOTE
  6
Continuous
 62
     4
100
AcDbLine
 10
216.838346
 20
1.0
 30
0.0
 11
236.838346
 21
21.0
 31
0.0
  0
LINE
  5
8F
330
6F
100
AcDbEntity
  8
NOTE
  6
Continuous
 62
     4
100
AcDbLine
 10
181.838346
 20
1.0
 30
0.0
 11
201.838346
 21
21.0
 31
0.0
  0
LINE
  5
90
330
6F
100
AcDbEntity
  8
NOTE
  6
Continuous
 62
     4
100
AcDbLine
 10
221.838346
 20
1.0
 30
0.0
 11
241.838346
 21
21.0
 31
0.0
  0
LINE
  5
91
330
6F
100
AcDbEntity
  8
NOTE
  6
Continuous
 62
     4
100
AcDbLine
 10
186.838346
 20
1.0
 30
0.0
 11
206.838346
 21
21.0
 31
0.0
  0
LINE
  5
92
330
6F
100
AcDbEntity
  8
NOTE
  6
Continuous
 62
     4
100
AcDbLine
 10
226.838346
 20
1.0
 30
0.0
 11
246.838346
 21
21.0
 31
0.0
  0
LINE
  5
93
330
6F
100
AcDbEntity
  8
NOTE
  6
Continuous
 62
     4
100
AcDbLine
 10
-479.1616539999999
 20
1.0
 30
0.0
 11
-459.161654
 21
21.0
 31
0.0
  0
LINE
  5
94
330
6F
100
AcDbEntity
  8
NOTE
  6
Continuous
 62
     4
100
AcDbLine
 10
-484.161654
 20
1.0
 30
0.0
 11
-464.161654
 21
21.0
 31
0.0
  0
LINE
  5
95
330
6F
100
AcDbEntity
  8
NOTE
  6
Continuous
 62
     4
100
AcDbLine
 10
-489.161654
 20
1.0
 30
0.0
 11
-469.161654
 21
21.0
 31
0.0
  0
LINE
  5
96
330
6F
100
AcDbEntity
  8
NOTE
  6
Continuous
 62
     4
100
AcDbLine
 10
-449.1616539999999
 20
1.0
 30
0.0
 11
-429.1616539999999
 21
21.0
 31
0.0
  0
LINE
  5
97
330
6F
100
AcDbEntity
  8
NOTE
  6
Continuous
 62
     4
100
AcDbLine
 10
-444.161654
 20
1.0
 30
0.0
 11
-424.1616539999999
 21
21.0
 31
0.0
  0
LINE
  5
98
330
6F
100
AcDbEntity
  8
NOTE
  6
Continuous
 62
     4
100
AcDbLine
 10
-439.161654
 20
1.0
 30
0.0
 11
-419.161654
 21
21.0
 31
0.0
  0
LINE
  5
99
330
6F
100
AcDbEntity
  8
NOTE
  6
Continuous
 62
     4
100
AcDbLine
 10
-407.5
 20
1.0
 30
0.0
 11
-407.5
 21
21.0
 31
0.0
  0
LINE
  5
9A
330
6F
100
AcDbEntity
  8
NOTE
  6
Continuous
 62
     4
100
AcDbLine
 10
-407.5
 20
21.0
 30
0.0
 11
-500.204094
 21
21.0
 31
0.0
  0
LINE
  5
9B
330
6F
100
AcDbEntity
  8
NOTE
  6
Continuous
 62
     4
100
AcDbLine
 10
-407.5
 20
1.0
 30
0.0
 11
-500.204094
 21
1.0
 31
0.0
  0
LINE
  5
9C
330
6F
100
AcDbEntity
  8
DETAIL
  6
Continuous
 62
     5
100
AcDbLine
 10
-196.0
 20
219.9999999999991
 30
0.0
 11
-199.0
 21
219.9999999999991
 31
0.0
  0
LINE
  5
9D
330
6F
100
AcDbEntity
  8
DETAIL
  6
Continuous
 62
     5
100
AcDbLine
 10
-147.5225049999999
 20
265.4999999999991
 30
0.0
 11
-150.5225049999999
 21
265.4999999999991
 31
0.0
  0
LINE
  5
9E
330
6F
100
AcDbEntity
  8
DETAIL
  6
Continuous
 62
     5
100
AcDbLine
 10
-150.5225049999999
 20
268.4999999999991
 30
0.0
 11
-147.5225049999999
 21
268.4999999999991
 31
0.0
  0
LINE
  5
9F
330
6F
100
AcDbEntity
  8
DETAIL
  6
Continuous
 62
     5
100
AcDbLine
 10
-199.0
 20
313.9999999999989
 30
0.0
 11
-196.0
 21
313.9999999999989
 31
0.0
  0
LINE
  5
A0
330
6F
100
AcDbEntity
  8
DETAIL
  6
Continuous
 62
     5
100
AcDbLine
 10
-150.5225049999999
 20
265.4999999999991
 30
0.0
 11
-150.5225049999999
 21
268.4999999999991
 31
0.0
  0
LINE
  5
A1
330
6F
100
AcDbEntity
  8
DETAIL
  6
Continuous
 62
     5
100
AcDbLine
 10
-196.0
 20
217.0225049999999
 30
0.0
 11
-196.0
 21
219.9999999999991
 31
0.0
  0
LINE
  5
A2
330
6F
100
AcDbEntity
  8
DETAIL
  6
Continuous
 62
     5
100
AcDbLine
 10
-196.0
 20
313.9999999999989
 30
0.0
 11
-196.0
 21
316.9774949999992
 31
0.0
  0
LINE
  5
A3
330
6F
100
AcDbEntity
  8
DETAIL
  6
Continuous
 62
     5
100
AcDbLine
 10
-199.0
 20
316.9774949999992
 30
0.0
 11
-199.0
 21
313.9999999999989
 31
0.0
  0
LINE
  5
A4
330
6F
100
AcDbEntity
  8
DETAIL
  6
Continuous
 62
     5
100
AcDbLine
 10
-199.0
 20
219.9999999999991
 30
0.0
 11
-199.0
 21
217.0225049999999
 31
0.0
  0
CIRCLE
  5
A5
330
6F
100
AcDbEntity
  8
DETAIL
  6
Continuous
 62
     5
100
AcDbCircle
 10
-143.3734119999998
 20
235.7499999999991
 30
0.0
 40
1.45
  0
ARC
  5
A6
330
6F
100
AcDbEntity
  8
DETAIL
  6
Continuous
 62
     5
100
AcDbCircle
 10
-197.5
 20
266.9999999999991
 30
0.0
 40
50.0
100
AcDbArc
 50
1.719130999980657
 51
88.28086899999346
  0
ARC
  5
A7
330
6F
100
AcDbEntity
  8
DETAIL
  6
Continuous
 62
     5
100
AcDbCircle
 10
-197.5
 20
266.9999999999991
 30
0.0
 40
50.0
100
AcDbArc
 50
91.71913100000653
 51
268.2808689999935
  0
ARC
  5
A8
330
6F
100
AcDbEntity
  8
DETAIL
  6
Continuous
 62
     5
100
AcDbCircle
 10
-197.5
 20
266.9999999999991
 30
0.0
 40
50.0
100
AcDbArc
 50
271.7191310000065
 51
358.2808690000192
  0
CIRCLE
  5
A9
330
6F
100
AcDbEntity
  8
DETAIL
  6
Continuous
 62
     5
100
AcDbCircle
 10
-251.6265880000001
 20
235.7499999999991
 30
0.0
 40
1.45
  0
CIRCLE
  5
AA
330
6F
100
AcDbEntity
  8
DETAIL
  6
Continuous
 62
     5
100
AcDbCircle
 10
-197.5
 20
329.4999999999991
 30
0.0
 40
1.45
  0
LINE
  5
AB
330
6F
100
AcDbEntity
  8
NOTE
  6
Continuous
 62
     4
100
AcDbLine
 10
189.6000000000003
 20
280.0
 30
0.0
 11
239.3999999999997
 21
280.0
 31
0.0
  0
LINE
  5
AC
330
6F
100
AcDbEntity
  8
NOTE
  6
Continuous
 62
     4
100
AcDbLine
 10
214.5
 20
304.9000000000005
 30
0.0
 11
214.5
 21
255.1000000000003
 31
0.0
  0
LINE
  5
AD
330
6F
100
AcDbEntity
  8
NOTE
  6
Continuous
 62
     4
100
AcDbLine
 10
121.1000000000003
 20
247.0
 30
0.0
 11
173.8999999999996
 21
247.0
 31
0.0
  0
LINE
  5
AE
330
6F
100
AcDbEntity
  8
NOTE
  6
Continuous
 62
     4
100
AcDbLine
 10
147.5
 20
273.3999999999996
 30
0.0
 11
147.5
 21
220.6000000000004
 31
0.0
  0
CIRCLE
  5
AF
330
6F
100
AcDbEntity
  8
FIX
  6
Continuous
 62
    11
100
AcDbCircle
 10
325.5
 20
390.0
 30
0.0
 40
12.42149793872491
  0
CIRCLE
  5
B0
330
6F
100
AcDbEntity
  8
FIX
  6
Continuous
 62
    11
100
AcDbCircle
 10
-317.5
 20
387.0
 30
0.0
 40
12.42149793872491
  0
LINE
  5
B1
330
6F
100
AcDbEntity
  8
NOTE
  6
Continuous
 62
     4
100
AcDbLine
 10
432.5
 20
226.6359084999995
 30
0.0
 11
432.5
 21
345.3508475000008
 31
0.0
  0
LINE
  5
B2
330
6F
100
AcDbEntity
  8
NOTE
  6
Continuous
 62
     4
100
AcDbLine
 10
373.1425305000007
 20
285.9933780000001
 30
0.0
 11
491.8574695000001
 21
285.9933780000001
 31
0.0
  0
LINE
  5
B3
330
6F
100
AcDbEntity
  8
SIZE
  6
Continuous
 62
    30
100
AcDbLine
 10
-336.25
 20
130.0
 30
0.0
 11
-1423.059653616325
 21
130.0000000000003
 31
0.0
  0
LINE
  5
B4
330
6F
100
AcDbEntity
  8
SIZE
  6
Continuous
 62
    30
100
AcDbLine
 10
-368.6999999999999
 20
402.0
 30
0.0
 11
-1423.059653616325
 21
402.0
 31
0.0
  0
LINE
  5
B5
330
6F
100
AcDbEntity
  8
SIZE
  6
Continuous
 62
    30
100
AcDbLine
 10
-1403.059653616325
 20
130.0000000000003
 30
0.0
 11
-1403.059653616325
 21
402.0
 31
0.0
  0
CIRCLE
  5
B6
330
6F
100
AcDbEntity
  8
SIZE
  6
Continuous
 62
    30
100
AcDbCircle
 10
-1403.059653616325
 20
130.0000000000003
 30
0.0
 40
7.5
  0
CIRCLE
  5
B7
330
6F
100
AcDbEntity
  8
SIZE
  6
Continuous
 62
    30
100
AcDbCircle
 10
-1403.059653616325
 20
402.0
 30
0.0
 40
7.5
  0
TEXT
  5
B8
330
6F
100
AcDbEntity
  8
SIZE
  6
Continuous
 62
    30
100
AcDbText
 10
-1423.059653616325
 20
196.5714285714285
 30
0.0
 40
60.0
  1
272
 50
90.0
 41
0.9
 72
     1
 11
-1423.059653616325
 21
266.0
 31
0.0
100
AcDbText
  0
POINT
  5
B9
330
6F
100
AcDbEntity
  8
DEFPOINTS
  6
Continuous
 62
     7
100
AcDbPoint
 10
-316.25
 20
131.0
 30
0.0
  0
POINT
  5
BA
330
6F
100
AcDbEntity
  8
DEFPOINTS
  6
Continuous
 62
     7
100
AcDbPoint
 10
-1403.059653616325
 20
402.0
 30
0.0
  0
LINE
  5
BB
330
6F
100
AcDbEntity
  8
SIZE
  6
Continuous
 62
    30
100
AcDbLine
 10
-368.6999999999999
 20
402.0
 30
0.0
 11
-1293.012322913823
 21
402.0
 31
0.0
  0
LINE
  5
BC
330
6F
100
AcDbEntity
  8
SIZE
  6
Continuous
 62
    30
100
AcDbLine
 10
-292.5
 20
266.9999999999991
 30
0.0
 11
-1293.012322913823
 21
266.9999999999994
 31
0.0
  0
LINE
  5
BD
330
6F
100
AcDbEntity
  8
SIZE
  6
Continuous
 62
    30
100
AcDbLine
 10
-1273.012322913822
 20
266.9999999999994
 30
0.0
 11
-1273.012322913822
 21
402.0
 31
0.0
  0
LINE
  5
BE
330
6F
100
AcDbEntity
  8
SIZE
  6
Continuous
 62
    30
100
AcDbLine
 10
-1273.012322913822
 20
402.0
 30
0.0
 11
-1273.012322913822
 21
600.571428571429
 31
0.0
  0
CIRCLE
  5
BF
330
6F
100
AcDbEntity
  8
SIZE
  6
Continuous
 62
    30
100
AcDbCircle
 10
-1273.012322913822
 20
266.9999999999994
 30
0.0
 40
7.5
  0
CIRCLE
  5
C0
330
6F
100
AcDbEntity
  8
SIZE
  6
Continuous
 62
    30
100
AcDbCircle
 10
-1273.012322913822
 20
402.0
 30
0.0
 40
7.5
  0
TEXT
  5
C1
330
6F
100
AcDbEntity
  8
SIZE
  6
Continuous
 62
    30
100
AcDbText
 10
-1293.012322913822
 20
452.0000000000004
 30
0.0
 40
60.0
  1
135
 50
90.0
 41
0.9
 72
     1
 11
-1293.012322913822
 21
516.2857142857147
 31
0.0
100
AcDbText
  0
POINT
  5
C2
330
6F
100
AcDbEntity
  8
DEFPOINTS
  6
Continuous
 62
     7
100
AcDbPoint
 10
-272.5
 20
266.9999999999991
 30
0.0
  0
POINT
  5
C3
330
6F
100
AcDbEntity
  8
DEFPOINTS
  6
Continuous
 62
     7
100
AcDbPoint
 10
-1273.012322913822
 20
266.9999999999994
 30
0.0
  0
LINE
  5
C4
330
6F
100
AcDbEntity
  8
SIZE
  6
Continuous
 62
    30
100
AcDbLine
 10
-197.5
 20
362.9999999999991
 30
0.0
 11
-197.5
 21
638.1233926685015
 31
0.0
  0
LINE
  5
C5
330
6F
100
AcDbEntity
  8
SIZE
  6
Continuous
 62
    30
100
AcDbLine
 10
-350.5
 20
421.3999999999996
 30
0.0
 11
-350.5
 21
638.1233926685015
 31
0.0
  0
LINE
  5
C6
330
6F
100
AcDbEntity
  8
SIZE
  6
Continuous
 62
    30
100
AcDbLine
 10
-197.5
 20
618.1233926685015
 30
0.0
 11
-350.5
 21
618.1233926685015
 31
0.0
  0
LINE
  5
C7
330
6F
100
AcDbEntity
  8
SIZE
  6
Continuous
 62
    30
100
AcDbLine
 10
-350.5
 20
618.1233926685015
 30
0.0
 11
-549.0714285714285
 21
618.1233926685015
 31
0.0
  0
CIRCLE
  5
C8
330
6F
100
AcDbEntity
  8
SIZE
  6
Continuous
 62
    30
100
AcDbCircle
 10
-197.5
 20
618.1233926685015
 30
0.0
 40
7.5
  0
CIRCLE
  5
C9
330
6F
100
AcDbEntity
  8
SIZE
  6
Continuous
 62
    30
100
AcDbCircle
 10
-350.5
 20
618.1233926685015
 30
0.0
 40
7.5
  0
TEXT
  5
CA
330
6F
100
AcDbEntity
  8
SIZE
  6
Continuous
 62
    30
100
AcDbText
 10
-529.0714285714286
 20
638.1233926685015
 30
0.0
 40
60.0
  1
153
 41
0.9
 72
     1
 11
-464.7857142857143
 21
638.1233926685015
 31
0.0
100
AcDbText
  0
POINT
  5
CB
330
6F
100
AcDbEntity
  8
DEFPOINTS
  6
Continuous
 62
     7
100
AcDbPoint
 10
-350.5
 20
618.1233926685015
 30
0.0
  0
LINE
  5
CC
330
6F
100
AcDbEntity
  8
SIZE
  6
Continuous
 62
    30
100
AcDbLine
 10
350.5
 20
423.0
 30
0.0
 11
350.5000000000001
 21
1118.723433078507
 31
0.0
  0
LINE
  5
CD
330
6F
100
AcDbEntity
  8
SIZE
  6
Continuous
 62
    30
100
AcDbLine
 10
432.5
 20
404.025732
 30
0.0
 11
432.5000000000001
 21
1118.723433078507
 31
0.0
  0
LINE
  5
CE
330
6F
100
AcDbEntity
  8
SIZE
  6
Continuous
 62
    30
100
AcDbLine
 10
350.5000000000001
 20
1098.723433078506
 30
0.0
 11
432.5000000000001
 21
1098.723433078506
 31
0.0
  0
LINE
  5
CF
330
6F
100
AcDbEntity
  8
SIZE
  6
Continuous
 62
    30
100
AcDbLine
 10
432.5000000000001
 20
1098.723433078506
 30
0.0
 11
589.9285714285714
 21
1098.723433078506
 31
0.0
  0
CIRCLE
  5
D0
330
6F
100
AcDbEntity
  8
SIZE
  6
Continuous
 62
    30
100
AcDbCircle
 10
350.5000000000001
 20
1098.723433078506
 30
0.0
 40
7.5
  0
CIRCLE
  5
D1
330
6F
100
AcDbEntity
  8
SIZE
  6
Continuous
 62
    30
100
AcDbCircle
 10
432.5000000000001
 20
1098.723433078506
 30
0.0
 40
7.5
  0
TEXT
  5
D2
330
6F
100
AcDbEntity
  8
SIZE
  6
Continuous
 62
    30
100
AcDbText
 10
482.4999999999999
 20
1118.723433078506
 30
0.0
 40
60.0
  1
82
 41
0.9
 72
     1
 11
526.2142857142857
 21
1118.723433078506
 31
0.0
100
AcDbText
  0
POINT
  5
D3
330
6F
100
AcDbEntity
  8
DEFPOINTS
  6
Continuous
 62
     7
100
AcDbPoint
 10
432.5000000000001
 20
1098.723433078506
 30
0.0
  0
LINE
  5
D4
330
6F
100
AcDbEntity
  8
SIZE
  6
Continuous
 62
    30
100
AcDbLine
 10
147.5
 20
294.3999999999996
 30
0.0
 11
147.5
 21
773.9264695358233
 31
0.0
  0
LINE
  5
D5
330
6F
100
AcDbEntity
  8
SIZE
  6
Continuous
 62
    30
100
AcDbLine
 10
214.5
 20
325.9000000000006
 30
0.0
 11
214.5
 21
773.9264695358233
 31
0.0
  0
LINE
  5
D6
330
6F
100
AcDbEntity
  8
SIZE
  6
Continuous
 62
    30
100
AcDbLine
 10
214.5
 20
753.9264695358233
 30
0.0
 11
147.5
 21
753.9264695358233
 31
0.0
  0
LINE
  5
D7
330
6F
100
AcDbEntity
  8
SIZE
  6
Continuous
 62
    30
100
AcDbLine
 10
147.5
 20
753.9264695358233
 30
0.0
 11
-9.928571428571487
 21
753.9264695358233
 31
0.0
  0
CIRCLE
  5
D8
330
6F
100
AcDbEntity
  8
SIZE
  6
Continuous
 62
    30
100
AcDbCircle
 10
214.5
 20
753.9264695358233
 30
0.0
 40
7.5
  0
CIRCLE
  5
D9
330
6F
100
AcDbEntity
  8
SIZE
  6
Continuous
 62
    30
100
AcDbCircle
 10
147.5
 20
753.9264695358233
 30
0.0
 40
7.5
  0
TEXT
  5
DA
330
6F
100
AcDbEntity
  8
SIZE
  6
Continuous
 62
    30
100
AcDbText
 10
10.07142857142849
 20
773.9264695358233
 30
0.0
 40
60.0
  1
67
 41
0.9
 72
     1
 11
53.78571428571421
 21
773.9264695358233
 31
0.0
100
AcDbText
  0
POINT
  5
DB
330
6F
100
AcDbEntity
  8
DEFPOINTS
  6
Continuous
 62
     7
100
AcDbPoint
 10
147.5
 20
273.3999999999996
 30
0.0
  0
POINT
  5
DC
330
6F
100
AcDbEntity
  8
DEFPOINTS
  6
Continuous
 62
     7
100
AcDbPoint
 10
214.5
 20
304.9000000000005
 30
0.0
  0
POINT
  5
DD
330
6F
100
AcDbEntity
  8
DEFPOINTS
  6
Continuous
 62
     7
100
AcDbPoint
 10
214.5
 20
753.9264695358233
 30
0.0
  0
LINE
  5
DE
330
6F
100
AcDbEntity
  8
SIZE
  6
Continuous
 62
    30
100
AcDbLine
 10
214.5
 20
325.9000000000006
 30
0.0
 11
214.5
 21
773.9264695358233
 31
0.0
  0
LINE
  5
DF
330
6F
100
AcDbEntity
  8
SIZE
  6
Continuous
 62
    30
100
AcDbLine
 10
350.5
 20
423.0
 30
0.0
 11
350.5
 21
773.9264695358233
 31
0.0
  0
LINE
  5
E0
330
6F
100
AcDbEntity
  8
SIZE
  6
Continuous
 62
    30
100
AcDbLine
 10
214.5
 20
753.9264695358233
 30
0.0
 11
350.5
 21
753.9264695358233
 31
0.0
  0
LINE
  5
E1
330
6F
100
AcDbEntity
  8
SIZE
  6
Continuous
 62
    30
100
AcDbLine
 10
350.5
 20
753.9264695358233
 30
0.0
 11
629.4999999999999
 21
753.9264695358233
 31
0.0
  0
CIRCLE
  5
E2
330
6F
100
AcDbEntity
  8
SIZE
  6
Continuous
 62
    30
100
AcDbCircle
 10
214.5
 20
753.9264695358233
 30
0.0
 40
7.5
  0
CIRCLE
  5
E3
330
6F
100
AcDbEntity
  8
SIZE
  6
Continuous
 62
    30
100
AcDbCircle
 10
350.5
 20
753.9264695358233
 30
0.0
 40
7.5
  0
TEXT
  5
E4
330
6F
100
AcDbEntity
  8
SIZE
  6
Continuous
 62
    30
100
AcDbText
 10
483.4999999999998
 20
773.9264695358233
 30
0.0
 40
60.0
  1
136
 41
0.9
 72
     1
 11
546.4999999999998
 21
773.9264695358233
 31
0.0
100
AcDbText
  0
POINT
  5
E5
330
6F
100
AcDbEntity
  8
DEFPOINTS
  6
Continuous
 62
     7
100
AcDbPoint
 10
214.5
 20
304.9000000000005
 30
0.0
  0
POINT
  5
E6
330
6F
100
AcDbEntity
  8
DEFPOINTS
  6
Continuous
 62
     7
100
AcDbPoint
 10
350.5
 20
753.9264695358233
 30
0.0
  0
LINE
  5
E7
330
6F
100
AcDbEntity
  8
SIZE
  6
Continuous
 62
    30
100
AcDbLine
 10
101.1000000000003
 20
247.0
 30
0.0
 11
-1022.319694134425
 21
247.0000000000003
 31
0.0
  0
LINE
  5
E8
330
6F
100
AcDbEntity
  8
SIZE
  6
Continuous
 62
    30
100
AcDbLine
 10
169.6000000000003
 20
280.0
 30
0.0
 11
-1022.319694134425
 21
280.0000000000004
 31
0.0
  0
LINE
  5
E9
330
6F
100
AcDbEntity
  8
SIZE
  6
Continuous
 62
    30
100
AcDbLine
 10
-1002.319694134425
 20
247.0000000000003
 30
0.0
 11
-1002.319694134425
 21
217.0000000000003
 31
0.0
  0
LINE
  5
EA
330
6F
100
AcDbEntity
  8
SIZE
  6
Continuous
 62
    30
100
AcDbLine
 10
-1002.319694134425
 20
280.0000000000004
 30
0.0
 11
-1002.319694134425
 21
540.4026189301471
 31
0.0
  0
LINE
  5
EB
330
6F
100
AcDbEntity
  8
SIZE
  6
Continuous
 62
    30
100
AcDbLine
 10
-1002.319694134425
 20
247.0000000000003
 30
0.0
 11
-1002.319694134425
 21
280.0000000000004
 31
0.0
  0
CIRCLE
  5
EC
330
6F
100
AcDbEntity
  8
SIZE
  6
Continuous
 62
    30
100
AcDbCircle
 10
-1002.319694134425
 20
247.0000000000003
 30
0.0
 40
7.5
  0
CIRCLE
  5
ED
330
6F
100
AcDbEntity
  8
SIZE
  6
Continuous
 62
    30
100
AcDbCircle
 10
-1002.319694134425
 20
280.0000000000004
 30
0.0
 40
7.5
  0
TEXT
  5
EE
330
6F
100
AcDbEntity
  8
SIZE
  6
Continuous
 62
    30
100
AcDbText
 10
-1022.319694134425
 20
432.9740475015753
 30
0.0
 40
60.0
  1
33
 50
90.0
 41
0.9
 72
     1
 11
-1022.319694134425
 21
476.6883332158611
 31
0.0
100
AcDbText
  0
POINT
  5
EF
330
6F
100
AcDbEntity
  8
DEFPOINTS
  6
Continuous
 62
     7
100
AcDbPoint
 10
121.1000000000003
 20
247.0
 30
0.0
  0
POINT
  5
F0
330
6F
100
AcDbEntity
  8
DEFPOINTS
  6
Continuous
 62
     7
100
AcDbPoint
 10
189.6000000000003
 20
280.0
 30
0.0
  0
POINT
  5
F1
330
6F
100
AcDbEntity
  8
DEFPOINTS
  6
Continuous
 62
     7
100
AcDbPoint
 10
-1002.319694134425
 20
280.0000000000004
 30
0.0
  0
LINE
  5
F2
330
6F
100
AcDbEntity
  8
SIZE
  6
Continuous
 62
    30
100
AcDbLine
 10
169.6000000000003
 20
280.0
 30
0.0
 11
-1159.55457199311
 21
280.0000000000004
 31
0.0
  0
LINE
  5
F3
330
6F
100
AcDbEntity
  8
SIZE
  6
Continuous
 62
    30
100
AcDbLine
 10
-368.7000000000008
 20
402.0
 30
0.0
 11
-1159.55457199311
 21
402.0
 31
0.0
  0
LINE
  5
F4
330
6F
100
AcDbEntity
  8
SIZE
  6
Continuous
 62
    30
100
AcDbLine
 10
-1139.55457199311
 20
280.0000000000004
 30
0.0
 11
-1139.55457199311
 21
402.0
 31
0.0
  0
LINE
  5
F5
330
6F
100
AcDbEntity
  8
SIZE
  6
Continuous
 62
    30
100
AcDbLine
 10
-1139.55457199311
 20
402.0
 30
0.0
 11
-1139.55457199311
 21
600.5714285714291
 31
0.0
  0
CIRCLE
  5
F6
330
6F
100
AcDbEntity
  8
SIZE
  6
Continuous
 62
    30
100
AcDbCircle
 10
-1139.55457199311
 20
280.0000000000004
 30
0.0
 40
7.5
  0
CIRCLE
  5
F7
330
6F
100
AcDbEntity
  8
SIZE
  6
Continuous
 62
    30
100
AcDbCircle
 10
-1139.55457199311
 20
402.0
 30
0.0
 40
7.5
  0
TEXT
  5
F8
330
6F
100
AcDbEntity
  8
SIZE
  6
Continuous
 62
    30
100
AcDbText
 10
-1159.55457199311
 20
452.0000000000004
 30
0.0
 40
60.0
  1
122
 50
90.0
 41
0.9
 72
     1
 11
-1159.55457199311
 21
516.2857142857147
 31
0.0
100
AcDbText
  0
POINT
  5
F9
330
6F
100
AcDbEntity
  8
DEFPOINTS
  6
Continuous
 62
     7
100
AcDbPoint
 10
189.6000000000003
 20
280.0
 30
0.0
  0
POINT
  5
FA
330
6F
100
AcDbEntity
  8
DEFPOINTS
  6
Continuous
 62
     7
100
AcDbPoint
 10
-1139.55457199311
 20
402.0
 30
0.0
  0
LINE
  5
FB
330
6F
100
AcDbEntity
  8
SIZE
  6
Continuous
 62
    30
100
AcDbLine
 10
350.5
 20
423.0
 30
0.0
 11
350.5000000000001
 21
1118.723433078507
 31
0.0
  0
LINE
  5
FC
330
6F
100
AcDbEntity
  8
SIZE
  6
Continuous
 62
    30
100
AcDbLine
 10
-350.5000000000009
 20
421.3999999999996
 30
0.0
 11
-350.5000000000009
 21
1118.723433078507
 31
0.0
  0
LINE
  5
FD
330
6F
100
AcDbEntity
  8
SIZE
  6
Continuous
 62
    30
100
AcDbLine
 10
350.5000000000001
 20
1098.723433078506
 30
0.0
 11
-350.5000000000009
 21
1098.723433078506
 31
0.0
  0
CIRCLE
  5
FE
330
6F
100
AcDbEntity
  8
SIZE
  6
Continuous
 62
    30
100
AcDbCircle
 10
350.5000000000001
 20
1098.723433078506
 30
0.0
 40
7.5
  0
CIRCLE
  5
FF
330
6F
100
AcDbEntity
  8
SIZE
  6
Continuous
 62
    30
100
AcDbCircle
 10
-350.5000000000009
 20
1098.723433078506
 30
0.0
 40
7.5
  0
TEXT
  5
100
330
6F
100
AcDbEntity
  8
SIZE
  6
Continuous
 62
    30
100
AcDbText
 10
-57.85714285714284
 20
1118.723433078506
 30
0.0
 40
60.0
  1
701
 41
0.9
 72
     1
 11
0.0
 21
1118.723433078506
 31
0.0
100
AcDbText
  0
POINT
  5
101
330
6F
100
AcDbEntity
  8
DEFPOINTS
  6
Continuous
 62
     7
100
AcDbPoint
 10
-350.5000000000009
 20
1098.723433078506
 30
0.0
  0
LINE
  5
102
330
6F
100
AcDbEntity
  8
SIZE
  6
Continuous
 62
    30
100
AcDbLine
 10
377.5
 20
402.0
 30
0.0
 11
832.029674912823
 21
401.9999999999996
 31
0.0
  0
LINE
  5
103
330
6F
100
AcDbEntity
  8
SIZE
  6
Continuous
 62
    30
100
AcDbLine
 10
511.8574694999985
 20
286.0
 30
0.0
 11
832.029674912823
 21
286.0
 31
0.0
  0
LINE
  5
104
330
6F
100
AcDbEntity
  8
SIZE
  6
Continuous
 62
    30
100
AcDbLine
 10
812.0296749128225
 20
286.0
 30
0.0
 11
812.0296749128225
 21
401.9999999999999
 31
0.0
  0
LINE
  5
105
330
6F
100
AcDbEntity
  8
SIZE
  6
Continuous
 62
    30
100
AcDbLine
 10
812.0296749128225
 20
401.9999999999999
 30
0.0
 11
812.0296749128225
 21
587.7142857142863
 31
0.0
  0
CIRCLE
  5
106
330
6F
100
AcDbEntity
  8
SIZE
  6
Continuous
 62
    30
100
AcDbCircle
 10
812.0296749128225
 20
286.0
 30
0.0
 40
7.5
  0
CIRCLE
  5
107
330
6F
100
AcDbEntity
  8
SIZE
  6
Continuous
 62
    30
100
AcDbCircle
 10
812.0296749128225
 20
401.9999999999999
 30
0.0
 40
7.5
  0
TEXT
  5
108
330
6F
100
AcDbEntity
  8
SIZE
  6
Continuous
 62
    30
100
AcDbText
 10
792.0296749128225
 20
452.0000000000012
 30
0.0
 40
60.0
  1
116
 50
90.0
 41
0.9
 72
     1
 11
792.0296749128225
 21
509.857142857144
 31
0.0
100
AcDbText
  0
POINT
  5
109
330
6F
100
AcDbEntity
  8
DEFPOINTS
  6
Continuous
 62
     7
100
AcDbPoint
 10
812.0296749128225
 20
286.0
 30
0.0
  0
LINE
  5
10A
330
6F
100
AcDbEntity
  8
SIZE
  6
Continuous
 62
    30
100
AcDbLine
 10
-407.5
 20
-19.0
 30
0.0
 11
-407.5
 21
-373.0243140510702
 31
0.0
  0
LINE
  5
10B
330
6F
100
AcDbEntity
  8
SIZE
  6
Continuous
 62
    30
100
AcDbLine
 10
-424.5
 20
-24.0065080000004
 30
0.0
 11
-424.5
 21
-373.0243140510702
 31
0.0
  0
LINE
  5
10C
330
6F
100
AcDbEntity
  8
SIZE
  6
Continuous
 62
    30
100
AcDbLine
 10
-407.5
 20
-353.0243140510702
 30
0.0
 11
-377.5
 21
-353.0243140510702
 31
0.0
  0
LINE
  5
10D
330
6F
100
AcDbEntity
  8
SIZE
  6
Continuous
 62
    30
100
AcDbLine
 10
-424.5
 20
-353.0243140510702
 30
0.0
 11
-601.6428571428571
 21
-353.0243140510702
 31
0.0
  0
LINE
  5
10E
330
6F
100
AcDbEntity
  8
SIZE
  6
Continuous
 62
    30
100
AcDbLine
 10
-407.5
 20
-353.0243140510702
 30
0.0
 11
-424.5
 21
-353.0243140510702
 31
0.0
  0
CIRCLE
  5
10F
330
6F
100
AcDbEntity
  8
SIZE
  6
Continuous
 62
    30
100
AcDbCircle
 10
-407.5
 20
-353.0243140510702
 30
0.0
 40
7.5
  0
CIRCLE
  5
110
330
6F
100
AcDbEntity
  8
SIZE
  6
Continuous
 62
    30
100
AcDbCircle
 10
-424.5
 20
-353.0243140510702
 30
0.0
 40
7.5
  0
TEXT
  5
111
330
6F
100
AcDbEntity
  8
SIZE
  6
Continuous
 62
    30
100
AcDbText
 10
-581.6428571428571
 20
-333.0243140510702
 30
0.0
 40
60.0
  1
17
 41
0.9
 72
     1
 11
-543.0714285714286
 21
-333.0243140510702
 31
0.0
100
AcDbText
  0
POINT
  5
112
330
6F
100
AcDbEntity
  8
DEFPOINTS
  6
Continuous
 62
     7
100
AcDbPoint
 10
-407.5
 20
1.0
 30
0.0
  0
POINT
  5
113
330
6F
100
AcDbEntity
  8
DEFPOINTS
  6
Continuous
 62
     7
100
AcDbPoint
 10
-424.5
 20
-4.00650800000039
 30
0.0
  0
POINT
  5
114
330
6F
100
AcDbEntity
  8
DEFPOINTS
  6
Continuous
 62
     7
100
AcDbPoint
 10
-424.5
 20
-353.0243140510702
 30
0.0
  0
LINE
  5
115
330
6F
100
AcDbEntity
  8
SIZE
  6
Continuous
 62
    30
100
AcDbLine
 10
-407.5
 20
-19.0
 30
0.0
 11
-407.5
 21
-373.0243140510702
 31
0.0
  0
LINE
  5
116
330
6F
100
AcDbEntity
  8
SIZE
  6
Continuous
 62
    30
100
AcDbLine
 10
158.5
 20
-19.0
 30
0.0
 11
158.4999999999998
 21
-373.0243140510702
 31
0.0
  0
LINE
  5
117
330
6F
100
AcDbEntity
  8
SIZE
  6
Continuous
 62
    30
100
AcDbLine
 10
-407.5
 20
-353.0243140510702
 30
0.0
 11
158.4999999999998
 21
-353.0243140510702
 31
0.0
  0
CIRCLE
  5
118
330
6F
100
AcDbEntity
  8
SIZE
  6
Continuous
 62
    30
100
AcDbCircle
 10
-407.5
 20
-353.0243140510702
 30
0.0
 40
7.5
  0
CIRCLE
  5
119
330
6F
100
AcDbEntity
  8
SIZE
  6
Continuous
 62
    30
100
AcDbCircle
 10
158.4999999999998
 20
-353.0243140510702
 30
0.0
 40
7.5
  0
TEXT
  5
11A
330
6F
100
AcDbEntity
  8
SIZE
  6
Continuous
 62
    30
100
AcDbText
 10
-192.6428571428571
 20
-333.0243140510702
 30
0.0
 40
60.0
  1
566
 41
0.9
 72
     1
 11
-124.5
 21
-333.0243140510702
 31
0.0
100
AcDbText
  0
POINT
  5
11B
330
6F
100
AcDbEntity
  8
DEFPOINTS
  6
Continuous
 62
     7
100
AcDbPoint
 10
-407.5
 20
1.0
 30
0.0
  0
POINT
  5
11C
330
6F
100
AcDbEntity
  8
DEFPOINTS
  6
Continuous
 62
     7
100
AcDbPoint
 10
158.5
 20
1.0
 30
0.0
  0
POINT
  5
11D
330
6F
100
AcDbEntity
  8
DEFPOINTS
  6
Continuous
 62
     7
100
AcDbPoint
 10
158.4999999999998
 20
-353.0243140510702
 30
0.0
  0
LINE
  5
11E
330
6F
100
AcDbEntity
  8
SIZE
  6
Continuous
 62
    30
100
AcDbLine
 10
158.5
 20
-19.0
 30
0.0
 11
158.4999999999998
 21
-373.0243140510702
 31
0.0
  0
LINE
  5
11F
330
6F
100
AcDbEntity
  8
SIZE
  6
Continuous
 62
    30
100
AcDbLine
 10
175.5
 20
-24.0065080000004
 30
0.0
 11
175.4999999999999
 21
-373.0243140510702
 31
0.0
  0
LINE
  5
120
330
6F
100
AcDbEntity
  8
SIZE
  6
Continuous
 62
    30
100
AcDbLine
 10
158.4999999999998
 20
-353.0243140510702
 30
0.0
 11
128.4999999999998
 21
-353.0243140510702
 31
0.0
  0
LINE
  5
121
330
6F
100
AcDbEntity
  8
SIZE
  6
Continuous
 62
    30
100
AcDbLine
 10
175.4999999999999
 20
-353.0243140510702
 30
0.0
 11
352.6428571428571
 21
-353.0243140510702
 31
0.0
  0
LINE
  5
122
330
6F
100
AcDbEntity
  8
SIZE
  6
Continuous
 62
    30
100
AcDbLine
 10
158.4999999999998
 20
-353.0243140510702
 30
0.0
 11
175.4999999999999
 21
-353.0243140510702
 31
0.0
  0
CIRCLE
  5
123
330
6F
100
AcDbEntity
  8
SIZE
  6
Continuous
 62
    30
100
AcDbCircle
 10
158.4999999999998
 20
-353.0243140510702
 30
0.0
 40
7.5
  0
CIRCLE
  5
124
330
6F
100
AcDbEntity
  8
SIZE
  6
Continuous
 62
    30
100
AcDbCircle
 10
175.4999999999999
 20
-353.0243140510702
 30
0.0
 40
7.5
  0
TEXT
  5
125
330
6F
100
AcDbEntity
  8
SIZE
  6
Continuous
 62
    30
100
AcDbText
 10
255.4999999999999
 20
-333.0243140510702
 30
0.0
 40
60.0
  1
17
 41
0.9
 72
     1
 11
294.0714285714285
 21
-333.0243140510702
 31
0.0
100
AcDbText
  0
POINT
  5
126
330
6F
100
AcDbEntity
  8
DEFPOINTS
  6
Continuous
 62
     7
100
AcDbPoint
 10
158.5
 20
1.0
 30
0.0
  0
POINT
  5
127
330
6F
100
AcDbEntity
  8
DEFPOINTS
  6
Continuous
 62
     7
100
AcDbPoint
 10
175.5
 20
-4.00650800000039
 30
0.0
  0
POINT
  5
128
330
6F
100
AcDbEntity
  8
DEFPOINTS
  6
Continuous
 62
     7
100
AcDbPoint
 10
175.4999999999999
 20
-353.0243140510702
 30
0.0
  0
LINE
  5
129
330
6F
100
AcDbEntity
  8
SIZE
  6
Continuous
 62
    30
100
AcDbLine
 10
175.5
 20
-24.0065080000004
 30
0.0
 11
175.4999999999999
 21
-606.939852065223
 31
0.0
  0
LINE
  5
12A
330
6F
100
AcDbEntity
  8
SIZE
  6
Continuous
 62
    30
100
AcDbLine
 10
-424.5
 20
-24.0065080000004
 30
0.0
 11
-424.5
 21
-606.939852065223
 31
0.0
  0
LINE
  5
12B
330
6F
100
AcDbEntity
  8
SIZE
  6
Continuous
 62
    30
100
AcDbLine
 10
175.4999999999999
 20
-586.939852065223
 30
0.0
 11
-424.5
 21
-586.939852065223
 31
0.0
  0
CIRCLE
  5
12C
330
6F
100
AcDbEntity
  8
SIZE
  6
Continuous
 62
    30
100
AcDbCircle
 10
175.4999999999999
 20
-586.939852065223
 30
0.0
 40
7.5
  0
CIRCLE
  5
12D
330
6F
100
AcDbEntity
  8
SIZE
  6
Continuous
 62
    30
100
AcDbCircle
 10
-424.5
 20
-586.939852065223
 30
0.0
 40
7.5
  0
TEXT
  5
12E
330
6F
100
AcDbEntity
  8
SIZE
  6
Continuous
 62
    30
100
AcDbText
 10
-193.9285714285714
 20
-566.9398520652229
 30
0.0
 40
60.0
  1
600
 41
0.9
 72
     1
 11
-124.5
 21
-566.9398520652229
 31
0.0
100
AcDbText
  0
POINT
  5
12F
330
6F
100
AcDbEntity
  8
DEFPOINTS
  6
Continuous
 62
     7
100
AcDbPoint
 10
175.5
 20
-4.00650800000039
 30
0.0
  0
POINT
  5
130
330
6F
100
AcDbEntity
  8
DEFPOINTS
  6
Continuous
 62
     7
100
AcDbPoint
 10
-424.5
 20
-4.00650800000039
 30
0.0
  0
POINT
  5
131
330
6F
100
AcDbEntity
  8
DEFPOINTS
  6
Continuous
 62
     7
100
AcDbPoint
 10
-424.5
 20
-586.939852065223
 30
0.0
  0
LINE
  5
132
330
6F
100
AcDbEntity
  8
SIZE
  6
Continuous
 62
    30
100
AcDbLine
 10
-350.5000000000009
 20
138.8999999999996
 30
0.0
 11
-350.5000000000009
 21
-247.0248126456409
 31
0.0
  0
LINE
  5
133
330
6F
100
AcDbEntity
  8
SIZE
  6
Continuous
 62
    30
100
AcDbLine
 10
-407.5
 20
-19.0
 30
0.0
 11
-407.5
 21
-247.0248126456409
 31
0.0
  0
LINE
  5
134
330
6F
100
AcDbEntity
  8
SIZE
  6
Continuous
 62
    30
100
AcDbLine
 10
-350.5000000000009
 20
-227.0248126456408
 30
0.0
 11
-407.5
 21
-227.0248126456408
 31
0.0
  0
LINE
  5
135
330
6F
100
AcDbEntity
  8
SIZE
  6
Continuous
 62
    30
100
AcDbLine
 10
-407.5
 20
-227.0248126456408
 30
0.0
 11
-564.9285714285714
 21
-227.0248126456408
 31
0.0
  0
CIRCLE
  5
136
330
6F
100
AcDbEntity
  8
SIZE
  6
Continuous
 62
    30
100
AcDbCircle
 10
-350.5000000000009
 20
-227.0248126456408
 30
0.0
 40
7.5
  0
CIRCLE
  5
137
330
6F
100
AcDbEntity
  8
SIZE
  6
Continuous
 62
    30
100
AcDbCircle
 10
-407.5
 20
-227.0248126456408
 30
0.0
 40
7.5
  0
TEXT
  5
138
330
6F
100
AcDbEntity
  8
SIZE
  6
Continuous
 62
    30
100
AcDbText
 10
-544.9285714285713
 20
-207.0248126456408
 30
0.0
 40
60.0
  1
57
 41
0.9
 72
     1
 11
-501.2142857142857
 21
-207.0248126456408
 31
0.0
100
AcDbText
  0
POINT
  5
139
330
6F
100
AcDbEntity
  8
DEFPOINTS
  6
Continuous
 62
     7
100
AcDbPoint
 10
-350.5000000000009
 20
158.8999999999996
 30
0.0
  0
POINT
  5
13A
330
6F
100
AcDbEntity
  8
DEFPOINTS
  6
Continuous
 62
     7
100
AcDbPoint
 10
-407.5
 20
1.0
 30
0.0
  0
POINT
  5
13B
330
6F
100
AcDbEntity
  8
DEFPOINTS
  6
Continuous
 62
     7
100
AcDbPoint
 10
-407.5
 20
-227.0248126456408
 30
0.0
  0
LINE
  5
13C
330
6F
100
AcDbEntity
  8
SIZE
  6
Continuous
 62
    30
100
AcDbLine
 10
158.5
 20
-19.0
 30
0.0
 11
158.4999999999998
 21
-235.959908300747
 31
0.0
  0
LINE
  5
13D
330
6F
100
AcDbEntity
  8
SIZE
  6
Continuous
 62
    30
100
AcDbLine
 10
350.5
 20
152.0
 30
0.0
 11
350.5
 21
-235.959908300747
 31
0.0
  0
LINE
  5
13E
330
6F
100
AcDbEntity
  8
SIZE
  6
Continuous
 62
    30
100
AcDbLine
 10
158.5
 20
-215.959908300747
 30
0.0
 11
350.5
 21
-215.959908300747
 31
0.0
  0
CIRCLE
  5
13F
330
6F
100
AcDbEntity
  8
SIZE
  6
Continuous
 62
    30
100
AcDbCircle
 10
158.5
 20
-215.959908300747
 30
0.0
 40
7.5
  0
CIRCLE
  5
140
330
6F
100
AcDbEntity
  8
SIZE
  6
Continuous
 62
    30
100
AcDbCircle
 10
350.5
 20
-215.959908300747
 30
0.0
 40
7.5
  0
TEXT
  5
141
330
6F
100
AcDbEntity
  8
SIZE
  6
Continuous
 62
    30
100
AcDbText
 10
199.3718119877607
 20
-195.959908300747
 30
0.0
 40
60.0
  1
192
 41
0.9
 72
     1
 11
263.657526273475
 21
-195.959908300747
 31
0.0
100
AcDbText
  0
POINT
  5
142
330
6F
100
AcDbEntity
  8
DEFPOINTS
  6
Continuous
 62
     7
100
AcDbPoint
 10
158.5
 20
1.0
 30
0.0
  0
POINT
  5
143
330
6F
100
AcDbEntity
  8
DEFPOINTS
  6
Continuous
 62
     7
100
AcDbPoint
 10
350.5
 20
172.0
 30
0.0
  0
POINT
  5
144
330
6F
100
AcDbEntity
  8
DEFPOINTS
  6
Continuous
 62
     7
100
AcDbPoint
 10
350.5
 20
-215.959908300747
 30
0.0
  0
LINE
  5
145
330
6F
100
AcDbEntity
  8
SIZE
  6
Continuous
 62
    30
100
AcDbLine
 10
164.7999999999993
 20
-9.000000000000005
 30
0.0
 11
1101.481714034298
 21
-9.000000000000271
 31
0.0
  0
LINE
  5
146
330
6F
100
AcDbEntity
  8
SIZE
  6
Continuous
 62
    30
100
AcDbLine
 10
195.5
 20
-1.000000000000005
 30
0.0
 11
1101.481714034298
 21
-1.000000000000262
 31
0.0
  0
LINE
  5
147
330
6F
100
AcDbEntity
  8
SIZE
  6
Continuous
 62
    30
100
AcDbLine
 10
1081.481714034298
 20
-1.000000000000256
 30
0.0
 11
1081.481714034298
 21
28.99999999999974
 31
0.0
  0
LINE
  5
148
330
6F
100
AcDbEntity
  8
SIZE
  6
Continuous
 62
    30
100
AcDbLine
 10
1081.481714034298
 20
-9.000000000000264
 30
0.0
 11
1081.481714034298
 21
-145.0000000000007
 31
0.0
  0
LINE
  5
149
330
6F
100
AcDbEntity
  8
SIZE
  6
Continuous
 62
    30
100
AcDbLine
 10
1081.481714034298
 20
-1.000000000000256
 30
0.0
 11
1081.481714034298
 21
-9.000000000000264
 31
0.0
  0
CIRCLE
  5
14A
330
6F
100
AcDbEntity
  8
SIZE
  6
Continuous
 62
    30
100
AcDbCircle
 10
1081.481714034298
 20
-1.000000000000256
 30
0.0
 40
7.5
  0
CIRCLE
  5
14B
330
6F
100
AcDbEntity
  8
SIZE
  6
Continuous
 62
    30
100
AcDbCircle
 10
1081.481714034298
 20
-9.000000000000264
 30
0.0
 40
7.5
  0
TEXT
  5
14C
330
6F
100
AcDbEntity
  8
SIZE
  6
Continuous
 62
    30
100
AcDbText
 10
1061.481714034298
 20
-125.0000000000005
 30
0.0
 40
60.0
  1
8
 50
90.0
 41
0.9
 72
     1
 11
1061.481714034298
 21
-107.0000000000005
 31
0.0
100
AcDbText
  0
POINT
  5
14D
330
6F
100
AcDbEntity
  8
DEFPOINTS
  6
Continuous
 62
     7
100
AcDbPoint
 10
144.7999999999993
 20
-8.0
 30
0.0
  0
POINT
  5
14E
330
6F
100
AcDbEntity
  8
DEFPOINTS
  6
Continuous
 62
     7
100
AcDbPoint
 10
175.5
 20
0.0
 30
0.0
  0
POINT
  5
14F
330
6F
100
AcDbEntity
  8
DEFPOINTS
  6
Continuous
 62
     7
100
AcDbPoint
 10
1081.481714034298
 20
-1.000000000000256
 30
0.0
  0
LINE
  5
150
330
6F
100
AcDbEntity
  8
SIZE
  6
Continuous
 62
    30
100
AcDbLine
 10
195.5
 20
-1.000000000000005
 30
0.0
 11
1101.481714034296
 21
-1.000000000000262
 31
0.0
  0
LINE
  5
151
330
6F
100
AcDbEntity
  8
SIZE
  6
Continuous
 62
    30
100
AcDbLine
 10
163.9699999999993
 20
45.99999999999999
 30
0.0
 11
1101.481714034296
 21
45.99999999999972
 31
0.0
  0
LINE
  5
152
330
6F
100
AcDbEntity
  8
SIZE
  6
Continuous
 62
    30
100
AcDbLine
 10
1081.481714034296
 20
-1.000000000000256
 30
0.0
 11
1081.481714034296
 21
45.99999999999972
 31
0.0
  0
LINE
  5
153
330
6F
100
AcDbEntity
  8
SIZE
  6
Continuous
 62
    30
100
AcDbLine
 10
1081.481714034296
 20
45.99999999999972
 30
0.0
 11
1081.481714034296
 21
203.4285714285712
 31
0.0
  0
CIRCLE
  5
154
330
6F
100
AcDbEntity
  8
SIZE
  6
Continuous
 62
    30
100
AcDbCircle
 10
1081.481714034296
 20
-1.000000000000256
 30
0.0
 40
7.5
  0
CIRCLE
  5
155
330
6F
100
AcDbEntity
  8
SIZE
  6
Continuous
 62
    30
100
AcDbCircle
 10
1081.481714034296
 20
45.99999999999972
 30
0.0
 40
7.5
  0
TEXT
  5
156
330
6F
100
AcDbEntity
  8
SIZE
  6
Continuous
 62
    30
100
AcDbText
 10
1061.481714034296
 20
95.99999999999988
 30
0.0
 40
60.0
  1
47
 50
90.0
 41
0.9
 72
     1
 11
1061.481714034296
 21
139.7142857142856
 31
0.0
100
AcDbText
  0
POINT
  5
157
330
6F
100
AcDbEntity
  8
DEFPOINTS
  6
Continuous
 62
     7
100
AcDbPoint
 10
175.5
 20
0.0
 30
0.0
  0
POINT
  5
158
330
6F
100
AcDbEntity
  8
DEFPOINTS
  6
Continuous
 62
     7
100
AcDbPoint
 10
143.9699999999993
 20
47.0
 30
0.0
  0
POINT
  5
159
330
6F
100
AcDbEntity
  8
DEFPOINTS
  6
Continuous
 62
     7
100
AcDbPoint
 10
1081.481714034296
 20
45.99999999999972
 30
0.0
  0
LINE
  5
15A
330
6F
100
AcDbEntity
  8
SIZE
  6
Continuous
 62
    30
100
AcDbLine
 10
325.5
 20
424.7000000000006
 30
0.0
 11
325.5000000000001
 21
980.7993907009532
 31
0.0
  0
LINE
  5
15B
330
6F
100
AcDbEntity
  8
SIZE
  6
Continuous
 62
    30
100
AcDbLine
 10
-317.5
 20
424.7000000000006
 30
0.0
 11
-317.4999999999999
 21
980.7993907009532
 31
0.0
  0
LINE
  5
15C
330
6F
100
AcDbEntity
  8
SIZE
  6
Continuous
 62
    30
100
AcDbLine
 10
325.5000000000001
 20
960.7993907009532
 30
0.0
 11
-317.4999999999999
 21
960.7993907009532
 31
0.0
  0
CIRCLE
  5
15D
330
6F
100
AcDbEntity
  8
SIZE
  6
Continuous
 62
    30
100
AcDbCircle
 10
325.5000000000001
 20
960.7993907009532
 30
0.0
 40
7.5
  0
CIRCLE
  5
15E
330
6F
100
AcDbEntity
  8
SIZE
  6
Continuous
 62
    30
100
AcDbCircle
 10
-317.4999999999999
 20
960.7993907009532
 30
0.0
 40
7.5
  0
TEXT
  5
15F
330
6F
100
AcDbEntity
  8
SIZE
  6
Continuous
 62
    30
100
AcDbText
 10
-65.42857142857137
 20
980.7993907009532
 30
0.0
 40
60.0
  1
643
 41
0.9
 72
     1
 11
4.000000000000055
 21
980.7993907009532
 31
0.0
100
AcDbText
  0
POINT
  5
160
330
6F
100
AcDbEntity
  8
DEFPOINTS
  6
Continuous
 62
     7
100
AcDbPoint
 10
-317.4999999999999
 20
960.7993907009532
 30
0.0
  0
LINE
  5
161
330
6F
100
AcDbEntity
  8
SIZE
  6
Continuous
 62
    30
100
AcDbLine
 10
-317.5
 20
424.7000000000006
 30
0.0
 11
-317.4999999999999
 21
980.7993907009532
 31
0.0
  0
LINE
  5
162
330
6F
100
AcDbEntity
  8
SIZE
  6
Continuous
 62
    30
100
AcDbLine
 10
-350.5000000000009
 20
421.3999999999996
 30
0.0
 11
-350.5000000000009
 21
980.7993907009532
 31
0.0
  0
LINE
  5
163
330
6F
100
AcDbEntity
  8
SIZE
  6
Continuous
 62
    30
100
AcDbLine
 10
-317.4999999999999
 20
960.7993907009532
 30
0.0
 11
-287.5
 21
960.7993907009532
 31
0.0
  0
LINE
  5
164
330
6F
100
AcDbEntity
  8
SIZE
  6
Continuous
 62
    30
100
AcDbLine
 10
-350.5000000000009
 20
960.7993907009532
 30
0.0
 11
-537.9285714285721
 21
960.7993907009532
 31
0.0
  0
LINE
  5
165
330
6F
100
AcDbEntity
  8
SIZE
  6
Continuous
 62
    30
100
AcDbLine
 10
-317.4999999999999
 20
960.7993907009532
 30
0.0
 11
-350.5000000000009
 21
960.7993907009532
 31
0.0
  0
CIRCLE
  5
166
330
6F
100
AcDbEntity
  8
SIZE
  6
Continuous
 62
    30
100
AcDbCircle
 10
-317.4999999999999
 20
960.7993907009532
 30
0.0
 40
7.5
  0
CIRCLE
  5
167
330
6F
100
AcDbEntity
  8
SIZE
  6
Continuous
 62
    30
100
AcDbCircle
 10
-350.5000000000009
 20
960.7993907009532
 30
0.0
 40
7.5
  0
TEXT
  5
168
330
6F
100
AcDbEntity
  8
SIZE
  6
Continuous
 62
    30
100
AcDbText
 10
-517.9285714285722
 20
980.7993907009532
 30
0.0
 40
60.0
  1
33
 41
0.9
 72
     1
 11
-474.2142857142865
 21
980.7993907009532
 31
0.0
100
AcDbText
  0
POINT
  5
169
330
6F
100
AcDbEntity
  8
DEFPOINTS
  6
Continuous
 62
     7
100
AcDbPoint
 10
-350.5000000000009
 20
960.7993907009532
 30
0.0
  0
LINE
  5
16A
330
6F
100
AcDbEntity
  8
SIZE
  6
Continuous
 62
    30
100
AcDbLine
 10
432.5
 20
404.025732
 30
0.0
 11
432.5000000000001
 21
1249.85436910273
 31
0.0
  0
LINE
  5
16B
330
6F
100
AcDbEntity
  8
SIZE
  6
Continuous
 62
    30
100
AcDbLine
 10
-350.5000000000009
 20
421.3999999999996
 30
0.0
 11
-350.5000000000009
 21
1249.85436910273
 31
0.0
  0
LINE
  5
16C
330
6F
100
AcDbEntity
  8
SIZE
  6
Continuous
 62
    30
100
AcDbLine
 10
432.5000000000001
 20
1229.85436910273
 30
0.0
 11
-350.5000000000009
 21
1229.85436910273
 31
0.0
  0
CIRCLE
  5
16D
330
6F
100
AcDbEntity
  8
SIZE
  6
Continuous
 62
    30
100
AcDbCircle
 10
432.5000000000001
 20
1229.85436910273
 30
0.0
 40
7.5
  0
CIRCLE
  5
16E
330
6F
100
AcDbEntity
  8
SIZE
  6
Continuous
 62
    30
100
AcDbCircle
 10
-350.5000000000009
 20
1229.85436910273
 30
0.0
 40
7.5
  0
TEXT
  5
16F
330
6F
100
AcDbEntity
  8
SIZE
  6
Continuous
 62
    30
100
AcDbText
 10
-28.42857142857183
 20
1249.85436910273
 30
0.0
 40
60.0
  1
783
 41
0.9
 72
     1
 11
40.9999999999996
 21
1249.85436910273
 31
0.0
100
AcDbText
  0
POINT
  5
170
330
6F
100
AcDbEntity
  8
DEFPOINTS
  6
Continuous
 62
     7
100
AcDbPoint
 10
-350.5000000000009
 20
1229.85436910273
 30
0.0
  0
LINE
  5
171
330
6F
100
AcDbEntity
  8
SIZE
  6
Continuous
 62
    30
100
AcDbLine
 10
377.5
 20
402.0
 30
0.0
 11
966.3928008386321
 21
401.9999999999996
 31
0.0
  0
LINE
  5
172
330
6F
100
AcDbEntity
  8
SIZE
  6
Continuous
 62
    30
100
AcDbLine
 10
370.6999999999999
 20
152.0
 30
0.0
 11
966.3928008386321
 21
151.9999999999998
 31
0.0
  0
LINE
  5
173
330
6F
100
AcDbEntity
  8
SIZE
  6
Continuous
 62
    30
100
AcDbLine
 10
946.392800838632
 20
401.9999999999996
 30
0.0
 11
946.392800838632
 21
151.9999999999998
 31
0.0
  0
CIRCLE
  5
174
330
6F
100
AcDbEntity
  8
SIZE
  6
Continuous
 62
    30
100
AcDbCircle
 10
946.392800838632
 20
401.9999999999996
 30
0.0
 40
7.5
  0
CIRCLE
  5
175
330
6F
100
AcDbEntity
  8
SIZE
  6
Continuous
 62
    30
100
AcDbCircle
 10
946.392800838632
 20
151.9999999999998
 30
0.0
 40
7.5
  0
TEXT
  5
176
330
6F
100
AcDbEntity
  8
SIZE
  6
Continuous
 62
    30
100
AcDbText
 10
926.392800838632
 20
207.5714285714284
 30
0.0
 40
60.0
  1
250
 50
90.0
 41
0.9
 72
     1
 11
926.392800838632
 21
276.9999999999999
 31
0.0
100
AcDbText
  0
POINT
  5
177
330
6F
100
AcDbEntity
  8
DEFPOINTS
  6
Continuous
 62
     7
100
AcDbPoint
 10
350.6999999999999
 20
153.0
 30
0.0
  0
POINT
  5
178
330
6F
100
AcDbEntity
  8
DEFPOINTS
  6
Continuous
 62
     7
100
AcDbPoint
 10
946.392800838632
 20
151.9999999999998
 30
0.0
  0
LINE
  5
179
330
6F
100
AcDbEntity
  8
SIZE
  6
Continuous
 62
    30
100
AcDbLine
 10
-520.204094
 20
0.0000000000000051
 30
0.0
 11
-1423.059653616325
 21
0.0000000000002609
 31
0.0
  0
LINE
  5
17A
330
6F
100
AcDbEntity
  8
SIZE
  6
Continuous
 62
    30
100
AcDbLine
 10
-336.25
 20
130.0
 30
0.0
 11
-1423.059653616325
 21
130.0000000000003
 31
0.0
  0
LINE
  5
17B
330
6F
100
AcDbEntity
  8
SIZE
  6
Continuous
 62
    30
100
AcDbLine
 10
-1403.059653616325
 20
130.0000000000003
 30
0.0
 11
-1403.059653616325
 21
0.0000000000002549
 31
0.0
  0
LINE
  5
17C
330
6F
100
AcDbEntity
  8
SIZE
  6
Continuous
 62
    30
100
AcDbLine
 10
-1403.059653616325
 20
0.0000000000002549
 30
0.0
 11
-1403.059653616325
 21
-419.7142857142856
 31
0.0
  0
CIRCLE
  5
17D
330
6F
100
AcDbEntity
  8
SIZE
  6
Continuous
 62
    30
100
AcDbCircle
 10
-1403.059653616325
 20
130.0000000000003
 30
0.0
 40
7.5
  0
CIRCLE
  5
17E
330
6F
100
AcDbEntity
  8
SIZE
  6
Continuous
 62
    30
100
AcDbCircle
 10
-1403.059653616325
 20
0.0000000000002549
 30
0.0
 40
7.5
  0
TEXT
  5
17F
330
6F
100
AcDbEntity
  8
SIZE
  6
Continuous
 62
    30
100
AcDbText
 10
-1423.059653616325
 20
-399.7142857142863
 30
0.0
 40
60.0
  1
130~280
 50
90.0
 41
0.9
 72
     1
 11
-1423.059653616325
 21
-224.8571428571434
 31
0.0
100
AcDbText
  0
POINT
  5
180
330
6F
100
AcDbEntity
  8
DEFPOINTS
  6
Continuous
 62
     7
100
AcDbPoint
 10
-500.204094
 20
1.0
 30
0.0
  0
POINT
  5
181
330
6F
100
AcDbEntity
  8
DEFPOINTS
  6
Continuous
 62
     7
100
AcDbPoint
 10
-316.25
 20
131.0
 30
0.0
  0
POINT
  5
182
330
6F
100
AcDbEntity
  8
DEFPOINTS
  6
Continuous
 62
     7
100
AcDbPoint
 10
-1403.059653616325
 20
130.0000000000003
 30
0.0
  0
LINE
  5
183
330
6F
100
AcDbEntity
  8
SIZE
  6
Continuous
 62
    30
100
AcDbLine
 10
77.0588571028871
 20
547.0073837156387
 30
0.0
 11
-153.7421388928178
 21
311.6262208944971
 31
0.0
  0
TEXT
  5
184
330
6F
100
AcDbEntity
  8
SIZE
  6
Continuous
 62
    30
100
AcDbText
 10
-75.44636569792543
 20
420.0420426386304
 30
0.0
 40
60.0
  1
%%c125
 50
45.56290396439772
 41
0.9
 72
     1
 11
-13.33520741778802
 21
483.385775611164
 31
0.0
100
AcDbText
  0
LINE
  5
185
330
6F
100
AcDbEntity
  8
SIZE
  6
Continuous
 62
    30
100
AcDbLine
 10
-241.2578611071822
 20
222.3737791055003
 30
0.0
 11
-153.7421388928178
 21
311.6262208944971
 31
0.0
  0
CIRCLE
  5
186
330
6F
100
AcDbEntity
  8
SIZE
  6
Continuous
 62
    30
100
AcDbCircle
 10
-241.2578611071822
 20
222.3737791055003
 30
0.0
 40
7.5
  0
CIRCLE
  5
187
330
6F
100
AcDbEntity
  8
SIZE
  6
Continuous
 62
    30
100
AcDbCircle
 10
-153.7421388928178
 20
311.6262208944971
 30
0.0
 40
7.5
  0
POINT
  5
188
330
6F
100
AcDbEntity
  8
DEFPOINTS
  6
Continuous
 62
     7
100
AcDbPoint
 10
-153.7421388928178
 20
311.6262208944971
 30
0.0
  0
POINT
  5
189
330
6F
100
AcDbEntity
  8
DEFPOINTS
  6
Continuous
 62
     7
100
AcDbPoint
 10
-241.2578611071822
 20
222.3737791055003
 30
0.0
  0
TEXT
  5
18A
330
6F
100
AcDbEntity
  8
NOTE
  6
Continuous
 62
     4
100
AcDbText
 10
-1015.894100449848
 20
-108.5278000616072
 30
0.0
 40
60.0
  1
取付穴 3-%%C2.9
 50
0.0000025044165917
 41
0.7
  7
STANDARD1
100
AcDbText
  0
TEXT
  5
18B
330
6F
100
AcDbEntity
  8
NOTE
  6
Continuous
 62
     4
100
AcDbText
 10
709.7726985190822
 20
-401.3003261094651
 30
0.0
 40
60.0
  1
RL %%C6.35
 50
0.0000025044165917
 41
0.7
  7
STANDARD1
100
AcDbText
  0
TEXT
  5
18C
330
6F
100
AcDbEntity
  8
NOTE
  6
Continuous
 62
     4
100
AcDbText
 10
634.6666890237429
 20
-549.1305060855429
 30
0.0
 40
60.0
  1
RG %%C12.7
 50
0.0000025044165917
 41
0.7
  7
STANDARD1
100
AcDbText
  0
TEXT
  5
18D
330
6F
100
AcDbEntity
  8
NOTE
  6
Continuous
 62
     4
100
AcDbText
 10
-1199.706845449101
 20
739.6084664708268
 30
0.0
 40
60.0
  1
外気取入口
 50
0.0000025044165917
 41
0.7
  7
STANDARD1
100
AcDbText
  0
TEXT
  5
18E
330
6F
100
AcDbEntity
  8
SIZE
  6
Continuous
 62
    30
100
AcDbText
 10
-223.8945853370497
 20
874.1885848385225
 30
0.0
 40
60.0
  1
(吊りボルトピッチ)
 50
0.0000025044165917
 41
0.7
  7
STANDARD1
100
AcDbText
  0
LINE
  5
18F
330
6F
100
AcDbEntity
  8
BASIS
  6
DASHDOT
 62
     6
100
AcDbLine
 10
0.0
 20
439.36138963353
 30
0.0
 11
0.0
 21
-79.25267906862062
 31
0.0
  0
CIRCLE
  5
190
330
6F
100
AcDbEntity
  8
ARRANGE
  6
Continuous
 62
     1
100
AcDbCircle
 10
0.0
 20
0.0
 30
0.0
 40
50.0
  0
LINE
  5
191
330
6F
100
AcDbEntity
  8
ARRANGE
  6
Continuous
 62
     1
100
AcDbLine
 10
50.03735003132896
 20
-49.5223531503252
 30
0.0
 11
-50.03735003132896
 21
49.5223531503252
 31
0.0
  0
LINE
  5
192
330
6F
100
AcDbEntity
  8
ARRANGE
  6
Continuous
 62
     1
100
AcDbLine
 10
49.96376331050122
 20
49.59659479798574
 30
0.0
 11
-49.96376331050122
 21
-49.5965947979821
 31
0.0
  0
TEXT
  5
193
330
6F
100
AcDbEntity
  8
SIZE
  6
Continuous
 62
    30
100
AcDbText
 10
-303.5965153515244
 20
-433.2902671326028
 30
0.0
 40
60.0
  1
(天井開口寸法)
 50
0.0000025044165917
 41
0.7
  7
STANDARD1
100
AcDbText
  0
LINE
  5
194
330
6F
100
AcDbEntity
  8
NOTE
  6
Continuous
 62
     4
100
AcDbLine
 10
-197.5
 20
266.9999999999991
 30
0.0
 11
-684.8097323904858
 21
714.4031837629515
 31
0.0
  0
LINE
  5
195
330
6F
100
AcDbEntity
  8
NOTE
  6
Continuous
 62
     4
100
AcDbLine
 10
-684.8097323904858
 20
714.4031837629515
 30
0.0
 11
-1233.580593748866
 21
714.4031837629515
 31
0.0
  0
LINE
  5
196
330
6F
100
AcDbEntity
  8
NOTE
  6
Continuous
 62
     4
100
AcDbLine
 10
-215.6807769163592
 20
292.1808745339993
 30
0.0
 11
-197.5
 21
266.9999999999991
 31
0.0
  0
LINE
  5
197
330
6F
100
AcDbEntity
  8
NOTE
  6
Continuous
 62
     4
100
AcDbLine
 10
-197.5
 20
266.9999999999991
 30
0.0
 11
-225.8354518794145
 21
279.716888706317
 31
0.0
  0
LINE
  5
198
330
6F
100
AcDbEntity
  8
NOTE
  6
Continuous
 62
     4
100
AcDbLine
 10
432.5
 20
285.9933780000001
 30
0.0
 11
803.050218062075
 21
-279.8968945956985
 31
0.0
  0
LINE
  5
199
330
6F
100
AcDbEntity
  8
NOTE
  6
Continuous
 62
     4
100
AcDbLine
 10
442.209419354698
 20
256.4917802911623
 30
0.0
 11
432.5
 21
285.9933780000001
 31
0.0
  0
LINE
  5
19A
330
6F
100
AcDbEntity
  8
NOTE
  6
Continuous
 62
     4
100
AcDbLine
 10
432.5
 20
285.9933780000001
 30
0.0
 11
455.6594025777025
 21
265.2989545042034
 31
0.0
  0
LINE
  5
19B
330
6F
100
AcDbEntity
  8
NOTE
  6
Continuous
 62
     4
100
AcDbLine
 10
214.5
 20
280.0
 30
0.0
 11
682.8410093354541
 21
-429.8098601325655
 31
0.0
  0
LINE
  5
19C
330
6F
100
AcDbEntity
  8
NOTE
  6
Continuous
 62
     4
100
AcDbLine
 10
682.8410093354541
 20
-429.8098601325655
 30
0.0
 11
1037.612194471076
 21
-429.8098601325655
 31
0.0
  0
LINE
  5
19D
330
6F
100
AcDbEntity
  8
NOTE
  6
Continuous
 62
     4
100
AcDbLine
 10
224.3124180652936
 20
250.5325002198796
 30
0.0
 11
214.5
 21
280.0
 31
0.0
  0
LINE
  5
19E
330
6F
100
AcDbEntity
  8
NOTE
  6
Continuous
 62
     4
100
AcDbLine
 10
214.5
 20
280.0
 30
0.0
 11
237.7315531136442
 21
259.3866055316592
 31
0.0
  0
LINE
  5
19F
330
6F
100
AcDbEntity
  8
NOTE
  6
Continuous
 62
     4
100
AcDbLine
 10
147.5
 20
247.0
 30
0.0
 11
614.3486082564995
 21
-576.5847568721401
 31
0.0
  0
LINE
  5
1A0
330
6F
100
AcDbEntity
  8
NOTE
  6
Continuous
 62
     4
100
AcDbLine
 10
614.3486082564995
 20
-576.5847568721401
 30
0.0
 11
963.2137557137248
 21
-576.5847568721401
 31
0.0
  0
LINE
  5
1A1
330
6F
100
AcDbEntity
  8
NOTE
  6
Continuous
 62
     4
100
AcDbLine
 10
155.3008852048601
 20
216.9373440694259
 30
0.0
 11
147.5
 21
247.0
 31
0.0
  0
LINE
  5
1A2
330
6F
100
AcDbEntity
  8
NOTE
  6
Continuous
 62
     4
100
AcDbLine
 10
147.5
 20
247.0
 30
0.0
 11
169.2870926242876
 21
224.8654187624841
 31
0.0
  0
LINE
  5
1A3
330
6F
100
AcDbEntity
  8
NOTE
  6
Continuous
 62
     4
100
AcDbLine
 10
-251.6265880000001
 20
235.7499999999991
 30
0.0
 11
-578.6458232741059
 21
-132.4907497999337
 31
0.0
  0
LINE
  5
1A4
330
6F
100
AcDbEntity
  8
NOTE
  6
Continuous
 62
     4
100
AcDbLine
 10
-578.6458232741059
 20
-132.4907497999337
 30
0.0
 11
-1035.275499216291
 21
-132.4907497999337
 31
0.0
  0
LINE
  5
1A5
330
6F
100
AcDbEntity
  8
NOTE
  6
Continuous
 62
     4
100
AcDbLine
 10
-277.9092859564944
 20
219.20198260494
 30
0.0
 11
-251.6265880000001
 21
235.7499999999991
 31
0.0
  0
LINE
  5
1A6
330
6F
100
AcDbEntity
  8
NOTE
  6
Continuous
 62
     4
100
AcDbLine
 10
-251.6265880000001
 20
235.7499999999991
 30
0.0
 11
-266.1140635374172
 21
208.2776476410869
 31
0.0
  0
LINE
  5
1A7
330
6F
100
AcDbEntity
  8
SIZE
  6
Continuous
 62
    30
100
AcDbLine
 10
397.5
 20
404.025732
 30
0.0
 11
397.5
 21
638.1649118828609
 31
0.0
  0
LINE
  5
1A8
330
6F
100
AcDbEntity
  8
SIZE
  6
Continuous
 62
    30
100
AcDbLine
 10
432.5
 20
404.025732
 30
0.0
 11
432.5
 21
638.1649118828609
 31
0.0
  0
LINE
  5
1A9
330
6F
100
AcDbEntity
  8
SIZE
  6
Continuous
 62
    30
100
AcDbLine
 10
397.5
 20
618.1649118828609
 30
0.0
 11
367.5
 21
618.1649118828609
 31
0.0
  0
LINE
  5
1AA
330
6F
100
AcDbEntity
  8
SIZE
  6
Continuous
 62
    30
100
AcDbLine
 10
432.5
 20
618.1649118828609
 30
0.0
 11
619.9285714285714
 21
618.1649118828609
 31
0.0
  0
LINE
  5
1AB
330
6F
100
AcDbEntity
  8
SIZE
  6
Continuous
 62
    30
100
AcDbLine
 10
397.5
 20
618.1649118828609
 30
0.0
 11
432.5
 21
618.1649118828609
 31
0.0
  0
CIRCLE
  5
1AC
330
6F
100
AcDbEntity
  8
SIZE
  6
Continuous
 62
    30
100
AcDbCircle
 10
397.5
 20
618.1649118828609
 30
0.0
 40
7.5
  0
CIRCLE
  5
1AD
330
6F
100
AcDbEntity
  8
SIZE
  6
Continuous
 62
    30
100
AcDbCircle
 10
432.5
 20
618.1649118828609
 30
0.0
 40
7.5
  0
TEXT
  5
1AE
330
6F
100
AcDbEntity
  8
SIZE
  6
Continuous
 62
    30
100
AcDbText
 10
512.5
 20
638.1649118828609
 30
0.0
 40
60.0
  1
35
 41
0.9
 72
     1
 11
556.2142857142856
 21
638.1649118828609
 31
0.0
100
AcDbText
  0
POINT
  5
1AF
330
6F
100
AcDbEntity
  8
DEFPOINTS
  6
Continuous
 62
     7
100
AcDbPoint
 10
432.5
 20
618.1649118828609
 30
0.0
  0
ARC
  5
1B0
330
6F
100
AcDbEntity
  8
DETAIL
  6
Continuous
 62
     5
100
AcDbCircle
 10
382.0544209999998
 20
200.7999239999999
 30
0.0
 40
15.175028
100
AcDbArc
 50
271.4156649999902
 51
0.0
  0
ARC
  5
1B1
330
6F
100
AcDbEntity
  8
DETAIL
  6
Continuous
 62
     5
100
AcDbCircle
 10
382.1810779999996
 20
195.6748320000006
 30
0.0
 40
10.048372
100
AcDbArc
 50
271.4156649999902
 51
0.0
  0
ARC
  5
1B2
330
6F
100
AcDbEntity
  8
DETAIL
  6
Continuous
 62
     5
100
AcDbCircle
 10
382.1546679999991
 20
371.297888
 30
0.0
 40
15.074781
100
AcDbArc
 50
0.0
 51
88.58433500000979
  0
ARC
  5
1B3
330
6F
100
AcDbEntity
  8
DETAIL
  6
Continuous
 62
     5
100
AcDbCircle
 10
382.2813239999996
 20
376.4229800000002
 30
0.0
 40
9.948124999999999
100
AcDbArc
 50
0.0000320000449087
 51
88.58433500000979
  0
LINE
  5
1B4
330
6F
100
AcDbEntity
  8
DETAIL
  6
Continuous
 62
     5
100
AcDbLine
 10
143.9699999999993
 20
47.0
 30
0.0
 11
-392.9700000000003
 21
47.0
 31
0.0
  0
LINE
  5
1B5
330
6F
100
AcDbEntity
  8
DETAIL
  6
Continuous
 62
     5
100
AcDbLine
 10
397.2294489999995
 20
200.6650690000006
 30
0.0
 11
397.2294489999995
 21
371.3349429999998
 31
0.0
  0
LINE
  5
1B6
330
6F
100
AcDbEntity
  8
DETAIL
  6
Continuous
 62
     5
100
AcDbLine
 10
350.5
 20
171.0
 30
0.0
 11
357.5
 21
171.0
 31
0.0
  0
LINE
  5
1B7
330
6F
100
AcDbEntity
  8
DETAIL
  6
Continuous
 62
     5
100
AcDbLine
 10
350.5
 20
402.0
 30
0.0
 11
357.5
 21
402.0
 31
0.0
  0
LINE
  5
1B8
330
6F
100
AcDbEntity
  8
DETAIL
  6
Continuous
 62
     5
100
AcDbLine
 10
357.5
 20
402.0
 30
0.0
 11
357.5
 21
171.0
 31
0.0
  0
LINE
  5
1B9
330
6F
100
AcDbEntity
  8
DETAIL
  6
Continuous
 62
     5
100
AcDbLine
 10
350.5
 20
402.0
 30
0.0
 11
350.5
 21
165.0
 31
0.0
  0
LINE
  5
1BA
330
6F
100
AcDbEntity
  8
DETAIL
  6
Continuous
 62
     5
100
AcDbLine
 10
-392.9700000000003
 20
0.0
 30
0.0
 11
-392.9700000000003
 21
47.0
 31
0.0
  0
LINE
  5
1BB
330
6F
100
AcDbEntity
  8
DETAIL
  6
Continuous
 62
     5
100
AcDbLine
 10
143.9699999999993
 20
0.0
 30
0.0
 11
-424.5
 21
0.0
 31
0.0
  0
LINE
  5
1BC
330
6F
100
AcDbEntity
  8
DETAIL
  6
Continuous
 62
     5
100
AcDbLine
 10
-424.5
 20
-4.00650800000039
 30
0.0
 11
-424.5
 21
0.0
 31
0.0
  0
ARC
  5
1BD
330
6F
100
AcDbEntity
  8
DETAIL
  6
Continuous
 62
     5
100
AcDbCircle
 10
-393.8000000000002
 20
112.0
 30
0.0
 40
120.0
100
AcDbArc
 50
255.1770300000306
 51
270.0
  0
ARC
  5
1BE
330
6F
100
AcDbEntity
  8
DETAIL
  6
Continuous
 62
     5
100
AcDbCircle
 10
144.7999999999993
 20
112.0
 30
0.0
 40
120.0
100
AcDbArc
 50
270.0
 51
284.8229700000012
  0
LINE
  5
1BF
330
6F
100
AcDbEntity
  8
DETAIL
  6
Continuous
 62
     5
100
AcDbLine
 10
143.9699999999993
 20
0.0
 30
0.0
 11
175.5
 21
0.0
 31
0.0
  0
LINE
  5
1C0
330
6F
100
AcDbEntity
  8
DETAIL
  6
Continuous
 62
     5
100
AcDbLine
 10
-393.8000000000002
 20
-8.0
 30
0.0
 11
144.7999999999993
 21
-8.0
 31
0.0
  0
LINE
  5
1C1
330
6F
100
AcDbEntity
  8
DETAIL
  6
Continuous
 62
     5
100
AcDbLine
 10
143.9699999999993
 20
0.0
 30
0.0
 11
143.9699999999993
 21
47.0
 31
0.0
  0
LINE
  5
1C2
330
6F
100
AcDbEntity
  8
DETAIL
  6
Continuous
 62
     5
100
AcDbLine
 10
175.5
 20
-4.00650800000039
 30
0.0
 11
175.5
 21
0.0
 31
0.0
  0
LINE
  5
1C3
330
6F
100
AcDbEntity
  8
DETAIL
  6
Continuous
 62
     5
100
AcDbLine
 10
432.5
 20
188.9742800000003
 30
0.0
 11
432.5
 21
383.0257320000001
 31
0.0
  0
LINE
  5
1C4
330
6F
100
AcDbEntity
  8
DETAIL
  6
Continuous
 62
     5
100
AcDbLine
 10
397.5294489999996
 20
186.0
 30
0.0
 11
397.5294489999996
 21
386.0
 31
0.0
  0
LINE
  5
1C5
330
6F
100
AcDbEntity
  8
DETAIL
  6
Continuous
 62
     5
100
AcDbLine
 10
365.9650949999996
 20
195.2211829999995
 30
0.0
 11
365.9650949999996
 21
215.7517280000002
 31
0.0
  0
LINE
  5
1C6
330
6F
100
AcDbEntity
  8
DETAIL
  6
Continuous
 62
     5
100
AcDbLine
 10
365.9650949999996
 20
356.2482840000003
 30
0.0
 11
365.9650949999996
 21
376.778832
 31
0.0
  0
LINE
  5
1C7
330
6F
100
AcDbEntity
  8
DETAIL
  6
Continuous
 62
     5
100
AcDbLine
 10
364.0
 20
182.4307969999999
 30
0.0
 11
364.0
 21
190.771168
 31
0.0
  0
LINE
  5
1C8
330
6F
100
AcDbEntity
  8
DETAIL
  6
Continuous
 62
     5
100
AcDbLine
 10
364.134196
 20
376.7788890000002
 30
0.0
 11
364.0
 21
388.4333130000005
 31
0.0
  0
LINE
  5
1C9
330
6F
100
AcDbEntity
  8
DETAIL
  6
Continuous
 62
     5
100
AcDbLine
 10
360.0
 20
171.5349860000005
 30
0.0
 11
360.0
 21
401.4650139999991
 31
0.0
  0
LINE
  5
1CA
330
6F
100
AcDbEntity
  8
DETAIL
  6
Continuous
 62
     5
100
AcDbLine
 10
359.508726
 20
171.0350619999999
 30
0.0
 11
359.508726
 21
401.964938
 31
0.0
  0
LINE
  5
1CB
330
6F
100
AcDbEntity
  8
DETAIL
  6
Continuous
 62
     5
100
AcDbLine
 10
351.5
 20
152.8000000000002
 30
0.0
 11
351.5
 21
165.0
 31
0.0
  0
LINE
  5
1CC
330
6F
100
AcDbEntity
  8
DETAIL
  6
Continuous
 62
     5
100
AcDbLine
 10
350.8999999999996
 20
165.0
 30
0.0
 11
350.8999999999996
 21
152.8000000000002
 31
0.0
  0
LINE
  5
1CD
330
6F
100
AcDbEntity
  8
DETAIL
  6
Continuous
 62
     5
100
AcDbLine
 10
350.6999999999999
 20
164.0
 30
0.0
 11
350.6999999999999
 21
152.0
 31
0.0
  0
LINE
  5
1CE
330
6F
100
AcDbEntity
  8
DETAIL
  6
Continuous
 62
     5
100
AcDbLine
 10
350.5
 20
398.6982710000002
 30
0.0
 11
350.5
 21
401.1999999999998
 31
0.0
  0
LINE
  5
1CF
330
6F
100
AcDbEntity
  8
DETAIL
  6
Continuous
 62
     5
100
AcDbLine
 10
350.5
 20
398.6982710000002
 30
0.0
 11
350.5
 21
387.0
 31
0.0
  0
LINE
  5
1D0
330
6F
100
AcDbEntity
  8
DETAIL
  6
Continuous
 62
     5
100
AcDbLine
 10
350.5
 20
387.0
 30
0.0
 11
350.5
 21
330.0
 31
0.0
  0
LINE
  5
1D1
330
6F
100
AcDbEntity
  8
DETAIL
  6
Continuous
 62
     5
100
AcDbLine
 10
357.5
 20
402.0
 30
0.0
 11
357.5
 21
171.0
 31
0.0
  0
LINE
  5
1D2
330
6F
100
AcDbEntity
  8
DETAIL
  6
Continuous
 62
     5
100
AcDbLine
 10
349.8999999999997
 20
401.1999999999998
 30
0.0
 11
349.8999999999997
 21
387.0
 31
0.0
  0
LINE
  5
1D3
330
6F
100
AcDbEntity
  8
DETAIL
  6
Continuous
 62
     5
100
AcDbLine
 10
349.6999999999999
 20
402.0
 30
0.0
 11
349.6999999999999
 21
387.0
 31
0.0
  0
LINE
  5
1D4
330
6F
100
AcDbEntity
  8
DETAIL
  6
Continuous
 62
     5
100
AcDbLine
 10
349.6999999999999
 20
327.9708019999998
 30
0.0
 11
349.6999999999999
 21
165.0
 31
0.0
  0
LINE
  5
1D5
330
6F
100
AcDbEntity
  8
DETAIL
  6
Continuous
 62
     5
100
AcDbLine
 10
348.6999999999999
 20
390.0
 30
0.0
 11
348.6999999999999
 21
387.0
 31
0.0
  0
LINE
  5
1D6
330
6F
100
AcDbEntity
  8
DETAIL
  6
Continuous
 62
     5
100
AcDbLine
 10
348.6999999999999
 20
327.2598900000004
 30
0.0
 11
348.6999999999999
 21
165.0
 31
0.0
  0
LINE
  5
1D7
330
6F
100
AcDbEntity
  8
DETAIL
  6
Continuous
 62
     5
100
AcDbLine
 10
336.5
 20
342.0
 30
0.0
 11
336.5
 21
334.7750619999997
 31
0.0
  0
LINE
  5
1D8
330
6F
100
AcDbEntity
  8
DETAIL
  6
Continuous
 62
     5
100
AcDbLine
 10
335.5
 20
341.992542
 30
0.0
 11
335.5
 21
337.0
 31
0.0
  0
LINE
  5
1D9
330
6F
100
AcDbEntity
  8
DETAIL
  6
Continuous
 62
     5
100
AcDbLine
 10
331.5
 20
387.0
 30
0.0
 11
331.5
 21
378.0
 31
0.0
  0
LINE
  5
1DA
330
6F
100
AcDbEntity
  8
DETAIL
  6
Continuous
 62
     5
100
AcDbLine
 10
319.5
 20
387.0
 30
0.0
 11
319.5
 21
378.0
 31
0.0
  0
LINE
  5
1DB
330
6F
100
AcDbEntity
  8
DETAIL
  6
Continuous
 62
     5
100
AcDbLine
 10
315.5
 20
337.0
 30
0.0
 11
315.5
 21
341.992542
 31
0.0
  0
LINE
  5
1DC
330
6F
100
AcDbEntity
  8
DETAIL
  6
Continuous
 62
     5
100
AcDbLine
 10
314.5
 20
334.7750619999997
 30
0.0
 11
314.5
 21
342.0
 31
0.0
  0
LINE
  5
1DD
330
6F
100
AcDbEntity
  8
DETAIL
  6
Continuous
 62
     5
100
AcDbLine
 10
300.5
 20
330.0
 30
0.0
 11
300.5
 21
378.0
 31
0.0
  0
LINE
  5
1DE
330
6F
100
AcDbEntity
  8
DETAIL
  6
Continuous
 62
     5
100
AcDbLine
 10
300.5
 20
387.0
 30
0.0
 11
300.5
 21
378.0
 31
0.0
  0
LINE
  5
1DF
330
6F
100
AcDbEntity
  8
DETAIL
  6
Continuous
 62
     5
100
AcDbLine
 10
364.0
 20
388.4333130000005
 30
0.0
 11
364.047439
 21
388.3017280000004
 31
0.0
  0
LINE
  5
1E0
330
6F
100
AcDbEntity
  8
DETAIL
  6
Continuous
 62
     5
100
AcDbLine
 10
364.047439
 20
388.3017280000004
 30
0.0
 11
364.1075079999991
 21
388.1301640000001
 31
0.0
  0
LINE
  5
1E1
330
6F
100
AcDbEntity
  8
DETAIL
  6
Continuous
 62
     5
100
AcDbLine
 10
-278.7343149999997
 20
401.7656850000003
 30
0.0
 11
-279.3000000000001
 21
401.1999999999998
 31
0.0
  0
LINE
  5
1E2
330
6F
100
AcDbEntity
  8
DETAIL
  6
Continuous
 62
     5
100
AcDbLine
 10
-278.3100510000005
 20
401.341421
 30
0.0
 11
-278.4514720000006
 21
401.1999999999998
 31
0.0
  0
LINE
  5
1E3
330
6F
100
AcDbEntity
  8
DETAIL
  6
Continuous
 62
     5
100
AcDbLine
 10
194.7999999999993
 20
393.0
 30
0.0
 11
194.7999999999993
 21
402.0
 31
0.0
  0
LINE
  5
1E4
330
6F
100
AcDbEntity
  8
DETAIL
  6
Continuous
 62
     5
100
AcDbLine
 10
397.5294489999996
 20
386.0
 30
0.0
 11
432.0357489999996
 21
383.524453
 31
0.0
  0
LINE
  5
1E5
330
6F
100
AcDbEntity
  8
DETAIL
  6
Continuous
 62
     5
100
AcDbLine
 10
132.7999999999992
 20
393.0
 30
0.0
 11
132.7999999999992
 21
402.0
 31
0.0
  0
LINE
  5
1E6
330
6F
100
AcDbEntity
  8
DETAIL
  6
Continuous
 62
     5
100
AcDbLine
 10
77.5
 20
151.3999999999996
 30
0.0
 11
77.5
 21
152.0
 31
0.0
  0
LINE
  5
1E7
330
6F
100
AcDbEntity
  8
DETAIL
  6
Continuous
 62
     5
100
AcDbLine
 10
134.5999999999994
 20
401.1999999999998
 30
0.0
 11
134.0343149999998
 21
401.7656850000003
 31
0.0
  0
LINE
  5
1E8
330
6F
100
AcDbEntity
  8
DETAIL
  6
Continuous
 62
     5
100
AcDbLine
 10
133.7514719999997
 20
401.1999999999998
 30
0.0
 11
133.6100509999996
 21
401.341421
 31
0.0
  0
LINE
  5
1E9
330
6F
100
AcDbEntity
  8
DETAIL
  6
Continuous
 62
     5
100
AcDbLine
 10
357.5
 20
402.0
 30
0.0
 11
359.508726
 21
401.964938
 31
0.0
  0
LINE
  5
1EA
330
6F
100
AcDbEntity
  8
DETAIL
  6
Continuous
 62
     5
100
AcDbLine
 10
397.5294489999996
 20
386.0
 30
0.0
 11
365.9650949999996
 21
386.7773660000001
 31
0.0
  0
LINE
  5
1EB
330
6F
100
AcDbEntity
  8
DETAIL
  6
Continuous
 62
     5
100
AcDbLine
 10
349.6999999999999
 20
402.0
 30
0.0
 11
194.1313709999992
 21
402.0
 31
0.0
  0
LINE
  5
1EC
330
6F
100
AcDbEntity
  8
DETAIL
  6
Continuous
 62
     5
100
AcDbLine
 10
133.468628999999
 20
402.0
 30
0.0
 11
-12.36862900000051
 21
402.0
 31
0.0
  0
LINE
  5
1ED
330
6F
100
AcDbEntity
  8
DETAIL
  6
Continuous
 62
     5
100
AcDbLine
 10
-73.03137100000093
 20
402.0
 30
0.0
 11
-278.1686289999997
 21
402.0
 31
0.0
  0
LINE
  5
1EE
330
6F
100
AcDbEntity
  8
DETAIL
  6
Continuous
 62
     5
100
AcDbLine
 10
-329.272551
 20
402.0
 30
0.0
 11
-348.7000000000008
 21
402.0
 31
0.0
  0
LINE
  5
1EF
330
6F
100
AcDbEntity
  8
DETAIL
  6
Continuous
 62
     5
100
AcDbLine
 10
-278.1686289999997
 20
401.3999999999996
 30
0.0
 11
-277.5
 21
401.3999999999996
 31
0.0
  0
LINE
  5
1F0
330
6F
100
AcDbEntity
  8
DETAIL
  6
Continuous
 62
     5
100
AcDbLine
 10
-12.36862900000051
 20
401.3999999999996
 30
0.0
 11
-11.70000000000072
 21
401.3999999999996
 31
0.0
  0
LINE
  5
1F1
330
6F
100
AcDbEntity
  8
DETAIL
  6
Continuous
 62
     5
100
AcDbLine
 10
194.1313709999992
 20
401.3999999999996
 30
0.0
 11
194.7999999999993
 21
401.3999999999996
 31
0.0
  0
LINE
  5
1F2
330
6F
100
AcDbEntity
  8
DETAIL
  6
Continuous
 62
     5
100
AcDbLine
 10
133.468628999999
 20
401.3999999999996
 30
0.0
 11
132.7999999999992
 21
401.3999999999996
 31
0.0
  0
LINE
  5
1F3
330
6F
100
AcDbEntity
  8
DETAIL
  6
Continuous
 62
     5
100
AcDbLine
 10
-73.03137100000093
 20
401.3999999999996
 30
0.0
 11
-73.7000000000007
 21
401.3999999999996
 31
0.0
  0
LINE
  5
1F4
330
6F
100
AcDbEntity
  8
DETAIL
  6
Continuous
 62
     5
100
AcDbLine
 10
-329.272551
 20
401.3999999999996
 30
0.0
 11
-329.5
 21
401.3999999999996
 31
0.0
  0
LINE
  5
1F5
330
6F
100
AcDbEntity
  8
DETAIL
  6
Continuous
 62
     5
100
AcDbLine
 10
-329.5
 20
401.1999999999998
 30
0.0
 11
-277.5
 21
401.1999999999998
 31
0.0
  0
LINE
  5
1F6
330
6F
100
AcDbEntity
  8
DETAIL
  6
Continuous
 62
     5
100
AcDbLine
 10
-73.7000000000007
 20
401.1999999999998
 30
0.0
 11
-11.70000000000072
 21
401.1999999999998
 31
0.0
  0
LINE
  5
1F7
330
6F
100
AcDbEntity
  8
DETAIL
  6
Continuous
 62
     5
100
AcDbLine
 10
132.7999999999992
 20
401.1999999999998
 30
0.0
 11
194.7999999999993
 21
401.1999999999998
 31
0.0
  0
LINE
  5
1F8
330
6F
100
AcDbEntity
  8
DETAIL
  6
Continuous
 62
     5
100
AcDbLine
 10
-329.5
 20
400.1999999999998
 30
0.0
 11
-277.5
 21
400.1999999999998
 31
0.0
  0
LINE
  5
1F9
330
6F
100
AcDbEntity
  8
DETAIL
  6
Continuous
 62
     5
100
AcDbLine
 10
-73.7000000000007
 20
400.1999999999998
 30
0.0
 11
-11.70000000000072
 21
400.1999999999998
 31
0.0
  0
LINE
  5
1FA
330
6F
100
AcDbEntity
  8
DETAIL
  6
Continuous
 62
     5
100
AcDbLine
 10
132.7999999999992
 20
400.1999999999998
 30
0.0
 11
194.7999999999993
 21
400.1999999999998
 31
0.0
  0
LINE
  5
1FB
330
6F
100
AcDbEntity
  8
DETAIL
  6
Continuous
 62
     5
100
AcDbLine
 10
-348.7000000000008
 20
390.0
 30
0.0
 11
-332.5
 21
390.0
 31
0.0
  0
LINE
  5
1FC
330
6F
100
AcDbEntity
  8
DETAIL
  6
Continuous
 62
     5
100
AcDbLine
 10
-274.5
 20
390.0
 30
0.0
 11
-76.7000000000007
 21
390.0
 31
0.0
  0
LINE
  5
1FD
330
6F
100
AcDbEntity
  8
DETAIL
  6
Continuous
 62
     5
100
AcDbLine
 10
-8.700000000000725
 20
390.0
 30
0.0
 11
129.7999999999992
 21
390.0
 31
0.0
  0
LINE
  5
1FE
330
6F
100
AcDbEntity
  8
DETAIL
  6
Continuous
 62
     5
100
AcDbLine
 10
197.7999999999993
 20
390.0
 30
0.0
 11
349.6999999999999
 21
390.0
 31
0.0
  0
LINE
  5
1FF
330
6F
100
AcDbEntity
  8
DETAIL
  6
Continuous
 62
     5
100
AcDbLine
 10
-346.1000000000004
 20
387.8999999999996
 30
0.0
 11
-350.1000000000004
 21
387.8999999999996
 31
0.0
  0
LINE
  5
200
330
6F
100
AcDbEntity
  8
DETAIL
  6
Continuous
 62
     5
100
AcDbLine
 10
350.5
 20
387.0
 30
0.0
 11
300.5
 21
387.0
 31
0.0
  0
LINE
  5
201
330
6F
100
AcDbEntity
  8
DETAIL
  6
Continuous
 62
     5
100
AcDbLine
 10
-292.5
 20
387.0
 30
0.0
 11
-342.5
 21
387.0
 31
0.0
  0
LINE
  5
202
330
6F
100
AcDbEntity
  8
DETAIL
  6
Continuous
 62
     5
100
AcDbLine
 10
-350.5000000000009
 20
385.3999999999997
 30
0.0
 11
-350.1000000000004
 21
385.3999999999997
 31
0.0
  0
LINE
  5
203
330
6F
100
AcDbEntity
  8
DETAIL
  6
Continuous
 62
     5
100
AcDbLine
 10
-323.5
 20
384.5
 30
0.0
 11
-311.5
 21
384.5
 31
0.0
  0
LINE
  5
204
330
6F
100
AcDbEntity
  8
DETAIL
  6
Continuous
 62
     5
100
AcDbLine
 10
319.5
 20
384.5
 30
0.0
 11
331.5
 21
384.5
 31
0.0
  0
LINE
  5
205
330
6F
100
AcDbEntity
  8
DETAIL
  6
Continuous
 62
     5
100
AcDbLine
 10
364.134196
 20
376.7788890000002
 30
0.0
 11
365.9650949999996
 21
376.7788890000002
 31
0.0
  0
LINE
  5
206
330
6F
100
AcDbEntity
  8
DETAIL
  6
Continuous
 62
     5
100
AcDbLine
 10
347.5
 20
375.0
 30
0.0
 11
334.5
 21
375.0
 31
0.0
  0
LINE
  5
207
330
6F
100
AcDbEntity
  8
DETAIL
  6
Continuous
 62
     5
100
AcDbLine
 10
316.5
 20
375.0
 30
0.0
 11
303.5
 21
375.0
 31
0.0
  0
LINE
  5
208
330
6F
100
AcDbEntity
  8
DETAIL
  6
Continuous
 62
     5
100
AcDbLine
 10
-295.5
 20
375.0
 30
0.0
 11
-308.5
 21
375.0
 31
0.0
  0
LINE
  5
209
330
6F
100
AcDbEntity
  8
DETAIL
  6
Continuous
 62
     5
100
AcDbLine
 10
-326.5
 20
375.0
 30
0.0
 11
-339.5
 21
375.0
 31
0.0
  0
LINE
  5
20A
330
6F
100
AcDbEntity
  8
DETAIL
  6
Continuous
 62
     5
100
AcDbLine
 10
-328.5
 20
342.0
 30
0.0
 11
-306.5
 21
342.0
 31
0.0
  0
LINE
  5
20B
330
6F
100
AcDbEntity
  8
DETAIL
  6
Continuous
 62
     5
100
AcDbLine
 10
314.5
 20
342.0
 30
0.0
 11
336.5
 21
342.0
 31
0.0
  0
LINE
  5
20C
330
6F
100
AcDbEntity
  8
DETAIL
  6
Continuous
 62
     5
100
AcDbLine
 10
335.5
 20
337.3816230000003
 30
0.0
 11
315.5
 21
337.3816230000003
 31
0.0
  0
LINE
  5
20D
330
6F
100
AcDbEntity
  8
DETAIL
  6
Continuous
 62
     5
100
AcDbLine
 10
-307.5
 20
337.3816230000003
 30
0.0
 11
-327.5
 21
337.3816230000003
 31
0.0
  0
LINE
  5
20E
330
6F
100
AcDbEntity
  8
DETAIL
  6
Continuous
 62
     5
100
AcDbLine
 10
360.0
 20
356.2383030000001
 30
0.0
 11
365.9650949999996
 21
356.2482840000003
 31
0.0
  0
LINE
  5
20F
330
6F
100
AcDbEntity
  8
DETAIL
  6
Continuous
 62
     5
100
AcDbLine
 10
-12.93431500000042
 20
401.7656850000003
 30
0.0
 11
-13.5
 21
401.1999999999998
 31
0.0
  0
LINE
  5
210
330
6F
100
AcDbEntity
  8
DETAIL
  6
Continuous
 62
     5
100
AcDbLine
 10
-12.5100510000002
 20
401.341421
 30
0.0
 11
-12.65147200000046
 21
401.1999999999998
 31
0.0
  0
LINE
  5
211
330
6F
100
AcDbEntity
  8
DETAIL
  6
Continuous
 62
     5
100
AcDbLine
 10
68.09999999999945
 20
142.8000000000002
 30
0.0
 11
68.09999999999945
 21
151.1999999999998
 31
0.0
  0
LINE
  5
212
330
6F
100
AcDbEntity
  8
DETAIL
  6
Continuous
 62
     5
100
AcDbLine
 10
67.5
 20
142.8000000000002
 30
0.0
 11
67.5
 21
151.1999999999998
 31
0.0
  0
LINE
  5
213
330
6F
100
AcDbEntity
  8
DETAIL
  6
Continuous
 62
     5
100
AcDbLine
 10
63.84999999999945
 20
147.6000000000003
 30
0.0
 11
63.84999999999945
 21
142.6000000000003
 31
0.0
  0
LINE
  5
214
330
6F
100
AcDbEntity
  8
DETAIL
  6
Continuous
 62
     5
100
AcDbLine
 10
60.67499999999927
 20
147.6000000000003
 30
0.0
 11
60.67499999999927
 21
142.6000000000003
 31
0.0
  0
LINE
  5
215
330
6F
100
AcDbEntity
  8
DETAIL
  6
Continuous
 62
     5
100
AcDbLine
 10
54.32499999999982
 20
147.6000000000003
 30
0.0
 11
54.32499999999982
 21
142.6000000000003
 31
0.0
  0
LINE
  5
216
330
6F
100
AcDbEntity
  8
DETAIL
  6
Continuous
 62
     5
100
AcDbLine
 10
51.14999999999962
 20
147.6000000000003
 30
0.0
 11
51.14999999999962
 21
142.6000000000003
 31
0.0
  0
LINE
  5
217
330
6F
100
AcDbEntity
  8
DETAIL
  6
Continuous
 62
     5
100
AcDbLine
 10
47.5
 20
151.1999999999998
 30
0.0
 11
47.5
 21
142.8000000000002
 31
0.0
  0
LINE
  5
218
330
6F
100
AcDbEntity
  8
DETAIL
  6
Continuous
 62
     5
100
AcDbLine
 10
46.89999999999962
 20
151.1999999999998
 30
0.0
 11
46.89999999999962
 21
142.8000000000002
 31
0.0
  0
LINE
  5
219
330
6F
100
AcDbEntity
  8
DETAIL
  6
Continuous
 62
     5
100
AcDbLine
 10
37.5
 20
151.3999999999996
 30
0.0
 11
37.5
 21
152.0
 31
0.0
  0
LINE
  5
21A
330
6F
100
AcDbEntity
  8
DETAIL
  6
Continuous
 62
     5
100
AcDbLine
 10
347.5
 20
327.0
 30
0.0
 11
303.5
 21
327.0
 31
0.0
  0
LINE
  5
21B
330
6F
100
AcDbEntity
  8
DETAIL
  6
Continuous
 62
     5
100
AcDbLine
 10
-295.5
 20
327.0
 30
0.0
 11
-339.5
 21
327.0
 31
0.0
  0
LINE
  5
21C
330
6F
100
AcDbEntity
  8
DETAIL
  6
Continuous
 62
     5
100
AcDbLine
 10
-11.70000000000072
 20
393.0
 30
0.0
 11
-11.70000000000072
 21
402.0
 31
0.0
  0
LINE
  5
21D
330
6F
100
AcDbEntity
  8
DETAIL
  6
Continuous
 62
     5
100
AcDbLine
 10
-12.03725800000028
 20
401.1999999999998
 30
0.0
 11
-12.03725800000028
 21
401.3999999999996
 31
0.0
  0
LINE
  5
21E
330
6F
100
AcDbEntity
  8
DETAIL
  6
Continuous
 62
     5
100
AcDbLine
 10
-72.16862899999978
 20
162.0
 30
0.0
 11
-72.16862899999978
 21
152.0
 31
0.0
  0
LINE
  5
21F
330
6F
100
AcDbEntity
  8
DETAIL
  6
Continuous
 62
     5
100
AcDbLine
 10
-73.7000000000007
 20
393.0
 30
0.0
 11
-73.7000000000007
 21
402.0
 31
0.0
  0
LINE
  5
220
330
6F
100
AcDbEntity
  8
DETAIL
  6
Continuous
 62
     5
100
AcDbLine
 10
-78.5
 20
154.3999999999996
 30
0.0
 11
-78.5
 21
133.8999999999996
 31
0.0
  0
LINE
  5
221
330
6F
100
AcDbEntity
  8
DETAIL
  6
Continuous
 62
     5
100
AcDbLine
 10
-79.3000000000002
 20
154.3999999999996
 30
0.0
 11
-79.3000000000002
 21
133.8999999999996
 31
0.0
  0
LINE
  5
222
330
6F
100
AcDbEntity
  8
DETAIL
  6
Continuous
 62
     5
100
AcDbLine
 10
-79.5
 20
133.8999999999996
 30
0.0
 11
-79.5
 21
154.3999999999996
 31
0.0
  0
LINE
  5
223
330
6F
100
AcDbEntity
  8
DETAIL
  6
Continuous
 62
     5
100
AcDbLine
 10
-71.90000000000054
 20
401.1999999999998
 30
0.0
 11
-72.46568500000101
 21
401.7656850000003
 31
0.0
  0
LINE
  5
224
330
6F
100
AcDbEntity
  8
DETAIL
  6
Continuous
 62
     5
100
AcDbLine
 10
-72.74852800000006
 20
401.1999999999998
 30
0.0
 11
-72.88994900000034
 21
401.341421
 31
0.0
  0
LINE
  5
225
330
6F
100
AcDbEntity
  8
DETAIL
  6
Continuous
 62
     5
100
AcDbLine
 10
365.9650949999996
 20
215.7517280000002
 30
0.0
 11
360.000376
 21
215.7632819999999
 31
0.0
  0
LINE
  5
226
330
6F
100
AcDbEntity
  8
DETAIL
  6
Continuous
 62
     5
100
AcDbLine
 10
364.134196
 20
195.2211230000003
 30
0.0
 11
365.9650949999996
 21
195.2211230000003
 31
0.0
  0
LINE
  5
227
330
6F
100
AcDbEntity
  8
DETAIL
  6
Continuous
 62
     5
100
AcDbLine
 10
193.5656849999992
 20
401.7656850000003
 30
0.0
 11
193.0
 21
401.1999999999998
 31
0.0
  0
LINE
  5
228
330
6F
100
AcDbEntity
  8
DETAIL
  6
Continuous
 62
     5
100
AcDbLine
 10
193.9899489999998
 20
401.341421
 30
0.0
 11
193.8485279999995
 21
401.1999999999998
 31
0.0
  0
LINE
  5
229
330
6F
100
AcDbEntity
  8
DETAIL
  6
Continuous
 62
     5
100
AcDbLine
 10
-85.25
 20
130.0
 30
0.0
 11
-85.25
 21
132.8000000000002
 31
0.0
  0
LINE
  5
22A
330
6F
100
AcDbEntity
  8
DETAIL
  6
Continuous
 62
     5
100
AcDbLine
 10
-91.5
 20
158.6000000000003
 30
0.0
 11
-91.5
 21
154.6000000000003
 31
0.0
  0
LINE
  5
22B
330
6F
100
AcDbEntity
  8
DETAIL
  6
Continuous
 62
     5
100
AcDbLine
 10
-93.49999999999999
 20
133.8999999999996
 30
0.0
 11
-93.49999999999999
 21
132.8999999999996
 31
0.0
  0
LINE
  5
22C
330
6F
100
AcDbEntity
  8
DETAIL
  6
Continuous
 62
     5
100
AcDbLine
 10
-95.75000000000001
 20
133.8999999999996
 30
0.0
 11
-95.75000000000001
 21
132.8000000000002
 31
0.0
  0
LINE
  5
22D
330
6F
100
AcDbEntity
  8
DETAIL
  6
Continuous
 62
     5
100
AcDbLine
 10
-104.5
 20
151.3999999999996
 30
0.0
 11
-104.5
 21
136.8999999999996
 31
0.0
  0
LINE
  5
22E
330
6F
100
AcDbEntity
  8
DETAIL
  6
Continuous
 62
     5
100
AcDbLine
 10
-350.5000000000009
 20
173.8999999999996
 30
0.0
 11
-350.1000000000004
 21
173.8999999999996
 31
0.0
  0
LINE
  5
22F
330
6F
100
AcDbEntity
  8
DETAIL
  6
Continuous
 62
     5
100
AcDbLine
 10
-343.1000000000004
 20
169.3999999999996
 30
0.0
 11
-350.1000000000004
 21
169.3999999999996
 31
0.0
  0
LINE
  5
230
330
6F
100
AcDbEntity
  8
DETAIL
  6
Continuous
 62
     5
100
AcDbLine
 10
350.8999999999996
 20
165.0
 30
0.0
 11
351.5
 21
165.0
 31
0.0
  0
LINE
  5
231
330
6F
100
AcDbEntity
  8
DETAIL
  6
Continuous
 62
     5
100
AcDbLine
 10
350.5
 20
165.0
 30
0.0
 11
-5.5
 21
165.0
 31
0.0
  0
LINE
  5
232
330
6F
100
AcDbEntity
  8
DETAIL
  6
Continuous
 62
     5
100
AcDbLine
 10
-5.5
 20
165.0
 30
0.0
 11
-69.16862899999978
 21
165.0
 31
0.0
  0
LINE
  5
233
330
6F
100
AcDbEntity
  8
DETAIL
  6
Continuous
 62
     5
100
AcDbLine
 10
-94.50000000000001
 20
161.6000000000003
 30
0.0
 11
-307.0
 21
161.6000000000003
 31
0.0
  0
LINE
  5
234
330
6F
100
AcDbEntity
  8
DETAIL
  6
Continuous
 62
     5
100
AcDbLine
 10
-72.16862899999978
 20
157.0
 30
0.0
 11
-91.5
 21
157.0
 31
0.0
  0
LINE
  5
235
330
6F
100
AcDbEntity
  8
DETAIL
  6
Continuous
 62
     5
100
AcDbLine
 10
-310.0
 20
157.0
 30
0.0
 11
-330.5
 21
157.0
 31
0.0
  0
LINE
  5
236
330
6F
100
AcDbEntity
  8
DETAIL
  6
Continuous
 62
     5
100
AcDbLine
 10
-330.5
 20
157.0
 30
0.0
 11
-348.5
 21
157.0
 31
0.0
  0
LINE
  5
237
330
6F
100
AcDbEntity
  8
DETAIL
  6
Continuous
 62
     5
100
AcDbLine
 10
-330.5
 20
156.8000000000002
 30
0.0
 11
-348.5
 21
156.8000000000002
 31
0.0
  0
LINE
  5
238
330
6F
100
AcDbEntity
  8
DETAIL
  6
Continuous
 62
     5
100
AcDbLine
 10
-310.0
 20
156.0
 30
0.0
 11
-348.5
 21
156.0
 31
0.0
  0
LINE
  5
239
330
6F
100
AcDbEntity
  8
DETAIL
  6
Continuous
 62
     5
100
AcDbLine
 10
-348.5
 20
155.3999999999996
 30
0.0
 11
-310.0
 21
155.3999999999996
 31
0.0
  0
LINE
  5
23A
330
6F
100
AcDbEntity
  8
DETAIL
  6
Continuous
 62
     5
100
AcDbLine
 10
-91.5
 20
155.3999999999996
 30
0.0
 11
-79.5
 21
155.3999999999996
 31
0.0
  0
LINE
  5
23B
330
6F
100
AcDbEntity
  8
DETAIL
  6
Continuous
 62
     5
100
AcDbLine
 10
-72.16862899999978
 20
152.0
 30
0.0
 11
350.6999999999999
 21
152.0
 31
0.0
  0
LINE
  5
23C
330
6F
100
AcDbEntity
  8
DETAIL
  6
Continuous
 62
     5
100
AcDbLine
 10
-322.0
 20
154.6000000000003
 30
0.0
 11
-79.5
 21
154.6000000000003
 31
0.0
  0
LINE
  5
23D
330
6F
100
AcDbEntity
  8
DETAIL
  6
Continuous
 62
     5
100
AcDbLine
 10
37.5
 20
151.3999999999996
 30
0.0
 11
46.69999999999982
 21
151.3999999999996
 31
0.0
  0
LINE
  5
23E
330
6F
100
AcDbEntity
  8
DETAIL
  6
Continuous
 62
     5
100
AcDbLine
 10
68.29999999999927
 20
151.3999999999996
 30
0.0
 11
77.5
 21
151.3999999999996
 31
0.0
  0
LINE
  5
23F
330
6F
100
AcDbEntity
  8
DETAIL
  6
Continuous
 62
     5
100
AcDbLine
 10
-79.5
 20
154.3999999999996
 30
0.0
 11
-101.5
 21
154.3999999999996
 31
0.0
  0
LINE
  5
240
330
6F
100
AcDbEntity
  8
DETAIL
  6
Continuous
 62
     5
100
AcDbLine
 10
-300.0
 20
154.3999999999996
 30
0.0
 11
-322.0
 21
154.3999999999996
 31
0.0
  0
LINE
  5
241
330
6F
100
AcDbEntity
  8
DETAIL
  6
Continuous
 62
     5
100
AcDbLine
 10
51.14999999999962
 20
147.6000000000003
 30
0.0
 11
63.84999999999945
 21
147.6000000000003
 31
0.0
  0
LINE
  5
242
330
6F
100
AcDbEntity
  8
DETAIL
  6
Continuous
 62
     5
100
AcDbLine
 10
47.6999999999998
 20
142.6000000000003
 30
0.0
 11
67.29999999999927
 21
142.6000000000003
 31
0.0
  0
LINE
  5
243
330
6F
100
AcDbEntity
  8
DETAIL
  6
Continuous
 62
     5
100
AcDbLine
 10
47.6999999999998
 20
142.0
 30
0.0
 11
67.29999999999927
 21
142.0
 31
0.0
  0
LINE
  5
244
330
6F
100
AcDbEntity
  8
DETAIL
  6
Continuous
 62
     5
100
AcDbLine
 10
-323.0
 20
133.8999999999996
 30
0.0
 11
-322.2000000000008
 21
133.8999999999996
 31
0.0
  0
LINE
  5
245
330
6F
100
AcDbEntity
  8
DETAIL
  6
Continuous
 62
     5
100
AcDbLine
 10
-101.5
 20
133.8999999999996
 30
0.0
 11
-79.5
 21
133.8999999999996
 31
0.0
  0
LINE
  5
246
330
6F
100
AcDbEntity
  8
DETAIL
  6
Continuous
 62
     5
100
AcDbLine
 10
-78.5
 20
133.8999999999996
 30
0.0
 11
-79.3000000000002
 21
133.8999999999996
 31
0.0
  0
LINE
  5
247
330
6F
100
AcDbEntity
  8
DETAIL
  6
Continuous
 62
     5
100
AcDbLine
 10
-300.0
 20
133.8999999999996
 30
0.0
 11
-322.0
 21
133.8999999999996
 31
0.0
  0
LINE
  5
248
330
6F
100
AcDbEntity
  8
DETAIL
  6
Continuous
 62
     5
100
AcDbLine
 10
-321.0
 20
133.6999999999998
 30
0.0
 11
-308.0
 21
133.6999999999998
 31
0.0
  0
LINE
  5
249
330
6F
100
AcDbEntity
  8
DETAIL
  6
Continuous
 62
     5
100
AcDbLine
 10
-80.5
 20
133.6999999999998
 30
0.0
 11
-93.49999999999999
 21
133.6999999999998
 31
0.0
  0
LINE
  5
24A
330
6F
100
AcDbEntity
  8
DETAIL
  6
Continuous
 62
     5
100
AcDbLine
 10
-321.0
 20
132.8999999999996
 30
0.0
 11
-308.0
 21
132.8999999999996
 31
0.0
  0
LINE
  5
24B
330
6F
100
AcDbEntity
  8
DETAIL
  6
Continuous
 62
     5
100
AcDbLine
 10
-80.5
 20
132.8999999999996
 30
0.0
 11
-93.49999999999999
 21
132.8999999999996
 31
0.0
  0
LINE
  5
24C
330
6F
100
AcDbEntity
  8
DETAIL
  6
Continuous
 62
     5
100
AcDbLine
 10
-316.25
 20
132.8000000000002
 30
0.0
 11
-305.75
 21
132.8000000000002
 31
0.0
  0
LINE
  5
24D
330
6F
100
AcDbEntity
  8
DETAIL
  6
Continuous
 62
     5
100
AcDbLine
 10
-95.75000000000001
 20
132.8000000000002
 30
0.0
 11
-85.25
 21
132.8000000000002
 31
0.0
  0
LINE
  5
24E
330
6F
100
AcDbEntity
  8
DETAIL
  6
Continuous
 62
     5
100
AcDbLine
 10
-316.25
 20
130.0
 30
0.0
 11
-85.25
 21
130.0
 31
0.0
  0
LINE
  5
24F
330
6F
100
AcDbEntity
  8
DETAIL
  6
Continuous
 62
     5
100
AcDbLine
 10
397.5294489999996
 20
186.0
 30
0.0
 11
365.9650949999996
 21
185.2226460000002
 31
0.0
  0
LINE
  5
250
330
6F
100
AcDbEntity
  8
DETAIL
  6
Continuous
 62
     5
100
AcDbLine
 10
357.5
 20
171.0
 30
0.0
 11
359.508726
 21
171.0350619999999
 31
0.0
  0
LINE
  5
251
330
6F
100
AcDbEntity
  8
DETAIL
  6
Continuous
 62
     5
100
AcDbLine
 10
397.5294489999996
 20
186.0
 30
0.0
 11
432.0357489999996
 21
188.4755590000004
 31
0.0
  0
LINE
  5
252
330
6F
100
AcDbEntity
  8
DETAIL
  6
Continuous
 62
     5
100
AcDbLine
 10
-277.5
 20
393.0
 30
0.0
 11
-277.5
 21
402.0
 31
0.0
  0
LINE
  5
253
330
6F
100
AcDbEntity
  8
DETAIL
  6
Continuous
 62
     5
100
AcDbLine
 10
-292.5
 20
330.0
 30
0.0
 11
-292.5
 21
378.0
 31
0.0
  0
LINE
  5
254
330
6F
100
AcDbEntity
  8
DETAIL
  6
Continuous
 62
     5
100
AcDbLine
 10
-292.5
 20
387.0
 30
0.0
 11
-292.5
 21
378.0
 31
0.0
  0
LINE
  5
255
330
6F
100
AcDbEntity
  8
DETAIL
  6
Continuous
 62
     5
100
AcDbLine
 10
-297.0
 20
136.8999999999996
 30
0.0
 11
-297.0
 21
151.3999999999996
 31
0.0
  0
LINE
  5
256
330
6F
100
AcDbEntity
  8
DETAIL
  6
Continuous
 62
     5
100
AcDbLine
 10
-305.75
 20
133.8999999999996
 30
0.0
 11
-305.75
 21
132.8000000000002
 31
0.0
  0
LINE
  5
257
330
6F
100
AcDbEntity
  8
DETAIL
  6
Continuous
 62
     5
100
AcDbLine
 10
-343.1000000000004
 20
327.8999999999996
 30
0.0
 11
-340.1000000000004
 21
324.8999999999997
 31
0.0
  0
LINE
  5
258
330
6F
100
AcDbEntity
  8
DETAIL
  6
Continuous
 62
     5
100
AcDbLine
 10
-306.5
 20
342.0
 30
0.0
 11
-306.5
 21
334.7750619999997
 31
0.0
  0
LINE
  5
259
330
6F
100
AcDbEntity
  8
DETAIL
  6
Continuous
 62
     5
100
AcDbLine
 10
-307.5
 20
341.992542
 30
0.0
 11
-307.5
 21
337.0
 31
0.0
  0
LINE
  5
25A
330
6F
100
AcDbEntity
  8
DETAIL
  6
Continuous
 62
     5
100
AcDbLine
 10
-308.0
 20
133.8999999999996
 30
0.0
 11
-308.0
 21
132.8999999999996
 31
0.0
  0
LINE
  5
25B
330
6F
100
AcDbEntity
  8
DETAIL
  6
Continuous
 62
     5
100
AcDbLine
 10
-310.0
 20
158.6000000000003
 30
0.0
 11
-310.0
 21
154.6000000000003
 31
0.0
  0
LINE
  5
25C
330
6F
100
AcDbEntity
  8
DETAIL
  6
Continuous
 62
     5
100
AcDbLine
 10
-311.5
 20
387.0
 30
0.0
 11
-311.5
 21
378.0
 31
0.0
  0
LINE
  5
25D
330
6F
100
AcDbEntity
  8
DETAIL
  6
Continuous
 62
     5
100
AcDbLine
 10
-316.25
 20
130.0
 30
0.0
 11
-316.25
 21
132.8000000000002
 31
0.0
  0
LINE
  5
25E
330
6F
100
AcDbEntity
  8
DETAIL
  6
Continuous
 62
     5
100
AcDbLine
 10
-322.0
 20
154.3999999999996
 30
0.0
 11
-322.0
 21
133.8999999999996
 31
0.0
  0
LINE
  5
25F
330
6F
100
AcDbEntity
  8
DETAIL
  6
Continuous
 62
     5
100
AcDbLine
 10
-322.2000000000008
 20
154.3999999999996
 30
0.0
 11
-322.2000000000008
 21
133.8999999999996
 31
0.0
  0
LINE
  5
260
330
6F
100
AcDbEntity
  8
DETAIL
  6
Continuous
 62
     5
100
AcDbLine
 10
-323.0
 20
154.3999999999996
 30
0.0
 11
-323.0
 21
133.8999999999996
 31
0.0
  0
LINE
  5
261
330
6F
100
AcDbEntity
  8
DETAIL
  6
Continuous
 62
     5
100
AcDbLine
 10
-323.5
 20
387.0
 30
0.0
 11
-323.5
 21
378.0
 31
0.0
  0
LINE
  5
262
330
6F
100
AcDbEntity
  8
DETAIL
  6
Continuous
 62
     5
100
AcDbLine
 10
-327.5
 20
337.0
 30
0.0
 11
-327.5
 21
341.992542
 31
0.0
  0
LINE
  5
263
330
6F
100
AcDbEntity
  8
DETAIL
  6
Continuous
 62
     5
100
AcDbLine
 10
-328.5
 20
334.7750619999997
 30
0.0
 11
-328.5
 21
342.0
 31
0.0
  0
LINE
  5
264
330
6F
100
AcDbEntity
  8
DETAIL
  6
Continuous
 62
     5
100
AcDbLine
 10
-329.5
 20
393.0
 30
0.0
 11
-329.5
 21
402.0
 31
0.0
  0
LINE
  5
265
330
6F
100
AcDbEntity
  8
DETAIL
  6
Continuous
 62
     5
100
AcDbLine
 10
-330.5
 20
157.0
 30
0.0
 11
-330.5
 21
156.0
 31
0.0
  0
LINE
  5
266
330
6F
100
AcDbEntity
  8
DETAIL
  6
Continuous
 62
     5
100
AcDbLine
 10
-340.1000000000004
 20
324.8999999999997
 30
0.0
 11
-340.1000000000004
 21
172.3999999999993
 31
0.0
  0
LINE
  5
267
330
6F
100
AcDbEntity
  8
DETAIL
  6
Continuous
 62
     5
100
AcDbLine
 10
-342.5
 20
330.0
 30
0.0
 11
-342.5
 21
378.0
 31
0.0
  0
LINE
  5
268
330
6F
100
AcDbEntity
  8
DETAIL
  6
Continuous
 62
     5
100
AcDbLine
 10
-342.5
 20
387.0
 30
0.0
 11
-342.5
 21
378.0
 31
0.0
  0
LINE
  5
269
330
6F
100
AcDbEntity
  8
DETAIL
  6
Continuous
 62
     5
100
AcDbLine
 10
-343.1000000000004
 20
384.8999999999997
 30
0.0
 11
-343.1000000000004
 21
327.8999999999996
 31
0.0
  0
LINE
  5
26A
330
6F
100
AcDbEntity
  8
DETAIL
  6
Continuous
 62
     5
100
AcDbLine
 10
-347.5
 20
157.0
 30
0.0
 11
-347.5
 21
169.3999999999996
 31
0.0
  0
LINE
  5
26B
330
6F
100
AcDbEntity
  8
DETAIL
  6
Continuous
 62
     5
100
AcDbLine
 10
-347.5
 20
387.8999999999996
 30
0.0
 11
-347.5
 21
390.0
 31
0.0
  0
LINE
  5
26C
330
6F
100
AcDbEntity
  8
DETAIL
  6
Continuous
 62
     5
100
AcDbLine
 10
-348.5
 20
155.3999999999996
 30
0.0
 11
-348.5
 21
156.0
 31
0.0
  0
LINE
  5
26D
330
6F
100
AcDbEntity
  8
DETAIL
  6
Continuous
 62
     5
100
AcDbLine
 10
-348.5
 20
156.0
 30
0.0
 11
-348.5
 21
156.8000000000002
 31
0.0
  0
LINE
  5
26E
330
6F
100
AcDbEntity
  8
DETAIL
  6
Continuous
 62
     5
100
AcDbLine
 10
-348.5
 20
157.0
 30
0.0
 11
-348.5
 21
169.3999999999996
 31
0.0
  0
LINE
  5
26F
330
6F
100
AcDbEntity
  8
DETAIL
  6
Continuous
 62
     5
100
AcDbLine
 10
-348.5
 20
387.8999999999996
 30
0.0
 11
-348.5
 21
390.0
 31
0.0
  0
LINE
  5
270
330
6F
100
AcDbEntity
  8
DETAIL
  6
Continuous
 62
     5
100
AcDbLine
 10
-348.7000000000008
 20
157.0
 30
0.0
 11
-348.7000000000008
 21
169.3999999999996
 31
0.0
  0
LINE
  5
271
330
6F
100
AcDbEntity
  8
DETAIL
  6
Continuous
 62
     5
100
AcDbLine
 10
-348.7000000000008
 20
402.0
 30
0.0
 11
-348.7000000000008
 21
390.0
 31
0.0
  0
LINE
  5
272
330
6F
100
AcDbEntity
  8
DETAIL
  6
Continuous
 62
     5
100
AcDbLine
 10
-348.9000000000006
 20
401.1999999999998
 30
0.0
 11
-348.9000000000006
 21
387.8999999999996
 31
0.0
  0
LINE
  5
273
330
6F
100
AcDbEntity
  8
DETAIL
  6
Continuous
 62
     5
100
AcDbLine
 10
-349.3000000000001
 20
169.3999999999996
 30
0.0
 11
-349.3000000000001
 21
387.8999999999996
 31
0.0
  0
LINE
  5
274
330
6F
100
AcDbEntity
  8
DETAIL
  6
Continuous
 62
     5
100
AcDbLine
 10
-349.5
 20
157.0
 30
0.0
 11
-349.5
 21
169.3999999999996
 31
0.0
  0
LINE
  5
275
330
6F
100
AcDbEntity
  8
DETAIL
  6
Continuous
 62
     5
100
AcDbLine
 10
-349.5
 20
401.1999999999998
 30
0.0
 11
-349.5
 21
387.8999999999996
 31
0.0
  0
LINE
  5
276
330
6F
100
AcDbEntity
  8
DETAIL
  6
Continuous
 62
     5
100
AcDbLine
 10
-350.1000000000004
 20
157.8999999999996
 30
0.0
 11
-350.1000000000004
 21
400.3999999999996
 31
0.0
  0
LINE
  5
277
330
6F
100
AcDbEntity
  8
DETAIL
  6
Continuous
 62
     5
100
AcDbLine
 10
-350.5000000000009
 20
157.8999999999996
 30
0.0
 11
-350.5000000000009
 21
173.8999999999996
 31
0.0
  0
LINE
  5
278
330
6F
100
AcDbEntity
  8
DETAIL
  6
Continuous
 62
     5
100
AcDbLine
 10
-350.5000000000009
 20
400.3999999999996
 30
0.0
 11
-350.5000000000009
 21
385.3999999999997
 31
0.0
  0
LINE
  5
279
330
6F
100
AcDbEntity
  8
DETAIL
  6
Continuous
 62
     5
100
AcDbLine
 10
-328.4720630000003
 20
401.1999999999998
 30
0.0
 11
-328.4730380000001
 21
401.2279200000001
 31
0.0
  0
LINE
  5
27A
330
6F
100
AcDbEntity
  8
DETAIL
  6
Continuous
 62
     5
100
AcDbLine
 10
364.1075059999994
 20
183.8698440000007
 30
0.0
 11
364.0491869999996
 21
183.7031820000002
 31
0.0
  0
LINE
  5
27B
330
6F
100
AcDbEntity
  8
DETAIL
  6
Continuous
 62
     5
100
AcDbLine
 10
364.0491869999996
 20
183.7031820000002
 30
0.0
 11
364.0
 21
183.5667040000007
 31
0.0
  0
LINE
  5
27C
330
6F
100
AcDbEntity
  8
DETAIL
  6
Continuous
 62
     5
100
AcDbLine
 10
392.2294489999995
 20
376.4229800000002
 30
0.0
 11
392.2294489999995
 21
195.6748320000006
 31
0.0
  0
ARC
  5
27D
330
6F
100
AcDbEntity
  8
DETAIL
  6
Continuous
 62
     5
100
AcDbCircle
 10
432.0
 20
383.0257320000001
 30
0.0
 40
0.5
100
AcDbArc
 50
0.0
 51
85.90000000000264
  0
ARC
  5
27E
330
6F
100
AcDbEntity
  8
DETAIL
  6
Continuous
 62
     5
100
AcDbCircle
 10
365.9999994991586
 20
388.7770565055398
 30
0.0
 40
1.999998497026995
100
AcDbArc
 50
198.8714829470937
 51
269.0000125987
  0
ARC
  5
27F
330
6F
100
AcDbEntity
  8
DETAIL
  6
Continuous
 62
     5
100
AcDbCircle
 10
360.0
 20
389.5692170000002
 30
0.0
 40
4.0
100
AcDbArc
 50
359.9999940000306
 51
83.62063000000018
  0
ARC
  5
280
330
6F
100
AcDbEntity
  8
DETAIL
  6
Continuous
 62
     5
100
AcDbCircle
 10
347.5
 20
378.0
 30
0.0
 40
3.0
100
AcDbArc
 50
270.0
 51
0.0
  0
ARC
  5
281
330
6F
100
AcDbEntity
  8
DETAIL
  6
Continuous
 62
     5
100
AcDbCircle
 10
334.5
 20
378.0
 30
0.0
 40
3.0
100
AcDbArc
 50
180.0
 51
270.0
  0
ARC
  5
282
330
6F
100
AcDbEntity
  8
DETAIL
  6
Continuous
 62
     5
100
AcDbCircle
 10
316.5
 20
378.0
 30
0.0
 40
3.0
100
AcDbArc
 50
270.0
 51
0.0
  0
ARC
  5
283
330
6F
100
AcDbEntity
  8
DETAIL
  6
Continuous
 62
     5
100
AcDbCircle
 10
303.5
 20
378.0
 30
0.0
 40
3.0
100
AcDbArc
 50
180.0
 51
270.0
  0
ARC
  5
284
330
6F
100
AcDbEntity
  8
DETAIL
  6
Continuous
 62
     5
100
AcDbCircle
 10
349.6999999999999
 20
401.1999999999998
 30
0.0
 40
0.8
100
AcDbArc
 50
0.0
 51
90.0
  0
ARC
  5
285
330
6F
100
AcDbEntity
  8
DETAIL
  6
Continuous
 62
     5
100
AcDbCircle
 10
360.5
 20
394.0413530000005
 30
0.0
 40
0.5
100
AcDbArc
 50
180.0
 51
263.6206300000002
  0
ARC
  5
286
330
6F
100
AcDbEntity
  8
DETAIL
  6
Continuous
 62
     5
100
AcDbCircle
 10
359.5
 20
401.4650139999991
 30
0.0
 40
0.5
100
AcDbArc
 50
0.0
 51
88.99999999999822
  0
ARC
  5
287
330
6F
100
AcDbEntity
  8
DETAIL
  6
Continuous
 62
     5
100
AcDbCircle
 10
349.6999999999999
 20
401.1999999999998
 30
0.0
 40
0.2
100
AcDbArc
 50
0.0
 51
90.0
  0
ARC
  5
288
330
6F
100
AcDbEntity
  8
DETAIL
  6
Continuous
 62
     5
100
AcDbCircle
 10
197.7999999999993
 20
393.0
 30
0.0
 40
3.0
100
AcDbArc
 50
180.0
 51
270.0
  0
ARC
  5
289
330
6F
100
AcDbEntity
  8
DETAIL
  6
Continuous
 62
     5
100
AcDbCircle
 10
194.1313709999992
 20
401.1999999999998
 30
0.0
 40
0.8
100
AcDbArc
 50
90.0
 51
135.0
  0
ARC
  5
28A
330
6F
100
AcDbEntity
  8
DETAIL
  6
Continuous
 62
     5
100
AcDbCircle
 10
194.1313709999992
 20
401.1999999999998
 30
0.0
 40
0.2
100
AcDbArc
 50
90.0
 51
135.0
  0
ARC
  5
28B
330
6F
100
AcDbEntity
  8
DETAIL
  6
Continuous
 62
     5
100
AcDbCircle
 10
129.7999999999992
 20
393.0
 30
0.0
 40
3.0
100
AcDbArc
 50
270.0
 51
0.0
  0
ARC
  5
28C
330
6F
100
AcDbEntity
  8
DETAIL
  6
Continuous
 62
     5
100
AcDbCircle
 10
133.468628999999
 20
401.1999999999998
 30
0.0
 40
0.8
100
AcDbArc
 50
45.0
 51
90.0
  0
ARC
  5
28D
330
6F
100
AcDbEntity
  8
DETAIL
  6
Continuous
 62
     5
100
AcDbCircle
 10
133.468628999999
 20
401.1999999999998
 30
0.0
 40
0.2
100
AcDbArc
 50
45.0
 51
90.0
  0
ARC
  5
28E
330
6F
100
AcDbEntity
  8
DETAIL
  6
Continuous
 62
     5
100
AcDbCircle
 10
347.5
 20
330.0
 30
0.0
 40
3.0
100
AcDbArc
 50
270.0
 51
0.0
  0
ARC
  5
28F
330
6F
100
AcDbEntity
  8
DETAIL
  6
Continuous
 62
     5
100
AcDbCircle
 10
303.5
 20
330.0
 30
0.0
 40
3.0
100
AcDbArc
 50
180.0
 51
270.0
  0
ARC
  5
290
330
6F
100
AcDbEntity
  8
DETAIL
  6
Continuous
 62
     5
100
AcDbCircle
 10
-8.700000000000725
 20
393.0
 30
0.0
 40
3.0
100
AcDbArc
 50
180.0
 51
270.0
  0
ARC
  5
291
330
6F
100
AcDbEntity
  8
DETAIL
  6
Continuous
 62
     5
100
AcDbCircle
 10
-12.36862900000051
 20
401.1999999999998
 30
0.0
 40
0.8
100
AcDbArc
 50
90.0
 51
135.0
  0
ARC
  5
292
330
6F
100
AcDbEntity
  8
DETAIL
  6
Continuous
 62
     5
100
AcDbCircle
 10
-12.36862900000051
 20
401.1999999999998
 30
0.0
 40
0.2
100
AcDbArc
 50
90.0
 51
135.0
  0
ARC
  5
293
330
6F
100
AcDbEntity
  8
DETAIL
  6
Continuous
 62
     5
100
AcDbCircle
 10
-76.7000000000007
 20
393.0
 30
0.0
 40
3.0
100
AcDbArc
 50
270.0
 51
0.0
  0
ARC
  5
294
330
6F
100
AcDbEntity
  8
DETAIL
  6
Continuous
 62
     5
100
AcDbCircle
 10
-73.30000000000019
 20
400.3372579999991
 30
0.0
 40
1.0
100
AcDbArc
 50
59.97390399999861
 51
113.614324999991
  0
ARC
  5
295
330
6F
100
AcDbEntity
  8
DETAIL
  6
Continuous
 62
     5
100
AcDbCircle
 10
-73.03137100000093
 20
401.1999999999998
 30
0.0
 40
0.8
100
AcDbArc
 50
45.0
 51
90.0
  0
ARC
  5
296
330
6F
100
AcDbEntity
  8
DETAIL
  6
Continuous
 62
     5
100
AcDbCircle
 10
-73.03137100000093
 20
401.1999999999998
 30
0.0
 40
0.2
100
AcDbArc
 50
45.0
 51
90.0
  0
ARC
  5
297
330
6F
100
AcDbEntity
  8
DETAIL
  6
Continuous
 62
     5
100
AcDbCircle
 10
-346.1000000000004
 20
384.8999999999997
 30
0.0
 40
3.0
100
AcDbArc
 50
0.0
 51
90.0
  0
ARC
  5
298
330
6F
100
AcDbEntity
  8
DETAIL
  6
Continuous
 62
     5
100
AcDbCircle
 10
-274.5
 20
393.0
 30
0.0
 40
3.0
100
AcDbArc
 50
180.0
 51
270.0
  0
ARC
  5
299
330
6F
100
AcDbEntity
  8
DETAIL
  6
Continuous
 62
     5
100
AcDbCircle
 10
-332.5
 20
393.0
 30
0.0
 40
3.0
100
AcDbArc
 50
270.0
 51
0.0
  0
ARC
  5
29A
330
6F
100
AcDbEntity
  8
DETAIL
  6
Continuous
 62
     5
100
AcDbCircle
 10
-329.272551
 20
401.1999999999998
 30
0.0
 40
0.8
100
AcDbArc
 50
2.000000000003951
 51
90.0
  0
ARC
  5
29B
330
6F
100
AcDbEntity
  8
DETAIL
  6
Continuous
 62
     5
100
AcDbCircle
 10
-278.1686289999997
 20
401.1999999999998
 30
0.0
 40
0.8
100
AcDbArc
 50
90.0
 51
135.0
  0
ARC
  5
29C
330
6F
100
AcDbEntity
  8
DETAIL
  6
Continuous
 62
     5
100
AcDbCircle
 10
-348.7000000000008
 20
401.1999999999998
 30
0.0
 40
0.8
100
AcDbArc
 50
90.0
 51
180.0
  0
ARC
  5
29D
330
6F
100
AcDbEntity
  8
DETAIL
  6
Continuous
 62
     5
100
AcDbCircle
 10
-349.9000000000015
 20
400.4000000000005
 30
0.0
 40
0.5999999999994543
100
AcDbArc
 50
48.18968510401775
 51
180.0
  0
ARC
  5
29E
330
6F
100
AcDbEntity
  8
DETAIL
  6
Continuous
 62
     5
100
AcDbCircle
 10
-329.272551
 20
401.1999999999998
 30
0.0
 40
0.2
100
AcDbArc
 50
2.000000000003951
 51
90.0
  0
ARC
  5
29F
330
6F
100
AcDbEntity
  8
DETAIL
  6
Continuous
 62
     5
100
AcDbCircle
 10
-278.1686289999997
 20
401.1999999999998
 30
0.0
 40
0.2
100
AcDbArc
 50
90.0
 51
135.0
  0
ARC
  5
2A0
330
6F
100
AcDbEntity
  8
DETAIL
  6
Continuous
 62
     5
100
AcDbCircle
 10
-348.7000000000008
 20
401.1999999999998
 30
0.0
 40
0.2
100
AcDbArc
 50
90.0
 51
180.0
  0
ARC
  5
2A1
330
6F
100
AcDbEntity
  8
DETAIL
  6
Continuous
 62
     5
100
AcDbCircle
 10
-295.5
 20
378.0
 30
0.0
 40
3.0
100
AcDbArc
 50
270.0
 51
0.0
  0
ARC
  5
2A2
330
6F
100
AcDbEntity
  8
DETAIL
  6
Continuous
 62
     5
100
AcDbCircle
 10
-308.5
 20
378.0
 30
0.0
 40
3.0
100
AcDbArc
 50
180.0
 51
270.0
  0
ARC
  5
2A3
330
6F
100
AcDbEntity
  8
DETAIL
  6
Continuous
 62
     5
100
AcDbCircle
 10
-326.5
 20
378.0
 30
0.0
 40
3.0
100
AcDbArc
 50
270.0
 51
0.0
  0
ARC
  5
2A4
330
6F
100
AcDbEntity
  8
DETAIL
  6
Continuous
 62
     5
100
AcDbCircle
 10
-339.5
 20
378.0
 30
0.0
 40
3.0
100
AcDbArc
 50
180.0
 51
270.0
  0
ARC
  5
2A5
330
6F
100
AcDbEntity
  8
DETAIL
  6
Continuous
 62
     5
100
AcDbCircle
 10
-295.5
 20
330.0
 30
0.0
 40
3.0
100
AcDbArc
 50
270.0
 51
0.0
  0
ARC
  5
2A6
330
6F
100
AcDbEntity
  8
DETAIL
  6
Continuous
 62
     5
100
AcDbCircle
 10
-339.5
 20
330.0
 30
0.0
 40
3.0
100
AcDbArc
 50
180.0
 51
270.0
  0
ARC
  5
2A7
330
6F
100
AcDbEntity
  8
DETAIL
  6
Continuous
 62
     5
100
AcDbCircle
 10
432.0
 20
188.9742800000003
 30
0.0
 40
0.5
100
AcDbArc
 50
274.0999999999974
 51
0.0
  0
ARC
  5
2A8
330
6F
100
AcDbEntity
  8
DETAIL
  6
Continuous
 62
     5
100
AcDbCircle
 10
366.0
 20
183.2229540000007
 30
0.0
 40
2.0
100
AcDbArc
 50
91.00000099999268
 51
161.1297269999668
  0
ARC
  5
2A9
330
6F
100
AcDbEntity
  8
DETAIL
  6
Continuous
 62
     5
100
AcDbCircle
 10
360.0
 20
182.4307950000001
 30
0.0
 40
4.0
100
AcDbArc
 50
276.3793699999998
 51
0.0000029999846689
  0
ARC
  5
2AA
330
6F
100
AcDbEntity
  8
DETAIL
  6
Continuous
 62
     5
100
AcDbCircle
 10
360.5
 20
177.9586589999999
 30
0.0
 40
0.5
100
AcDbArc
 50
96.37936999999979
 51
179.9999990000051
  0
ARC
  5
2AB
330
6F
100
AcDbEntity
  8
DETAIL
  6
Continuous
 62
     5
100
AcDbCircle
 10
349.6999999999999
 20
164.0
 30
0.0
 40
1.0
100
AcDbArc
 50
0.0
 51
90.0
  0
ARC
  5
2AC
330
6F
100
AcDbEntity
  8
DETAIL
  6
Continuous
 62
     5
100
AcDbCircle
 10
350.6999999999999
 20
152.8000000000002
 30
0.0
 40
0.8
100
AcDbArc
 50
270.0
 51
0.0
  0
ARC
  5
2AD
330
6F
100
AcDbEntity
  8
DETAIL
  6
Continuous
 62
     5
100
AcDbCircle
 10
359.5
 20
171.5349860000005
 30
0.0
 40
0.5
100
AcDbArc
 50
271.0000000000018
 51
0.0
  0
ARC
  5
2AE
330
6F
100
AcDbEntity
  8
DETAIL
  6
Continuous
 62
     5
100
AcDbCircle
 10
350.6999999999999
 20
152.8000000000002
 30
0.0
 40
0.2
100
AcDbArc
 50
270.0
 51
0.0
  0
ARC
  5
2AF
330
6F
100
AcDbEntity
  8
DETAIL
  6
Continuous
 62
     5
100
AcDbCircle
 10
47.6999999999998
 20
142.8000000000002
 30
0.0
 40
0.8
100
AcDbArc
 50
180.0
 51
270.0
  0
ARC
  5
2B0
330
6F
100
AcDbEntity
  8
DETAIL
  6
Continuous
 62
     5
100
AcDbCircle
 10
67.29999999999927
 20
142.8000000000002
 30
0.0
 40
0.8
100
AcDbArc
 50
270.0
 51
0.0
  0
ARC
  5
2B1
330
6F
100
AcDbEntity
  8
DETAIL
  6
Continuous
 62
     5
100
AcDbCircle
 10
68.29999999999927
 20
151.1999999999998
 30
0.0
 40
0.8
100
AcDbArc
 50
90.0
 51
180.0
  0
ARC
  5
2B2
330
6F
100
AcDbEntity
  8
DETAIL
  6
Continuous
 62
     5
100
AcDbCircle
 10
46.69999999999982
 20
151.1999999999998
 30
0.0
 40
0.8
100
AcDbArc
 50
0.0
 51
90.0
  0
ARC
  5
2B3
330
6F
100
AcDbEntity
  8
DETAIL
  6
Continuous
 62
     5
100
AcDbCircle
 10
46.69999999999982
 20
151.1999999999998
 30
0.0
 40
0.2
100
AcDbArc
 50
0.0
 51
90.0
  0
ARC
  5
2B4
330
6F
100
AcDbEntity
  8
DETAIL
  6
Continuous
 62
     5
100
AcDbCircle
 10
68.29999999999927
 20
151.1999999999998
 30
0.0
 40
0.2
100
AcDbArc
 50
90.0
 51
180.0
  0
ARC
  5
2B5
330
6F
100
AcDbEntity
  8
DETAIL
  6
Continuous
 62
     5
100
AcDbCircle
 10
67.29999999999927
 20
142.8000000000002
 30
0.0
 40
0.2
100
AcDbArc
 50
270.0
 51
0.0
  0
ARC
  5
2B6
330
6F
100
AcDbEntity
  8
DETAIL
  6
Continuous
 62
     5
100
AcDbCircle
 10
47.6999999999998
 20
142.8000000000002
 30
0.0
 40
0.2
100
AcDbArc
 50
180.0
 51
270.0
  0
ARC
  5
2B7
330
6F
100
AcDbEntity
  8
DETAIL
  6
Continuous
 62
     5
100
AcDbCircle
 10
-94.50000000000001
 20
158.6000000000003
 30
0.0
 40
3.0
100
AcDbArc
 50
0.0
 51
90.0
  0
ARC
  5
2B8
330
6F
100
AcDbEntity
  8
DETAIL
  6
Continuous
 62
     5
100
AcDbCircle
 10
-101.5
 20
151.3999999999996
 30
0.0
 40
3.0
100
AcDbArc
 50
90.0
 51
180.0
  0
ARC
  5
2B9
330
6F
100
AcDbEntity
  8
DETAIL
  6
Continuous
 62
     5
100
AcDbCircle
 10
-101.5
 20
136.8999999999996
 30
0.0
 40
3.0
100
AcDbArc
 50
180.0
 51
270.0
  0
ARC
  5
2BA
330
6F
100
AcDbEntity
  8
DETAIL
  6
Continuous
 62
     5
100
AcDbCircle
 10
-69.16862899999978
 20
162.0
 30
0.0
 40
3.0
100
AcDbArc
 50
90.0
 51
180.0
  0
ARC
  5
2BB
330
6F
100
AcDbEntity
  8
DETAIL
  6
Continuous
 62
     5
100
AcDbCircle
 10
-80.5
 20
133.8999999999996
 30
0.0
 40
1.0
100
AcDbArc
 50
270.0
 51
0.0
  0
ARC
  5
2BC
330
6F
100
AcDbEntity
  8
DETAIL
  6
Continuous
 62
     5
100
AcDbCircle
 10
-79.5
 20
154.3999999999996
 30
0.0
 40
1.0
100
AcDbArc
 50
0.0
 51
90.0
  0
ARC
  5
2BD
330
6F
100
AcDbEntity
  8
DETAIL
  6
Continuous
 62
     5
100
AcDbCircle
 10
-93.49999999999999
 20
133.6999999999998
 30
0.0
 40
0.8
100
AcDbArc
 50
165.4664629999935
 51
270.0
  0
ARC
  5
2BE
330
6F
100
AcDbEntity
  8
DETAIL
  6
Continuous
 62
     5
100
AcDbCircle
 10
-80.5
 20
133.8999999999996
 30
0.0
 40
0.2
100
AcDbArc
 50
270.0
 51
0.0
  0
ARC
  5
2BF
330
6F
100
AcDbEntity
  8
DETAIL
  6
Continuous
 62
     5
100
AcDbCircle
 10
-79.5
 20
154.3999999999996
 30
0.0
 40
0.2
100
AcDbArc
 50
0.0
 51
90.0
  0
ARC
  5
2C0
330
6F
100
AcDbEntity
  8
DETAIL
  6
Continuous
 62
     5
100
AcDbCircle
 10
-343.1000000000004
 20
172.3999999999993
 30
0.0
 40
3.0
100
AcDbArc
 50
270.0
 51
0.0
  0
ARC
  5
2C1
330
6F
100
AcDbEntity
  8
DETAIL
  6
Continuous
 62
     5
100
AcDbCircle
 10
-307.0
 20
158.6000000000003
 30
0.0
 40
3.0
100
AcDbArc
 50
90.0
 51
180.0
  0
ARC
  5
2C2
330
6F
100
AcDbEntity
  8
DETAIL
  6
Continuous
 62
     5
100
AcDbCircle
 10
-300.0
 20
136.8999999999996
 30
0.0
 40
3.0
100
AcDbArc
 50
270.0
 51
0.0
  0
ARC
  5
2C3
330
6F
100
AcDbEntity
  8
DETAIL
  6
Continuous
 62
     5
100
AcDbCircle
 10
-300.0
 20
151.3999999999996
 30
0.0
 40
3.0
100
AcDbArc
 50
0.0
 51
90.0
  0
ARC
  5
2C4
330
6F
100
AcDbEntity
  8
DETAIL
  6
Continuous
 62
     5
100
AcDbCircle
 10
-348.5
 20
157.0
 30
0.0
 40
1.0
100
AcDbArc
 50
180.0
 51
270.0
  0
ARC
  5
2C5
330
6F
100
AcDbEntity
  8
DETAIL
  6
Continuous
 62
     5
100
AcDbCircle
 10
-321.0
 20
133.8999999999996
 30
0.0
 40
1.0
100
AcDbArc
 50
180.0
 51
270.0
  0
ARC
  5
2C6
330
6F
100
AcDbEntity
  8
DETAIL
  6
Continuous
 62
     5
100
AcDbCircle
 10
-322.0
 20
154.3999999999996
 30
0.0
 40
1.0
100
AcDbArc
 50
90.0
 51
180.0
  0
ARC
  5
2C7
330
6F
100
AcDbEntity
  8
DETAIL
  6
Continuous
 62
     5
100
AcDbCircle
 10
-308.0
 20
133.6999999999998
 30
0.0
 40
0.8
100
AcDbArc
 50
270.0
 51
14.53353700000654
  0
ARC
  5
2C8
330
6F
100
AcDbEntity
  8
DETAIL
  6
Continuous
 62
     5
100
AcDbCircle
 10
-349.9000000000015
 20
157.8999999999996
 30
0.0
 40
0.6000000000004845
100
AcDbArc
 50
180.0
 51
311.8103148959452
  0
ARC
  5
2C9
330
6F
100
AcDbEntity
  8
DETAIL
  6
Continuous
 62
     5
100
AcDbCircle
 10
-348.5
 20
157.0
 30
0.0
 40
0.2
100
AcDbArc
 50
180.0
 51
270.0
  0
ARC
  5
2CA
330
6F
100
AcDbEntity
  8
DETAIL
  6
Continuous
 62
     5
100
AcDbCircle
 10
-321.0
 20
133.8999999999996
 30
0.0
 40
0.2
100
AcDbArc
 50
180.0
 51
270.0
  0
ARC
  5
2CB
330
6F
100
AcDbEntity
  8
DETAIL
  6
Continuous
 62
     5
100
AcDbCircle
 10
-322.0
 20
154.3999999999996
 30
0.0
 40
0.2
100
AcDbArc
 50
90.0
 51
180.0
  0
LINE
  5
2CC
330
6F
100
AcDbEntity
  8
DETAIL
  6
Continuous
 62
     5
100
AcDbLine
 10
365.9507349999994
 20
384.2777370000001
 30
0.0
 11
365.9508329999999
 21
384.4390980000008
 31
0.0
  0
LINE
  5
2CD
330
6F
100
AcDbEntity
  8
DETAIL
  6
Continuous
 62
     5
100
AcDbLine
 10
341.5
 20
337.0
 30
0.0
 11
341.5
 21
358.5
 31
0.0
  0
LINE
  5
2CE
330
6F
100
AcDbEntity
  8
DETAIL
  6
Continuous
 62
     5
100
AcDbLine
 10
309.5
 20
358.5
 30
0.0
 11
309.5
 21
337.0
 31
0.0
  0
LINE
  5
2CF
330
6F
100
AcDbEntity
  8
DETAIL
  6
Continuous
 62
     5
100
AcDbLine
 10
334.5
 20
365.5
 30
0.0
 11
316.5
 21
365.5
 31
0.0
  0
LINE
  5
2D0
330
6F
100
AcDbEntity
  8
DETAIL
  6
Continuous
 62
     5
100
AcDbLine
 10
-308.5
 20
365.5
 30
0.0
 11
-326.5
 21
365.5
 31
0.0
  0
LINE
  5
2D1
330
6F
100
AcDbEntity
  8
DETAIL
  6
Continuous
 62
     5
100
AcDbLine
 10
-301.5
 20
337.0
 30
0.0
 11
-301.5
 21
358.5
 31
0.0
  0
LINE
  5
2D2
330
6F
100
AcDbEntity
  8
DETAIL
  6
Continuous
 62
     5
100
AcDbLine
 10
-333.5
 20
358.5
 30
0.0
 11
-333.5
 21
337.0
 31
0.0
  0
ARC
  5
2D3
330
6F
100
AcDbEntity
  8
DETAIL
  6
Continuous
 62
     5
100
AcDbCircle
 10
334.5
 20
358.5
 30
0.0
 40
7.0
100
AcDbArc
 50
0.0
 51
90.0
  0
ARC
  5
2D4
330
6F
100
AcDbEntity
  8
DETAIL
  6
Continuous
 62
     5
100
AcDbCircle
 10
316.5
 20
358.5
 30
0.0
 40
7.0
100
AcDbArc
 50
90.0
 51
180.0
  0
ARC
  5
2D5
330
6F
100
AcDbEntity
  8
DETAIL
  6
Continuous
 62
     5
100
AcDbCircle
 10
338.5
 20
337.0
 30
0.0
 40
3.0
100
AcDbArc
 50
180.0
 51
0.0
  0
ARC
  5
2D6
330
6F
100
AcDbEntity
  8
DETAIL
  6
Continuous
 62
     5
100
AcDbCircle
 10
312.5
 20
337.0
 30
0.0
 40
3.0
100
AcDbArc
 50
180.0
 51
0.0
  0
ARC
  5
2D7
330
6F
100
AcDbEntity
  8
DETAIL
  6
Continuous
 62
     5
100
AcDbCircle
 10
-308.5
 20
358.5
 30
0.0
 40
7.0
100
AcDbArc
 50
0.0
 51
90.0
  0
ARC
  5
2D8
330
6F
100
AcDbEntity
  8
DETAIL
  6
Continuous
 62
     5
100
AcDbCircle
 10
-326.5
 20
358.5
 30
0.0
 40
7.0
100
AcDbArc
 50
90.0
 51
180.0
  0
ARC
  5
2D9
330
6F
100
AcDbEntity
  8
DETAIL
  6
Continuous
 62
     5
100
AcDbCircle
 10
-304.5
 20
337.0
 30
0.0
 40
3.0
100
AcDbArc
 50
180.0
 51
0.0
  0
ARC
  5
2DA
330
6F
100
AcDbEntity
  8
DETAIL
  6
Continuous
 62
     5
100
AcDbCircle
 10
-330.5
 20
337.0
 30
0.0
 40
3.0
100
AcDbArc
 50
180.0
 51
0.0
  0
LINE
  5
2DB
330
6F
100
AcDbEntity
  8
DETAIL
  6
Continuous
 62
     5
100
AcDbLine
 10
-297.3471570000001
 20
152.8000000000002
 30
0.0
 11
-104.1528429999998
 21
152.8000000000002
 31
0.0
  0
LINE
  5
2DC
330
6F
100
AcDbEntity
  8
OUTLINE
  6
Continuous
 62
     3
100
AcDbLine
 10
175.5
 20
-4.00650800000039
 30
0.0
 11
175.5
 21
0.0
 31
0.0
  0
LINE
  5
2DD
330
6F
100
AcDbEntity
  8
OUTLINE
  6
Continuous
 62
     3
100
AcDbLine
 10
143.9699999999993
 20
0.0
 30
0.0
 11
143.9699999999993
 21
47.0
 31
0.0
  0
LINE
  5
2DE
330
6F
100
AcDbEntity
  8
OUTLINE
  6
Continuous
 62
     3
100
AcDbLine
 10
-393.8000000000002
 20
-8.0
 30
0.0
 11
144.7999999999993
 21
-8.0
 31
0.0
  0
ARC
  5
2DF
330
6F
100
AcDbEntity
  8
OUTLINE
  6
Continuous
 62
     3
100
AcDbCircle
 10
144.7999999999993
 20
112.0
 30
0.0
 40
120.0
100
AcDbArc
 50
270.0
 51
284.8229700000516
  0
ARC
  5
2E0
330
6F
100
AcDbEntity
  8
OUTLINE
  6
Continuous
 62
     3
100
AcDbCircle
 10
-393.8000000000002
 20
112.0
 30
0.0
 40
120.0
100
AcDbArc
 50
255.1770299999484
 51
270.0
  0
LINE
  5
2E1
330
6F
100
AcDbEntity
  8
OUTLINE
  6
Continuous
 62
     3
100
AcDbLine
 10
175.5
 20
0.0
 30
0.0
 11
-424.5
 21
0.0
 31
0.0
  0
LINE
  5
2E2
330
6F
100
AcDbEntity
  8
OUTLINE
  6
Continuous
 62
     3
100
AcDbLine
 10
-424.5
 20
-4.00650800000039
 30
0.0
 11
-424.5
 21
0.0
 31
0.0
  0
LINE
  5
2E3
330
6F
100
AcDbEntity
  8
OUTLINE
  6
Continuous
 62
     3
100
AcDbLine
 10
-392.9700000000003
 20
0.0
 30
0.0
 11
-392.9700000000003
 21
47.0
 31
0.0
  0
LINE
  5
2E4
330
6F
100
AcDbEntity
  8
OUTLINE
  6
Continuous
 62
     3
100
AcDbLine
 10
143.9699999999993
 20
47.0
 30
0.0
 11
-392.9700000000003
 21
47.0
 31
0.0
  0
ARC
  5
2E5
330
6F
100
AcDbEntity
  8
OUTLINE
  6
Continuous
 62
     3
100
AcDbCircle
 10
-349.8999999999997
 20
400.3999999999996
 30
0.0
 40
0.6000000000002908
100
AcDbArc
 50
48.18968506176156
 51
180.0
  0
ARC
  5
2E6
330
6F
100
AcDbEntity
  8
OUTLINE
  6
Continuous
 62
     3
100
AcDbCircle
 10
-348.6999999999999
 20
401.1999999999998
 30
0.0
 40
0.8
100
AcDbArc
 50
90.0
 51
180.0
  0
ARC
  5
2E7
330
6F
100
AcDbEntity
  8
OUTLINE
  6
Continuous
 62
     3
100
AcDbCircle
 10
-278.1686289999997
 20
401.1999999999998
 30
0.0
 40
0.8
100
AcDbArc
 50
90.0
 51
135.0
  0
ARC
  5
2E8
330
6F
100
AcDbEntity
  8
OUTLINE
  6
Continuous
 62
     3
100
AcDbCircle
 10
-329.272551
 20
401.1999999999998
 30
0.0
 40
0.8
100
AcDbArc
 50
0.0
 51
90.0
  0
ARC
  5
2E9
330
6F
100
AcDbEntity
  8
OUTLINE
  6
Continuous
 62
     3
100
AcDbCircle
 10
-73.03137100000004
 20
401.1999999999998
 30
0.0
 40
0.8
100
AcDbArc
 50
45.0
 51
90.0
  0
ARC
  5
2EA
330
6F
100
AcDbEntity
  8
OUTLINE
  6
Continuous
 62
     3
100
AcDbCircle
 10
-12.3686289999996
 20
401.1999999999998
 30
0.0
 40
0.8
100
AcDbArc
 50
90.0
 51
135.0
  0
ARC
  5
2EB
330
6F
100
AcDbEntity
  8
OUTLINE
  6
Continuous
 62
     3
100
AcDbCircle
 10
194.1313710000004
 20
401.1999999999998
 30
0.0
 40
0.8
100
AcDbArc
 50
90.0
 51
135.0
  0
ARC
  5
2EC
330
6F
100
AcDbEntity
  8
OUTLINE
  6
Continuous
 62
     3
100
AcDbCircle
 10
133.4686289999999
 20
401.1999999999998
 30
0.0
 40
0.8
100
AcDbArc
 50
45.0
 51
90.0
  0
ARC
  5
2ED
330
6F
100
AcDbEntity
  8
OUTLINE
  6
Continuous
 62
     3
100
AcDbCircle
 10
349.6999999999999
 20
401.1999999999998
 30
0.0
 40
0.8
100
AcDbArc
 50
0.0
 51
90.0
  0
ARC
  5
2EE
330
6F
100
AcDbEntity
  8
OUTLINE
  6
Continuous
 62
     3
100
AcDbCircle
 10
-349.8999999999997
 20
157.8999999999986
 30
0.0
 40
0.6000000000001366
100
AcDbArc
 50
179.9999999998957
 51
311.8103148957247
  0
ARC
  5
2EF
330
6F
100
AcDbEntity
  8
OUTLINE
  6
Continuous
 62
     3
100
AcDbCircle
 10
-322.0
 20
154.3999999999996
 30
0.0
 40
1.0
100
AcDbArc
 50
90.0
 51
180.0
  0
ARC
  5
2F0
330
6F
100
AcDbEntity
  8
OUTLINE
  6
Continuous
 62
     3
100
AcDbCircle
 10
-321.0
 20
133.8999999999996
 30
0.0
 40
1.0
100
AcDbArc
 50
180.0
 51
270.0
  0
ARC
  5
2F1
330
6F
100
AcDbEntity
  8
OUTLINE
  6
Continuous
 62
     3
100
AcDbCircle
 10
-348.5
 20
157.0
 30
0.0
 40
1.0
100
AcDbArc
 50
180.0
 51
270.0
  0
ARC
  5
2F2
330
6F
100
AcDbEntity
  8
OUTLINE
  6
Continuous
 62
     3
100
AcDbCircle
 10
-79.5
 20
154.3999999999996
 30
0.0
 40
1.0
100
AcDbArc
 50
0.0
 51
90.0
  0
ARC
  5
2F3
330
6F
100
AcDbEntity
  8
OUTLINE
  6
Continuous
 62
     3
100
AcDbCircle
 10
-80.5
 20
133.8999999999996
 30
0.0
 40
1.0
100
AcDbArc
 50
270.0
 51
0.0
  0
ARC
  5
2F4
330
6F
100
AcDbEntity
  8
OUTLINE
  6
Continuous
 62
     3
100
AcDbCircle
 10
432.0
 20
188.9742800000003
 30
0.0
 40
0.5
100
AcDbArc
 50
274.0999999999974
 51
0.0
  0
LINE
  5
2F5
330
6F
100
AcDbEntity
  8
OUTLINE
  6
Continuous
 62
     3
100
AcDbLine
 10
-350.5
 20
400.3999999999996
 30
0.0
 11
-350.5
 21
385.3999999999997
 31
0.0
  0
LINE
  5
2F6
330
6F
100
AcDbEntity
  8
OUTLINE
  6
Continuous
 62
     3
100
AcDbLine
 10
-350.5
 20
157.8999999999996
 30
0.0
 11
-350.5
 21
173.8999999999996
 31
0.0
  0
LINE
  5
2F7
330
6F
100
AcDbEntity
  8
OUTLINE
  6
Continuous
 62
     3
100
AcDbLine
 10
-350.1000000000004
 20
173.8999999999996
 30
0.0
 11
-350.1000000000004
 21
385.3999999999997
 31
0.0
  0
LINE
  5
2F8
330
6F
100
AcDbEntity
  8
OUTLINE
  6
Continuous
 62
     3
100
AcDbLine
 10
-349.5
 20
169.3999999999996
 30
0.0
 11
-349.5
 21
157.0
 31
0.0
  0
LINE
  5
2F9
330
6F
100
AcDbEntity
  8
OUTLINE
  6
Continuous
 62
     3
100
AcDbLine
 10
-349.5
 20
401.1999999999998
 30
0.0
 11
-349.5
 21
400.8472135948337
 31
0.0
  0
LINE
  5
2FA
330
6F
100
AcDbEntity
  8
OUTLINE
  6
Continuous
 62
     3
100
AcDbLine
 10
-348.5
 20
155.3999999999996
 30
0.0
 11
-348.5
 21
156.0
 31
0.0
  0
LINE
  5
2FB
330
6F
100
AcDbEntity
  8
OUTLINE
  6
Continuous
 62
     3
100
AcDbLine
 10
-323.0
 20
154.3999999999996
 30
0.0
 11
-323.0
 21
133.8999999999996
 31
0.0
  0
LINE
  5
2FC
330
6F
100
AcDbEntity
  8
OUTLINE
  6
Continuous
 62
     3
100
AcDbLine
 10
-316.25
 20
130.0
 30
0.0
 11
-316.25
 21
132.8999999999996
 31
0.0
  0
LINE
  5
2FD
330
6F
100
AcDbEntity
  8
OUTLINE
  6
Continuous
 62
     3
100
AcDbLine
 10
-328.4720629999993
 20
401.1999999999998
 30
0.0
 11
-328.4730380000001
 21
401.2279200000001
 31
0.0
  0
LINE
  5
2FE
330
6F
100
AcDbEntity
  8
OUTLINE
  6
Continuous
 62
     3
100
AcDbLine
 10
-278.7343149999997
 20
401.7656850000003
 30
0.0
 11
-279.2999999999993
 21
401.1999999999998
 31
0.0
  0
LINE
  5
2FF
330
6F
100
AcDbEntity
  8
OUTLINE
  6
Continuous
 62
     3
100
AcDbLine
 10
-91.5
 20
156.9999999999991
 30
0.0
 11
-91.5
 21
155.3999999999996
 31
0.0
  0
LINE
  5
300
330
6F
100
AcDbEntity
  8
OUTLINE
  6
Continuous
 62
     3
100
AcDbLine
 10
-85.25
 20
130.0
 30
0.0
 11
-85.25
 21
132.8999999999996
 31
0.0
  0
LINE
  5
301
330
6F
100
AcDbEntity
  8
OUTLINE
  6
Continuous
 62
     3
100
AcDbLine
 10
134.6000000000003
 20
401.1999999999998
 30
0.0
 11
134.0343149999998
 21
401.7656850000003
 31
0.0
  0
LINE
  5
302
330
6F
100
AcDbEntity
  8
OUTLINE
  6
Continuous
 62
     3
100
AcDbLine
 10
-12.93431499999951
 20
401.7656850000003
 30
0.0
 11
-13.5
 21
401.1999999999998
 31
0.0
  0
LINE
  5
303
330
6F
100
AcDbEntity
  8
OUTLINE
  6
Continuous
 62
     3
100
AcDbLine
 10
-78.5
 20
154.3999999999996
 30
0.0
 11
-78.5
 21
133.8999999999996
 31
0.0
  0
LINE
  5
304
330
6F
100
AcDbEntity
  8
OUTLINE
  6
Continuous
 62
     3
100
AcDbLine
 10
-72.16862899999978
 20
152.0
 30
0.0
 11
-72.16862899999978
 21
157.0
 31
0.0
  0
LINE
  5
305
330
6F
100
AcDbEntity
  8
OUTLINE
  6
Continuous
 62
     3
100
AcDbLine
 10
-329.272551
 20
402.0
 30
0.0
 11
-348.6999999999999
 21
402.0
 31
0.0
  0
LINE
  5
306
330
6F
100
AcDbEntity
  8
OUTLINE
  6
Continuous
 62
     3
100
AcDbLine
 10
-73.03137100000004
 20
402.0
 30
0.0
 11
-278.1686289999997
 21
402.0
 31
0.0
  0
LINE
  5
307
330
6F
100
AcDbEntity
  8
OUTLINE
  6
Continuous
 62
     3
100
AcDbLine
 10
133.4686289999999
 20
402.0
 30
0.0
 11
-12.3686289999996
 21
402.0
 31
0.0
  0
LINE
  5
308
330
6F
100
AcDbEntity
  8
OUTLINE
  6
Continuous
 62
     3
100
AcDbLine
 10
349.6999999999999
 20
402.0
 30
0.0
 11
194.1313710000004
 21
402.0
 31
0.0
  0
LINE
  5
309
330
6F
100
AcDbEntity
  8
OUTLINE
  6
Continuous
 62
     3
100
AcDbLine
 10
-279.2999999999993
 20
401.1999999999998
 30
0.0
 11
-328.4725509996278
 21
401.1999999999998
 31
0.0
  0
LINE
  5
30A
330
6F
100
AcDbEntity
  8
OUTLINE
  6
Continuous
 62
     3
100
AcDbLine
 10
-13.5
 20
401.1999999999998
 30
0.0
 11
-71.90000000000054
 21
401.1999999999998
 31
0.0
  0
LINE
  5
30B
330
6F
100
AcDbEntity
  8
OUTLINE
  6
Continuous
 62
     3
100
AcDbLine
 10
193.0
 20
401.1999999999998
 30
0.0
 11
134.6000000000003
 21
401.1999999999998
 31
0.0
  0
LINE
  5
30C
330
6F
100
AcDbEntity
  8
OUTLINE
  6
Continuous
 62
     3
100
AcDbLine
 10
-350.5
 20
385.3999999999997
 30
0.0
 11
-350.1000000000004
 21
385.3999999999997
 31
0.0
  0
LINE
  5
30D
330
6F
100
AcDbEntity
  8
OUTLINE
  6
Continuous
 62
     3
100
AcDbLine
 10
-71.90000000000054
 20
401.1999999999998
 30
0.0
 11
-72.46568500000012
 21
401.7656850000003
 31
0.0
  0
LINE
  5
30E
330
6F
100
AcDbEntity
  8
OUTLINE
  6
Continuous
 62
     3
100
AcDbLine
 10
193.5656850000004
 20
401.7656850000003
 30
0.0
 11
193.0
 21
401.1999999999998
 31
0.0
  0
LINE
  5
30F
330
6F
100
AcDbEntity
  8
OUTLINE
  6
Continuous
 62
     3
100
AcDbLine
 10
-350.5
 20
173.8999999999996
 30
0.0
 11
-350.1000000000004
 21
173.8999999999996
 31
0.0
  0
LINE
  5
310
330
6F
100
AcDbEntity
  8
OUTLINE
  6
Continuous
 62
     3
100
AcDbLine
 10
351.5
 20
165.0
 30
0.0
 11
351.5
 21
165.0
 31
0.0
  0
LINE
  5
311
330
6F
100
AcDbEntity
  8
OUTLINE
  6
Continuous
 62
     3
100
AcDbLine
 10
-91.5
 20
156.9999999999991
 30
0.0
 11
-72.16862899999978
 21
157.0
 31
0.0
  0
LINE
  5
312
330
6F
100
AcDbEntity
  8
OUTLINE
  6
Continuous
 62
     3
100
AcDbLine
 10
-322.0
 20
155.3999999999996
 30
0.0
 11
-348.5
 21
155.3999999999996
 31
0.0
  0
LINE
  5
313
330
6F
100
AcDbEntity
  8
OUTLINE
  6
Continuous
 62
     3
100
AcDbLine
 10
-79.5
 20
155.3999999999996
 30
0.0
 11
-91.5
 21
155.3999999999996
 31
0.0
  0
LINE
  5
314
330
6F
100
AcDbEntity
  8
OUTLINE
  6
Continuous
 62
     3
100
AcDbLine
 10
-72.16862899999978
 20
152.0000000000009
 30
0.0
 11
350.6999999999999
 21
152.0
 31
0.0
  0
LINE
  5
315
330
6F
100
AcDbEntity
  8
OUTLINE
  6
Continuous
 62
     3
100
AcDbLine
 10
-78.5
 20
133.8999999999996
 30
0.0
 11
-79.5
 21
133.8999999999987
 31
0.0
  0
LINE
  5
316
330
6F
100
AcDbEntity
  8
OUTLINE
  6
Continuous
 62
     3
100
AcDbLine
 10
-323.0
 20
133.8999999999996
 30
0.0
 11
-322.0
 21
133.8999999999996
 31
0.0
  0
LINE
  5
317
330
6F
100
AcDbEntity
  8
OUTLINE
  6
Continuous
 62
     3
100
AcDbLine
 10
-80.5
 20
132.8999999999996
 30
0.0
 11
-85.25
 21
132.8999999999996
 31
0.0
  0
LINE
  5
318
330
6F
100
AcDbEntity
  8
OUTLINE
  6
Continuous
 62
     3
100
AcDbLine
 10
-321.0
 20
132.8999999999996
 30
0.0
 11
-316.25
 21
132.8999999999996
 31
0.0
  0
LINE
  5
319
330
6F
100
AcDbEntity
  8
OUTLINE
  6
Continuous
 62
     3
100
AcDbLine
 10
-85.25
 20
130.0
 30
0.0
 11
-316.25
 21
130.0
 31
0.0
  0
LINE
  5
31A
330
6F
100
AcDbEntity
  8
OUTLINE
  6
Continuous
 62
     3
100
AcDbLine
 10
350.5
 20
165.0
 30
0.0
 11
350.5
 21
401.1999999999998
 31
0.0
  0
LINE
  5
31B
330
6F
100
AcDbEntity
  8
OUTLINE
  6
Continuous
 62
     3
100
AcDbLine
 10
350.6999999999999
 20
164.0
 30
0.0
 11
350.6999999999999
 21
152.0
 31
0.0
  0
LINE
  5
31C
330
6F
100
AcDbEntity
  8
DETAIL
  6
Continuous
 62
     5
100
AcDbLine
 10
365.9650949999996
 20
356.2482840000003
 30
0.0
 11
364.134196
 21
376.7788890000002
 31
0.0
  0
LINE
  5
31D
330
6F
100
AcDbEntity
  8
DETAIL
  6
Continuous
 62
     5
100
AcDbLine
 10
365.9650949999996
 20
376.7788890000002
 30
0.0
 11
365.9650949999996
 21
386.7773660000001
 31
0.0
  0
LINE
  5
31E
330
6F
100
AcDbEntity
  8
DETAIL
  6
Continuous
 62
     5
100
AcDbLine
 10
364.0
 20
389.5692150000008
 30
0.0
 11
364.0
 21
388.4333130000005
 31
0.0
  0
LINE
  5
31F
330
6F
100
AcDbEntity
  8
DETAIL
  6
Continuous
 62
     5
100
AcDbLine
 10
361.9648495090264
 20
356.2415906530802
 30
0.0
 11
361.9650949999996
 21
215.7617019999997
 31
0.0
  0
LINE
  5
320
330
6F
100
AcDbEntity
  8
DETAIL
  6
Continuous
 62
     5
100
AcDbLine
 10
365.9650821134028
 20
185.2226491620681
 30
0.0
 11
365.9650949999996
 21
195.2211829999995
 31
0.0
  0
LINE
  5
321
330
6F
100
AcDbEntity
  8
DETAIL
  6
Continuous
 62
     5
100
AcDbLine
 10
364.134196
 20
195.2211230000003
 30
0.0
 11
365.9650949999996
 21
215.7517280000002
 31
0.0
  0
LINE
  5
322
330
6F
100
AcDbEntity
  8
DETAIL
  6
Continuous
 62
     5
100
AcDbLine
 10
364.0
 20
190.771168
 30
0.0
 11
364.134196
 21
195.2211230000003
 31
0.0
  0
ARC
  5
323
330
6F
100
AcDbEntity
  8
OUTLINE
  6
Continuous
 62
     3
100
AcDbCircle
 10
349.6999999999999
 20
164.0
 30
0.0
 40
1.0
100
AcDbArc
 50
0.0
 51
90.0
  0
LINE
  5
324
330
6F
100
AcDbEntity
  8
OUTLINE
  6
Continuous
 62
     3
100
AcDbLine
 10
350.5000018678984
 20
165.0000019722329
 30
0.0
 11
349.7000002347895
 21
165.0
 31
0.0
  0
TEXT
  5
325
330
6F
100
AcDbEntity
  8
NOTE
  6
Continuous
 62
     4
100
AcDbText
 10
743.3093242071919
 20
698.1559814398732
 30
0.0
 40
60.0
  1
AH 4-M10
 50
0.0000025044165917
 41
0.7
  7
STANDARD1
100
AcDbText
  0
LINE
  5
326
330
6F
100
AcDbEntity
  8
NOTE
  6
Continuous
 62
     4
100
AcDbLine
 10
716.3776350235638
 20
669.6464474167732
 30
0.0
 11
1071.567451148084
 21
669.6464474167732
 31
0.0
  0
LINE
  5
327
330
6F
100
AcDbEntity
  8
NOTE
  6
Continuous
 62
     4
100
AcDbLine
 10
325.5000000000023
 20
390.0000000000051
 30
0.0
 11
716.3776350235638
 21
669.6464474167732
 31
0.0
  0
LINE
  5
328
330
6F
100
AcDbEntity
  8
NOTE
  6
Continuous
 62
     4
100
AcDbLine
 10
354.2915734982603
 20
401.6474197603599
 30
0.0
 11
325.5000000000018
 21
390.0000000000071
 31
0.0
  0
LINE
  5
329
330
6F
100
AcDbEntity
  8
NOTE
  6
Continuous
 62
     4
100
AcDbLine
 10
325.5000000000018
 20
390.0000000000071
 30
0.0
 11
344.6105242953106
 21
414.4827480634472
 31
0.0
  0
TEXT
  5
32A
330
6F
100
AcDbEntity
  8
NOTE
  6
Continuous
 62
     4
100
AcDbText
 10
818.0005206792809
 20
-251.7765922219719
 30
0.0
 40
60.0
  1
%%C200 吹出円形フランジ
 50
359.9999974955833
 41
0.7
  7
STANDARD1
100
AcDbText
  0
LINE
  5
32B
330
6F
100
AcDbEntity
  8
NOTE
  6
Continuous
 62
     4
100
AcDbLine
 10
1416.304876205382
 20
-279.8968966549745
 30
0.0
 11
803.0502163844111
 21
-279.8968966549745
 31
0.0
  0
LINE
  5
32C
330
6F
100
AcDbEntity
  8
NOTE
  6
Continuous
 62
     4
100
AcDbLine
 10
-317.5
 20
406.2000000000008
 30
0.0
 11
-317.5
 21
367.7999999999991
 31
0.0
  0
LINE
  5
32D
330
6F
100
AcDbEntity
  8
NOTE
  6
Continuous
 62
     4
100
AcDbLine
 10
-336.7000000000008
 20
387.0
 30
0.0
 11
-298.2999999999992
 21
387.0
 31
0.0
  0
LINE
  5
32E
330
6F
100
AcDbEntity
  8
NOTE
  6
Continuous
 62
     4
100
AcDbLine
 10
325.5
 20
409.2000000000008
 30
0.0
 11
325.5
 21
370.7999999999992
 31
0.0
  0
LINE
  5
32F
330
6F
100
AcDbEntity
  8
NOTE
  6
Continuous
 62
     4
100
AcDbLine
 10
306.2999999999992
 20
390.0
 30
0.0
 11
344.7000000000008
 21
390.0
 31
0.0
  0
TEXT
  5
330
330
6F
100
AcDbEntity
  8
NOTE
  6
Continuous
 62
     4
100
AcDbText
 10
-1199.706845449101
 20
631.75989334975
 30
0.0
 40
60.0
  1
%%C100ノックアウト穴
 50
0.0000025044165917
 41
0.7
  7
STANDARD1
100
AcDbText
  0
LINE
  5
331
330
6F
100
AcDbEntity
  8
NOTE
  6
Continuous
 62
     4
100
AcDbLine
 10
-251.6265880000001
 20
230.6561029999991
 30
0.0
 11
-251.6265880000001
 21
240.8438969999992
 31
0.0
  0
LINE
  5
332
330
6F
100
AcDbEntity
  8
NOTE
  6
Continuous
 62
     4
100
AcDbLine
 10
-256.720485
 20
235.7499999999991
 30
0.0
 11
-246.532691
 21
235.7499999999991
 31
0.0
  0
LINE
  5
333
330
6F
100
AcDbEntity
  8
NOTE
  6
Continuous
 62
     4
100
AcDbLine
 10
-197.5
 20
324.4061029999991
 30
0.0
 11
-197.5
 21
334.5938969999992
 31
0.0
  0
LINE
  5
334
330
6F
100
AcDbEntity
  8
NOTE
  6
Continuous
 62
     4
100
AcDbLine
 10
-202.5938970000001
 20
329.4999999999991
 30
0.0
 11
-192.4061029999999
 21
329.4999999999991
 31
0.0
  0
LINE
  5
335
330
6F
100
AcDbEntity
  8
NOTE
  6
Continuous
 62
     4
100
AcDbLine
 10
-143.3734119999998
 20
230.6561029999991
 30
0.0
 11
-143.3734119999998
 21
240.8438969999992
 31
0.0
  0
LINE
  5
336
330
6F
100
AcDbEntity
  8
NOTE
  6
Continuous
 62
     4
100
AcDbLine
 10
-148.4673089999998
 20
235.7499999999991
 30
0.0
 11
-138.2795149999997
 21
235.7499999999991
 31
0.0
  0
TEXT
  5
337
330
6F
100
AcDbEntity
  8
ETC
  6
Continuous
 62
    61
100
AcDbText
 10
115.4733984013232
 20
1435.247398386409
 30
0.0
 40
64.0
  1
PDFY-P45_56GMG6_5
 50
0.0000029998804485
 41
0.9
  7
STANDARD_MODELNAME
100
AcDbText
  0
ENDSEC
  0
SECTION
  2
OBJECTS
  0
DICTIONARY
  5
C
330
0
100
AcDbDictionary
281
     1
  3
ACAD_CIP_PREVIOUS_PRODUCT_INFO
350
338
  3
ACAD_COLOR
350
62
  3
ACAD_DETAILVIEWSTYLE
350
69
  3
ACAD_GROUP
350
D
  3
ACAD_LAYOUT
350
61
  3
ACAD_MATERIAL
350
10
  3
ACAD_MLEADERSTYLE
350
65
  3
ACAD_MLINESTYLE
350
5E
  3
ACAD_PLOTSETTINGS
350
60
  3
ACAD_PLOTSTYLENAME
350
E
  3
ACAD_SCALELIST
350
42
  3
ACAD_SECTIONVIEWSTYLE
350
67
  3
ACAD_TABLESTYLE
350
63
  3
ACAD_VISUALSTYLE
350
29
  3
ACDB_RECOMPOSE_DATA
350
35C
  3
AcDbVariableDictionary
350
34F
  3
DWGPROPS
350
35D
  0
DICTIONARY
  5
339
330
54
100
AcDbDictionary
280
     1
281
     1
  3
ADSK_XREC_LAYER_RECONCILED
360
33A
  0
DICTIONARY
  5
33B
330
73
100
AcDbDictionary
280
     1
281
     1
  3
ADSK_XREC_LAYER_RECONCILED
360
33C
  0
DICTIONARY
  5
33D
330
76
100
AcDbDictionary
280
     1
281
     1
  3
ADSK_XREC_LAYER_RECONCILED
360
33E
  0
DICTIONARY
  5
33F
330
77
100
AcDbDictionary
280
     1
281
     1
  3
ADSK_XREC_LAYER_RECONCILED
360
340
  0
DICTIONARY
  5
341
330
78
100
AcDbDictionary
280
     1
281
     1
  3
ADSK_XREC_LAYER_RECONCILED
360
342
  0
DICTIONARY
  5
343
330
79
100
AcDbDictionary
280
     1
281
     1
  3
ADSK_XREC_LAYER_RECONCILED
360
344
  0
DICTIONARY
  5
345
330
7A
100
AcDbDictionary
280
     1
281
     1
  3
ADSK_XREC_LAYER_RECONCILED
360
346
  0
DICTIONARY
  5
347
330
7B
100
AcDbDictionary
280
     1
281
     1
  3
ADSK_XREC_LAYER_RECONCILED
360
348
  0
DICTIONARY
  5
349
330
7C
100
AcDbDictionary
280
     1
281
     1
  3
ADSK_XREC_LAYER_RECONCILED
360
34A
  0
DICTIONARY
  5
34B
330
7D
100
AcDbDictionary
280
     1
281
     1
  3
ADSK_XREC_LAYER_RECONCILED
360
34C
  0
DICTIONARY
  5
34D
330
7E
100
AcDbDictionary
280
     1
281
     1
  3
ADSK_XREC_LAYER_RECONCILED
360
34E
  0
XRECORD
  5
338
102
{ACAD_REACTORS
330
C
102
}
330
C
100
AcDbXrecord
280
     1
300
ACDLT
300
2014
300
ACDLT_F_S
  0
DICTIONARY
  5
62
102
{ACAD_REACTORS
330
C
102
}
330
C
100
AcDbDictionary
281
     1
  0
DICTIONARY
  5
69
102
{ACAD_REACTORS
330
C
102
}
330
C
100
AcDbDictionary
281
     1
  3
Imperial24
350
6A
  0
DICTIONARY
  5
D
102
{ACAD_REACTORS
330
C
102
}
330
C
100
AcDbDictionary
281
     1
  0
DICTIONARY
  5
61
102
{ACAD_REACTORS
330
C
102
}
330
C
100
AcDbDictionary
281
     1
  3
Model
350
72
  3
レイアウト1
350
6E
  0
DICTIONARY
  5
10
102
{ACAD_REACTORS
330
C
102
}
330
C
100
AcDbDictionary
281
     1
  3
ByBlock
350
19
  3
ByLayer
350
11
  3
Global
350
21
  0
DICTIONARY
  5
65
102
{ACAD_REACTORS
330
C
102
}
330
C
100
AcDbDictionary
281
     1
  3
Standard
350
66
  0
DICTIONARY
  5
5E
102
{ACAD_REACTORS
330
C
102
}
330
C
100
AcDbDictionary
281
     1
  3
Standard
350
5F
  0
DICTIONARY
  5
60
102
{ACAD_REACTORS
330
C
102
}
330
C
100
AcDbDictionary
281
     1
  0
ACDBDICTIONARYWDFLT
  5
E
102
{ACAD_REACTORS
330
C
102
}
330
C
100
AcDbDictionary
281
     1
  3
Normal
350
F
100
AcDbDictionaryWithDefault
340
F
  0
DICTIONARY
  5
42
102
{ACAD_REACTORS
330
C
102
}
330
C
100
AcDbDictionary
281
     1
  3
A0
350
43
  3
A1
350
44
  3
A2
350
45
  3
A3
350
46
  3
A4
350
47
  3
A5
350
48
  3
A6
350
49
  3
A7
350
4A
  3
A8
350
4B
  3
A9
350
4C
  3
B0
350
4D
  3
B1
350
4E
  3
B2
350
4F
  3
B3
350
50
  3
B4
350
51
  3
B5
350
52
  3
B6
350
53
  0
DICTIONARY
  5
67
102
{ACAD_REACTORS
330
C
102
}
330
C
100
AcDbDictionary
281
     1
  3
Imperial24
350
68
  0
DICTIONARY
  5
63
102
{ACAD_REACTORS
330
C
102
}
330
C
100
AcDbDictionary
281
     1
  3
Standard
350
64
  0
DICTIONARY
  5
29
102
{ACAD_REACTORS
330
C
102
}
330
C
100
AcDbDictionary
281
     1
  3
2dWireframe
350
2F
  3
Basic
350
2E
  3
Brighten
350
35
  3
ColorChange
350
39
  3
Conceptual
350
32
  3
Dim
350
34
  3
EdgeColorOff
350
41
  3
Facepattern
350
38
  3
Flat
350
2A
  3
FlatWithEdges
350
2B
  3
Gouraud
350
2C
  3
GouraudWithEdges
350
2D
  3
Hidden
350
31
  3
JitterOff
350
3F
  3
Linepattern
350
37
  3
OverhangOff
350
40
  3
Realistic
350
33
  3
Shaded
350
3E
  3
Shaded with edges
350
3D
  3
Shades of Gray
350
3A
  3
Sketchy
350
3B
  3
Thicken
350
36
  3
Wireframe
350
30
  3
X-Ray
350
3C
  0
XRECORD
  5
35C
102
{ACAD_REACTORS
330
C
102
}
330
C
100
AcDbXrecord
280
     1
 90
        1
330
64
  0
DICTIONARY
  5
34F
102
{ACAD_REACTORS
330
C
102
}
330
C
100
AcDbDictionary
281
     1
  3
CANNOSCALE
350
354
  3
CMLEADERSTYLE
350
351
  3
CTABLESTYLE
350
350
  3
CVIEWDETAILSTYLE
350
352
  3
CVIEWSECTIONSTYLE
350
353
  3
DIMASSOC
350
357
  3
INDEXCTL
350
356
  3
SORTENTS
350
355
  3
XCLIPFRAME
350
358
  0
XRECORD
  5
35D
102
{ACAD_REACTORS
330
C
102
}
330
C
100
AcDbXrecord
280
     1
  1
DWGPROPS COOKIE
  2

  3

  4

  6

  7

  8
prok_shio
  9

300
=
301
=
302
=
303
=
304
=
305
=
306
=
307
=
308
=
309
=
 40
3.996418726851851
 41
2450330.439930984
 42
2457897.548666528
  1

 90
        0
  0
XRECORD
  5
33A
102
{ACAD_REACTORS
330
339
102
}
330
339
100
AcDbXrecord
280
     1
290
     1
  0
XRECORD
  5
33C
102
{ACAD_REACTORS
330
33B
102
}
330
33B
100
AcDbXrecord
280
     1
290
     1
  0
XRECORD
  5
33E
102
{ACAD_REACTORS
330
33D
102
}
330
33D
100
AcDbXrecord
280
     1
290
     1
  0
XRECORD
  5
340
102
{ACAD_REACTORS
330
33F
102
}
330
33F
100
AcDbXrecord
280
     1
290
     1
  0
XRECORD
  5
342
102
{ACAD_REACTORS
330
341
102
}
330
341
100
AcDbXrecord
280
     1
290
     1
  0
XRECORD
  5
344
102
{ACAD_REACTORS
330
343
102
}
330
343
100
AcDbXrecord
280
     1
290
     1
  0
XRECORD
  5
346
102
{ACAD_REACTORS
330
345
102
}
330
345
100
AcDbXrecord
280
     1
290
     1
  0
XRECORD
  5
348
102
{ACAD_REACTORS
330
347
102
}
330
347
100
AcDbXrecord
280
     1
290
     1
  0
XRECORD
  5
34A
102
{ACAD_REACTORS
330
349
102
}
330
349
100
AcDbXrecord
280
     1
290
     1
  0
XRECORD
  5
34C
102
{ACAD_REACTORS
330
34B
102
}
330
34B
100
AcDbXrecord
280
     1
290
     1
  0
XRECORD
  5
34E
102
{ACAD_REACTORS
330
34D
102
}
330
34D
100
AcDbXrecord
280
     1
290
     1
  0
ACDBDETAILVIEWSTYLE
  5
6A
102
{ACAD_XDICTIONARY
360
395
102
}
102
{ACAD_REACTORS
330
69
102
}
330
69
100
AcDbModelDocViewStyle
 70
     0
  3
Imperial24
290
     0
100
AcDbDetailViewStyle
 70
     0
 71
     0
 90
        3
 71
     1
340
55
 40
0.24
340
0
 40
0.24
300

 40
0.36
280
     3
 71
     2
340
5C
 90
       25
 71
     3
340
55
 40
0.24
 90
        1
 40
0.75
 90
        1
300
%<\AcVar ViewType \f "%tc1">% %<\AcVar ViewDetailId>%\PSCALE %<\AcVar ViewScale \f "%sn">%
 71
     4
340
5C
 90
       25
340
5C
 90
       25
280
     0
  0
LAYOUT
  5
72
102
{ACAD_XDICTIONARY
360
399
102
}
102
{ACAD_REACTORS
330
61
102
}
330
61
100
AcDbPlotSettings
  1

  2
OKI C931(PS)
  4

  6

 40
0.0
 41
0.0
 42
0.0
 43
0.0
 44
0.0
 45
0.0
 46
0.0
 47
0.0
 48
0.0
 49
0.0
140
0.0
141
0.0
142
1.0
143
1.0
 70
  1712
 72
     0
 73
     0
 74
     0
  7
monochrome.ctb
 75
     0
147
1.0
148
0.0
149
0.0
100
AcDbLayout
  1
Model
 70
     1
 71
     0
 10
0.0
 20
0.0
 11
12.0
 21
9.0
 12
0.0
 22
0.0
 32
0.0
 14
0.0
 24
0.0
 34
0.0
 15
0.0
 25
0.0
 35
0.0
146
0.0
 13
0.0
 23
0.0
 33
0.0
 16
1.0
 26
0.0
 36
0.0
 17
0.0
 27
1.0
 37
0.0
 76
     0
330
6F
331
82
  0
LAYOUT
  5
6E
102
{ACAD_XDICTIONARY
360
397
102
}
102
{ACAD_REACTORS
330
61
102
}
330
61
100
AcDbPlotSettings
  1

  2
OKI C931(PS)
  4

  6

 40
0.0
 41
0.0
 42
0.0
 43
0.0
 44
0.0
 45
0.0
 46
0.0
 47
0.0
 48
0.0
 49
0.0
140
0.0
141
0.0
142
1.0
143
1.0
 70
   688
 72
     0
 73
     0
 74
     5
  7
monochrome.ctb
 75
    16
147
1.0
148
0.0
149
0.0
100
AcDbLayout
  1
レイアウト1
 70
     1
 71
     1
 10
0.0
 20
0.0
 11
12.0
 21
9.0
 12
0.0
 22
0.0
 32
0.0
 14
1.000000000000000E+20
 24
1.000000000000000E+20
 34
1.000000000000000E+20
 15
-1.000000000000000E+20
 25
-1.000000000000000E+20
 35
-1.000000000000000E+20
146
0.0
 13
0.0
 23
0.0
 33
0.0
 16
1.0
 26
0.0
 36
0.0
 17
0.0
 27
1.0
 37
0.0
 76
     0
330
6B
  0
MATERIAL
  5
19
102
{ACAD_XDICTIONARY
360
1A
102
}
102
{ACAD_REACTORS
330
10
102
}
330
10
100
AcDbMaterial
  1
ByBlock
 72
     0
 43
0.0208333333333333
 43
0.0
 43
0.0
 43
0.0
 43
0.0
 43
0.0208333333333333
 43
0.0
 43
0.0
 43
0.0
 43
0.0
 43
1.0
 43
0.0
 43
0.0
 43
0.0
 43
0.0
 43
1.0
 77
     0
 47
0.0208333333333333
 47
0.0
 47
0.0
 47
0.0
 47
0.0
 47
0.0208333333333333
 47
0.0
 47
0.0
 47
0.0
 47
0.0
 47
1.0
 47
0.0
 47
0.0
 47
0.0
 47
0.0
 47
1.0
171
     0
 49
0.0208333333333333
 49
0.0
 49
0.0
 49
0.0
 49
0.0
 49
0.0208333333333333
 49
0.0
 49
0.0
 49
0.0
 49
0.0
 49
1.0
 49
0.0
 49
0.0
 49
0.0
 49
0.0
 49
1.0
175
     0
142
0.0208333333333333
142
0.0
142
0.0
142
0.0
142
0.0
142
0.0208333333333333
142
0.0
142
0.0
142
0.0
142
0.0
142
1.0
142
0.0
142
0.0
142
0.0
142
0.0
142
1.0
179
     0
144
0.0208333333333333
144
0.0
144
0.0
144
0.0
144
0.0
144
0.0208333333333333
144
0.0
144
0.0
144
0.0
144
0.0
144
1.0
144
0.0
144
0.0
144
0.0
144
0.0
144
1.0
147
0.0208333333333333
147
0.0
147
0.0
147
0.0
147
0.0
147
0.0208333333333333
147
0.0
147
0.0
147
0.0
147
0.0
147
1.0
147
0.0
147
0.0
147
0.0
147
0.0
147
1.0
  0
MATERIAL
  5
11
102
{ACAD_XDICTIONARY
360
12
102
}
102
{ACAD_REACTORS
330
10
102
}
330
10
100
AcDbMaterial
  1
ByLayer
 72
     0
 43
0.0208333333333333
 43
0.0
 43
0.0
 43
0.0
 43
0.0
 43
0.0208333333333333
 43
0.0
 43
0.0
 43
0.0
 43
0.0
 43
1.0
 43
0.0
 43
0.0
 43
0.0
 43
0.0
 43
1.0
 77
     0
 47
0.0208333333333333
 47
0.0
 47
0.0
 47
0.0
 47
0.0
 47
0.0208333333333333
 47
0.0
 47
0.0
 47
0.0
 47
0.0
 47
1.0
 47
0.0
 47
0.0
 47
0.0
 47
0.0
 47
1.0
171
     0
 49
0.0208333333333333
 49
0.0
 49
0.0
 49
0.0
 49
0.0
 49
0.0208333333333333
 49
0.0
 49
0.0
 49
0.0
 49
0.0
 49
1.0
 49
0.0
 49
0.0
 49
0.0
 49
0.0
 49
1.0
175
     0
142
0.0208333333333333
142
0.0
142
0.0
142
0.0
142
0.0
142
0.0208333333333333
142
0.0
142
0.0
142
0.0
142
0.0
142
1.0
142
0.0
142
0.0
142
0.0
142
0.0
142
1.0
179
     0
144
0.0208333333333333
144
0.0
144
0.0
144
0.0
144
0.0
144
0.0208333333333333
144
0.0
144
0.0
144
0.0
144
0.0
144
1.0
144
0.0
144
0.0
144
0.0
144
0.0
144
1.0
147
0.0208333333333333
147
0.0
147
0.0
147
0.0
147
0.0
147
0.0208333333333333
147
0.0
147
0.0
147
0.0
147
0.0
147
1.0
147
0.0
147
0.0
147
0.0
147
0.0
147
1.0
  0
MATERIAL
  5
21
102
{ACAD_XDICTIONARY
360
22
102
}
102
{ACAD_REACTORS
330
10
102
}
330
10
100
AcDbMaterial
  1
Global
 72
     0
 43
0.0208333333333333
 43
0.0
 43
0.0
 43
0.0
 43
0.0
 43
0.0208333333333333
 43
0.0
 43
0.0
 43
0.0
 43
0.0
 43
1.0
 43
0.0
 43
0.0
 43
0.0
 43
0.0
 43
1.0
 77
     0
 47
0.0208333333333333
 47
0.0
 47
0.0
 47
0.0
 47
0.0
 47
0.0208333333333333
 47
0.0
 47
0.0
 47
0.0
 47
0.0
 47
1.0
 47
0.0
 47
0.0
 47
0.0
 47
0.0
 47
1.0
171
     0
 49
0.0208333333333333
 49
0.0
 49
0.0
 49
0.0
 49
0.0
 49
0.0208333333333333
 49
0.0
 49
0.0
 49
0.0
 49
0.0
 49
1.0
 49
0.0
 49
0.0
 49
0.0
 49
0.0
 49
1.0
175
     0
142
0.0208333333333333
142
0.0
142
0.0
142
0.0
142
0.0
142
0.0208333333333333
142
0.0
142
0.0
142
0.0
142
0.0
142
1.0
142
0.0
142
0.0
142
0.0
142
0.0
142
1.0
179
     0
144
0.0208333333333333
144
0.0
144
0.0
144
0.0
144
0.0
144
0.0208333333333333
144
0.0
144
0.0
144
0.0
144
0.0
144
1.0
144
0.0
144
0.0
144
0.0
144
0.0
144
1.0
147
0.0208333333333333
147
0.0
147
0.0
147
0.0
147
0.0
147
0.0208333333333333
147
0.0
147
0.0
147
0.0
147
0.0
147
1.0
147
0.0
147
0.0
147
0.0
147
0.0
147
1.0
  0
MLEADERSTYLE
  5
66
102
{ACAD_REACTORS
330
65
102
}
330
65
100
AcDbMLeaderStyle
170
     2
171
     1
172
     0
 90
        2
 40
0.0
 41
0.0
173
     1
 91
-1056964608
340
5A
 92
       -2
290
     1
 42
0.09
291
     1
 43
0.36
  3
Standard
 44
0.18
300

342
55
174
     1
178
     6
175
     1
176
     0
 93
-1056964608
 45
0.18
292
     0
297
     0
 46
0.18
 94
-1056964608
 47
1.0
 49
1.0
140
1.0
293
     1
141
0.0
294
     1
177
     0
142
1.0
295
     0
296
     0
143
0.125
1001
ACAD_MLEADERVER
1070
     2
  0
MLINESTYLE
  5
5F
102
{ACAD_REACTORS
330
5E
102
}
330
5E
100
AcDbMlineStyle
  2
STANDARD
 70
     0
  3

 62
   256
 51
90.0
 52
90.0
 71
     2
 49
0.5
 62
   256
  6
BYLAYER
 49
-0.5
 62
   256
  6
BYLAYER
  0
ACDBPLACEHOLDER
  5
F
102
{ACAD_REACTORS
330
E
102
}
330
E
  0
SCALE
  5
43
102
{ACAD_REACTORS
330
42
102
}
330
42
100
AcDbScale
 70
     0
300
1:1
140
1.0
141
1.0
290
     1
  0
SCALE
  5
44
102
{ACAD_REACTORS
330
42
102
}
330
42
100
AcDbScale
 70
     0
300
1/128" = 1'-0"
140
0.0078125
141
12.0
290
     0
  0
SCALE
  5
45
102
{ACAD_REACTORS
330
42
102
}
330
42
100
AcDbScale
 70
     0
300
1/64" = 1'-0"
140
0.015625
141
12.0
290
     0
  0
SCALE
  5
46
102
{ACAD_REACTORS
330
42
102
}
330
42
100
AcDbScale
 70
     0
300
1/32" = 1'-0"
140
0.03125
141
12.0
290
     0
  0
SCALE
  5
47
102
{ACAD_REACTORS
330
42
102
}
330
42
100
AcDbScale
 70
     0
300
1/16" = 1'-0"
140
0.0625
141
12.0
290
     0
  0
SCALE
  5
48
102
{ACAD_REACTORS
330
42
102
}
330
42
100
AcDbScale
 70
     0
300
3/32" = 1'-0"
140
0.09375
141
12.0
290
     0
  0
SCALE
  5
49
102
{ACAD_REACTORS
330
42
102
}
330
42
100
AcDbScale
 70
     0
300
1/8" = 1'-0"
140
0.125
141
12.0
290
     0
  0
SCALE
  5
4A
102
{ACAD_REACTORS
330
42
102
}
330
42
100
AcDbScale
 70
     0
300
3/16" = 1'-0"
140
0.1875
141
12.0
290
     0
  0
SCALE
  5
4B
102
{ACAD_REACTORS
330
42
102
}
330
42
100
AcDbScale
 70
     0
300
1/4" = 1'-0"
140
0.25
141
12.0
290
     0
  0
SCALE
  5
4C
102
{ACAD_REACTORS
330
42
102
}
330
42
100
AcDbScale
 70
     0
300
3/8" = 1'-0"
140
0.375
141
12.0
290
     0
  0
SCALE
  5
4D
102
{ACAD_REACTORS
330
42
102
}
330
42
100
AcDbScale
 70
     0
300
1/2" = 1'-0"
140
0.5
141
12.0
290
     0
  0
SCALE
  5
4E
102
{ACAD_REACTORS
330
42
102
}
330
42
100
AcDbScale
 70
     0
300
3/4" = 1'-0"
140
0.75
141
12.0
290
     0
  0
SCALE
  5
4F
102
{ACAD_REACTORS
330
42
102
}
330
42
100
AcDbScale
 70
     0
300
1" = 1'-0"
140
1.0
141
12.0
290
     0
  0
SCALE
  5
50
102
{ACAD_REACTORS
330
42
102
}
330
42
100
AcDbScale
 70
     0
300
1-1/2" = 1'-0"
140
1.5
141
12.0
290
     0
  0
SCALE
  5
51
102
{ACAD_REACTORS
330
42
102
}
330
42
100
AcDbScale
 70
     0
300
3" = 1'-0"
140
3.0
141
12.0
290
     0
  0
SCALE
  5
52
102
{ACAD_REACTORS
330
42
102
}
330
42
100
AcDbScale
 70
     0
300
6" = 1'-0"
140
6.0
141
12.0
290
     0
  0
SCALE
  5
53
102
{ACAD_REACTORS
330
42
102
}
330
42
100
AcDbScale
 70
     0
300
1'-0" = 1'-0"
140
12.0
141
12.0
290
     0
  0
ACDBSECTIONVIEWSTYLE
  5
68
102
{ACAD_XDICTIONARY
360
393
102
}
102
{ACAD_REACTORS
330
67
102
}
330
67
100
AcDbModelDocViewStyle
 70
     0
  3
Imperial24
290
     0
100
AcDbSectionViewStyle
 70
     0
 71
     0
 90
       78
 71
     1
340
55
 40
0.24
340
0
340
0
 40
0.24
300
I, O, Q, S, X, Z
 40
0.48
 90
        3
 40
0.18
 90
        1
 71
     2
340
5C
 90
       25
340
5C
 90
       50
 40
0.24
 40
0.0
 40
0.24
 71
     3
340
55
 40
0.24
 90
        1
 40
0.75
 90
        1
300
%<\AcVar ViewType \f "%tc1">% %<\AcVar ViewSectionStartId>%-%<\AcVar ViewSectionEndId>%\PSCALE %<\AcVar ViewScale \f "%sn">%
 71
     4
300
ANSI31
 40
1.0
 90
        0
290
     0
290
     0
 90
        6
 40
0.0
 40
1.570796326794896
 40
0.2617993877991494
 40
1.308996938995747
 40
-0.2617993877991494
 40
1.832595714594046
  0
TABLESTYLE
  5
64
102
{ACAD_XDICTIONARY
360
35A
102
}
102
{ACAD_REACTORS
330
63
102
}
330
63
100
AcDbTableStyle
  3
Standard
 70
     0
 71
     0
 40
0.06
 41
0.06
280
     0
281
     0
  7
STANDARD
140
0.18
170
     2
 62
     0
 63
     7
283
     0
274
    -2
284
     1
 64
     0
275
    -2
285
     1
 65
     0
276
    -2
286
     1
 66
     0
277
    -2
287
     1
 67
     0
278
    -2
288
     1
 68
     0
279
    -2
289
     1
 69
     0
  7
STANDARD
140
0.25
170
     5
 62
     0
 63
     7
283
     0
274
    -2
284
     1
 64
     0
275
    -2
285
     1
 65
     0
276
    -2
286
     1
 66
     0
277
    -2
287
     1
 67
     0
278
    -2
288
     1
 68
     0
279
    -2
289
     1
 69
     0
  7
STANDARD
140
0.18
170
     5
 62
     0
 63
     7
283
     0
274
    -2
284
     1
 64
     0
275
    -2
285
     1
 65
     0
276
    -2
286
     1
 66
     0
277
    -2
287
     1
 67
     0
278
    -2
288
     1
 68
     0
279
    -2
289
     1
 69
     0
  0
VISUALSTYLE
  5
2F
102
{ACAD_XDICTIONARY
360
36B
102
}
102
{ACAD_REACTORS
330
29
102
}
330
29
100
AcDbVisualStyle
  2
2dWireframe
 70
     4
 71
     0
 72
     2
 73
     0
 90
        0
 40
-0.6
 41
-30.0
 62
     5
 63
     7
 74
     1
 91
        4
 64
     7
 65
   257
 75
     1
175
     1
 42
1.0
 92
        0
 66
   257
 43
1.0
 76
     1
 77
     6
 78
     2
 67
     7
 79
     5
170
     0
171
     0
290
     0
174
     0
 93
        1
 44
0.0
173
     0
291
     0
 45
0.0
1001
ACAD
1000
AcDbSavedByObjectVersion
1070
     0
  0
VISUALSTYLE
  5
2E
102
{ACAD_XDICTIONARY
360
369
102
}
102
{ACAD_REACTORS
330
29
102
}
330
29
100
AcDbVisualStyle
  2
Basic
 70
     7
 71
     1
 72
     0
 73
     1
 90
        0
 40
-0.6
 41
-30.0
 62
     5
 63
     7
 74
     0
 91
        4
 64
     7
 65
   257
 75
     1
175
     1
 42
1.0
 92
        8
 66
     7
 43
1.0
 76
     1
 77
     6
 78
     2
 67
     7
 79
     5
170
     0
171
     0
290
     0
174
     0
 93
        1
 44
0.0
173
     0
291
     1
 45
0.0
1001
ACAD
1000
AcDbSavedByObjectVersion
1070
     0
  0
VISUALSTYLE
  5
35
102
{ACAD_XDICTIONARY
360
377
102
}
102
{ACAD_REACTORS
330
29
102
}
330
29
100
AcDbVisualStyle
  2
Brighten
 70
    12
 71
     2
 72
     2
 73
     0
 90
        0
 40
-0.6
 41
-30.0
 62
     5
 63
     7
 74
     1
 91
        4
 64
     7
 65
   257
 75
     1
175
     1
 42
1.0
 92
        8
 66
     7
 43
1.0
 76
     1
 77
     6
 78
     2
 67
     7
 79
     5
170
     0
171
     0
290
     0
174
     0
 93
        1
 44
50.0
173
     0
291
     1
 45
0.0
1001
ACAD
1000
AcDbSavedByObjectVersion
1070
     0
  0
VISUALSTYLE
  5
39
102
{ACAD_XDICTIONARY
360
37F
102
}
102
{ACAD_REACTORS
330
29
102
}
330
29
100
AcDbVisualStyle
  2
ColorChange
 70
    16
 71
     2
 72
     2
 73
     3
 90
        0
 40
-0.6
 41
-30.0
 62
     5
 63
     8
 74
     1
 91
        4
 64
     7
 65
   257
 75
     1
175
     1
 42
1.0
 92
        8
 66
     8
 43
1.0
 76
     1
 77
     6
 78
     2
 67
     7
 79
     5
170
     0
171
     0
290
     0
174
     0
 93
        1
 44
0.0
173
     0
291
     1
 45
0.0
1001
ACAD
1000
AcDbSavedByObjectVersion
1070
     0
  0
VISUALSTYLE
  5
32
102
{ACAD_XDICTIONARY
360
371
102
}
102
{ACAD_REACTORS
330
29
102
}
330
29
100
AcDbVisualStyle
  2
Conceptual
 70
     9
 71
     3
 72
     2
 73
     0
 90
        0
 40
-0.6
 41
-30.0
 62
     5
 63
     7
 74
     2
 91
        2
 64
     7
 65
   257
 75
     1
175
     1
 42
179.0
 92
        8
 66
     7
 43
1.0
 76
     1
 77
     6
 78
     2
 67
     7
 79
     3
170
     0
171
     0
290
     0
174
     0
 93
        1
 44
0.0
173
     0
291
     0
 45
0.0
1001
ACAD
1000
AcDbSavedByObjectVersion
1070
     0
  0
VISUALSTYLE
  5
34
102
{ACAD_XDICTIONARY
360
375
102
}
102
{ACAD_REACTORS
330
29
102
}
330
29
100
AcDbVisualStyle
  2
Dim
 70
    11
 71
     2
 72
     2
 73
     0
 90
        0
 40
-0.6
 41
-30.0
 62
     5
 63
     7
 74
     1
 91
        4
 64
     7
 65
   257
 75
     1
175
     1
 42
1.0
 92
        8
 66
     7
 43
1.0
 76
     1
 77
     6
 78
     2
 67
     7
 79
     5
170
     0
171
     0
290
     0
174
     0
 93
        1
 44
-50.0
173
     0
291
     1
 45
0.0
1001
ACAD
1000
AcDbSavedByObjectVersion
1070
     0
  0
VISUALSTYLE
  5
41
102
{ACAD_XDICTIONARY
360
38F
102
}
102
{ACAD_REACTORS
330
29
102
}
330
29
100
AcDbVisualStyle
  2
EdgeColorOff
 70
    22
 71
     2
 72
     2
 73
     0
 90
        0
 40
-0.6
 41
-30.0
 62
     5
 63
     7
 74
     1
 91
        4
 64
     7
 65
   257
 75
     1
175
     1
 42
1.0
 92
        8
 66
     7
 43
1.0
 76
     1
 77
     6
 78
     2
 67
     7
 79
     5
170
     0
171
     0
290
     0
174
     0
 93
        1
 44
0.0
173
     0
291
     1
 45
0.0
1001
ACAD
1000
AcDbSavedByObjectVersion
1070
     0
  0
VISUALSTYLE
  5
38
102
{ACAD_XDICTIONARY
360
37D
102
}
102
{ACAD_REACTORS
330
29
102
}
330
29
100
AcDbVisualStyle
  2
Facepattern
 70
    15
 71
     2
 72
     2
 73
     0
 90
        0
 40
-0.6
 41
-30.0
 62
     5
 63
     7
 74
     1
 91
        4
 64
     7
 65
   257
 75
     1
175
     1
 42
1.0
 92
        8
 66
     7
 43
1.0
 76
     1
 77
     6
 78
     2
 67
     7
 79
     5
170
     0
171
     0
290
     0
174
     0
 93
        1
 44
0.0
173
     0
291
     1
 45
0.0
1001
ACAD
1000
AcDbSavedByObjectVersion
1070
     0
  0
VISUALSTYLE
  5
2A
102
{ACAD_XDICTIONARY
360
361
102
}
102
{ACAD_REACTORS
330
29
102
}
330
29
100
AcDbVisualStyle
  2
Flat
 70
     0
 71
     2
 72
     1
 73
     1
 90
        2
 40
-0.6
 41
30.0
 62
     5
 63
     7
 74
     0
 91
        0
 64
     7
 65
   257
 75
     1
175
     1
 42
1.0
 92
        8
 66
     7
 43
1.0
 76
     1
 77
     6
 78
     2
 67
     7
 79
     5
170
     0
171
     0
290
     0
174
     0
 93
       13
 44
0.0
173
     0
291
     1
 45
0.0
1001
ACAD
1000
AcDbSavedByObjectVersion
1070
     0
  0
VISUALSTYLE
  5
2B
102
{ACAD_XDICTIONARY
360
363
102
}
102
{ACAD_REACTORS
330
29
102
}
330
29
100
AcDbVisualStyle
  2
FlatWithEdges
 70
     1
 71
     2
 72
     1
 73
     1
 90
        2
 40
-0.6
 41
30.0
 62
     5
 63
     7
 74
     1
 91
        0
 64
     7
 65
   257
 75
     1
175
     1
 42
1.0
 92
        0
 66
   257
 43
1.0
 76
     1
 77
     6
 78
     2
 67
     7
 79
     5
170
     0
171
     0
290
     0
174
     0
 93
       13
 44
0.0
173
     0
291
     1
 45
0.0
1001
ACAD
1000
AcDbSavedByObjectVersion
1070
     0
  0
VISUALSTYLE
  5
2C
102
{ACAD_XDICTIONARY
360
365
102
}
102
{ACAD_REACTORS
330
29
102
}
330
29
100
AcDbVisualStyle
  2
Gouraud
 70
     2
 71
     2
 72
     2
 73
     1
 90
        2
 40
-0.6
 41
30.0
 62
     5
 63
     7
 74
     0
 91
        0
 64
     7
 65
   257
 75
     1
175
     1
 42
1.0
 92
        0
 66
     7
 43
1.0
 76
     1
 77
     6
 78
     2
 67
     7
 79
     5
170
     0
171
     0
290
     0
174
     0
 93
       13
 44
0.0
173
     0
291
     1
 45
0.0
1001
ACAD
1000
AcDbSavedByObjectVersion
1070
     0
  0
VISUALSTYLE
  5
2D
102
{ACAD_XDICTIONARY
360
367
102
}
102
{ACAD_REACTORS
330
29
102
}
330
29
100
AcDbVisualStyle
  2
GouraudWithEdges
 70
     3
 71
     2
 72
     2
 73
     1
 90
        2
 40
-0.6
 41
30.0
 62
     5
 63
     7
 74
     1
 91
        0
 64
     7
 65
   257
 75
     1
175
     1
 42
1.0
 92
        0
 66
   257
 43
1.0
 76
     1
 77
     6
 78
     2
 67
     7
 79
     5
170
     0
171
     0
290
     0
174
     0
 93
       13
 44
0.0
173
     0
291
     1
 45
0.0
1001
ACAD
1000
AcDbSavedByObjectVersion
1070
     0
  0
VISUALSTYLE
  5
31
102
{ACAD_XDICTIONARY
360
36F
102
}
102
{ACAD_REACTORS
330
29
102
}
330
29
100
AcDbVisualStyle
  2
Hidden
 70
     6
 71
     1
 72
     2
 73
     2
 90
        0
 40
-0.6
 41
-30.0
 62
     5
 63
     7
 74
     2
 91
        2
 64
     7
 65
   257
 75
     2
175
     1
 42
40.0
 92
        0
 66
   257
 43
1.0
 76
     1
 77
     6
 78
     2
 67
     7
 79
     3
170
     0
171
     0
290
     0
174
     0
 93
        1
 44
0.0
173
     0
291
     0
 45
0.0
1001
ACAD
1000
AcDbSavedByObjectVersion
1070
     0
  0
VISUALSTYLE
  5
3F
102
{ACAD_XDICTIONARY
360
38B
102
}
102
{ACAD_REACTORS
330
29
102
}
330
29
100
AcDbVisualStyle
  2
JitterOff
 70
    20
 71
     2
 72
     2
 73
     0
 90
        0
 40
-0.6
 41
-30.0
 62
     5
 63
     7
 74
     1
 91
        4
 64
     7
 65
   257
 75
     1
175
     1
 42
1.0
 92
       10
 66
     7
 43
1.0
 76
     1
 77
     6
 78
     2
 67
     7
 79
     5
170
     0
171
     0
290
     0
174
     0
 93
        1
 44
0.0
173
     0
291
     1
 45
0.0
1001
ACAD
1000
AcDbSavedByObjectVersion
1070
     0
  0
VISUALSTYLE
  5
37
102
{ACAD_XDICTIONARY
360
37B
102
}
102
{ACAD_REACTORS
330
29
102
}
330
29
100
AcDbVisualStyle
  2
Linepattern
 70
    14
 71
     2
 72
     2
 73
     0
 90
        0
 40
-0.6
 41
-30.0
 62
     5
 63
     7
 74
     1
 91
        4
 64
     7
 65
   257
 75
     7
175
     7
 42
1.0
 92
        8
 66
     7
 43
1.0
 76
     1
 77
     6
 78
     2
 67
     7
 79
     5
170
     0
171
     0
290
     0
174
     0
 93
        1
 44
0.0
173
     0
291
     1
 45
0.0
1001
ACAD
1000
AcDbSavedByObjectVersion
1070
     0
  0
VISUALSTYLE
  5
40
102
{ACAD_XDICTIONARY
360
38D
102
}
102
{ACAD_REACTORS
330
29
102
}
330
29
100
AcDbVisualStyle
  2
OverhangOff
 70
    21
 71
     2
 72
     2
 73
     0
 90
        0
 40
-0.6
 41
-30.0
 62
     5
 63
     7
 74
     1
 91
        4
 64
     7
 65
   257
 75
     1
175
     1
 42
1.0
 92
        9
 66
     7
 43
1.0
 76
     1
 77
     6
 78
     2
 67
     7
 79
     5
170
     0
171
     0
290
     0
174
     0
 93
        1
 44
0.0
173
     0
291
     1
 45
0.0
1001
ACAD
1000
AcDbSavedByObjectVersion
1070
     0
  0
VISUALSTYLE
  5
33
102
{ACAD_XDICTIONARY
360
373
102
}
102
{ACAD_REACTORS
330
29
102
}
330
29
100
AcDbVisualStyle
  2
Realistic
 70
     8
 71
     2
 72
     3
 73
     0
 90
        2
 40
-0.6
 41
30.0
 62
     5
 63
     7
 74
     0
 91
        0
 64
     7
 65
   257
 75
     1
175
     1
 42
1.0
 92
        8
 66
   257
 43
1.0
 76
     1
 77
     6
 78
     2
 67
     7
 79
     3
170
     0
171
     0
290
     0
174
     0
 93
       13
 44
0.0
173
     0
291
     0
 45
0.0
1001
ACAD
1000
AcDbSavedByObjectVersion
1070
     0
  0
VISUALSTYLE
  5
3E
102
{ACAD_XDICTIONARY
360
389
102
}
102
{ACAD_REACTORS
330
29
102
}
330
29
100
AcDbVisualStyle
  2
Shaded
 70
    27
 71
     2
 72
     2
 73
     1
 90
        2
 40
-0.6
 41
30.0
 62
     5
 63
     7
 74
     0
 91
        4
 64
     7
 65
   257
 75
     1
175
     1
 42
1.0
 92
        8
 66
   257
 43
1.0
 76
     1
 77
     6
 78
     2
 67
     8
 79
     3
170
     0
171
     0
290
     0
174
     0
 93
        5
 44
0.0
173
     0
291
     0
 45
0.0
1001
ACAD
1000
AcDbSavedByObjectVersion
1070
     0
  0
VISUALSTYLE
  5
3D
102
{ACAD_XDICTIONARY
360
387
102
}
102
{ACAD_REACTORS
330
29
102
}
330
29
100
AcDbVisualStyle
  2
Shaded with edges
 70
    26
 71
     2
 72
     2
 73
     1
 90
        2
 40
-0.6
 41
30.0
 62
     5
 63
     7
 74
     1
 91
       10
 64
     7
 65
   257
 75
     2
175
     1
 42
1.0
 92
        8
 66
   257
 43
1.0
 76
     1
 77
     6
 78
     2
 67
     7
 79
     3
170
     0
171
     0
290
     0
174
     0
 93
        5
 44
0.0
173
     0
291
     0
 45
0.0
1001
ACAD
1000
AcDbSavedByObjectVersion
1070
     0
  0
VISUALSTYLE
  5
3A
102
{ACAD_XDICTIONARY
360
381
102
}
102
{ACAD_REACTORS
330
29
102
}
330
29
100
AcDbVisualStyle
  2
Shades of Gray
 70
    23
 71
     2
 72
     2
 73
     3
 90
        0
 40
-0.6
 41
-30.0
 62
     5
 63
     7
 74
     2
 91
        2
 64
     7
 65
     7
 75
     1
175
     1
 42
40.0
 92
        8
 66
     7
 43
1.0
 76
     1
 77
     6
 78
     2
 67
     7
 79
     3
170
     0
171
     0
290
     0
174
     0
 93
        1
 44
0.0
173
     0
291
     0
 45
0.0
1001
ACAD
1000
AcDbSavedByObjectVersion
1070
     0
  0
VISUALSTYLE
  5
3B
102
{ACAD_XDICTIONARY
360
383
102
}
102
{ACAD_REACTORS
330
29
102
}
330
29
100
AcDbVisualStyle
  2
Sketchy
 70
    24
 71
     1
 72
     2
 73
     2
 90
        0
 40
-0.6
 41
-30.0
 62
     5
 63
     7
 74
     2
 91
        2
 64
     7
 65
     7
 75
     1
175
     1
 42
40.0
 92
       11
 66
     7
 43
1.0
 76
     1
 77
     6
 78
     2
 67
     7
 79
     6
170
     0
171
     0
290
     0
174
     0
 93
        1
 44
0.0
173
     0
291
     0
 45
0.0
1001
ACAD
1000
AcDbSavedByObjectVersion
1070
     0
  0
VISUALSTYLE
  5
36
102
{ACAD_XDICTIONARY
360
379
102
}
102
{ACAD_REACTORS
330
29
102
}
330
29
100
AcDbVisualStyle
  2
Thicken
 70
    13
 71
     2
 72
     2
 73
     0
 90
        0
 40
-0.6
 41
-30.0
 62
     5
 63
     7
 74
     1
 91
        4
 64
     7
 65
   257
 75
     1
175
     1
 42
1.0
 92
       12
 66
     7
 43
1.0
 76
     1
 77
     6
 78
     2
 67
     7
 79
     5
170
     0
171
     0
290
     0
174
     0
 93
        1
 44
0.0
173
     0
291
     1
 45
0.0
1001
ACAD
1000
AcDbSavedByObjectVersion
1070
     0
  0
VISUALSTYLE
  5
30
102
{ACAD_XDICTIONARY
360
36D
102
}
102
{ACAD_REACTORS
330
29
102
}
330
29
100
AcDbVisualStyle
  2
Wireframe
 70
     5
 71
     0
 72
     2
 73
     0
 90
        0
 40
-0.6
 41
-30.0
 62
     5
 63
     7
 74
     1
 91
        4
 64
     7
 65
   257
 75
     1
175
     1
 42
1.0
 92
        0
 66
   257
 43
1.0
 76
     1
 77
     6
 78
     2
 67
     7
 79
     3
170
     0
171
     0
290
     0
174
     0
 93
        1
 44
0.0
173
     0
291
     0
 45
0.0
1001
ACAD
1000
AcDbSavedByObjectVersion
1070
     0
  0
VISUALSTYLE
  5
3C
102
{ACAD_XDICTIONARY
360
385
102
}
102
{ACAD_REACTORS
330
29
102
}
330
29
100
AcDbVisualStyle
  2
X-Ray
 70
    25
 71
     2
 72
     2
 73
     1
 90
        1
 40
0.5
 41
-30.0
 62
     5
 63
     7
 74
     1
 91
        0
 64
     7
 65
   257
 75
     1
175
     1
 42
1.0
 92
        8
 66
     7
 43
1.0
 76
     1
 77
     6
 78
     2
 67
     7
 79
     3
170
     0
171
     0
290
     0
174
     0
 93
       13
 44
0.0
173
     0
291
     0
 45
0.0
1001
ACAD
1000
AcDbSavedByObjectVersion
1070
     0
  0
DICTIONARYVAR
  5
354
102
{ACAD_REACTORS
330
34F
102
}
330
34F
100
DictionaryVariables
280
     0
  1
1:1
  0
DICTIONARYVAR
  5
351
102
{ACAD_REACTORS
330
34F
102
}
330
34F
100
DictionaryVariables
280
     0
  1
STANDARD
  0
DICTIONARYVAR
  5
350
102
{ACAD_REACTORS
330
34F
102
}
330
34F
100
DictionaryVariables
280
     0
  1
STANDARD
  0
DICTIONARYVAR
  5
352
102
{ACAD_REACTORS
330
34F
102
}
330
34F
100
DictionaryVariables
280
     0
  1
Imperial24
  0
DICTIONARYVAR
  5
353
102
{ACAD_REACTORS
330
34F
102
}
330
34F
100
DictionaryVariables
280
     0
  1
Imperial24
  0
DICTIONARYVAR
  5
357
102
{ACAD_REACTORS
330
34F
102
}
330
34F
100
DictionaryVariables
280
     0
  1
1
  0
DICTIONARYVAR
  5
356
102
{ACAD_REACTORS
330
34F
102
}
330
34F
100
DictionaryVariables
280
     0
  1
0
  0
DICTIONARYVAR
  5
355
102
{ACAD_REACTORS
330
34F
102
}
330
34F
100
DictionaryVariables
280
     0
  1
127
  0
DICTIONARYVAR
  5
358
102
{ACAD_REACTORS
330
34F
102
}
330
34F
100
DictionaryVariables
280
     0
  1
2
  0
DICTIONARY
  5
395
330
6A
100
AcDbDictionary
280
     1
281
     1
  3
ACAD_XREC_ROUNDTRIP
360
396
  0
DICTIONARY
  5
399
330
72
100
AcDbDictionary
280
     1
281
     1
  3
ACAD_XREC_ROUNDTRIP
360
39A
  0
DICTIONARY
  5
397
330
6E
100
AcDbDictionary
280
     1
281
     1
  3
ACAD_XREC_ROUNDTRIP
360
398
  0
DICTIONARY
  5
1A
330
19
100
AcDbDictionary
280
     1
281
     1
  3
ACAD_XREC_ROUNDTRIP
360
35F
  3
BUMPTILE
360
1C
  3
DIFFUSETILE
360
1B
  3
OPACITYTILE
360
1F
  3
REFLECTIONTILE
360
1E
  3
REFRACTIONTILE
360
20
  3
SPECULARTILE
360
1D
  0
DICTIONARY
  5
12
330
11
100
AcDbDictionary
280
     1
281
     1
  3
ACAD_XREC_ROUNDTRIP
360
35E
  3
BUMPTILE
360
14
  3
DIFFUSETILE
360
13
  3
OPACITYTILE
360
17
  3
REFLECTIONTILE
360
16
  3
REFRACTIONTILE
360
18
  3
SPECULARTILE
360
15
  0
DICTIONARY
  5
22
330
21
100
AcDbDictionary
280
     1
281
     1
  3
ACAD_XREC_ROUNDTRIP
360
360
  3
BUMPTILE
360
24
  3
DIFFUSETILE
360
23
  3
OPACITYTILE
360
27
  3
REFLECTIONTILE
360
26
  3
REFRACTIONTILE
360
28
  3
SPECULARTILE
360
25
  0
DICTIONARY
  5
393
330
68
100
AcDbDictionary
280
     1
281
     1
  3
ACAD_XREC_ROUNDTRIP
360
394
  0
DICTIONARY
  5
35A
330
64
100
AcDbDictionary
280
     1
281
     1
  3
ACAD_ROUNDTRIP_2008_TABLESTYLE_CELLSTYLEMAP
360
35B
  3
ACAD_XREC_ROUNDTRIP
360
391
  0
DICTIONARY
  5
36B
330
2F
100
AcDbDictionary
280
     1
281
     1
  3
ACAD_XREC_ROUNDTRIP
360
36C
  0
DICTIONARY
  5
369
330
2E
100
AcDbDictionary
280
     1
281
     1
  3
ACAD_XREC_ROUNDTRIP
360
36A
  0
DICTIONARY
  5
377
330
35
100
AcDbDictionary
280
     1
281
     1
  3
ACAD_XREC_ROUNDTRIP
360
378
  0
DICTIONARY
  5
37F
330
39
100
AcDbDictionary
280
     1
281
     1
  3
ACAD_XREC_ROUNDTRIP
360
380
  0
DICTIONARY
  5
371
330
32
100
AcDbDictionary
280
     1
281
     1
  3
ACAD_XREC_ROUNDTRIP
360
372
  0
DICTIONARY
  5
375
330
34
100
AcDbDictionary
280
     1
281
     1
  3
ACAD_XREC_ROUNDTRIP
360
376
  0
DICTIONARY
  5
38F
330
41
100
AcDbDictionary
280
     1
281
     1
  3
ACAD_XREC_ROUNDTRIP
360
390
  0
DICTIONARY
  5
37D
330
38
100
AcDbDictionary
280
     1
281
     1
  3
ACAD_XREC_ROUNDTRIP
360
37E
  0
DICTIONARY
  5
361
330
2A
100
AcDbDictionary
280
     1
281
     1
  3
ACAD_XREC_ROUNDTRIP
360
362
  0
DICTIONARY
  5
363
330
2B
100
AcDbDictionary
280
     1
281
     1
  3
ACAD_XREC_ROUNDTRIP
360
364
  0
DICTIONARY
  5
365
330
2C
100
AcDbDictionary
280
     1
281
     1
  3
ACAD_XREC_ROUNDTRIP
360
366
  0
DICTIONARY
  5
367
330
2D
100
AcDbDictionary
280
     1
281
     1
  3
ACAD_XREC_ROUNDTRIP
360
368
  0
DICTIONARY
  5
36F
330
31
100
AcDbDictionary
280
     1
281
     1
  3
ACAD_XREC_ROUNDTRIP
360
370
  0
DICTIONARY
  5
38B
330
3F
100
AcDbDictionary
280
     1
281
     1
  3
ACAD_XREC_ROUNDTRIP
360
38C
  0
DICTIONARY
  5
37B
330
37
100
AcDbDictionary
280
     1
281
     1
  3
ACAD_XREC_ROUNDTRIP
360
37C
  0
DICTIONARY
  5
38D
330
40
100
AcDbDictionary
280
     1
281
     1
  3
ACAD_XREC_ROUNDTRIP
360
38E
  0
DICTIONARY
  5
373
330
33
100
AcDbDictionary
280
     1
281
     1
  3
ACAD_XREC_ROUNDTRIP
360
374
  0
DICTIONARY
  5
389
330
3E
100
AcDbDictionary
280
     1
281
     1
  3
ACAD_XREC_ROUNDTRIP
360
38A
  0
DICTIONARY
  5
387
330
3D
100
AcDbDictionary
280
     1
281
     1
  3
ACAD_XREC_ROUNDTRIP
360
388
  0
DICTIONARY
  5
381
330
3A
100
AcDbDictionary
280
     1
281
     1
  3
ACAD_XREC_ROUNDTRIP
360
382
  0
DICTIONARY
  5
383
330
3B
100
AcDbDictionary
280
     1
281
     1
  3
ACAD_XREC_ROUNDTRIP
360
384
  0
DICTIONARY
  5
379
330
36
100
AcDbDictionary
280
     1
281
     1
  3
ACAD_XREC_ROUNDTRIP
360
37A
  0
DICTIONARY
  5
36D
330
30
100
AcDbDictionary
280
     1
281
     1
  3
ACAD_XREC_ROUNDTRIP
360
36E
  0
DICTIONARY
  5
385
330
3C
100
AcDbDictionary
280
     1
281
     1
  3
ACAD_XREC_ROUNDTRIP
360
386
  0
XRECORD
  5
396
102
{ACAD_REACTORS
330
395
102
}
330
395
100
AcDbXrecord
280
     1
102
DISPLAYNAME
  1
Imperial24
102
FLAGS
 90
        0
  0
XRECORD
  5
39A
102
{ACAD_REACTORS
330
399
102
}
330
399
100
AcDbXrecord
280
     1
102
SHADEPLOT
 70
     0
102
SHADEPLOTRESLEVEL
 70
     2
102
SHADEPLOTCUSTOMDPI
 70
   300
  0
XRECORD
  5
398
102
{ACAD_REACTORS
330
397
102
}
330
397
100
AcDbXrecord
280
     1
102
SHADEPLOT
 70
     0
102
SHADEPLOTRESLEVEL
 70
     2
102
SHADEPLOTCUSTOMDPI
 70
   300
  0
XRECORD
  5
35F
102
{ACAD_REACTORS
330
1A
102
}
330
1A
100
AcDbXrecord
280
     1
102
MATERIAL
148
0.0
149
0.0
149
0.0
 93
        0
 94
      127
282
     0
 72
     0
 77
     0
171
     0
175
     0
179
     0
273
     0
  0
XRECORD
  5
1C
102
{ACAD_REACTORS
330
1A
102
}
330
1A
100
AcDbXrecord
280
     1
270
     1
271
     1
  0
XRECORD
  5
1B
102
{ACAD_REACTORS
330
1A
102
}
330
1A
100
AcDbXrecord
280
     1
270
     1
271
     1
  0
XRECORD
  5
1F
102
{ACAD_REACTORS
330
1A
102
}
330
1A
100
AcDbXrecord
280
     1
270
     1
271
     1
  0
XRECORD
  5
1E
102
{ACAD_REACTORS
330
1A
102
}
330
1A
100
AcDbXrecord
280
     1
270
     1
271
     1
  0
XRECORD
  5
20
102
{ACAD_REACTORS
330
1A
102
}
330
1A
100
AcDbXrecord
280
     1
270
     1
271
     1
  0
XRECORD
  5
1D
102
{ACAD_REACTORS
330
1A
102
}
330
1A
100
AcDbXrecord
280
     1
270
     1
271
     1
  0
XRECORD
  5
35E
102
{ACAD_REACTORS
330
12
102
}
330
12
100
AcDbXrecord
280
     1
102
MATERIAL
148
0.0
149
0.0
149
0.0
 93
        0
 94
      127
282
     0
 72
     0
 77
     0
171
     0
175
     0
179
     0
273
     0
  0
XRECORD
  5
14
102
{ACAD_REACTORS
330
12
102
}
330
12
100
AcDbXrecord
280
     1
270
     1
271
     1
  0
XRECORD
  5
13
102
{ACAD_REACTORS
330
12
102
}
330
12
100
AcDbXrecord
280
     1
270
     1
271
     1
  0
XRECORD
  5
17
102
{ACAD_REACTORS
330
12
102
}
330
12
100
AcDbXrecord
280
     1
270
     1
271
     1
  0
XRECORD
  5
16
102
{ACAD_REACTORS
330
12
102
}
330
12
100
AcDbXrecord
280
     1
270
     1
271
     1
  0
XRECORD
  5
18
102
{ACAD_REACTORS
330
12
102
}
330
12
100
AcDbXrecord
280
     1
270
     1
271
     1
  0
XRECORD
  5
15
102
{ACAD_REACTORS
330
12
102
}
330
12
100
AcDbXrecord
280
     1
270
     1
271
     1
  0
XRECORD
  5
360
102
{ACAD_REACTORS
330
22
102
}
330
22
100
AcDbXrecord
280
     1
102
MATERIAL
148
0.0
149
0.0
149
0.0
 93
        0
 94
      127
282
     0
 72
     0
 77
     0
171
     0
175
     0
179
     0
273
     0
  0
XRECORD
  5
24
102
{ACAD_REACTORS
330
22
102
}
330
22
100
AcDbXrecord
280
     1
270
     1
271
     1
  0
XRECORD
  5
23
102
{ACAD_REACTORS
330
22
102
}
330
22
100
AcDbXrecord
280
     1
270
     1
271
     1
  0
XRECORD
  5
27
102
{ACAD_REACTORS
330
22
102
}
330
22
100
AcDbXrecord
280
     1
270
     1
271
     1
  0
XRECORD
  5
26
102
{ACAD_REACTORS
330
22
102
}
330
22
100
AcDbXrecord
280
     1
270
     1
271
     1
  0
XRECORD
  5
28
102
{ACAD_REACTORS
330
22
102
}
330
22
100
AcDbXrecord
280
     1
270
     1
271
     1
  0
XRECORD
  5
25
102
{ACAD_REACTORS
330
22
102
}
330
22
100
AcDbXrecord
280
     1
270
     1
271
     1
  0
XRECORD
  5
394
102
{ACAD_REACTORS
330
393
102
}
330
393
100
AcDbXrecord
280
     1
102
DISPLAYNAME
  1
Imperial24
102
FLAGS
 90
        0
  0
CELLSTYLEMAP
  5
35B
102
{ACAD_REACTORS
330
35A
102
}
330
35A
100
AcDbCellStyleMap
 90
        3
300
CELLSTYLE
  1
TABLEFORMAT_BEGIN
 90
        5
170
     1
 91
        0
 92
    32768
 62
   257
 93
        1
300
CONTENTFORMAT
  1
CONTENTFORMAT_BEGIN
 90
        0
 91
        0
 92
      512
 93
        0
300

 40
0.0
140
1.0
 94
        5
 62
     0
340
55
144
0.25
309
CONTENTFORMAT_END
171
     0
 94
        0
309
TABLEFORMAT_END
  1
CELLSTYLE_BEGIN
 90
        1
 91
        1
300
_TITLE
309
CELLSTYLE_END
300
CELLSTYLE
  1
TABLEFORMAT_BEGIN
 90
        5
170
     1
 91
        0
 92
        0
 62
   257
 93
        1
300
CONTENTFORMAT
  1
CONTENTFORMAT_BEGIN
 90
        0
 91
        0
 92
      512
 93
        0
300

 40
0.0
140
1.0
 94
        5
 62
     0
340
55
144
0.18
309
CONTENTFORMAT_END
171
     0
 94
        0
309
TABLEFORMAT_END
  1
CELLSTYLE_BEGIN
 90
        2
 91
        1
300
_HEADER
309
CELLSTYLE_END
300
CELLSTYLE
  1
TABLEFORMAT_BEGIN
 90
        5
170
     1
 91
        0
 92
        0
 62
   257
 93
        1
300
CONTENTFORMAT
  1
CONTENTFORMAT_BEGIN
 90
        0
 91
        0
 92
      512
 93
        0
300

 40
0.0
140
1.0
 94
        2
 62
     0
340
55
144
0.18
309
CONTENTFORMAT_END
171
     0
 94
        0
309
TABLEFORMAT_END
  1
CELLSTYLE_BEGIN
 90
        3
 91
        2
300
_DATA
309
CELLSTYLE_END
  0
XRECORD
  5
391
102
{ACAD_REACTORS
330
35A
102
}
330
35A
100
AcDbXrecord
280
     1
102
ACAD_ROUNDTRIP_PRE2007_TABLESTYLE
 90
      512
 91
        0
  1

 92
      512
 93
        0
  2

 94
      512
 95
        0
  3

  0
XRECORD
  5
36C
102
{ACAD_REACTORS
330
36B
102
}
330
36B
100
AcDbXrecord
280
     1
102
RTVSPost2010Prop28
280
     1
102
RTVSPost2010PropOp28
 70
     1
102
RTVSPost2010Prop29
280
     1
102
RTVSPost2010PropOp29
 70
     1
102
RTVSPost2010Prop30
280
     0
102
RTVSPost2010PropOp30
 70
     1
102
RTVSPost2010Prop31
280
     0
102
RTVSPost2010PropOp31
 70
     1
102
RTVSPost2010Prop32
280
     0
102
RTVSPost2010PropOp32
 70
     1
102
RTVSPost2010Prop33
280
     0
102
RTVSPost2010PropOp33
 70
     1
102
RTVSPost2010Prop34
280
     0
102
RTVSPost2010PropOp34
 70
     1
102
RTVSPost2010Prop35
280
     0
102
RTVSPost2010PropOp35
 70
     1
102
RTVSPost2010Prop36
280
     0
102
RTVSPost2010PropOp36
 70
     1
102
RTVSPost2010Prop37
 90
       50
102
RTVSPost2010PropOp37
 70
     1
102
RTVSPost2010Prop38
140
0.0
102
RTVSPost2010PropOp38
 70
     1
102
RTVSPost2010Prop39
140
1.0
102
RTVSPost2010PropOp39
 70
     1
102
RTVSPost2010Prop40
 90
        0
102
RTVSPost2010PropOp40
 70
     1
102
RTVSPost2010Prop41ColorIndex
 90
       18
102
RTVSPost2010Prop41ColorRGB
 90
        0
102
RTVSPost2010PropOp41
 70
     1
102
RTVSPost2010Prop42
 90
       50
102
RTVSPost2010PropOp42
 70
     1
102
RTVSPost2010Prop43
 90
        3
102
RTVSPost2010PropOp43
 70
     1
102
RTVSPost2010Prop44ColorIndex
 90
        5
102
RTVSPost2010Prop44ColorRGB
 90
      255
102
RTVSPost2010PropOp44
 70
     1
102
RTVSPost2010Prop45
280
     0
102
RTVSPost2010PropOp45
 70
     1
102
RTVSPost2010Prop46
 90
       50
102
RTVSPost2010PropOp46
 70
     1
102
RTVSPost2010Prop47
 90
       50
102
RTVSPost2010PropOp47
 70
     1
102
RTVSPost2010Prop48
 90
       50
102
RTVSPost2010PropOp48
 70
     1
102
RTVSPost2010Prop49
280
     0
102
RTVSPost2010PropOp49
 70
     1
102
RTVSPost2010Prop50
 90
       50
102
RTVSPost2010PropOp50
 70
     1
102
RTVSPost2010Prop51ColorIndex
 90
      256
102
RTVSPost2010Prop51ColorRGB
 90
-16777216
102
RTVSPost2010PropOp51
 70
     0
102
RTVSPost2010Prop52
140
1.0
102
RTVSPost2010PropOp52
 70
     0
102
RTVSPost2010Prop53
 90
        2
102
RTVSPost2010PropOp53
 70
     1
102
RTVSPost2010Prop54
  1
strokes_ogs.tif
102
RTVSPost2010PropOp54
 70
     1
102
RTVSPost2010Prop55
280
     0
102
RTVSPost2010PropOp55
 70
     1
102
RTVSPost2010Prop56
140
1.0
102
RTVSPost2010PropOp56
 70
     1
102
RTVSPost2010Prop57
140
1.0
102
RTVSPost2010PropOp57
 70
     1
102
RTVSPropertyOp0
 70
     1
102
RTVSPropertyOp1
 70
     1
102
RTVSPropertyOp2
 70
     1
102
RTVSPropertyOp3
 70
     1
102
RTVSPropertyOp4
 70
     1
102
RTVSPropertyOp5
 70
     1
102
RTVSPropertyOp6
 70
     1
102
RTVSPropertyOp7
 70
     1
102
RTVSPropertyOp8
 70
     1
102
RTVSPropertyOp9
 70
     1
102
RTVSPropertyOp10
 70
     1
102
RTVSPropertyOp11
 70
     1
102
RTVSPropertyOp12
 70
     1
102
RTVSPropertyOp13
 70
     1
102
RTVSPropertyOp14
 70
     1
102
RTVSPropertyOp15
 70
     1
102
RTVSPropertyOp16
 70
     1
102
RTVSPropertyOp17
 70
     1
102
RTVSPropertyOp18
 70
     1
102
RTVSPropertyOp19
 70
     1
102
RTVSPropertyOp20
 70
     1
102
RTVSPropertyOp21
 70
     1
102
RTVSPropertyOp22
 70
     1
102
RTVSPropertyOp23
 70
     1
102
RTVSPropertyOp24
 70
     1
102
RTVSPropertyOp25
 70
     1
102
RTVSPropertyOp26
 70
     1
102
RTVSPropertyOp27
 70
     1
102
RTVSPropertyOp28
 70
     1
102
RTVSPropertyOp29
 70
     1
102
RTVSPropertyOp30
 70
     1
102
RTVSPropertyOp31
 70
     1
102
RTVSPropertyOp32
 70
     1
102
RTVSPropertyOp33
 70
     1
102
RTVSPropertyOp34
 70
     1
102
RTVSPropertyOp35
 70
     1
102
RTVSPropertyOp36
 70
     1
102
RTVSPropertyOp37
 70
     1
102
RTVSPropertyOp38
 70
     1
102
RTVSPropertyOp39
 70
     1
102
RTVSPropertyOp40
 70
     1
102
RTVSPropertyOp41
 70
     1
102
RTVSPropertyOp42
 70
     1
102
RTVSPropertyOp43
 70
     1
102
RTVSPropertyOp44
 70
     1
102
RTVSPropertyOp45
 70
     1
102
RTVSPropertyOp46
 70
     1
102
RTVSPropertyOp47
 70
     1
102
RTVSPropertyOp48
 70
     1
102
RTVSPropertyOp49
 70
     1
102
RTVSPropertyOp50
 70
     1
102
RTVSPropertyOp51
 70
     0
102
RTVSPropertyOp52
 70
     0
102
RTVSPropertyOp53
 70
     1
102
RTVSPropertyOp54
 70
     1
102
RTVSPropertyOp55
 70
     1
102
RTVSPropertyOp56
 70
     1
102
RTVSPropertyOp57
 70
     1
102
RTVSPropertyOp58
 70
     1
102
RTVSPropertyOp59
 70
     1
102
RTVSPropertyOp60
 70
     1
102
RTVSPropertyOp61
 70
     1
102
RTVSPropertyOp62
 70
     1
  0
XRECORD
  5
36A
102
{ACAD_REACTORS
330
369
102
}
330
369
100
AcDbXrecord
280
     1
102
RTVSPost2010Prop28
280
     0
102
RTVSPost2010PropOp28
 70
     1
102
RTVSPost2010Prop29
280
     1
102
RTVSPost2010PropOp29
 70
     1
102
RTVSPost2010Prop30
280
     1
102
RTVSPost2010PropOp30
 70
     1
102
RTVSPost2010Prop31
280
     0
102
RTVSPost2010PropOp31
 70
     1
102
RTVSPost2010Prop32
280
     0
102
RTVSPost2010PropOp32
 70
     1
102
RTVSPost2010Prop33
280
     0
102
RTVSPost2010PropOp33
 70
     1
102
RTVSPost2010Prop34
280
     0
102
RTVSPost2010PropOp34
 70
     1
102
RTVSPost2010Prop35
280
     0
102
RTVSPost2010PropOp35
 70
     1
102
RTVSPost2010Prop36
280
     0
102
RTVSPost2010PropOp36
 70
     1
102
RTVSPost2010Prop37
 90
       50
102
RTVSPost2010PropOp37
 70
     1
102
RTVSPost2010Prop38
140
0.0
102
RTVSPost2010PropOp38
 70
     1
102
RTVSPost2010Prop39
140
1.0
102
RTVSPost2010PropOp39
 70
     1
102
RTVSPost2010Prop40
 90
        0
102
RTVSPost2010PropOp40
 70
     1
102
RTVSPost2010Prop41ColorIndex
 90
       18
102
RTVSPost2010Prop41ColorRGB
 90
        0
102
RTVSPost2010PropOp41
 70
     1
102
RTVSPost2010Prop42
 90
       50
102
RTVSPost2010PropOp42
 70
     1
102
RTVSPost2010Prop43
 90
        3
102
RTVSPost2010PropOp43
 70
     1
102
RTVSPost2010Prop44ColorIndex
 90
        5
102
RTVSPost2010Prop44ColorRGB
 90
      255
102
RTVSPost2010PropOp44
 70
     1
102
RTVSPost2010Prop45
280
     0
102
RTVSPost2010PropOp45
 70
     1
102
RTVSPost2010Prop46
 90
       50
102
RTVSPost2010PropOp46
 70
     1
102
RTVSPost2010Prop47
 90
       50
102
RTVSPost2010PropOp47
 70
     1
102
RTVSPost2010Prop48
 90
       50
102
RTVSPost2010PropOp48
 70
     1
102
RTVSPost2010Prop49
280
     0
102
RTVSPost2010PropOp49
 70
     1
102
RTVSPost2010Prop50
 90
       50
102
RTVSPost2010PropOp50
 70
     1
102
RTVSPost2010Prop51ColorIndex
 90
      256
102
RTVSPost2010Prop51ColorRGB
 90
-16777216
102
RTVSPost2010PropOp51
 70
     0
102
RTVSPost2010Prop52
140
1.0
102
RTVSPost2010PropOp52
 70
     0
102
RTVSPost2010Prop53
 90
        2
102
RTVSPost2010PropOp53
 70
     1
102
RTVSPost2010Prop54
  1
strokes_ogs.tif
102
RTVSPost2010PropOp54
 70
     1
102
RTVSPost2010Prop55
280
     0
102
RTVSPost2010PropOp55
 70
     1
102
RTVSPost2010Prop56
140
1.0
102
RTVSPost2010PropOp56
 70
     1
102
RTVSPost2010Prop57
140
1.0
102
RTVSPost2010PropOp57
 70
     1
102
RTVSPropertyOp0
 70
     1
102
RTVSPropertyOp1
 70
     1
102
RTVSPropertyOp2
 70
     1
102
RTVSPropertyOp3
 70
     1
102
RTVSPropertyOp4
 70
     1
102
RTVSPropertyOp5
 70
     1
102
RTVSPropertyOp6
 70
     1
102
RTVSPropertyOp7
 70
     1
102
RTVSPropertyOp8
 70
     1
102
RTVSPropertyOp9
 70
     1
102
RTVSPropertyOp10
 70
     1
102
RTVSPropertyOp11
 70
     1
102
RTVSPropertyOp12
 70
     1
102
RTVSPropertyOp13
 70
     1
102
RTVSPropertyOp14
 70
     1
102
RTVSPropertyOp15
 70
     1
102
RTVSPropertyOp16
 70
     1
102
RTVSPropertyOp17
 70
     1
102
RTVSPropertyOp18
 70
     1
102
RTVSPropertyOp19
 70
     1
102
RTVSPropertyOp20
 70
     1
102
RTVSPropertyOp21
 70
     1
102
RTVSPropertyOp22
 70
     1
102
RTVSPropertyOp23
 70
     1
102
RTVSPropertyOp24
 70
     1
102
RTVSPropertyOp25
 70
     1
102
RTVSPropertyOp26
 70
     1
102
RTVSPropertyOp27
 70
     1
102
RTVSPropertyOp28
 70
     1
102
RTVSPropertyOp29
 70
     1
102
RTVSPropertyOp30
 70
     1
102
RTVSPropertyOp31
 70
     1
102
RTVSPropertyOp32
 70
     1
102
RTVSPropertyOp33
 70
     1
102
RTVSPropertyOp34
 70
     1
102
RTVSPropertyOp35
 70
     1
102
RTVSPropertyOp36
 70
     1
102
RTVSPropertyOp37
 70
     1
102
RTVSPropertyOp38
 70
     1
102
RTVSPropertyOp39
 70
     1
102
RTVSPropertyOp40
 70
     1
102
RTVSPropertyOp41
 70
     1
102
RTVSPropertyOp42
 70
     1
102
RTVSPropertyOp43
 70
     1
102
RTVSPropertyOp44
 70
     1
102
RTVSPropertyOp45
 70
     1
102
RTVSPropertyOp46
 70
     1
102
RTVSPropertyOp47
 70
     1
102
RTVSPropertyOp48
 70
     1
102
RTVSPropertyOp49
 70
     1
102
RTVSPropertyOp50
 70
     1
102
RTVSPropertyOp51
 70
     0
102
RTVSPropertyOp52
 70
     0
102
RTVSPropertyOp53
 70
     1
102
RTVSPropertyOp54
 70
     1
102
RTVSPropertyOp55
 70
     1
102
RTVSPropertyOp56
 70
     1
102
RTVSPropertyOp57
 70
     1
102
RTVSPropertyOp58
 70
     1
102
RTVSPropertyOp59
 70
     1
102
RTVSPropertyOp60
 70
     1
102
RTVSPropertyOp61
 70
     1
102
RTVSPropertyOp62
 70
     1
  0
XRECORD
  5
378
102
{ACAD_REACTORS
330
377
102
}
330
377
100
AcDbXrecord
280
     1
102
RTVSPost2010Prop28
280
     0
102
RTVSPost2010PropOp28
 70
     1
102
RTVSPost2010Prop29
280
     1
102
RTVSPost2010PropOp29
 70
     1
102
RTVSPost2010Prop30
280
     1
102
RTVSPost2010PropOp30
 70
     1
102
RTVSPost2010Prop31
280
     0
102
RTVSPost2010PropOp31
 70
     1
102
RTVSPost2010Prop32
280
     0
102
RTVSPost2010PropOp32
 70
     1
102
RTVSPost2010Prop33
280
     0
102
RTVSPost2010PropOp33
 70
     1
102
RTVSPost2010Prop34
280
     0
102
RTVSPost2010PropOp34
 70
     1
102
RTVSPost2010Prop35
280
     0
102
RTVSPost2010PropOp35
 70
     1
102
RTVSPost2010Prop36
280
     0
102
RTVSPost2010PropOp36
 70
     1
102
RTVSPost2010Prop37
 90
       50
102
RTVSPost2010PropOp37
 70
     1
102
RTVSPost2010Prop38
140
0.0
102
RTVSPost2010PropOp38
 70
     1
102
RTVSPost2010Prop39
140
1.0
102
RTVSPost2010PropOp39
 70
     1
102
RTVSPost2010Prop40
 90
        0
102
RTVSPost2010PropOp40
 70
     1
102
RTVSPost2010Prop41ColorIndex
 90
       18
102
RTVSPost2010Prop41ColorRGB
 90
        0
102
RTVSPost2010PropOp41
 70
     1
102
RTVSPost2010Prop42
 90
       50
102
RTVSPost2010PropOp42
 70
     1
102
RTVSPost2010Prop43
 90
        3
102
RTVSPost2010PropOp43
 70
     1
102
RTVSPost2010Prop44ColorIndex
 90
        5
102
RTVSPost2010Prop44ColorRGB
 90
      255
102
RTVSPost2010PropOp44
 70
     1
102
RTVSPost2010Prop45
280
     0
102
RTVSPost2010PropOp45
 70
     1
102
RTVSPost2010Prop46
 90
       50
102
RTVSPost2010PropOp46
 70
     1
102
RTVSPost2010Prop47
 90
       50
102
RTVSPost2010PropOp47
 70
     1
102
RTVSPost2010Prop48
 90
       50
102
RTVSPost2010PropOp48
 70
     1
102
RTVSPost2010Prop49
280
     0
102
RTVSPost2010PropOp49
 70
     1
102
RTVSPost2010Prop50
 90
       50
102
RTVSPost2010PropOp50
 70
     1
102
RTVSPost2010Prop51ColorIndex
 90
      256
102
RTVSPost2010Prop51ColorRGB
 90
-16777216
102
RTVSPost2010PropOp51
 70
     0
102
RTVSPost2010Prop52
140
1.0
102
RTVSPost2010PropOp52
 70
     0
102
RTVSPost2010Prop53
 90
        2
102
RTVSPost2010PropOp53
 70
     1
102
RTVSPost2010Prop54
  1
strokes_ogs.tif
102
RTVSPost2010PropOp54
 70
     1
102
RTVSPost2010Prop55
280
     0
102
RTVSPost2010PropOp55
 70
     1
102
RTVSPost2010Prop56
140
1.0
102
RTVSPost2010PropOp56
 70
     1
102
RTVSPost2010Prop57
140
1.0
102
RTVSPost2010PropOp57
 70
     1
102
RTVSPropertyOp0
 70
     1
102
RTVSPropertyOp1
 70
     1
102
RTVSPropertyOp2
 70
     1
102
RTVSPropertyOp3
 70
     1
102
RTVSPropertyOp4
 70
     1
102
RTVSPropertyOp5
 70
     1
102
RTVSPropertyOp6
 70
     1
102
RTVSPropertyOp7
 70
     1
102
RTVSPropertyOp8
 70
     1
102
RTVSPropertyOp9
 70
     1
102
RTVSPropertyOp10
 70
     1
102
RTVSPropertyOp11
 70
     1
102
RTVSPropertyOp12
 70
     1
102
RTVSPropertyOp13
 70
     1
102
RTVSPropertyOp14
 70
     1
102
RTVSPropertyOp15
 70
     1
102
RTVSPropertyOp16
 70
     1
102
RTVSPropertyOp17
 70
     1
102
RTVSPropertyOp18
 70
     1
102
RTVSPropertyOp19
 70
     1
102
RTVSPropertyOp20
 70
     1
102
RTVSPropertyOp21
 70
     1
102
RTVSPropertyOp22
 70
     1
102
RTVSPropertyOp23
 70
     1
102
RTVSPropertyOp24
 70
     1
102
RTVSPropertyOp25
 70
     1
102
RTVSPropertyOp26
 70
     1
102
RTVSPropertyOp27
 70
     1
102
RTVSPropertyOp28
 70
     1
102
RTVSPropertyOp29
 70
     1
102
RTVSPropertyOp30
 70
     1
102
RTVSPropertyOp31
 70
     1
102
RTVSPropertyOp32
 70
     1
102
RTVSPropertyOp33
 70
     1
102
RTVSPropertyOp34
 70
     1
102
RTVSPropertyOp35
 70
     1
102
RTVSPropertyOp36
 70
     1
102
RTVSPropertyOp37
 70
     1
102
RTVSPropertyOp38
 70
     1
102
RTVSPropertyOp39
 70
     1
102
RTVSPropertyOp40
 70
     1
102
RTVSPropertyOp41
 70
     1
102
RTVSPropertyOp42
 70
     1
102
RTVSPropertyOp43
 70
     1
102
RTVSPropertyOp44
 70
     1
102
RTVSPropertyOp45
 70
     1
102
RTVSPropertyOp46
 70
     1
102
RTVSPropertyOp47
 70
     1
102
RTVSPropertyOp48
 70
     1
102
RTVSPropertyOp49
 70
     1
102
RTVSPropertyOp50
 70
     1
102
RTVSPropertyOp51
 70
     0
102
RTVSPropertyOp52
 70
     0
102
RTVSPropertyOp53
 70
     1
102
RTVSPropertyOp54
 70
     1
102
RTVSPropertyOp55
 70
     1
102
RTVSPropertyOp56
 70
     1
102
RTVSPropertyOp57
 70
     1
102
RTVSPropertyOp58
 70
     1
102
RTVSPropertyOp59
 70
     1
102
RTVSPropertyOp60
 70
     1
102
RTVSPropertyOp61
 70
     1
102
RTVSPropertyOp62
 70
     1
  0
XRECORD
  5
380
102
{ACAD_REACTORS
330
37F
102
}
330
37F
100
AcDbXrecord
280
     1
102
RTVSPost2010Prop28
280
     0
102
RTVSPost2010PropOp28
 70
     1
102
RTVSPost2010Prop29
280
     1
102
RTVSPost2010PropOp29
 70
     1
102
RTVSPost2010Prop30
280
     1
102
RTVSPost2010PropOp30
 70
     1
102
RTVSPost2010Prop31
280
     0
102
RTVSPost2010PropOp31
 70
     1
102
RTVSPost2010Prop32
280
     0
102
RTVSPost2010PropOp32
 70
     1
102
RTVSPost2010Prop33
280
     0
102
RTVSPost2010PropOp33
 70
     1
102
RTVSPost2010Prop34
280
     0
102
RTVSPost2010PropOp34
 70
     1
102
RTVSPost2010Prop35
280
     0
102
RTVSPost2010PropOp35
 70
     1
102
RTVSPost2010Prop36
280
     0
102
RTVSPost2010PropOp36
 70
     1
102
RTVSPost2010Prop37
 90
       50
102
RTVSPost2010PropOp37
 70
     1
102
RTVSPost2010Prop38
140
0.0
102
RTVSPost2010PropOp38
 70
     1
102
RTVSPost2010Prop39
140
1.0
102
RTVSPost2010PropOp39
 70
     1
102
RTVSPost2010Prop40
 90
        0
102
RTVSPost2010PropOp40
 70
     1
102
RTVSPost2010Prop41ColorIndex
 90
       18
102
RTVSPost2010Prop41ColorRGB
 90
        0
102
RTVSPost2010PropOp41
 70
     1
102
RTVSPost2010Prop42
 90
       50
102
RTVSPost2010PropOp42
 70
     1
102
RTVSPost2010Prop43
 90
        3
102
RTVSPost2010PropOp43
 70
     1
102
RTVSPost2010Prop44ColorIndex
 90
        5
102
RTVSPost2010Prop44ColorRGB
 90
      255
102
RTVSPost2010PropOp44
 70
     1
102
RTVSPost2010Prop45
280
     0
102
RTVSPost2010PropOp45
 70
     1
102
RTVSPost2010Prop46
 90
       50
102
RTVSPost2010PropOp46
 70
     1
102
RTVSPost2010Prop47
 90
       50
102
RTVSPost2010PropOp47
 70
     1
102
RTVSPost2010Prop48
 90
       50
102
RTVSPost2010PropOp48
 70
     1
102
RTVSPost2010Prop49
280
     0
102
RTVSPost2010PropOp49
 70
     1
102
RTVSPost2010Prop50
 90
       50
102
RTVSPost2010PropOp50
 70
     1
102
RTVSPost2010Prop51ColorIndex
 90
      256
102
RTVSPost2010Prop51ColorRGB
 90
-16777216
102
RTVSPost2010PropOp51
 70
     0
102
RTVSPost2010Prop52
140
1.0
102
RTVSPost2010PropOp52
 70
     0
102
RTVSPost2010Prop53
 90
        2
102
RTVSPost2010PropOp53
 70
     1
102
RTVSPost2010Prop54
  1
strokes_ogs.tif
102
RTVSPost2010PropOp54
 70
     1
102
RTVSPost2010Prop55
280
     0
102
RTVSPost2010PropOp55
 70
     1
102
RTVSPost2010Prop56
140
1.0
102
RTVSPost2010PropOp56
 70
     1
102
RTVSPost2010Prop57
140
1.0
102
RTVSPost2010PropOp57
 70
     1
102
RTVSPropertyOp0
 70
     1
102
RTVSPropertyOp1
 70
     1
102
RTVSPropertyOp2
 70
     1
102
RTVSPropertyOp3
 70
     1
102
RTVSPropertyOp4
 70
     1
102
RTVSPropertyOp5
 70
     1
102
RTVSPropertyOp6
 70
     1
102
RTVSPropertyOp7
 70
     1
102
RTVSPropertyOp8
 70
     1
102
RTVSPropertyOp9
 70
     1
102
RTVSPropertyOp10
 70
     1
102
RTVSPropertyOp11
 70
     1
102
RTVSPropertyOp12
 70
     1
102
RTVSPropertyOp13
 70
     1
102
RTVSPropertyOp14
 70
     1
102
RTVSPropertyOp15
 70
     1
102
RTVSPropertyOp16
 70
     1
102
RTVSPropertyOp17
 70
     1
102
RTVSPropertyOp18
 70
     1
102
RTVSPropertyOp19
 70
     1
102
RTVSPropertyOp20
 70
     1
102
RTVSPropertyOp21
 70
     1
102
RTVSPropertyOp22
 70
     1
102
RTVSPropertyOp23
 70
     1
102
RTVSPropertyOp24
 70
     1
102
RTVSPropertyOp25
 70
     1
102
RTVSPropertyOp26
 70
     1
102
RTVSPropertyOp27
 70
     1
102
RTVSPropertyOp28
 70
     1
102
RTVSPropertyOp29
 70
     1
102
RTVSPropertyOp30
 70
     1
102
RTVSPropertyOp31
 70
     1
102
RTVSPropertyOp32
 70
     1
102
RTVSPropertyOp33
 70
     1
102
RTVSPropertyOp34
 70
     1
102
RTVSPropertyOp35
 70
     1
102
RTVSPropertyOp36
 70
     1
102
RTVSPropertyOp37
 70
     1
102
RTVSPropertyOp38
 70
     1
102
RTVSPropertyOp39
 70
     1
102
RTVSPropertyOp40
 70
     1
102
RTVSPropertyOp41
 70
     1
102
RTVSPropertyOp42
 70
     1
102
RTVSPropertyOp43
 70
     1
102
RTVSPropertyOp44
 70
     1
102
RTVSPropertyOp45
 70
     1
102
RTVSPropertyOp46
 70
     1
102
RTVSPropertyOp47
 70
     1
102
RTVSPropertyOp48
 70
     1
102
RTVSPropertyOp49
 70
     1
102
RTVSPropertyOp50
 70
     1
102
RTVSPropertyOp51
 70
     0
102
RTVSPropertyOp52
 70
     0
102
RTVSPropertyOp53
 70
     1
102
RTVSPropertyOp54
 70
     1
102
RTVSPropertyOp55
 70
     1
102
RTVSPropertyOp56
 70
     1
102
RTVSPropertyOp57
 70
     1
102
RTVSPropertyOp58
 70
     1
102
RTVSPropertyOp59
 70
     1
102
RTVSPropertyOp60
 70
     1
102
RTVSPropertyOp61
 70
     1
102
RTVSPropertyOp62
 70
     1
  0
XRECORD
  5
372
102
{ACAD_REACTORS
330
371
102
}
330
371
100
AcDbXrecord
280
     1
102
RTVSPost2010Prop28
280
     0
102
RTVSPost2010PropOp28
 70
     1
102
RTVSPost2010Prop29
280
     1
102
RTVSPost2010PropOp29
 70
     1
102
RTVSPost2010Prop30
280
     1
102
RTVSPost2010PropOp30
 70
     1
102
RTVSPost2010Prop31
280
     0
102
RTVSPost2010PropOp31
 70
     1
102
RTVSPost2010Prop32
280
     0
102
RTVSPost2010PropOp32
 70
     1
102
RTVSPost2010Prop33
280
     0
102
RTVSPost2010PropOp33
 70
     1
102
RTVSPost2010Prop34
280
     0
102
RTVSPost2010PropOp34
 70
     1
102
RTVSPost2010Prop35
280
     0
102
RTVSPost2010PropOp35
 70
     1
102
RTVSPost2010Prop36
280
     0
102
RTVSPost2010PropOp36
 70
     1
102
RTVSPost2010Prop37
 90
       50
102
RTVSPost2010PropOp37
 70
     1
102
RTVSPost2010Prop38
140
0.0
102
RTVSPost2010PropOp38
 70
     1
102
RTVSPost2010Prop39
140
1.0
102
RTVSPost2010PropOp39
 70
     1
102
RTVSPost2010Prop40
 90
        0
102
RTVSPost2010PropOp40
 70
     1
102
RTVSPost2010Prop41ColorIndex
 90
       18
102
RTVSPost2010Prop41ColorRGB
 90
        0
102
RTVSPost2010PropOp41
 70
     1
102
RTVSPost2010Prop42
 90
       50
102
RTVSPost2010PropOp42
 70
     1
102
RTVSPost2010Prop43
 90
        3
102
RTVSPost2010PropOp43
 70
     1
102
RTVSPost2010Prop44ColorIndex
 90
        5
102
RTVSPost2010Prop44ColorRGB
 90
      255
102
RTVSPost2010PropOp44
 70
     1
102
RTVSPost2010Prop45
280
     0
102
RTVSPost2010PropOp45
 70
     1
102
RTVSPost2010Prop46
 90
       50
102
RTVSPost2010PropOp46
 70
     1
102
RTVSPost2010Prop47
 90
       50
102
RTVSPost2010PropOp47
 70
     1
102
RTVSPost2010Prop48
 90
       50
102
RTVSPost2010PropOp48
 70
     1
102
RTVSPost2010Prop49
280
     0
102
RTVSPost2010PropOp49
 70
     1
102
RTVSPost2010Prop50
 90
       50
102
RTVSPost2010PropOp50
 70
     1
102
RTVSPost2010Prop51ColorIndex
 90
      256
102
RTVSPost2010Prop51ColorRGB
 90
-16777216
102
RTVSPost2010PropOp51
 70
     0
102
RTVSPost2010Prop52
140
1.0
102
RTVSPost2010PropOp52
 70
     0
102
RTVSPost2010Prop53
 90
        2
102
RTVSPost2010PropOp53
 70
     1
102
RTVSPost2010Prop54
  1
strokes_ogs.tif
102
RTVSPost2010PropOp54
 70
     1
102
RTVSPost2010Prop55
280
     0
102
RTVSPost2010PropOp55
 70
     1
102
RTVSPost2010Prop56
140
1.0
102
RTVSPost2010PropOp56
 70
     1
102
RTVSPost2010Prop57
140
1.0
102
RTVSPost2010PropOp57
 70
     1
102
RTVSPropertyOp0
 70
     1
102
RTVSPropertyOp1
 70
     1
102
RTVSPropertyOp2
 70
     1
102
RTVSPropertyOp3
 70
     1
102
RTVSPropertyOp4
 70
     1
102
RTVSPropertyOp5
 70
     1
102
RTVSPropertyOp6
 70
     1
102
RTVSPropertyOp7
 70
     1
102
RTVSPropertyOp8
 70
     1
102
RTVSPropertyOp9
 70
     1
102
RTVSPropertyOp10
 70
     1
102
RTVSPropertyOp11
 70
     1
102
RTVSPropertyOp12
 70
     1
102
RTVSPropertyOp13
 70
     1
102
RTVSPropertyOp14
 70
     1
102
RTVSPropertyOp15
 70
     1
102
RTVSPropertyOp16
 70
     1
102
RTVSPropertyOp17
 70
     1
102
RTVSPropertyOp18
 70
     1
102
RTVSPropertyOp19
 70
     1
102
RTVSPropertyOp20
 70
     1
102
RTVSPropertyOp21
 70
     1
102
RTVSPropertyOp22
 70
     1
102
RTVSPropertyOp23
 70
     1
102
RTVSPropertyOp24
 70
     1
102
RTVSPropertyOp25
 70
     1
102
RTVSPropertyOp26
 70
     1
102
RTVSPropertyOp27
 70
     1
102
RTVSPropertyOp28
 70
     1
102
RTVSPropertyOp29
 70
     1
102
RTVSPropertyOp30
 70
     1
102
RTVSPropertyOp31
 70
     1
102
RTVSPropertyOp32
 70
     1
102
RTVSPropertyOp33
 70
     1
102
RTVSPropertyOp34
 70
     1
102
RTVSPropertyOp35
 70
     1
102
RTVSPropertyOp36
 70
     1
102
RTVSPropertyOp37
 70
     1
102
RTVSPropertyOp38
 70
     1
102
RTVSPropertyOp39
 70
     1
102
RTVSPropertyOp40
 70
     1
102
RTVSPropertyOp41
 70
     1
102
RTVSPropertyOp42
 70
     1
102
RTVSPropertyOp43
 70
     1
102
RTVSPropertyOp44
 70
     1
102
RTVSPropertyOp45
 70
     1
102
RTVSPropertyOp46
 70
     1
102
RTVSPropertyOp47
 70
     1
102
RTVSPropertyOp48
 70
     1
102
RTVSPropertyOp49
 70
     1
102
RTVSPropertyOp50
 70
     1
102
RTVSPropertyOp51
 70
     0
102
RTVSPropertyOp52
 70
     0
102
RTVSPropertyOp53
 70
     1
102
RTVSPropertyOp54
 70
     1
102
RTVSPropertyOp55
 70
     1
102
RTVSPropertyOp56
 70
     1
102
RTVSPropertyOp57
 70
     1
102
RTVSPropertyOp58
 70
     1
102
RTVSPropertyOp59
 70
     1
102
RTVSPropertyOp60
 70
     1
102
RTVSPropertyOp61
 70
     1
102
RTVSPropertyOp62
 70
     1
  0
XRECORD
  5
376
102
{ACAD_REACTORS
330
375
102
}
330
375
100
AcDbXrecord
280
     1
102
RTVSPost2010Prop28
280
     0
102
RTVSPost2010PropOp28
 70
     1
102
RTVSPost2010Prop29
280
     1
102
RTVSPost2010PropOp29
 70
     1
102
RTVSPost2010Prop30
280
     1
102
RTVSPost2010PropOp30
 70
     1
102
RTVSPost2010Prop31
280
     0
102
RTVSPost2010PropOp31
 70
     1
102
RTVSPost2010Prop32
280
     0
102
RTVSPost2010PropOp32
 70
     1
102
RTVSPost2010Prop33
280
     0
102
RTVSPost2010PropOp33
 70
     1
102
RTVSPost2010Prop34
280
     0
102
RTVSPost2010PropOp34
 70
     1
102
RTVSPost2010Prop35
280
     0
102
RTVSPost2010PropOp35
 70
     1
102
RTVSPost2010Prop36
280
     0
102
RTVSPost2010PropOp36
 70
     1
102
RTVSPost2010Prop37
 90
       50
102
RTVSPost2010PropOp37
 70
     1
102
RTVSPost2010Prop38
140
0.0
102
RTVSPost2010PropOp38
 70
     1
102
RTVSPost2010Prop39
140
1.0
102
RTVSPost2010PropOp39
 70
     1
102
RTVSPost2010Prop40
 90
        0
102
RTVSPost2010PropOp40
 70
     1
102
RTVSPost2010Prop41ColorIndex
 90
       18
102
RTVSPost2010Prop41ColorRGB
 90
        0
102
RTVSPost2010PropOp41
 70
     1
102
RTVSPost2010Prop42
 90
       50
102
RTVSPost2010PropOp42
 70
     1
102
RTVSPost2010Prop43
 90
        3
102
RTVSPost2010PropOp43
 70
     1
102
RTVSPost2010Prop44ColorIndex
 90
        5
102
RTVSPost2010Prop44ColorRGB
 90
      255
102
RTVSPost2010PropOp44
 70
     1
102
RTVSPost2010Prop45
280
     0
102
RTVSPost2010PropOp45
 70
     1
102
RTVSPost2010Prop46
 90
       50
102
RTVSPost2010PropOp46
 70
     1
102
RTVSPost2010Prop47
 90
       50
102
RTVSPost2010PropOp47
 70
     1
102
RTVSPost2010Prop48
 90
       50
102
RTVSPost2010PropOp48
 70
     1
102
RTVSPost2010Prop49
280
     0
102
RTVSPost2010PropOp49
 70
     1
102
RTVSPost2010Prop50
 90
       50
102
RTVSPost2010PropOp50
 70
     1
102
RTVSPost2010Prop51ColorIndex
 90
      256
102
RTVSPost2010Prop51ColorRGB
 90
-16777216
102
RTVSPost2010PropOp51
 70
     0
102
RTVSPost2010Prop52
140
1.0
102
RTVSPost2010PropOp52
 70
     0
102
RTVSPost2010Prop53
 90
        2
102
RTVSPost2010PropOp53
 70
     1
102
RTVSPost2010Prop54
  1
strokes_ogs.tif
102
RTVSPost2010PropOp54
 70
     1
102
RTVSPost2010Prop55
280
     0
102
RTVSPost2010PropOp55
 70
     1
102
RTVSPost2010Prop56
140
1.0
102
RTVSPost2010PropOp56
 70
     1
102
RTVSPost2010Prop57
140
1.0
102
RTVSPost2010PropOp57
 70
     1
102
RTVSPropertyOp0
 70
     1
102
RTVSPropertyOp1
 70
     1
102
RTVSPropertyOp2
 70
     1
102
RTVSPropertyOp3
 70
     1
102
RTVSPropertyOp4
 70
     1
102
RTVSPropertyOp5
 70
     1
102
RTVSPropertyOp6
 70
     1
102
RTVSPropertyOp7
 70
     1
102
RTVSPropertyOp8
 70
     1
102
RTVSPropertyOp9
 70
     1
102
RTVSPropertyOp10
 70
     1
102
RTVSPropertyOp11
 70
     1
102
RTVSPropertyOp12
 70
     1
102
RTVSPropertyOp13
 70
     1
102
RTVSPropertyOp14
 70
     1
102
RTVSPropertyOp15
 70
     1
102
RTVSPropertyOp16
 70
     1
102
RTVSPropertyOp17
 70
     1
102
RTVSPropertyOp18
 70
     1
102
RTVSPropertyOp19
 70
     1
102
RTVSPropertyOp20
 70
     1
102
RTVSPropertyOp21
 70
     1
102
RTVSPropertyOp22
 70
     1
102
RTVSPropertyOp23
 70
     1
102
RTVSPropertyOp24
 70
     1
102
RTVSPropertyOp25
 70
     1
102
RTVSPropertyOp26
 70
     1
102
RTVSPropertyOp27
 70
     1
102
RTVSPropertyOp28
 70
     1
102
RTVSPropertyOp29
 70
     1
102
RTVSPropertyOp30
 70
     1
102
RTVSPropertyOp31
 70
     1
102
RTVSPropertyOp32
 70
     1
102
RTVSPropertyOp33
 70
     1
102
RTVSPropertyOp34
 70
     1
102
RTVSPropertyOp35
 70
     1
102
RTVSPropertyOp36
 70
     1
102
RTVSPropertyOp37
 70
     1
102
RTVSPropertyOp38
 70
     1
102
RTVSPropertyOp39
 70
     1
102
RTVSPropertyOp40
 70
     1
102
RTVSPropertyOp41
 70
     1
102
RTVSPropertyOp42
 70
     1
102
RTVSPropertyOp43
 70
     1
102
RTVSPropertyOp44
 70
     1
102
RTVSPropertyOp45
 70
     1
102
RTVSPropertyOp46
 70
     1
102
RTVSPropertyOp47
 70
     1
102
RTVSPropertyOp48
 70
     1
102
RTVSPropertyOp49
 70
     1
102
RTVSPropertyOp50
 70
     1
102
RTVSPropertyOp51
 70
     0
102
RTVSPropertyOp52
 70
     0
102
RTVSPropertyOp53
 70
     1
102
RTVSPropertyOp54
 70
     1
102
RTVSPropertyOp55
 70
     1
102
RTVSPropertyOp56
 70
     1
102
RTVSPropertyOp57
 70
     1
102
RTVSPropertyOp58
 70
     1
102
RTVSPropertyOp59
 70
     1
102
RTVSPropertyOp60
 70
     1
102
RTVSPropertyOp61
 70
     1
102
RTVSPropertyOp62
 70
     1
  0
XRECORD
  5
390
102
{ACAD_REACTORS
330
38F
102
}
330
38F
100
AcDbXrecord
280
     1
102
RTVSPost2010Prop28
280
     0
102
RTVSPost2010PropOp28
 70
     1
102
RTVSPost2010Prop29
280
     1
102
RTVSPost2010PropOp29
 70
     1
102
RTVSPost2010Prop30
280
     1
102
RTVSPost2010PropOp30
 70
     1
102
RTVSPost2010Prop31
280
     0
102
RTVSPost2010PropOp31
 70
     1
102
RTVSPost2010Prop32
280
     0
102
RTVSPost2010PropOp32
 70
     1
102
RTVSPost2010Prop33
280
     0
102
RTVSPost2010PropOp33
 70
     1
102
RTVSPost2010Prop34
280
     0
102
RTVSPost2010PropOp34
 70
     1
102
RTVSPost2010Prop35
280
     0
102
RTVSPost2010PropOp35
 70
     1
102
RTVSPost2010Prop36
280
     0
102
RTVSPost2010PropOp36
 70
     1
102
RTVSPost2010Prop37
 90
       50
102
RTVSPost2010PropOp37
 70
     0
102
RTVSPost2010Prop38
140
0.0
102
RTVSPost2010PropOp38
 70
     0
102
RTVSPost2010Prop39
140
1.0
102
RTVSPost2010PropOp39
 70
     0
102
RTVSPost2010Prop40
 90
        0
102
RTVSPost2010PropOp40
 70
     0
102
RTVSPost2010Prop41ColorIndex
 90
       18
102
RTVSPost2010Prop41ColorRGB
 90
        0
102
RTVSPost2010PropOp41
 70
     0
102
RTVSPost2010Prop42
 90
       50
102
RTVSPost2010PropOp42
 70
     0
102
RTVSPost2010Prop43
 90
        3
102
RTVSPost2010PropOp43
 70
     0
102
RTVSPost2010Prop44ColorIndex
 90
        5
102
RTVSPost2010Prop44ColorRGB
 90
      255
102
RTVSPost2010PropOp44
 70
     0
102
RTVSPost2010Prop45
280
     0
102
RTVSPost2010PropOp45
 70
     1
102
RTVSPost2010Prop46
 90
       50
102
RTVSPost2010PropOp46
 70
     0
102
RTVSPost2010Prop47
 90
       50
102
RTVSPost2010PropOp47
 70
     0
102
RTVSPost2010Prop48
 90
       50
102
RTVSPost2010PropOp48
 70
     0
102
RTVSPost2010Prop49
280
     0
102
RTVSPost2010PropOp49
 70
     1
102
RTVSPost2010Prop50
 90
       50
102
RTVSPost2010PropOp50
 70
     0
102
RTVSPost2010Prop51ColorIndex
 90
      256
102
RTVSPost2010Prop51ColorRGB
 90
-16777216
102
RTVSPost2010PropOp51
 70
     0
102
RTVSPost2010Prop52
140
1.0
102
RTVSPost2010PropOp52
 70
     0
102
RTVSPost2010Prop53
 90
        2
102
RTVSPost2010PropOp53
 70
     0
102
RTVSPost2010Prop54
  1
strokes_ogs.tif
102
RTVSPost2010PropOp54
 70
     0
102
RTVSPost2010Prop55
280
     0
102
RTVSPost2010PropOp55
 70
     1
102
RTVSPost2010Prop56
140
1.0
102
RTVSPost2010PropOp56
 70
     0
102
RTVSPost2010Prop57
140
1.0
102
RTVSPost2010PropOp57
 70
     0
102
RTVSPropertyOp0
 70
     0
102
RTVSPropertyOp1
 70
     0
102
RTVSPropertyOp2
 70
     0
102
RTVSPropertyOp3
 70
     0
102
RTVSPropertyOp4
 70
     0
102
RTVSPropertyOp5
 70
     0
102
RTVSPropertyOp6
 70
     0
102
RTVSPropertyOp7
 70
     0
102
RTVSPropertyOp8
 70
     0
102
RTVSPropertyOp9
 70
     0
102
RTVSPropertyOp10
 70
     0
102
RTVSPropertyOp11
 70
     0
102
RTVSPropertyOp12
 70
     0
102
RTVSPropertyOp13
 70
     0
102
RTVSPropertyOp14
 70
     2
102
RTVSPropertyOp15
 70
     0
102
RTVSPropertyOp16
 70
     0
102
RTVSPropertyOp17
 70
     0
102
RTVSPropertyOp18
 70
     0
102
RTVSPropertyOp19
 70
     0
102
RTVSPropertyOp20
 70
     0
102
RTVSPropertyOp21
 70
     0
102
RTVSPropertyOp22
 70
     0
102
RTVSPropertyOp23
 70
     0
102
RTVSPropertyOp24
 70
     0
102
RTVSPropertyOp25
 70
     0
102
RTVSPropertyOp26
 70
     0
102
RTVSPropertyOp27
 70
     0
102
RTVSPropertyOp28
 70
     1
102
RTVSPropertyOp29
 70
     1
102
RTVSPropertyOp30
 70
     1
102
RTVSPropertyOp31
 70
     1
102
RTVSPropertyOp32
 70
     1
102
RTVSPropertyOp33
 70
     1
102
RTVSPropertyOp34
 70
     1
102
RTVSPropertyOp35
 70
     1
102
RTVSPropertyOp36
 70
     1
102
RTVSPropertyOp37
 70
     0
102
RTVSPropertyOp38
 70
     0
102
RTVSPropertyOp39
 70
     0
102
RTVSPropertyOp40
 70
     0
102
RTVSPropertyOp41
 70
     0
102
RTVSPropertyOp42
 70
     0
102
RTVSPropertyOp43
 70
     0
102
RTVSPropertyOp44
 70
     0
102
RTVSPropertyOp45
 70
     1
102
RTVSPropertyOp46
 70
     0
102
RTVSPropertyOp47
 70
     0
102
RTVSPropertyOp48
 70
     0
102
RTVSPropertyOp49
 70
     1
102
RTVSPropertyOp50
 70
     0
102
RTVSPropertyOp51
 70
     0
102
RTVSPropertyOp52
 70
     0
102
RTVSPropertyOp53
 70
     0
102
RTVSPropertyOp54
 70
     0
102
RTVSPropertyOp55
 70
     1
102
RTVSPropertyOp56
 70
     0
102
RTVSPropertyOp57
 70
     0
102
RTVSPropertyOp58
 70
     0
102
RTVSPropertyOp59
 70
     0
102
RTVSPropertyOp60
 70
     0
102
RTVSPropertyOp61
 70
     0
102
RTVSPropertyOp62
 70
     0
  0
XRECORD
  5
37E
102
{ACAD_REACTORS
330
37D
102
}
330
37D
100
AcDbXrecord
280
     1
102
RTVSPost2010Prop28
280
     0
102
RTVSPost2010PropOp28
 70
     1
102
RTVSPost2010Prop29
280
     1
102
RTVSPost2010PropOp29
 70
     1
102
RTVSPost2010Prop30
280
     1
102
RTVSPost2010PropOp30
 70
     1
102
RTVSPost2010Prop31
280
     0
102
RTVSPost2010PropOp31
 70
     1
102
RTVSPost2010Prop32
280
     0
102
RTVSPost2010PropOp32
 70
     1
102
RTVSPost2010Prop33
280
     0
102
RTVSPost2010PropOp33
 70
     1
102
RTVSPost2010Prop34
280
     0
102
RTVSPost2010PropOp34
 70
     1
102
RTVSPost2010Prop35
280
     0
102
RTVSPost2010PropOp35
 70
     1
102
RTVSPost2010Prop36
280
     0
102
RTVSPost2010PropOp36
 70
     1
102
RTVSPost2010Prop37
 90
       50
102
RTVSPost2010PropOp37
 70
     1
102
RTVSPost2010Prop38
140
0.0
102
RTVSPost2010PropOp38
 70
     1
102
RTVSPost2010Prop39
140
1.0
102
RTVSPost2010PropOp39
 70
     1
102
RTVSPost2010Prop40
 90
        0
102
RTVSPost2010PropOp40
 70
     1
102
RTVSPost2010Prop41ColorIndex
 90
       18
102
RTVSPost2010Prop41ColorRGB
 90
        0
102
RTVSPost2010PropOp41
 70
     1
102
RTVSPost2010Prop42
 90
       50
102
RTVSPost2010PropOp42
 70
     1
102
RTVSPost2010Prop43
 90
        3
102
RTVSPost2010PropOp43
 70
     1
102
RTVSPost2010Prop44ColorIndex
 90
        5
102
RTVSPost2010Prop44ColorRGB
 90
      255
102
RTVSPost2010PropOp44
 70
     1
102
RTVSPost2010Prop45
280
     0
102
RTVSPost2010PropOp45
 70
     1
102
RTVSPost2010Prop46
 90
       50
102
RTVSPost2010PropOp46
 70
     1
102
RTVSPost2010Prop47
 90
       50
102
RTVSPost2010PropOp47
 70
     1
102
RTVSPost2010Prop48
 90
       50
102
RTVSPost2010PropOp48
 70
     1
102
RTVSPost2010Prop49
280
     0
102
RTVSPost2010PropOp49
 70
     1
102
RTVSPost2010Prop50
 90
       50
102
RTVSPost2010PropOp50
 70
     1
102
RTVSPost2010Prop51ColorIndex
 90
      256
102
RTVSPost2010Prop51ColorRGB
 90
-16777216
102
RTVSPost2010PropOp51
 70
     0
102
RTVSPost2010Prop52
140
1.0
102
RTVSPost2010PropOp52
 70
     0
102
RTVSPost2010Prop53
 90
        2
102
RTVSPost2010PropOp53
 70
     1
102
RTVSPost2010Prop54
  1
strokes_ogs.tif
102
RTVSPost2010PropOp54
 70
     1
102
RTVSPost2010Prop55
280
     0
102
RTVSPost2010PropOp55
 70
     1
102
RTVSPost2010Prop56
140
1.0
102
RTVSPost2010PropOp56
 70
     1
102
RTVSPost2010Prop57
140
1.0
102
RTVSPost2010PropOp57
 70
     1
102
RTVSPropertyOp0
 70
     1
102
RTVSPropertyOp1
 70
     1
102
RTVSPropertyOp2
 70
     1
102
RTVSPropertyOp3
 70
     1
102
RTVSPropertyOp4
 70
     1
102
RTVSPropertyOp5
 70
     1
102
RTVSPropertyOp6
 70
     1
102
RTVSPropertyOp7
 70
     1
102
RTVSPropertyOp8
 70
     1
102
RTVSPropertyOp9
 70
     1
102
RTVSPropertyOp10
 70
     1
102
RTVSPropertyOp11
 70
     1
102
RTVSPropertyOp12
 70
     1
102
RTVSPropertyOp13
 70
     1
102
RTVSPropertyOp14
 70
     1
102
RTVSPropertyOp15
 70
     1
102
RTVSPropertyOp16
 70
     1
102
RTVSPropertyOp17
 70
     1
102
RTVSPropertyOp18
 70
     1
102
RTVSPropertyOp19
 70
     1
102
RTVSPropertyOp20
 70
     1
102
RTVSPropertyOp21
 70
     1
102
RTVSPropertyOp22
 70
     1
102
RTVSPropertyOp23
 70
     1
102
RTVSPropertyOp24
 70
     1
102
RTVSPropertyOp25
 70
     1
102
RTVSPropertyOp26
 70
     1
102
RTVSPropertyOp27
 70
     1
102
RTVSPropertyOp28
 70
     1
102
RTVSPropertyOp29
 70
     1
102
RTVSPropertyOp30
 70
     1
102
RTVSPropertyOp31
 70
     1
102
RTVSPropertyOp32
 70
     1
102
RTVSPropertyOp33
 70
     1
102
RTVSPropertyOp34
 70
     1
102
RTVSPropertyOp35
 70
     1
102
RTVSPropertyOp36
 70
     1
102
RTVSPropertyOp37
 70
     1
102
RTVSPropertyOp38
 70
     1
102
RTVSPropertyOp39
 70
     1
102
RTVSPropertyOp40
 70
     1
102
RTVSPropertyOp41
 70
     1
102
RTVSPropertyOp42
 70
     1
102
RTVSPropertyOp43
 70
     1
102
RTVSPropertyOp44
 70
     1
102
RTVSPropertyOp45
 70
     1
102
RTVSPropertyOp46
 70
     1
102
RTVSPropertyOp47
 70
     1
102
RTVSPropertyOp48
 70
     1
102
RTVSPropertyOp49
 70
     1
102
RTVSPropertyOp50
 70
     1
102
RTVSPropertyOp51
 70
     0
102
RTVSPropertyOp52
 70
     0
102
RTVSPropertyOp53
 70
     1
102
RTVSPropertyOp54
 70
     1
102
RTVSPropertyOp55
 70
     1
102
RTVSPropertyOp56
 70
     1
102
RTVSPropertyOp57
 70
     1
102
RTVSPropertyOp58
 70
     1
102
RTVSPropertyOp59
 70
     1
102
RTVSPropertyOp60
 70
     1
102
RTVSPropertyOp61
 70
     1
102
RTVSPropertyOp62
 70
     1
  0
XRECORD
  5
362
102
{ACAD_REACTORS
330
361
102
}
330
361
100
AcDbXrecord
280
     1
102
RTVSPost2010Prop28
280
     0
102
RTVSPost2010PropOp28
 70
     1
102
RTVSPost2010Prop29
280
     1
102
RTVSPost2010PropOp29
 70
     1
102
RTVSPost2010Prop30
280
     1
102
RTVSPost2010PropOp30
 70
     1
102
RTVSPost2010Prop31
280
     0
102
RTVSPost2010PropOp31
 70
     1
102
RTVSPost2010Prop32
280
     0
102
RTVSPost2010PropOp32
 70
     1
102
RTVSPost2010Prop33
280
     0
102
RTVSPost2010PropOp33
 70
     1
102
RTVSPost2010Prop34
280
     0
102
RTVSPost2010PropOp34
 70
     1
102
RTVSPost2010Prop35
280
     0
102
RTVSPost2010PropOp35
 70
     1
102
RTVSPost2010Prop36
280
     0
102
RTVSPost2010PropOp36
 70
     1
102
RTVSPost2010Prop37
 90
       50
102
RTVSPost2010PropOp37
 70
     1
102
RTVSPost2010Prop38
140
0.0
102
RTVSPost2010PropOp38
 70
     1
102
RTVSPost2010Prop39
140
1.0
102
RTVSPost2010PropOp39
 70
     1
102
RTVSPost2010Prop40
 90
        0
102
RTVSPost2010PropOp40
 70
     1
102
RTVSPost2010Prop41ColorIndex
 90
       18
102
RTVSPost2010Prop41ColorRGB
 90
        0
102
RTVSPost2010PropOp41
 70
     1
102
RTVSPost2010Prop42
 90
       50
102
RTVSPost2010PropOp42
 70
     1
102
RTVSPost2010Prop43
 90
        3
102
RTVSPost2010PropOp43
 70
     1
102
RTVSPost2010Prop44ColorIndex
 90
        5
102
RTVSPost2010Prop44ColorRGB
 90
      255
102
RTVSPost2010PropOp44
 70
     1
102
RTVSPost2010Prop45
280
     0
102
RTVSPost2010PropOp45
 70
     1
102
RTVSPost2010Prop46
 90
       50
102
RTVSPost2010PropOp46
 70
     1
102
RTVSPost2010Prop47
 90
       50
102
RTVSPost2010PropOp47
 70
     1
102
RTVSPost2010Prop48
 90
       50
102
RTVSPost2010PropOp48
 70
     1
102
RTVSPost2010Prop49
280
     0
102
RTVSPost2010PropOp49
 70
     1
102
RTVSPost2010Prop50
 90
       50
102
RTVSPost2010PropOp50
 70
     1
102
RTVSPost2010Prop51ColorIndex
 90
      256
102
RTVSPost2010Prop51ColorRGB
 90
-16777216
102
RTVSPost2010PropOp51
 70
     0
102
RTVSPost2010Prop52
140
1.0
102
RTVSPost2010PropOp52
 70
     0
102
RTVSPost2010Prop53
 90
        2
102
RTVSPost2010PropOp53
 70
     1
102
RTVSPost2010Prop54
  1
strokes_ogs.tif
102
RTVSPost2010PropOp54
 70
     1
102
RTVSPost2010Prop55
280
     0
102
RTVSPost2010PropOp55
 70
     1
102
RTVSPost2010Prop56
140
1.0
102
RTVSPost2010PropOp56
 70
     1
102
RTVSPost2010Prop57
140
1.0
102
RTVSPost2010PropOp57
 70
     1
102
RTVSPropertyOp0
 70
     1
102
RTVSPropertyOp1
 70
     1
102
RTVSPropertyOp2
 70
     1
102
RTVSPropertyOp3
 70
     1
102
RTVSPropertyOp4
 70
     1
102
RTVSPropertyOp5
 70
     1
102
RTVSPropertyOp6
 70
     1
102
RTVSPropertyOp7
 70
     1
102
RTVSPropertyOp8
 70
     1
102
RTVSPropertyOp9
 70
     1
102
RTVSPropertyOp10
 70
     1
102
RTVSPropertyOp11
 70
     1
102
RTVSPropertyOp12
 70
     1
102
RTVSPropertyOp13
 70
     1
102
RTVSPropertyOp14
 70
     1
102
RTVSPropertyOp15
 70
     1
102
RTVSPropertyOp16
 70
     1
102
RTVSPropertyOp17
 70
     1
102
RTVSPropertyOp18
 70
     1
102
RTVSPropertyOp19
 70
     1
102
RTVSPropertyOp20
 70
     1
102
RTVSPropertyOp21
 70
     1
102
RTVSPropertyOp22
 70
     1
102
RTVSPropertyOp23
 70
     1
102
RTVSPropertyOp24
 70
     1
102
RTVSPropertyOp25
 70
     1
102
RTVSPropertyOp26
 70
     1
102
RTVSPropertyOp27
 70
     1
102
RTVSPropertyOp28
 70
     1
102
RTVSPropertyOp29
 70
     1
102
RTVSPropertyOp30
 70
     1
102
RTVSPropertyOp31
 70
     1
102
RTVSPropertyOp32
 70
     1
102
RTVSPropertyOp33
 70
     1
102
RTVSPropertyOp34
 70
     1
102
RTVSPropertyOp35
 70
     1
102
RTVSPropertyOp36
 70
     1
102
RTVSPropertyOp37
 70
     1
102
RTVSPropertyOp38
 70
     1
102
RTVSPropertyOp39
 70
     1
102
RTVSPropertyOp40
 70
     1
102
RTVSPropertyOp41
 70
     1
102
RTVSPropertyOp42
 70
     1
102
RTVSPropertyOp43
 70
     1
102
RTVSPropertyOp44
 70
     1
102
RTVSPropertyOp45
 70
     1
102
RTVSPropertyOp46
 70
     1
102
RTVSPropertyOp47
 70
     1
102
RTVSPropertyOp48
 70
     1
102
RTVSPropertyOp49
 70
     1
102
RTVSPropertyOp50
 70
     1
102
RTVSPropertyOp51
 70
     0
102
RTVSPropertyOp52
 70
     0
102
RTVSPropertyOp53
 70
     1
102
RTVSPropertyOp54
 70
     1
102
RTVSPropertyOp55
 70
     1
102
RTVSPropertyOp56
 70
     1
102
RTVSPropertyOp57
 70
     1
102
RTVSPropertyOp58
 70
     1
102
RTVSPropertyOp59
 70
     1
102
RTVSPropertyOp60
 70
     1
102
RTVSPropertyOp61
 70
     1
102
RTVSPropertyOp62
 70
     1
  0
XRECORD
  5
364
102
{ACAD_REACTORS
330
363
102
}
330
363
100
AcDbXrecord
280
     1
102
RTVSPost2010Prop28
280
     0
102
RTVSPost2010PropOp28
 70
     1
102
RTVSPost2010Prop29
280
     1
102
RTVSPost2010PropOp29
 70
     1
102
RTVSPost2010Prop30
280
     1
102
RTVSPost2010PropOp30
 70
     1
102
RTVSPost2010Prop31
280
     0
102
RTVSPost2010PropOp31
 70
     1
102
RTVSPost2010Prop32
280
     0
102
RTVSPost2010PropOp32
 70
     1
102
RTVSPost2010Prop33
280
     0
102
RTVSPost2010PropOp33
 70
     1
102
RTVSPost2010Prop34
280
     0
102
RTVSPost2010PropOp34
 70
     1
102
RTVSPost2010Prop35
280
     0
102
RTVSPost2010PropOp35
 70
     1
102
RTVSPost2010Prop36
280
     0
102
RTVSPost2010PropOp36
 70
     1
102
RTVSPost2010Prop37
 90
       50
102
RTVSPost2010PropOp37
 70
     1
102
RTVSPost2010Prop38
140
0.0
102
RTVSPost2010PropOp38
 70
     1
102
RTVSPost2010Prop39
140
1.0
102
RTVSPost2010PropOp39
 70
     1
102
RTVSPost2010Prop40
 90
        0
102
RTVSPost2010PropOp40
 70
     1
102
RTVSPost2010Prop41ColorIndex
 90
       18
102
RTVSPost2010Prop41ColorRGB
 90
        0
102
RTVSPost2010PropOp41
 70
     1
102
RTVSPost2010Prop42
 90
       50
102
RTVSPost2010PropOp42
 70
     1
102
RTVSPost2010Prop43
 90
        3
102
RTVSPost2010PropOp43
 70
     1
102
RTVSPost2010Prop44ColorIndex
 90
        5
102
RTVSPost2010Prop44ColorRGB
 90
      255
102
RTVSPost2010PropOp44
 70
     1
102
RTVSPost2010Prop45
280
     0
102
RTVSPost2010PropOp45
 70
     1
102
RTVSPost2010Prop46
 90
       50
102
RTVSPost2010PropOp46
 70
     1
102
RTVSPost2010Prop47
 90
       50
102
RTVSPost2010PropOp47
 70
     1
102
RTVSPost2010Prop48
 90
       50
102
RTVSPost2010PropOp48
 70
     1
102
RTVSPost2010Prop49
280
     0
102
RTVSPost2010PropOp49
 70
     1
102
RTVSPost2010Prop50
 90
       50
102
RTVSPost2010PropOp50
 70
     1
102
RTVSPost2010Prop51ColorIndex
 90
      256
102
RTVSPost2010Prop51ColorRGB
 90
-16777216
102
RTVSPost2010PropOp51
 70
     0
102
RTVSPost2010Prop52
140
1.0
102
RTVSPost2010PropOp52
 70
     0
102
RTVSPost2010Prop53
 90
        2
102
RTVSPost2010PropOp53
 70
     1
102
RTVSPost2010Prop54
  1
strokes_ogs.tif
102
RTVSPost2010PropOp54
 70
     1
102
RTVSPost2010Prop55
280
     0
102
RTVSPost2010PropOp55
 70
     1
102
RTVSPost2010Prop56
140
1.0
102
RTVSPost2010PropOp56
 70
     1
102
RTVSPost2010Prop57
140
1.0
102
RTVSPost2010PropOp57
 70
     1
102
RTVSPropertyOp0
 70
     1
102
RTVSPropertyOp1
 70
     1
102
RTVSPropertyOp2
 70
     1
102
RTVSPropertyOp3
 70
     1
102
RTVSPropertyOp4
 70
     1
102
RTVSPropertyOp5
 70
     1
102
RTVSPropertyOp6
 70
     1
102
RTVSPropertyOp7
 70
     1
102
RTVSPropertyOp8
 70
     1
102
RTVSPropertyOp9
 70
     1
102
RTVSPropertyOp10
 70
     1
102
RTVSPropertyOp11
 70
     1
102
RTVSPropertyOp12
 70
     1
102
RTVSPropertyOp13
 70
     1
102
RTVSPropertyOp14
 70
     1
102
RTVSPropertyOp15
 70
     1
102
RTVSPropertyOp16
 70
     1
102
RTVSPropertyOp17
 70
     1
102
RTVSPropertyOp18
 70
     1
102
RTVSPropertyOp19
 70
     1
102
RTVSPropertyOp20
 70
     1
102
RTVSPropertyOp21
 70
     1
102
RTVSPropertyOp22
 70
     1
102
RTVSPropertyOp23
 70
     1
102
RTVSPropertyOp24
 70
     1
102
RTVSPropertyOp25
 70
     1
102
RTVSPropertyOp26
 70
     1
102
RTVSPropertyOp27
 70
     1
102
RTVSPropertyOp28
 70
     1
102
RTVSPropertyOp29
 70
     1
102
RTVSPropertyOp30
 70
     1
102
RTVSPropertyOp31
 70
     1
102
RTVSPropertyOp32
 70
     1
102
RTVSPropertyOp33
 70
     1
102
RTVSPropertyOp34
 70
     1
102
RTVSPropertyOp35
 70
     1
102
RTVSPropertyOp36
 70
     1
102
RTVSPropertyOp37
 70
     1
102
RTVSPropertyOp38
 70
     1
102
RTVSPropertyOp39
 70
     1
102
RTVSPropertyOp40
 70
     1
102
RTVSPropertyOp41
 70
     1
102
RTVSPropertyOp42
 70
     1
102
RTVSPropertyOp43
 70
     1
102
RTVSPropertyOp44
 70
     1
102
RTVSPropertyOp45
 70
     1
102
RTVSPropertyOp46
 70
     1
102
RTVSPropertyOp47
 70
     1
102
RTVSPropertyOp48
 70
     1
102
RTVSPropertyOp49
 70
     1
102
RTVSPropertyOp50
 70
     1
102
RTVSPropertyOp51
 70
     0
102
RTVSPropertyOp52
 70
     0
102
RTVSPropertyOp53
 70
     1
102
RTVSPropertyOp54
 70
     1
102
RTVSPropertyOp55
 70
     1
102
RTVSPropertyOp56
 70
     1
102
RTVSPropertyOp57
 70
     1
102
RTVSPropertyOp58
 70
     1
102
RTVSPropertyOp59
 70
     1
102
RTVSPropertyOp60
 70
     1
102
RTVSPropertyOp61
 70
     1
102
RTVSPropertyOp62
 70
     1
  0
XRECORD
  5
366
102
{ACAD_REACTORS
330
365
102
}
330
365
100
AcDbXrecord
280
     1
102
RTVSPost2010Prop28
280
     0
102
RTVSPost2010PropOp28
 70
     1
102
RTVSPost2010Prop29
280
     1
102
RTVSPost2010PropOp29
 70
     1
102
RTVSPost2010Prop30
280
     1
102
RTVSPost2010PropOp30
 70
     1
102
RTVSPost2010Prop31
280
     0
102
RTVSPost2010PropOp31
 70
     1
102
RTVSPost2010Prop32
280
     0
102
RTVSPost2010PropOp32
 70
     1
102
RTVSPost2010Prop33
280
     0
102
RTVSPost2010PropOp33
 70
     1
102
RTVSPost2010Prop34
280
     0
102
RTVSPost2010PropOp34
 70
     1
102
RTVSPost2010Prop35
280
     0
102
RTVSPost2010PropOp35
 70
     1
102
RTVSPost2010Prop36
280
     0
102
RTVSPost2010PropOp36
 70
     1
102
RTVSPost2010Prop37
 90
       50
102
RTVSPost2010PropOp37
 70
     1
102
RTVSPost2010Prop38
140
0.0
102
RTVSPost2010PropOp38
 70
     1
102
RTVSPost2010Prop39
140
1.0
102
RTVSPost2010PropOp39
 70
     1
102
RTVSPost2010Prop40
 90
        0
102
RTVSPost2010PropOp40
 70
     1
102
RTVSPost2010Prop41ColorIndex
 90
       18
102
RTVSPost2010Prop41ColorRGB
 90
        0
102
RTVSPost2010PropOp41
 70
     1
102
RTVSPost2010Prop42
 90
       50
102
RTVSPost2010PropOp42
 70
     1
102
RTVSPost2010Prop43
 90
        3
102
RTVSPost2010PropOp43
 70
     1
102
RTVSPost2010Prop44ColorIndex
 90
        5
102
RTVSPost2010Prop44ColorRGB
 90
      255
102
RTVSPost2010PropOp44
 70
     1
102
RTVSPost2010Prop45
280
     0
102
RTVSPost2010PropOp45
 70
     1
102
RTVSPost2010Prop46
 90
       50
102
RTVSPost2010PropOp46
 70
     1
102
RTVSPost2010Prop47
 90
       50
102
RTVSPost2010PropOp47
 70
     1
102
RTVSPost2010Prop48
 90
       50
102
RTVSPost2010PropOp48
 70
     1
102
RTVSPost2010Prop49
280
     0
102
RTVSPost2010PropOp49
 70
     1
102
RTVSPost2010Prop50
 90
       50
102
RTVSPost2010PropOp50
 70
     1
102
RTVSPost2010Prop51ColorIndex
 90
      256
102
RTVSPost2010Prop51ColorRGB
 90
-16777216
102
RTVSPost2010PropOp51
 70
     0
102
RTVSPost2010Prop52
140
1.0
102
RTVSPost2010PropOp52
 70
     0
102
RTVSPost2010Prop53
 90
        2
102
RTVSPost2010PropOp53
 70
     1
102
RTVSPost2010Prop54
  1
strokes_ogs.tif
102
RTVSPost2010PropOp54
 70
     1
102
RTVSPost2010Prop55
280
     0
102
RTVSPost2010PropOp55
 70
     1
102
RTVSPost2010Prop56
140
1.0
102
RTVSPost2010PropOp56
 70
     1
102
RTVSPost2010Prop57
140
1.0
102
RTVSPost2010PropOp57
 70
     1
102
RTVSPropertyOp0
 70
     1
102
RTVSPropertyOp1
 70
     1
102
RTVSPropertyOp2
 70
     1
102
RTVSPropertyOp3
 70
     1
102
RTVSPropertyOp4
 70
     1
102
RTVSPropertyOp5
 70
     1
102
RTVSPropertyOp6
 70
     1
102
RTVSPropertyOp7
 70
     1
102
RTVSPropertyOp8
 70
     1
102
RTVSPropertyOp9
 70
     1
102
RTVSPropertyOp10
 70
     1
102
RTVSPropertyOp11
 70
     1
102
RTVSPropertyOp12
 70
     1
102
RTVSPropertyOp13
 70
     1
102
RTVSPropertyOp14
 70
     1
102
RTVSPropertyOp15
 70
     1
102
RTVSPropertyOp16
 70
     1
102
RTVSPropertyOp17
 70
     1
102
RTVSPropertyOp18
 70
     1
102
RTVSPropertyOp19
 70
     1
102
RTVSPropertyOp20
 70
     1
102
RTVSPropertyOp21
 70
     1
102
RTVSPropertyOp22
 70
     1
102
RTVSPropertyOp23
 70
     1
102
RTVSPropertyOp24
 70
     1
102
RTVSPropertyOp25
 70
     1
102
RTVSPropertyOp26
 70
     1
102
RTVSPropertyOp27
 70
     1
102
RTVSPropertyOp28
 70
     1
102
RTVSPropertyOp29
 70
     1
102
RTVSPropertyOp30
 70
     1
102
RTVSPropertyOp31
 70
     1
102
RTVSPropertyOp32
 70
     1
102
RTVSPropertyOp33
 70
     1
102
RTVSPropertyOp34
 70
     1
102
RTVSPropertyOp35
 70
     1
102
RTVSPropertyOp36
 70
     1
102
RTVSPropertyOp37
 70
     1
102
RTVSPropertyOp38
 70
     1
102
RTVSPropertyOp39
 70
     1
102
RTVSPropertyOp40
 70
     1
102
RTVSPropertyOp41
 70
     1
102
RTVSPropertyOp42
 70
     1
102
RTVSPropertyOp43
 70
     1
102
RTVSPropertyOp44
 70
     1
102
RTVSPropertyOp45
 70
     1
102
RTVSPropertyOp46
 70
     1
102
RTVSPropertyOp47
 70
     1
102
RTVSPropertyOp48
 70
     1
102
RTVSPropertyOp49
 70
     1
102
RTVSPropertyOp50
 70
     1
102
RTVSPropertyOp51
 70
     0
102
RTVSPropertyOp52
 70
     0
102
RTVSPropertyOp53
 70
     1
102
RTVSPropertyOp54
 70
     1
102
RTVSPropertyOp55
 70
     1
102
RTVSPropertyOp56
 70
     1
102
RTVSPropertyOp57
 70
     1
102
RTVSPropertyOp58
 70
     1
102
RTVSPropertyOp59
 70
     1
102
RTVSPropertyOp60
 70
     1
102
RTVSPropertyOp61
 70
     1
102
RTVSPropertyOp62
 70
     1
  0
XRECORD
  5
368
102
{ACAD_REACTORS
330
367
102
}
330
367
100
AcDbXrecord
280
     1
102
RTVSPost2010Prop28
280
     0
102
RTVSPost2010PropOp28
 70
     1
102
RTVSPost2010Prop29
280
     1
102
RTVSPost2010PropOp29
 70
     1
102
RTVSPost2010Prop30
280
     1
102
RTVSPost2010PropOp30
 70
     1
102
RTVSPost2010Prop31
280
     0
102
RTVSPost2010PropOp31
 70
     1
102
RTVSPost2010Prop32
280
     0
102
RTVSPost2010PropOp32
 70
     1
102
RTVSPost2010Prop33
280
     0
102
RTVSPost2010PropOp33
 70
     1
102
RTVSPost2010Prop34
280
     0
102
RTVSPost2010PropOp34
 70
     1
102
RTVSPost2010Prop35
280
     0
102
RTVSPost2010PropOp35
 70
     1
102
RTVSPost2010Prop36
280
     0
102
RTVSPost2010PropOp36
 70
     1
102
RTVSPost2010Prop37
 90
       50
102
RTVSPost2010PropOp37
 70
     1
102
RTVSPost2010Prop38
140
0.0
102
RTVSPost2010PropOp38
 70
     1
102
RTVSPost2010Prop39
140
1.0
102
RTVSPost2010PropOp39
 70
     1
102
RTVSPost2010Prop40
 90
        0
102
RTVSPost2010PropOp40
 70
     1
102
RTVSPost2010Prop41ColorIndex
 90
       18
102
RTVSPost2010Prop41ColorRGB
 90
        0
102
RTVSPost2010PropOp41
 70
     1
102
RTVSPost2010Prop42
 90
       50
102
RTVSPost2010PropOp42
 70
     1
102
RTVSPost2010Prop43
 90
        3
102
RTVSPost2010PropOp43
 70
     1
102
RTVSPost2010Prop44ColorIndex
 90
        5
102
RTVSPost2010Prop44ColorRGB
 90
      255
102
RTVSPost2010PropOp44
 70
     1
102
RTVSPost2010Prop45
280
     0
102
RTVSPost2010PropOp45
 70
     1
102
RTVSPost2010Prop46
 90
       50
102
RTVSPost2010PropOp46
 70
     1
102
RTVSPost2010Prop47
 90
       50
102
RTVSPost2010PropOp47
 70
     1
102
RTVSPost2010Prop48
 90
       50
102
RTVSPost2010PropOp48
 70
     1
102
RTVSPost2010Prop49
280
     0
102
RTVSPost2010PropOp49
 70
     1
102
RTVSPost2010Prop50
 90
       50
102
RTVSPost2010PropOp50
 70
     1
102
RTVSPost2010Prop51ColorIndex
 90
      256
102
RTVSPost2010Prop51ColorRGB
 90
-16777216
102
RTVSPost2010PropOp51
 70
     0
102
RTVSPost2010Prop52
140
1.0
102
RTVSPost2010PropOp52
 70
     0
102
RTVSPost2010Prop53
 90
        2
102
RTVSPost2010PropOp53
 70
     1
102
RTVSPost2010Prop54
  1
strokes_ogs.tif
102
RTVSPost2010PropOp54
 70
     1
102
RTVSPost2010Prop55
280
     0
102
RTVSPost2010PropOp55
 70
     1
102
RTVSPost2010Prop56
140
1.0
102
RTVSPost2010PropOp56
 70
     1
102
RTVSPost2010Prop57
140
1.0
102
RTVSPost2010PropOp57
 70
     1
102
RTVSPropertyOp0
 70
     1
102
RTVSPropertyOp1
 70
     1
102
RTVSPropertyOp2
 70
     1
102
RTVSPropertyOp3
 70
     1
102
RTVSPropertyOp4
 70
     1
102
RTVSPropertyOp5
 70
     1
102
RTVSPropertyOp6
 70
     1
102
RTVSPropertyOp7
 70
     1
102
RTVSPropertyOp8
 70
     1
102
RTVSPropertyOp9
 70
     1
102
RTVSPropertyOp10
 70
     1
102
RTVSPropertyOp11
 70
     1
102
RTVSPropertyOp12
 70
     1
102
RTVSPropertyOp13
 70
     1
102
RTVSPropertyOp14
 70
     1
102
RTVSPropertyOp15
 70
     1
102
RTVSPropertyOp16
 70
     1
102
RTVSPropertyOp17
 70
     1
102
RTVSPropertyOp18
 70
     1
102
RTVSPropertyOp19
 70
     1
102
RTVSPropertyOp20
 70
     1
102
RTVSPropertyOp21
 70
     1
102
RTVSPropertyOp22
 70
     1
102
RTVSPropertyOp23
 70
     1
102
RTVSPropertyOp24
 70
     1
102
RTVSPropertyOp25
 70
     1
102
RTVSPropertyOp26
 70
     1
102
RTVSPropertyOp27
 70
     1
102
RTVSPropertyOp28
 70
     1
102
RTVSPropertyOp29
 70
     1
102
RTVSPropertyOp30
 70
     1
102
RTVSPropertyOp31
 70
     1
102
RTVSPropertyOp32
 70
     1
102
RTVSPropertyOp33
 70
     1
102
RTVSPropertyOp34
 70
     1
102
RTVSPropertyOp35
 70
     1
102
RTVSPropertyOp36
 70
     1
102
RTVSPropertyOp37
 70
     1
102
RTVSPropertyOp38
 70
     1
102
RTVSPropertyOp39
 70
     1
102
RTVSPropertyOp40
 70
     1
102
RTVSPropertyOp41
 70
     1
102
RTVSPropertyOp42
 70
     1
102
RTVSPropertyOp43
 70
     1
102
RTVSPropertyOp44
 70
     1
102
RTVSPropertyOp45
 70
     1
102
RTVSPropertyOp46
 70
     1
102
RTVSPropertyOp47
 70
     1
102
RTVSPropertyOp48
 70
     1
102
RTVSPropertyOp49
 70
     1
102
RTVSPropertyOp50
 70
     1
102
RTVSPropertyOp51
 70
     0
102
RTVSPropertyOp52
 70
     0
102
RTVSPropertyOp53
 70
     1
102
RTVSPropertyOp54
 70
     1
102
RTVSPropertyOp55
 70
     1
102
RTVSPropertyOp56
 70
     1
102
RTVSPropertyOp57
 70
     1
102
RTVSPropertyOp58
 70
     1
102
RTVSPropertyOp59
 70
     1
102
RTVSPropertyOp60
 70
     1
102
RTVSPropertyOp61
 70
     1
102
RTVSPropertyOp62
 70
     1
  0
XRECORD
  5
370
102
{ACAD_REACTORS
330
36F
102
}
330
36F
100
AcDbXrecord
280
     1
102
RTVSPost2010Prop28
280
     0
102
RTVSPost2010PropOp28
 70
     1
102
RTVSPost2010Prop29
280
     1
102
RTVSPost2010PropOp29
 70
     1
102
RTVSPost2010Prop30
280
     1
102
RTVSPost2010PropOp30
 70
     1
102
RTVSPost2010Prop31
280
     0
102
RTVSPost2010PropOp31
 70
     1
102
RTVSPost2010Prop32
280
     0
102
RTVSPost2010PropOp32
 70
     1
102
RTVSPost2010Prop33
280
     0
102
RTVSPost2010PropOp33
 70
     1
102
RTVSPost2010Prop34
280
     0
102
RTVSPost2010PropOp34
 70
     1
102
RTVSPost2010Prop35
280
     0
102
RTVSPost2010PropOp35
 70
     1
102
RTVSPost2010Prop36
280
     0
102
RTVSPost2010PropOp36
 70
     1
102
RTVSPost2010Prop37
 90
       50
102
RTVSPost2010PropOp37
 70
     1
102
RTVSPost2010Prop38
140
0.0
102
RTVSPost2010PropOp38
 70
     1
102
RTVSPost2010Prop39
140
1.0
102
RTVSPost2010PropOp39
 70
     1
102
RTVSPost2010Prop40
 90
        0
102
RTVSPost2010PropOp40
 70
     1
102
RTVSPost2010Prop41ColorIndex
 90
       18
102
RTVSPost2010Prop41ColorRGB
 90
        0
102
RTVSPost2010PropOp41
 70
     1
102
RTVSPost2010Prop42
 90
       50
102
RTVSPost2010PropOp42
 70
     1
102
RTVSPost2010Prop43
 90
        3
102
RTVSPost2010PropOp43
 70
     1
102
RTVSPost2010Prop44ColorIndex
 90
        5
102
RTVSPost2010Prop44ColorRGB
 90
      255
102
RTVSPost2010PropOp44
 70
     1
102
RTVSPost2010Prop45
280
     0
102
RTVSPost2010PropOp45
 70
     1
102
RTVSPost2010Prop46
 90
       50
102
RTVSPost2010PropOp46
 70
     1
102
RTVSPost2010Prop47
 90
       50
102
RTVSPost2010PropOp47
 70
     1
102
RTVSPost2010Prop48
 90
       50
102
RTVSPost2010PropOp48
 70
     1
102
RTVSPost2010Prop49
280
     0
102
RTVSPost2010PropOp49
 70
     1
102
RTVSPost2010Prop50
 90
       50
102
RTVSPost2010PropOp50
 70
     1
102
RTVSPost2010Prop51ColorIndex
 90
      256
102
RTVSPost2010Prop51ColorRGB
 90
-16777216
102
RTVSPost2010PropOp51
 70
     0
102
RTVSPost2010Prop52
140
1.0
102
RTVSPost2010PropOp52
 70
     0
102
RTVSPost2010Prop53
 90
        2
102
RTVSPost2010PropOp53
 70
     1
102
RTVSPost2010Prop54
  1
strokes_ogs.tif
102
RTVSPost2010PropOp54
 70
     1
102
RTVSPost2010Prop55
280
     0
102
RTVSPost2010PropOp55
 70
     1
102
RTVSPost2010Prop56
140
1.0
102
RTVSPost2010PropOp56
 70
     1
102
RTVSPost2010Prop57
140
1.0
102
RTVSPost2010PropOp57
 70
     1
102
RTVSPropertyOp0
 70
     1
102
RTVSPropertyOp1
 70
     1
102
RTVSPropertyOp2
 70
     1
102
RTVSPropertyOp3
 70
     1
102
RTVSPropertyOp4
 70
     1
102
RTVSPropertyOp5
 70
     1
102
RTVSPropertyOp6
 70
     1
102
RTVSPropertyOp7
 70
     1
102
RTVSPropertyOp8
 70
     1
102
RTVSPropertyOp9
 70
     1
102
RTVSPropertyOp10
 70
     1
102
RTVSPropertyOp11
 70
     1
102
RTVSPropertyOp12
 70
     1
102
RTVSPropertyOp13
 70
     1
102
RTVSPropertyOp14
 70
     1
102
RTVSPropertyOp15
 70
     1
102
RTVSPropertyOp16
 70
     1
102
RTVSPropertyOp17
 70
     1
102
RTVSPropertyOp18
 70
     1
102
RTVSPropertyOp19
 70
     1
102
RTVSPropertyOp20
 70
     1
102
RTVSPropertyOp21
 70
     1
102
RTVSPropertyOp22
 70
     1
102
RTVSPropertyOp23
 70
     1
102
RTVSPropertyOp24
 70
     1
102
RTVSPropertyOp25
 70
     1
102
RTVSPropertyOp26
 70
     1
102
RTVSPropertyOp27
 70
     1
102
RTVSPropertyOp28
 70
     1
102
RTVSPropertyOp29
 70
     1
102
RTVSPropertyOp30
 70
     1
102
RTVSPropertyOp31
 70
     1
102
RTVSPropertyOp32
 70
     1
102
RTVSPropertyOp33
 70
     1
102
RTVSPropertyOp34
 70
     1
102
RTVSPropertyOp35
 70
     1
102
RTVSPropertyOp36
 70
     1
102
RTVSPropertyOp37
 70
     1
102
RTVSPropertyOp38
 70
     1
102
RTVSPropertyOp39
 70
     1
102
RTVSPropertyOp40
 70
     1
102
RTVSPropertyOp41
 70
     1
102
RTVSPropertyOp42
 70
     1
102
RTVSPropertyOp43
 70
     1
102
RTVSPropertyOp44
 70
     1
102
RTVSPropertyOp45
 70
     1
102
RTVSPropertyOp46
 70
     1
102
RTVSPropertyOp47
 70
     1
102
RTVSPropertyOp48
 70
     1
102
RTVSPropertyOp49
 70
     1
102
RTVSPropertyOp50
 70
     1
102
RTVSPropertyOp51
 70
     0
102
RTVSPropertyOp52
 70
     0
102
RTVSPropertyOp53
 70
     1
102
RTVSPropertyOp54
 70
     1
102
RTVSPropertyOp55
 70
     1
102
RTVSPropertyOp56
 70
     1
102
RTVSPropertyOp57
 70
     1
102
RTVSPropertyOp58
 70
     1
102
RTVSPropertyOp59
 70
     1
102
RTVSPropertyOp60
 70
     1
102
RTVSPropertyOp61
 70
     1
102
RTVSPropertyOp62
 70
     1
  0
XRECORD
  5
38C
102
{ACAD_REACTORS
330
38B
102
}
330
38B
100
AcDbXrecord
280
     1
102
RTVSPost2010Prop28
280
     0
102
RTVSPost2010PropOp28
 70
     1
102
RTVSPost2010Prop29
280
     1
102
RTVSPost2010PropOp29
 70
     1
102
RTVSPost2010Prop30
280
     1
102
RTVSPost2010PropOp30
 70
     1
102
RTVSPost2010Prop31
280
     0
102
RTVSPost2010PropOp31
 70
     1
102
RTVSPost2010Prop32
280
     0
102
RTVSPost2010PropOp32
 70
     1
102
RTVSPost2010Prop33
280
     0
102
RTVSPost2010PropOp33
 70
     1
102
RTVSPost2010Prop34
280
     0
102
RTVSPost2010PropOp34
 70
     1
102
RTVSPost2010Prop35
280
     0
102
RTVSPost2010PropOp35
 70
     1
102
RTVSPost2010Prop36
280
     0
102
RTVSPost2010PropOp36
 70
     1
102
RTVSPost2010Prop37
 90
       50
102
RTVSPost2010PropOp37
 70
     0
102
RTVSPost2010Prop38
140
0.0
102
RTVSPost2010PropOp38
 70
     0
102
RTVSPost2010Prop39
140
1.0
102
RTVSPost2010PropOp39
 70
     0
102
RTVSPost2010Prop40
 90
        0
102
RTVSPost2010PropOp40
 70
     0
102
RTVSPost2010Prop41ColorIndex
 90
       18
102
RTVSPost2010Prop41ColorRGB
 90
        0
102
RTVSPost2010PropOp41
 70
     0
102
RTVSPost2010Prop42
 90
       50
102
RTVSPost2010PropOp42
 70
     0
102
RTVSPost2010Prop43
 90
        3
102
RTVSPost2010PropOp43
 70
     0
102
RTVSPost2010Prop44ColorIndex
 90
        5
102
RTVSPost2010Prop44ColorRGB
 90
      255
102
RTVSPost2010PropOp44
 70
     0
102
RTVSPost2010Prop45
280
     0
102
RTVSPost2010PropOp45
 70
     1
102
RTVSPost2010Prop46
 90
       50
102
RTVSPost2010PropOp46
 70
     0
102
RTVSPost2010Prop47
 90
       50
102
RTVSPost2010PropOp47
 70
     0
102
RTVSPost2010Prop48
 90
       50
102
RTVSPost2010PropOp48
 70
     0
102
RTVSPost2010Prop49
280
     0
102
RTVSPost2010PropOp49
 70
     1
102
RTVSPost2010Prop50
 90
       50
102
RTVSPost2010PropOp50
 70
     0
102
RTVSPost2010Prop51ColorIndex
 90
      256
102
RTVSPost2010Prop51ColorRGB
 90
-16777216
102
RTVSPost2010PropOp51
 70
     0
102
RTVSPost2010Prop52
140
1.0
102
RTVSPost2010PropOp52
 70
     0
102
RTVSPost2010Prop53
 90
        2
102
RTVSPost2010PropOp53
 70
     0
102
RTVSPost2010Prop54
  1
strokes_ogs.tif
102
RTVSPost2010PropOp54
 70
     0
102
RTVSPost2010Prop55
280
     0
102
RTVSPost2010PropOp55
 70
     1
102
RTVSPost2010Prop56
140
1.0
102
RTVSPost2010PropOp56
 70
     0
102
RTVSPost2010Prop57
140
1.0
102
RTVSPost2010PropOp57
 70
     0
102
RTVSPropertyOp0
 70
     0
102
RTVSPropertyOp1
 70
     0
102
RTVSPropertyOp2
 70
     0
102
RTVSPropertyOp3
 70
     0
102
RTVSPropertyOp4
 70
     0
102
RTVSPropertyOp5
 70
     0
102
RTVSPropertyOp6
 70
     0
102
RTVSPropertyOp7
 70
     0
102
RTVSPropertyOp8
 70
     0
102
RTVSPropertyOp9
 70
     0
102
RTVSPropertyOp10
 70
     0
102
RTVSPropertyOp11
 70
     0
102
RTVSPropertyOp12
 70
     0
102
RTVSPropertyOp13
 70
     0
102
RTVSPropertyOp14
 70
     2
102
RTVSPropertyOp15
 70
     0
102
RTVSPropertyOp16
 70
     0
102
RTVSPropertyOp17
 70
     0
102
RTVSPropertyOp18
 70
     0
102
RTVSPropertyOp19
 70
     0
102
RTVSPropertyOp20
 70
     0
102
RTVSPropertyOp21
 70
     0
102
RTVSPropertyOp22
 70
     0
102
RTVSPropertyOp23
 70
     0
102
RTVSPropertyOp24
 70
     0
102
RTVSPropertyOp25
 70
     0
102
RTVSPropertyOp26
 70
     0
102
RTVSPropertyOp27
 70
     0
102
RTVSPropertyOp28
 70
     1
102
RTVSPropertyOp29
 70
     1
102
RTVSPropertyOp30
 70
     1
102
RTVSPropertyOp31
 70
     1
102
RTVSPropertyOp32
 70
     1
102
RTVSPropertyOp33
 70
     1
102
RTVSPropertyOp34
 70
     1
102
RTVSPropertyOp35
 70
     1
102
RTVSPropertyOp36
 70
     1
102
RTVSPropertyOp37
 70
     0
102
RTVSPropertyOp38
 70
     0
102
RTVSPropertyOp39
 70
     0
102
RTVSPropertyOp40
 70
     0
102
RTVSPropertyOp41
 70
     0
102
RTVSPropertyOp42
 70
     0
102
RTVSPropertyOp43
 70
     0
102
RTVSPropertyOp44
 70
     0
102
RTVSPropertyOp45
 70
     1
102
RTVSPropertyOp46
 70
     0
102
RTVSPropertyOp47
 70
     0
102
RTVSPropertyOp48
 70
     0
102
RTVSPropertyOp49
 70
     1
102
RTVSPropertyOp50
 70
     0
102
RTVSPropertyOp51
 70
     0
102
RTVSPropertyOp52
 70
     0
102
RTVSPropertyOp53
 70
     0
102
RTVSPropertyOp54
 70
     0
102
RTVSPropertyOp55
 70
     1
102
RTVSPropertyOp56
 70
     0
102
RTVSPropertyOp57
 70
     0
102
RTVSPropertyOp58
 70
     0
102
RTVSPropertyOp59
 70
     0
102
RTVSPropertyOp60
 70
     0
102
RTVSPropertyOp61
 70
     0
102
RTVSPropertyOp62
 70
     0
  0
XRECORD
  5
37C
102
{ACAD_REACTORS
330
37B
102
}
330
37B
100
AcDbXrecord
280
     1
102
RTVSPost2010Prop28
280
     0
102
RTVSPost2010PropOp28
 70
     1
102
RTVSPost2010Prop29
280
     1
102
RTVSPost2010PropOp29
 70
     1
102
RTVSPost2010Prop30
280
     1
102
RTVSPost2010PropOp30
 70
     1
102
RTVSPost2010Prop31
280
     0
102
RTVSPost2010PropOp31
 70
     1
102
RTVSPost2010Prop32
280
     0
102
RTVSPost2010PropOp32
 70
     1
102
RTVSPost2010Prop33
280
     0
102
RTVSPost2010PropOp33
 70
     1
102
RTVSPost2010Prop34
280
     0
102
RTVSPost2010PropOp34
 70
     1
102
RTVSPost2010Prop35
280
     0
102
RTVSPost2010PropOp35
 70
     1
102
RTVSPost2010Prop36
280
     0
102
RTVSPost2010PropOp36
 70
     1
102
RTVSPost2010Prop37
 90
       50
102
RTVSPost2010PropOp37
 70
     1
102
RTVSPost2010Prop38
140
0.0
102
RTVSPost2010PropOp38
 70
     1
102
RTVSPost2010Prop39
140
1.0
102
RTVSPost2010PropOp39
 70
     1
102
RTVSPost2010Prop40
 90
        0
102
RTVSPost2010PropOp40
 70
     1
102
RTVSPost2010Prop41ColorIndex
 90
       18
102
RTVSPost2010Prop41ColorRGB
 90
        0
102
RTVSPost2010PropOp41
 70
     1
102
RTVSPost2010Prop42
 90
       50
102
RTVSPost2010PropOp42
 70
     1
102
RTVSPost2010Prop43
 90
        3
102
RTVSPost2010PropOp43
 70
     1
102
RTVSPost2010Prop44ColorIndex
 90
        5
102
RTVSPost2010Prop44ColorRGB
 90
      255
102
RTVSPost2010PropOp44
 70
     1
102
RTVSPost2010Prop45
280
     0
102
RTVSPost2010PropOp45
 70
     1
102
RTVSPost2010Prop46
 90
       50
102
RTVSPost2010PropOp46
 70
     1
102
RTVSPost2010Prop47
 90
       50
102
RTVSPost2010PropOp47
 70
     1
102
RTVSPost2010Prop48
 90
       50
102
RTVSPost2010PropOp48
 70
     1
102
RTVSPost2010Prop49
280
     0
102
RTVSPost2010PropOp49
 70
     1
102
RTVSPost2010Prop50
 90
       50
102
RTVSPost2010PropOp50
 70
     1
102
RTVSPost2010Prop51ColorIndex
 90
      256
102
RTVSPost2010Prop51ColorRGB
 90
-16777216
102
RTVSPost2010PropOp51
 70
     0
102
RTVSPost2010Prop52
140
1.0
102
RTVSPost2010PropOp52
 70
     0
102
RTVSPost2010Prop53
 90
        2
102
RTVSPost2010PropOp53
 70
     1
102
RTVSPost2010Prop54
  1
strokes_ogs.tif
102
RTVSPost2010PropOp54
 70
     1
102
RTVSPost2010Prop55
280
     0
102
RTVSPost2010PropOp55
 70
     1
102
RTVSPost2010Prop56
140
1.0
102
RTVSPost2010PropOp56
 70
     1
102
RTVSPost2010Prop57
140
1.0
102
RTVSPost2010PropOp57
 70
     1
102
RTVSPropertyOp0
 70
     1
102
RTVSPropertyOp1
 70
     1
102
RTVSPropertyOp2
 70
     1
102
RTVSPropertyOp3
 70
     1
102
RTVSPropertyOp4
 70
     1
102
RTVSPropertyOp5
 70
     1
102
RTVSPropertyOp6
 70
     1
102
RTVSPropertyOp7
 70
     1
102
RTVSPropertyOp8
 70
     1
102
RTVSPropertyOp9
 70
     1
102
RTVSPropertyOp10
 70
     1
102
RTVSPropertyOp11
 70
     1
102
RTVSPropertyOp12
 70
     1
102
RTVSPropertyOp13
 70
     1
102
RTVSPropertyOp14
 70
     1
102
RTVSPropertyOp15
 70
     1
102
RTVSPropertyOp16
 70
     1
102
RTVSPropertyOp17
 70
     1
102
RTVSPropertyOp18
 70
     1
102
RTVSPropertyOp19
 70
     1
102
RTVSPropertyOp20
 70
     1
102
RTVSPropertyOp21
 70
     1
102
RTVSPropertyOp22
 70
     1
102
RTVSPropertyOp23
 70
     1
102
RTVSPropertyOp24
 70
     1
102
RTVSPropertyOp25
 70
     1
102
RTVSPropertyOp26
 70
     1
102
RTVSPropertyOp27
 70
     1
102
RTVSPropertyOp28
 70
     1
102
RTVSPropertyOp29
 70
     1
102
RTVSPropertyOp30
 70
     1
102
RTVSPropertyOp31
 70
     1
102
RTVSPropertyOp32
 70
     1
102
RTVSPropertyOp33
 70
     1
102
RTVSPropertyOp34
 70
     1
102
RTVSPropertyOp35
 70
     1
102
RTVSPropertyOp36
 70
     1
102
RTVSPropertyOp37
 70
     1
102
RTVSPropertyOp38
 70
     1
102
RTVSPropertyOp39
 70
     1
102
RTVSPropertyOp40
 70
     1
102
RTVSPropertyOp41
 70
     1
102
RTVSPropertyOp42
 70
     1
102
RTVSPropertyOp43
 70
     1
102
RTVSPropertyOp44
 70
     1
102
RTVSPropertyOp45
 70
     1
102
RTVSPropertyOp46
 70
     1
102
RTVSPropertyOp47
 70
     1
102
RTVSPropertyOp48
 70
     1
102
RTVSPropertyOp49
 70
     1
102
RTVSPropertyOp50
 70
     1
102
RTVSPropertyOp51
 70
     0
102
RTVSPropertyOp52
 70
     0
102
RTVSPropertyOp53
 70
     1
102
RTVSPropertyOp54
 70
     1
102
RTVSPropertyOp55
 70
     1
102
RTVSPropertyOp56
 70
     1
102
RTVSPropertyOp57
 70
     1
102
RTVSPropertyOp58
 70
     1
102
RTVSPropertyOp59
 70
     1
102
RTVSPropertyOp60
 70
     1
102
RTVSPropertyOp61
 70
     1
102
RTVSPropertyOp62
 70
     1
  0
XRECORD
  5
38E
102
{ACAD_REACTORS
330
38D
102
}
330
38D
100
AcDbXrecord
280
     1
102
RTVSPost2010Prop28
280
     0
102
RTVSPost2010PropOp28
 70
     1
102
RTVSPost2010Prop29
280
     1
102
RTVSPost2010PropOp29
 70
     1
102
RTVSPost2010Prop30
280
     1
102
RTVSPost2010PropOp30
 70
     1
102
RTVSPost2010Prop31
280
     0
102
RTVSPost2010PropOp31
 70
     1
102
RTVSPost2010Prop32
280
     0
102
RTVSPost2010PropOp32
 70
     1
102
RTVSPost2010Prop33
280
     0
102
RTVSPost2010PropOp33
 70
     1
102
RTVSPost2010Prop34
280
     0
102
RTVSPost2010PropOp34
 70
     1
102
RTVSPost2010Prop35
280
     0
102
RTVSPost2010PropOp35
 70
     1
102
RTVSPost2010Prop36
280
     0
102
RTVSPost2010PropOp36
 70
     1
102
RTVSPost2010Prop37
 90
       50
102
RTVSPost2010PropOp37
 70
     0
102
RTVSPost2010Prop38
140
0.0
102
RTVSPost2010PropOp38
 70
     0
102
RTVSPost2010Prop39
140
1.0
102
RTVSPost2010PropOp39
 70
     0
102
RTVSPost2010Prop40
 90
        0
102
RTVSPost2010PropOp40
 70
     0
102
RTVSPost2010Prop41ColorIndex
 90
       18
102
RTVSPost2010Prop41ColorRGB
 90
        0
102
RTVSPost2010PropOp41
 70
     0
102
RTVSPost2010Prop42
 90
       50
102
RTVSPost2010PropOp42
 70
     0
102
RTVSPost2010Prop43
 90
        3
102
RTVSPost2010PropOp43
 70
     0
102
RTVSPost2010Prop44ColorIndex
 90
        5
102
RTVSPost2010Prop44ColorRGB
 90
      255
102
RTVSPost2010PropOp44
 70
     0
102
RTVSPost2010Prop45
280
     0
102
RTVSPost2010PropOp45
 70
     1
102
RTVSPost2010Prop46
 90
       50
102
RTVSPost2010PropOp46
 70
     0
102
RTVSPost2010Prop47
 90
       50
102
RTVSPost2010PropOp47
 70
     0
102
RTVSPost2010Prop48
 90
       50
102
RTVSPost2010PropOp48
 70
     0
102
RTVSPost2010Prop49
280
     0
102
RTVSPost2010PropOp49
 70
     1
102
RTVSPost2010Prop50
 90
       50
102
RTVSPost2010PropOp50
 70
     0
102
RTVSPost2010Prop51ColorIndex
 90
      256
102
RTVSPost2010Prop51ColorRGB
 90
-16777216
102
RTVSPost2010PropOp51
 70
     0
102
RTVSPost2010Prop52
140
1.0
102
RTVSPost2010PropOp52
 70
     0
102
RTVSPost2010Prop53
 90
        2
102
RTVSPost2010PropOp53
 70
     0
102
RTVSPost2010Prop54
  1
strokes_ogs.tif
102
RTVSPost2010PropOp54
 70
     0
102
RTVSPost2010Prop55
280
     0
102
RTVSPost2010PropOp55
 70
     1
102
RTVSPost2010Prop56
140
1.0
102
RTVSPost2010PropOp56
 70
     0
102
RTVSPost2010Prop57
140
1.0
102
RTVSPost2010PropOp57
 70
     0
102
RTVSPropertyOp0
 70
     0
102
RTVSPropertyOp1
 70
     0
102
RTVSPropertyOp2
 70
     0
102
RTVSPropertyOp3
 70
     0
102
RTVSPropertyOp4
 70
     0
102
RTVSPropertyOp5
 70
     0
102
RTVSPropertyOp6
 70
     0
102
RTVSPropertyOp7
 70
     0
102
RTVSPropertyOp8
 70
     0
102
RTVSPropertyOp9
 70
     0
102
RTVSPropertyOp10
 70
     0
102
RTVSPropertyOp11
 70
     0
102
RTVSPropertyOp12
 70
     0
102
RTVSPropertyOp13
 70
     0
102
RTVSPropertyOp14
 70
     2
102
RTVSPropertyOp15
 70
     0
102
RTVSPropertyOp16
 70
     0
102
RTVSPropertyOp17
 70
     0
102
RTVSPropertyOp18
 70
     0
102
RTVSPropertyOp19
 70
     0
102
RTVSPropertyOp20
 70
     0
102
RTVSPropertyOp21
 70
     0
102
RTVSPropertyOp22
 70
     0
102
RTVSPropertyOp23
 70
     0
102
RTVSPropertyOp24
 70
     0
102
RTVSPropertyOp25
 70
     0
102
RTVSPropertyOp26
 70
     0
102
RTVSPropertyOp27
 70
     0
102
RTVSPropertyOp28
 70
     1
102
RTVSPropertyOp29
 70
     1
102
RTVSPropertyOp30
 70
     1
102
RTVSPropertyOp31
 70
     1
102
RTVSPropertyOp32
 70
     1
102
RTVSPropertyOp33
 70
     1
102
RTVSPropertyOp34
 70
     1
102
RTVSPropertyOp35
 70
     1
102
RTVSPropertyOp36
 70
     1
102
RTVSPropertyOp37
 70
     0
102
RTVSPropertyOp38
 70
     0
102
RTVSPropertyOp39
 70
     0
102
RTVSPropertyOp40
 70
     0
102
RTVSPropertyOp41
 70
     0
102
RTVSPropertyOp42
 70
     0
102
RTVSPropertyOp43
 70
     0
102
RTVSPropertyOp44
 70
     0
102
RTVSPropertyOp45
 70
     1
102
RTVSPropertyOp46
 70
     0
102
RTVSPropertyOp47
 70
     0
102
RTVSPropertyOp48
 70
     0
102
RTVSPropertyOp49
 70
     1
102
RTVSPropertyOp50
 70
     0
102
RTVSPropertyOp51
 70
     0
102
RTVSPropertyOp52
 70
     0
102
RTVSPropertyOp53
 70
     0
102
RTVSPropertyOp54
 70
     0
102
RTVSPropertyOp55
 70
     1
102
RTVSPropertyOp56
 70
     0
102
RTVSPropertyOp57
 70
     0
102
RTVSPropertyOp58
 70
     0
102
RTVSPropertyOp59
 70
     0
102
RTVSPropertyOp60
 70
     0
102
RTVSPropertyOp61
 70
     0
102
RTVSPropertyOp62
 70
     0
  0
XRECORD
  5
374
102
{ACAD_REACTORS
330
373
102
}
330
373
100
AcDbXrecord
280
     1
102
RTVSPost2010Prop28
280
     0
102
RTVSPost2010PropOp28
 70
     1
102
RTVSPost2010Prop29
280
     1
102
RTVSPost2010PropOp29
 70
     1
102
RTVSPost2010Prop30
280
     1
102
RTVSPost2010PropOp30
 70
     1
102
RTVSPost2010Prop31
280
     0
102
RTVSPost2010PropOp31
 70
     1
102
RTVSPost2010Prop32
280
     0
102
RTVSPost2010PropOp32
 70
     1
102
RTVSPost2010Prop33
280
     0
102
RTVSPost2010PropOp33
 70
     1
102
RTVSPost2010Prop34
280
     0
102
RTVSPost2010PropOp34
 70
     1
102
RTVSPost2010Prop35
280
     0
102
RTVSPost2010PropOp35
 70
     1
102
RTVSPost2010Prop36
280
     0
102
RTVSPost2010PropOp36
 70
     1
102
RTVSPost2010Prop37
 90
       50
102
RTVSPost2010PropOp37
 70
     1
102
RTVSPost2010Prop38
140
0.0
102
RTVSPost2010PropOp38
 70
     1
102
RTVSPost2010Prop39
140
1.0
102
RTVSPost2010PropOp39
 70
     1
102
RTVSPost2010Prop40
 90
        0
102
RTVSPost2010PropOp40
 70
     1
102
RTVSPost2010Prop41ColorIndex
 90
       18
102
RTVSPost2010Prop41ColorRGB
 90
        0
102
RTVSPost2010PropOp41
 70
     1
102
RTVSPost2010Prop42
 90
       50
102
RTVSPost2010PropOp42
 70
     1
102
RTVSPost2010Prop43
 90
        3
102
RTVSPost2010PropOp43
 70
     1
102
RTVSPost2010Prop44ColorIndex
 90
        5
102
RTVSPost2010Prop44ColorRGB
 90
      255
102
RTVSPost2010PropOp44
 70
     1
102
RTVSPost2010Prop45
280
     0
102
RTVSPost2010PropOp45
 70
     1
102
RTVSPost2010Prop46
 90
       50
102
RTVSPost2010PropOp46
 70
     1
102
RTVSPost2010Prop47
 90
       50
102
RTVSPost2010PropOp47
 70
     1
102
RTVSPost2010Prop48
 90
       50
102
RTVSPost2010PropOp48
 70
     1
102
RTVSPost2010Prop49
280
     0
102
RTVSPost2010PropOp49
 70
     1
102
RTVSPost2010Prop50
 90
       50
102
RTVSPost2010PropOp50
 70
     1
102
RTVSPost2010Prop51ColorIndex
 90
      256
102
RTVSPost2010Prop51ColorRGB
 90
-16777216
102
RTVSPost2010PropOp51
 70
     0
102
RTVSPost2010Prop52
140
1.0
102
RTVSPost2010PropOp52
 70
     0
102
RTVSPost2010Prop53
 90
        2
102
RTVSPost2010PropOp53
 70
     1
102
RTVSPost2010Prop54
  1
strokes_ogs.tif
102
RTVSPost2010PropOp54
 70
     1
102
RTVSPost2010Prop55
280
     0
102
RTVSPost2010PropOp55
 70
     1
102
RTVSPost2010Prop56
140
1.0
102
RTVSPost2010PropOp56
 70
     1
102
RTVSPost2010Prop57
140
1.0
102
RTVSPost2010PropOp57
 70
     1
102
RTVSPropertyOp0
 70
     1
102
RTVSPropertyOp1
 70
     1
102
RTVSPropertyOp2
 70
     1
102
RTVSPropertyOp3
 70
     1
102
RTVSPropertyOp4
 70
     1
102
RTVSPropertyOp5
 70
     1
102
RTVSPropertyOp6
 70
     1
102
RTVSPropertyOp7
 70
     1
102
RTVSPropertyOp8
 70
     1
102
RTVSPropertyOp9
 70
     1
102
RTVSPropertyOp10
 70
     1
102
RTVSPropertyOp11
 70
     1
102
RTVSPropertyOp12
 70
     1
102
RTVSPropertyOp13
 70
     1
102
RTVSPropertyOp14
 70
     1
102
RTVSPropertyOp15
 70
     1
102
RTVSPropertyOp16
 70
     1
102
RTVSPropertyOp17
 70
     1
102
RTVSPropertyOp18
 70
     1
102
RTVSPropertyOp19
 70
     1
102
RTVSPropertyOp20
 70
     1
102
RTVSPropertyOp21
 70
     1
102
RTVSPropertyOp22
 70
     1
102
RTVSPropertyOp23
 70
     1
102
RTVSPropertyOp24
 70
     1
102
RTVSPropertyOp25
 70
     1
102
RTVSPropertyOp26
 70
     1
102
RTVSPropertyOp27
 70
     1
102
RTVSPropertyOp28
 70
     1
102
RTVSPropertyOp29
 70
     1
102
RTVSPropertyOp30
 70
     1
102
RTVSPropertyOp31
 70
     1
102
RTVSPropertyOp32
 70
     1
102
RTVSPropertyOp33
 70
     1
102
RTVSPropertyOp34
 70
     1
102
RTVSPropertyOp35
 70
     1
102
RTVSPropertyOp36
 70
     1
102
RTVSPropertyOp37
 70
     1
102
RTVSPropertyOp38
 70
     1
102
RTVSPropertyOp39
 70
     1
102
RTVSPropertyOp40
 70
     1
102
RTVSPropertyOp41
 70
     1
102
RTVSPropertyOp42
 70
     1
102
RTVSPropertyOp43
 70
     1
102
RTVSPropertyOp44
 70
     1
102
RTVSPropertyOp45
 70
     1
102
RTVSPropertyOp46
 70
     1
102
RTVSPropertyOp47
 70
     1
102
RTVSPropertyOp48
 70
     1
102
RTVSPropertyOp49
 70
     1
102
RTVSPropertyOp50
 70
     1
102
RTVSPropertyOp51
 70
     0
102
RTVSPropertyOp52
 70
     0
102
RTVSPropertyOp53
 70
     1
102
RTVSPropertyOp54
 70
     1
102
RTVSPropertyOp55
 70
     1
102
RTVSPropertyOp56
 70
     1
102
RTVSPropertyOp57
 70
     1
102
RTVSPropertyOp58
 70
     1
102
RTVSPropertyOp59
 70
     1
102
RTVSPropertyOp60
 70
     1
102
RTVSPropertyOp61
 70
     1
102
RTVSPropertyOp62
 70
     1
  0
XRECORD
  5
38A
102
{ACAD_REACTORS
330
389
102
}
330
389
100
AcDbXrecord
280
     1
102
RTVSPost2010Prop28
280
     0
102
RTVSPost2010PropOp28
 70
     1
102
RTVSPost2010Prop29
280
     1
102
RTVSPost2010PropOp29
 70
     1
102
RTVSPost2010Prop30
280
     1
102
RTVSPost2010PropOp30
 70
     1
102
RTVSPost2010Prop31
280
     0
102
RTVSPost2010PropOp31
 70
     1
102
RTVSPost2010Prop32
280
     0
102
RTVSPost2010PropOp32
 70
     1
102
RTVSPost2010Prop33
280
     0
102
RTVSPost2010PropOp33
 70
     1
102
RTVSPost2010Prop34
280
     0
102
RTVSPost2010PropOp34
 70
     1
102
RTVSPost2010Prop35
280
     0
102
RTVSPost2010PropOp35
 70
     1
102
RTVSPost2010Prop36
280
     0
102
RTVSPost2010PropOp36
 70
     1
102
RTVSPost2010Prop37
 90
       50
102
RTVSPost2010PropOp37
 70
     1
102
RTVSPost2010Prop38
140
0.0
102
RTVSPost2010PropOp38
 70
     1
102
RTVSPost2010Prop39
140
1.0
102
RTVSPost2010PropOp39
 70
     1
102
RTVSPost2010Prop40
 90
        0
102
RTVSPost2010PropOp40
 70
     1
102
RTVSPost2010Prop41ColorIndex
 90
       18
102
RTVSPost2010Prop41ColorRGB
 90
        0
102
RTVSPost2010PropOp41
 70
     1
102
RTVSPost2010Prop42
 90
       50
102
RTVSPost2010PropOp42
 70
     1
102
RTVSPost2010Prop43
 90
        3
102
RTVSPost2010PropOp43
 70
     1
102
RTVSPost2010Prop44ColorIndex
 90
        5
102
RTVSPost2010Prop44ColorRGB
 90
      255
102
RTVSPost2010PropOp44
 70
     1
102
RTVSPost2010Prop45
280
     0
102
RTVSPost2010PropOp45
 70
     1
102
RTVSPost2010Prop46
 90
       50
102
RTVSPost2010PropOp46
 70
     1
102
RTVSPost2010Prop47
 90
       50
102
RTVSPost2010PropOp47
 70
     1
102
RTVSPost2010Prop48
 90
       50
102
RTVSPost2010PropOp48
 70
     1
102
RTVSPost2010Prop49
280
     0
102
RTVSPost2010PropOp49
 70
     1
102
RTVSPost2010Prop50
 90
       50
102
RTVSPost2010PropOp50
 70
     1
102
RTVSPost2010Prop51ColorIndex
 90
      256
102
RTVSPost2010Prop51ColorRGB
 90
-16777216
102
RTVSPost2010PropOp51
 70
     0
102
RTVSPost2010Prop52
140
1.0
102
RTVSPost2010PropOp52
 70
     0
102
RTVSPost2010Prop53
 90
        2
102
RTVSPost2010PropOp53
 70
     1
102
RTVSPost2010Prop54
  1
strokes_ogs.tif
102
RTVSPost2010PropOp54
 70
     1
102
RTVSPost2010Prop55
280
     0
102
RTVSPost2010PropOp55
 70
     1
102
RTVSPost2010Prop56
140
1.0
102
RTVSPost2010PropOp56
 70
     1
102
RTVSPost2010Prop57
140
1.0
102
RTVSPost2010PropOp57
 70
     1
102
RTVSPropertyOp0
 70
     1
102
RTVSPropertyOp1
 70
     1
102
RTVSPropertyOp2
 70
     1
102
RTVSPropertyOp3
 70
     1
102
RTVSPropertyOp4
 70
     1
102
RTVSPropertyOp5
 70
     1
102
RTVSPropertyOp6
 70
     1
102
RTVSPropertyOp7
 70
     1
102
RTVSPropertyOp8
 70
     1
102
RTVSPropertyOp9
 70
     1
102
RTVSPropertyOp10
 70
     1
102
RTVSPropertyOp11
 70
     1
102
RTVSPropertyOp12
 70
     1
102
RTVSPropertyOp13
 70
     1
102
RTVSPropertyOp14
 70
     1
102
RTVSPropertyOp15
 70
     1
102
RTVSPropertyOp16
 70
     1
102
RTVSPropertyOp17
 70
     1
102
RTVSPropertyOp18
 70
     1
102
RTVSPropertyOp19
 70
     1
102
RTVSPropertyOp20
 70
     1
102
RTVSPropertyOp21
 70
     1
102
RTVSPropertyOp22
 70
     1
102
RTVSPropertyOp23
 70
     1
102
RTVSPropertyOp24
 70
     1
102
RTVSPropertyOp25
 70
     1
102
RTVSPropertyOp26
 70
     1
102
RTVSPropertyOp27
 70
     1
102
RTVSPropertyOp28
 70
     1
102
RTVSPropertyOp29
 70
     1
102
RTVSPropertyOp30
 70
     1
102
RTVSPropertyOp31
 70
     1
102
RTVSPropertyOp32
 70
     1
102
RTVSPropertyOp33
 70
     1
102
RTVSPropertyOp34
 70
     1
102
RTVSPropertyOp35
 70
     1
102
RTVSPropertyOp36
 70
     1
102
RTVSPropertyOp37
 70
     1
102
RTVSPropertyOp38
 70
     1
102
RTVSPropertyOp39
 70
     1
102
RTVSPropertyOp40
 70
     1
102
RTVSPropertyOp41
 70
     1
102
RTVSPropertyOp42
 70
     1
102
RTVSPropertyOp43
 70
     1
102
RTVSPropertyOp44
 70
     1
102
RTVSPropertyOp45
 70
     1
102
RTVSPropertyOp46
 70
     1
102
RTVSPropertyOp47
 70
     1
102
RTVSPropertyOp48
 70
     1
102
RTVSPropertyOp49
 70
     1
102
RTVSPropertyOp50
 70
     1
102
RTVSPropertyOp51
 70
     0
102
RTVSPropertyOp52
 70
     0
102
RTVSPropertyOp53
 70
     1
102
RTVSPropertyOp54
 70
     1
102
RTVSPropertyOp55
 70
     1
102
RTVSPropertyOp56
 70
     1
102
RTVSPropertyOp57
 70
     1
102
RTVSPropertyOp58
 70
     1
102
RTVSPropertyOp59
 70
     1
102
RTVSPropertyOp60
 70
     1
102
RTVSPropertyOp61
 70
     1
102
RTVSPropertyOp62
 70
     1
  0
XRECORD
  5
388
102
{ACAD_REACTORS
330
387
102
}
330
387
100
AcDbXrecord
280
     1
102
RTVSPost2010Prop28
280
     0
102
RTVSPost2010PropOp28
 70
     1
102
RTVSPost2010Prop29
280
     1
102
RTVSPost2010PropOp29
 70
     1
102
RTVSPost2010Prop30
280
     1
102
RTVSPost2010PropOp30
 70
     1
102
RTVSPost2010Prop31
280
     0
102
RTVSPost2010PropOp31
 70
     1
102
RTVSPost2010Prop32
280
     0
102
RTVSPost2010PropOp32
 70
     1
102
RTVSPost2010Prop33
280
     0
102
RTVSPost2010PropOp33
 70
     1
102
RTVSPost2010Prop34
280
     0
102
RTVSPost2010PropOp34
 70
     1
102
RTVSPost2010Prop35
280
     0
102
RTVSPost2010PropOp35
 70
     1
102
RTVSPost2010Prop36
280
     0
102
RTVSPost2010PropOp36
 70
     1
102
RTVSPost2010Prop37
 90
       50
102
RTVSPost2010PropOp37
 70
     1
102
RTVSPost2010Prop38
140
0.0
102
RTVSPost2010PropOp38
 70
     1
102
RTVSPost2010Prop39
140
1.0
102
RTVSPost2010PropOp39
 70
     1
102
RTVSPost2010Prop40
 90
        0
102
RTVSPost2010PropOp40
 70
     1
102
RTVSPost2010Prop41ColorIndex
 90
       18
102
RTVSPost2010Prop41ColorRGB
 90
        0
102
RTVSPost2010PropOp41
 70
     1
102
RTVSPost2010Prop42
 90
       50
102
RTVSPost2010PropOp42
 70
     1
102
RTVSPost2010Prop43
 90
        3
102
RTVSPost2010PropOp43
 70
     1
102
RTVSPost2010Prop44ColorIndex
 90
        5
102
RTVSPost2010Prop44ColorRGB
 90
      255
102
RTVSPost2010PropOp44
 70
     1
102
RTVSPost2010Prop45
280
     0
102
RTVSPost2010PropOp45
 70
     1
102
RTVSPost2010Prop46
 90
       50
102
RTVSPost2010PropOp46
 70
     1
102
RTVSPost2010Prop47
 90
       50
102
RTVSPost2010PropOp47
 70
     1
102
RTVSPost2010Prop48
 90
       50
102
RTVSPost2010PropOp48
 70
     1
102
RTVSPost2010Prop49
280
     0
102
RTVSPost2010PropOp49
 70
     1
102
RTVSPost2010Prop50
 90
       50
102
RTVSPost2010PropOp50
 70
     1
102
RTVSPost2010Prop51ColorIndex
 90
      256
102
RTVSPost2010Prop51ColorRGB
 90
-16777216
102
RTVSPost2010PropOp51
 70
     0
102
RTVSPost2010Prop52
140
1.0
102
RTVSPost2010PropOp52
 70
     0
102
RTVSPost2010Prop53
 90
        2
102
RTVSPost2010PropOp53
 70
     1
102
RTVSPost2010Prop54
  1
strokes_ogs.tif
102
RTVSPost2010PropOp54
 70
     1
102
RTVSPost2010Prop55
280
     0
102
RTVSPost2010PropOp55
 70
     1
102
RTVSPost2010Prop56
140
1.0
102
RTVSPost2010PropOp56
 70
     1
102
RTVSPost2010Prop57
140
1.0
102
RTVSPost2010PropOp57
 70
     1
102
RTVSPropertyOp0
 70
     1
102
RTVSPropertyOp1
 70
     1
102
RTVSPropertyOp2
 70
     1
102
RTVSPropertyOp3
 70
     1
102
RTVSPropertyOp4
 70
     1
102
RTVSPropertyOp5
 70
     1
102
RTVSPropertyOp6
 70
     1
102
RTVSPropertyOp7
 70
     1
102
RTVSPropertyOp8
 70
     1
102
RTVSPropertyOp9
 70
     1
102
RTVSPropertyOp10
 70
     1
102
RTVSPropertyOp11
 70
     1
102
RTVSPropertyOp12
 70
     1
102
RTVSPropertyOp13
 70
     1
102
RTVSPropertyOp14
 70
     1
102
RTVSPropertyOp15
 70
     1
102
RTVSPropertyOp16
 70
     1
102
RTVSPropertyOp17
 70
     1
102
RTVSPropertyOp18
 70
     1
102
RTVSPropertyOp19
 70
     1
102
RTVSPropertyOp20
 70
     1
102
RTVSPropertyOp21
 70
     1
102
RTVSPropertyOp22
 70
     1
102
RTVSPropertyOp23
 70
     1
102
RTVSPropertyOp24
 70
     1
102
RTVSPropertyOp25
 70
     1
102
RTVSPropertyOp26
 70
     1
102
RTVSPropertyOp27
 70
     1
102
RTVSPropertyOp28
 70
     1
102
RTVSPropertyOp29
 70
     1
102
RTVSPropertyOp30
 70
     1
102
RTVSPropertyOp31
 70
     1
102
RTVSPropertyOp32
 70
     1
102
RTVSPropertyOp33
 70
     1
102
RTVSPropertyOp34
 70
     1
102
RTVSPropertyOp35
 70
     1
102
RTVSPropertyOp36
 70
     1
102
RTVSPropertyOp37
 70
     1
102
RTVSPropertyOp38
 70
     1
102
RTVSPropertyOp39
 70
     1
102
RTVSPropertyOp40
 70
     1
102
RTVSPropertyOp41
 70
     1
102
RTVSPropertyOp42
 70
     1
102
RTVSPropertyOp43
 70
     1
102
RTVSPropertyOp44
 70
     1
102
RTVSPropertyOp45
 70
     1
102
RTVSPropertyOp46
 70
     1
102
RTVSPropertyOp47
 70
     1
102
RTVSPropertyOp48
 70
     1
102
RTVSPropertyOp49
 70
     1
102
RTVSPropertyOp50
 70
     1
102
RTVSPropertyOp51
 70
     0
102
RTVSPropertyOp52
 70
     0
102
RTVSPropertyOp53
 70
     1
102
RTVSPropertyOp54
 70
     1
102
RTVSPropertyOp55
 70
     1
102
RTVSPropertyOp56
 70
     1
102
RTVSPropertyOp57
 70
     1
102
RTVSPropertyOp58
 70
     1
102
RTVSPropertyOp59
 70
     1
102
RTVSPropertyOp60
 70
     1
102
RTVSPropertyOp61
 70
     1
102
RTVSPropertyOp62
 70
     1
  0
XRECORD
  5
382
102
{ACAD_REACTORS
330
381
102
}
330
381
100
AcDbXrecord
280
     1
102
RTVSPost2010Prop28
280
     0
102
RTVSPost2010PropOp28
 70
     1
102
RTVSPost2010Prop29
280
     1
102
RTVSPost2010PropOp29
 70
     1
102
RTVSPost2010Prop30
280
     1
102
RTVSPost2010PropOp30
 70
     1
102
RTVSPost2010Prop31
280
     0
102
RTVSPost2010PropOp31
 70
     1
102
RTVSPost2010Prop32
280
     0
102
RTVSPost2010PropOp32
 70
     1
102
RTVSPost2010Prop33
280
     0
102
RTVSPost2010PropOp33
 70
     1
102
RTVSPost2010Prop34
280
     0
102
RTVSPost2010PropOp34
 70
     1
102
RTVSPost2010Prop35
280
     0
102
RTVSPost2010PropOp35
 70
     1
102
RTVSPost2010Prop36
280
     0
102
RTVSPost2010PropOp36
 70
     1
102
RTVSPost2010Prop37
 90
       50
102
RTVSPost2010PropOp37
 70
     1
102
RTVSPost2010Prop38
140
0.0
102
RTVSPost2010PropOp38
 70
     1
102
RTVSPost2010Prop39
140
1.0
102
RTVSPost2010PropOp39
 70
     1
102
RTVSPost2010Prop40
 90
        0
102
RTVSPost2010PropOp40
 70
     1
102
RTVSPost2010Prop41ColorIndex
 90
       18
102
RTVSPost2010Prop41ColorRGB
 90
        0
102
RTVSPost2010PropOp41
 70
     1
102
RTVSPost2010Prop42
 90
       50
102
RTVSPost2010PropOp42
 70
     1
102
RTVSPost2010Prop43
 90
        3
102
RTVSPost2010PropOp43
 70
     1
102
RTVSPost2010Prop44ColorIndex
 90
        5
102
RTVSPost2010Prop44ColorRGB
 90
      255
102
RTVSPost2010PropOp44
 70
     1
102
RTVSPost2010Prop45
280
     0
102
RTVSPost2010PropOp45
 70
     1
102
RTVSPost2010Prop46
 90
       50
102
RTVSPost2010PropOp46
 70
     1
102
RTVSPost2010Prop47
 90
       50
102
RTVSPost2010PropOp47
 70
     1
102
RTVSPost2010Prop48
 90
       50
102
RTVSPost2010PropOp48
 70
     1
102
RTVSPost2010Prop49
280
     0
102
RTVSPost2010PropOp49
 70
     1
102
RTVSPost2010Prop50
 90
       50
102
RTVSPost2010PropOp50
 70
     1
102
RTVSPost2010Prop51ColorIndex
 90
      256
102
RTVSPost2010Prop51ColorRGB
 90
-16777216
102
RTVSPost2010PropOp51
 70
     0
102
RTVSPost2010Prop52
140
1.0
102
RTVSPost2010PropOp52
 70
     0
102
RTVSPost2010Prop53
 90
        2
102
RTVSPost2010PropOp53
 70
     1
102
RTVSPost2010Prop54
  1
strokes_ogs.tif
102
RTVSPost2010PropOp54
 70
     1
102
RTVSPost2010Prop55
280
     0
102
RTVSPost2010PropOp55
 70
     1
102
RTVSPost2010Prop56
140
1.0
102
RTVSPost2010PropOp56
 70
     1
102
RTVSPost2010Prop57
140
1.0
102
RTVSPost2010PropOp57
 70
     1
102
RTVSPropertyOp0
 70
     1
102
RTVSPropertyOp1
 70
     1
102
RTVSPropertyOp2
 70
     1
102
RTVSPropertyOp3
 70
     1
102
RTVSPropertyOp4
 70
     1
102
RTVSPropertyOp5
 70
     1
102
RTVSPropertyOp6
 70
     1
102
RTVSPropertyOp7
 70
     1
102
RTVSPropertyOp8
 70
     1
102
RTVSPropertyOp9
 70
     1
102
RTVSPropertyOp10
 70
     1
102
RTVSPropertyOp11
 70
     1
102
RTVSPropertyOp12
 70
     1
102
RTVSPropertyOp13
 70
     1
102
RTVSPropertyOp14
 70
     1
102
RTVSPropertyOp15
 70
     1
102
RTVSPropertyOp16
 70
     1
102
RTVSPropertyOp17
 70
     1
102
RTVSPropertyOp18
 70
     1
102
RTVSPropertyOp19
 70
     1
102
RTVSPropertyOp20
 70
     1
102
RTVSPropertyOp21
 70
     1
102
RTVSPropertyOp22
 70
     1
102
RTVSPropertyOp23
 70
     1
102
RTVSPropertyOp24
 70
     1
102
RTVSPropertyOp25
 70
     1
102
RTVSPropertyOp26
 70
     1
102
RTVSPropertyOp27
 70
     1
102
RTVSPropertyOp28
 70
     1
102
RTVSPropertyOp29
 70
     1
102
RTVSPropertyOp30
 70
     1
102
RTVSPropertyOp31
 70
     1
102
RTVSPropertyOp32
 70
     1
102
RTVSPropertyOp33
 70
     1
102
RTVSPropertyOp34
 70
     1
102
RTVSPropertyOp35
 70
     1
102
RTVSPropertyOp36
 70
     1
102
RTVSPropertyOp37
 70
     1
102
RTVSPropertyOp38
 70
     1
102
RTVSPropertyOp39
 70
     1
102
RTVSPropertyOp40
 70
     1
102
RTVSPropertyOp41
 70
     1
102
RTVSPropertyOp42
 70
     1
102
RTVSPropertyOp43
 70
     1
102
RTVSPropertyOp44
 70
     1
102
RTVSPropertyOp45
 70
     1
102
RTVSPropertyOp46
 70
     1
102
RTVSPropertyOp47
 70
     1
102
RTVSPropertyOp48
 70
     1
102
RTVSPropertyOp49
 70
     1
102
RTVSPropertyOp50
 70
     1
102
RTVSPropertyOp51
 70
     0
102
RTVSPropertyOp52
 70
     0
102
RTVSPropertyOp53
 70
     1
102
RTVSPropertyOp54
 70
     1
102
RTVSPropertyOp55
 70
     1
102
RTVSPropertyOp56
 70
     1
102
RTVSPropertyOp57
 70
     1
102
RTVSPropertyOp58
 70
     1
102
RTVSPropertyOp59
 70
     1
102
RTVSPropertyOp60
 70
     1
102
RTVSPropertyOp61
 70
     1
102
RTVSPropertyOp62
 70
     1
  0
XRECORD
  5
384
102
{ACAD_REACTORS
330
383
102
}
330
383
100
AcDbXrecord
280
     1
102
RTVSPost2010Prop28
280
     0
102
RTVSPost2010PropOp28
 70
     1
102
RTVSPost2010Prop29
280
     1
102
RTVSPost2010PropOp29
 70
     1
102
RTVSPost2010Prop30
280
     1
102
RTVSPost2010PropOp30
 70
     1
102
RTVSPost2010Prop31
280
     0
102
RTVSPost2010PropOp31
 70
     1
102
RTVSPost2010Prop32
280
     0
102
RTVSPost2010PropOp32
 70
     1
102
RTVSPost2010Prop33
280
     0
102
RTVSPost2010PropOp33
 70
     1
102
RTVSPost2010Prop34
280
     0
102
RTVSPost2010PropOp34
 70
     1
102
RTVSPost2010Prop35
280
     0
102
RTVSPost2010PropOp35
 70
     1
102
RTVSPost2010Prop36
280
     0
102
RTVSPost2010PropOp36
 70
     1
102
RTVSPost2010Prop37
 90
       50
102
RTVSPost2010PropOp37
 70
     1
102
RTVSPost2010Prop38
140
0.0
102
RTVSPost2010PropOp38
 70
     1
102
RTVSPost2010Prop39
140
1.0
102
RTVSPost2010PropOp39
 70
     1
102
RTVSPost2010Prop40
 90
        0
102
RTVSPost2010PropOp40
 70
     1
102
RTVSPost2010Prop41ColorIndex
 90
       18
102
RTVSPost2010Prop41ColorRGB
 90
        0
102
RTVSPost2010PropOp41
 70
     1
102
RTVSPost2010Prop42
 90
       50
102
RTVSPost2010PropOp42
 70
     1
102
RTVSPost2010Prop43
 90
        3
102
RTVSPost2010PropOp43
 70
     1
102
RTVSPost2010Prop44ColorIndex
 90
        5
102
RTVSPost2010Prop44ColorRGB
 90
      255
102
RTVSPost2010PropOp44
 70
     1
102
RTVSPost2010Prop45
280
     0
102
RTVSPost2010PropOp45
 70
     1
102
RTVSPost2010Prop46
 90
       50
102
RTVSPost2010PropOp46
 70
     1
102
RTVSPost2010Prop47
 90
       50
102
RTVSPost2010PropOp47
 70
     1
102
RTVSPost2010Prop48
 90
       50
102
RTVSPost2010PropOp48
 70
     1
102
RTVSPost2010Prop49
280
     0
102
RTVSPost2010PropOp49
 70
     1
102
RTVSPost2010Prop50
 90
       50
102
RTVSPost2010PropOp50
 70
     1
102
RTVSPost2010Prop51ColorIndex
 90
      256
102
RTVSPost2010Prop51ColorRGB
 90
-16777216
102
RTVSPost2010PropOp51
 70
     0
102
RTVSPost2010Prop52
140
1.0
102
RTVSPost2010PropOp52
 70
     0
102
RTVSPost2010Prop53
 90
        2
102
RTVSPost2010PropOp53
 70
     1
102
RTVSPost2010Prop54
  1
strokes_ogs.tif
102
RTVSPost2010PropOp54
 70
     1
102
RTVSPost2010Prop55
280
     0
102
RTVSPost2010PropOp55
 70
     1
102
RTVSPost2010Prop56
140
1.0
102
RTVSPost2010PropOp56
 70
     1
102
RTVSPost2010Prop57
140
1.0
102
RTVSPost2010PropOp57
 70
     1
102
RTVSPropertyOp0
 70
     1
102
RTVSPropertyOp1
 70
     1
102
RTVSPropertyOp2
 70
     1
102
RTVSPropertyOp3
 70
     1
102
RTVSPropertyOp4
 70
     1
102
RTVSPropertyOp5
 70
     1
102
RTVSPropertyOp6
 70
     1
102
RTVSPropertyOp7
 70
     1
102
RTVSPropertyOp8
 70
     1
102
RTVSPropertyOp9
 70
     1
102
RTVSPropertyOp10
 70
     1
102
RTVSPropertyOp11
 70
     1
102
RTVSPropertyOp12
 70
     1
102
RTVSPropertyOp13
 70
     1
102
RTVSPropertyOp14
 70
     1
102
RTVSPropertyOp15
 70
     1
102
RTVSPropertyOp16
 70
     1
102
RTVSPropertyOp17
 70
     1
102
RTVSPropertyOp18
 70
     1
102
RTVSPropertyOp19
 70
     1
102
RTVSPropertyOp20
 70
     1
102
RTVSPropertyOp21
 70
     1
102
RTVSPropertyOp22
 70
     1
102
RTVSPropertyOp23
 70
     1
102
RTVSPropertyOp24
 70
     1
102
RTVSPropertyOp25
 70
     1
102
RTVSPropertyOp26
 70
     1
102
RTVSPropertyOp27
 70
     1
102
RTVSPropertyOp28
 70
     1
102
RTVSPropertyOp29
 70
     1
102
RTVSPropertyOp30
 70
     1
102
RTVSPropertyOp31
 70
     1
102
RTVSPropertyOp32
 70
     1
102
RTVSPropertyOp33
 70
     1
102
RTVSPropertyOp34
 70
     1
102
RTVSPropertyOp35
 70
     1
102
RTVSPropertyOp36
 70
     1
102
RTVSPropertyOp37
 70
     1
102
RTVSPropertyOp38
 70
     1
102
RTVSPropertyOp39
 70
     1
102
RTVSPropertyOp40
 70
     1
102
RTVSPropertyOp41
 70
     1
102
RTVSPropertyOp42
 70
     1
102
RTVSPropertyOp43
 70
     1
102
RTVSPropertyOp44
 70
     1
102
RTVSPropertyOp45
 70
     1
102
RTVSPropertyOp46
 70
     1
102
RTVSPropertyOp47
 70
     1
102
RTVSPropertyOp48
 70
     1
102
RTVSPropertyOp49
 70
     1
102
RTVSPropertyOp50
 70
     1
102
RTVSPropertyOp51
 70
     0
102
RTVSPropertyOp52
 70
     0
102
RTVSPropertyOp53
 70
     1
102
RTVSPropertyOp54
 70
     1
102
RTVSPropertyOp55
 70
     1
102
RTVSPropertyOp56
 70
     1
102
RTVSPropertyOp57
 70
     1
102
RTVSPropertyOp58
 70
     1
102
RTVSPropertyOp59
 70
     1
102
RTVSPropertyOp60
 70
     1
102
RTVSPropertyOp61
 70
     1
102
RTVSPropertyOp62
 70
     1
  0
XRECORD
  5
37A
102
{ACAD_REACTORS
330
379
102
}
330
379
100
AcDbXrecord
280
     1
102
RTVSPost2010Prop28
280
     0
102
RTVSPost2010PropOp28
 70
     1
102
RTVSPost2010Prop29
280
     1
102
RTVSPost2010PropOp29
 70
     1
102
RTVSPost2010Prop30
280
     1
102
RTVSPost2010PropOp30
 70
     1
102
RTVSPost2010Prop31
280
     0
102
RTVSPost2010PropOp31
 70
     1
102
RTVSPost2010Prop32
280
     0
102
RTVSPost2010PropOp32
 70
     1
102
RTVSPost2010Prop33
280
     0
102
RTVSPost2010PropOp33
 70
     1
102
RTVSPost2010Prop34
280
     0
102
RTVSPost2010PropOp34
 70
     1
102
RTVSPost2010Prop35
280
     0
102
RTVSPost2010PropOp35
 70
     1
102
RTVSPost2010Prop36
280
     0
102
RTVSPost2010PropOp36
 70
     1
102
RTVSPost2010Prop37
 90
       50
102
RTVSPost2010PropOp37
 70
     1
102
RTVSPost2010Prop38
140
0.0
102
RTVSPost2010PropOp38
 70
     1
102
RTVSPost2010Prop39
140
1.0
102
RTVSPost2010PropOp39
 70
     1
102
RTVSPost2010Prop40
 90
        0
102
RTVSPost2010PropOp40
 70
     1
102
RTVSPost2010Prop41ColorIndex
 90
       18
102
RTVSPost2010Prop41ColorRGB
 90
        0
102
RTVSPost2010PropOp41
 70
     1
102
RTVSPost2010Prop42
 90
       50
102
RTVSPost2010PropOp42
 70
     1
102
RTVSPost2010Prop43
 90
        3
102
RTVSPost2010PropOp43
 70
     1
102
RTVSPost2010Prop44ColorIndex
 90
        5
102
RTVSPost2010Prop44ColorRGB
 90
      255
102
RTVSPost2010PropOp44
 70
     1
102
RTVSPost2010Prop45
280
     0
102
RTVSPost2010PropOp45
 70
     1
102
RTVSPost2010Prop46
 90
       50
102
RTVSPost2010PropOp46
 70
     1
102
RTVSPost2010Prop47
 90
       50
102
RTVSPost2010PropOp47
 70
     1
102
RTVSPost2010Prop48
 90
       50
102
RTVSPost2010PropOp48
 70
     1
102
RTVSPost2010Prop49
280
     0
102
RTVSPost2010PropOp49
 70
     1
102
RTVSPost2010Prop50
 90
       50
102
RTVSPost2010PropOp50
 70
     1
102
RTVSPost2010Prop51ColorIndex
 90
      256
102
RTVSPost2010Prop51ColorRGB
 90
-16777216
102
RTVSPost2010PropOp51
 70
     0
102
RTVSPost2010Prop52
140
1.0
102
RTVSPost2010PropOp52
 70
     0
102
RTVSPost2010Prop53
 90
        2
102
RTVSPost2010PropOp53
 70
     1
102
RTVSPost2010Prop54
  1
strokes_ogs.tif
102
RTVSPost2010PropOp54
 70
     1
102
RTVSPost2010Prop55
280
     0
102
RTVSPost2010PropOp55
 70
     1
102
RTVSPost2010Prop56
140
1.0
102
RTVSPost2010PropOp56
 70
     1
102
RTVSPost2010Prop57
140
1.0
102
RTVSPost2010PropOp57
 70
     1
102
RTVSPropertyOp0
 70
     1
102
RTVSPropertyOp1
 70
     1
102
RTVSPropertyOp2
 70
     1
102
RTVSPropertyOp3
 70
     1
102
RTVSPropertyOp4
 70
     1
102
RTVSPropertyOp5
 70
     1
102
RTVSPropertyOp6
 70
     1
102
RTVSPropertyOp7
 70
     1
102
RTVSPropertyOp8
 70
     1
102
RTVSPropertyOp9
 70
     1
102
RTVSPropertyOp10
 70
     1
102
RTVSPropertyOp11
 70
     1
102
RTVSPropertyOp12
 70
     1
102
RTVSPropertyOp13
 70
     1
102
RTVSPropertyOp14
 70
     1
102
RTVSPropertyOp15
 70
     1
102
RTVSPropertyOp16
 70
     1
102
RTVSPropertyOp17
 70
     1
102
RTVSPropertyOp18
 70
     1
102
RTVSPropertyOp19
 70
     1
102
RTVSPropertyOp20
 70
     1
102
RTVSPropertyOp21
 70
     1
102
RTVSPropertyOp22
 70
     1
102
RTVSPropertyOp23
 70
     1
102
RTVSPropertyOp24
 70
     1
102
RTVSPropertyOp25
 70
     1
102
RTVSPropertyOp26
 70
     1
102
RTVSPropertyOp27
 70
     1
102
RTVSPropertyOp28
 70
     1
102
RTVSPropertyOp29
 70
     1
102
RTVSPropertyOp30
 70
     1
102
RTVSPropertyOp31
 70
     1
102
RTVSPropertyOp32
 70
     1
102
RTVSPropertyOp33
 70
     1
102
RTVSPropertyOp34
 70
     1
102
RTVSPropertyOp35
 70
     1
102
RTVSPropertyOp36
 70
     1
102
RTVSPropertyOp37
 70
     1
102
RTVSPropertyOp38
 70
     1
102
RTVSPropertyOp39
 70
     1
102
RTVSPropertyOp40
 70
     1
102
RTVSPropertyOp41
 70
     1
102
RTVSPropertyOp42
 70
     1
102
RTVSPropertyOp43
 70
     1
102
RTVSPropertyOp44
 70
     1
102
RTVSPropertyOp45
 70
     1
102
RTVSPropertyOp46
 70
     1
102
RTVSPropertyOp47
 70
     1
102
RTVSPropertyOp48
 70
     1
102
RTVSPropertyOp49
 70
     1
102
RTVSPropertyOp50
 70
     1
102
RTVSPropertyOp51
 70
     0
102
RTVSPropertyOp52
 70
     0
102
RTVSPropertyOp53
 70
     1
102
RTVSPropertyOp54
 70
     1
102
RTVSPropertyOp55
 70
     1
102
RTVSPropertyOp56
 70
     1
102
RTVSPropertyOp57
 70
     1
102
RTVSPropertyOp58
 70
     1
102
RTVSPropertyOp59
 70
     1
102
RTVSPropertyOp60
 70
     1
102
RTVSPropertyOp61
 70
     1
102
RTVSPropertyOp62
 70
     1
  0
XRECORD
  5
36E
102
{ACAD_REACTORS
330
36D
102
}
330
36D
100
AcDbXrecord
280
     1
102
RTVSPost2010Prop28
280
     0
102
RTVSPost2010PropOp28
 70
     1
102
RTVSPost2010Prop29
280
     1
102
RTVSPost2010PropOp29
 70
     1
102
RTVSPost2010Prop30
280
     1
102
RTVSPost2010PropOp30
 70
     1
102
RTVSPost2010Prop31
280
     0
102
RTVSPost2010PropOp31
 70
     1
102
RTVSPost2010Prop32
280
     0
102
RTVSPost2010PropOp32
 70
     1
102
RTVSPost2010Prop33
280
     0
102
RTVSPost2010PropOp33
 70
     1
102
RTVSPost2010Prop34
280
     0
102
RTVSPost2010PropOp34
 70
     1
102
RTVSPost2010Prop35
280
     0
102
RTVSPost2010PropOp35
 70
     1
102
RTVSPost2010Prop36
280
     0
102
RTVSPost2010PropOp36
 70
     1
102
RTVSPost2010Prop37
 90
       50
102
RTVSPost2010PropOp37
 70
     1
102
RTVSPost2010Prop38
140
0.0
102
RTVSPost2010PropOp38
 70
     1
102
RTVSPost2010Prop39
140
1.0
102
RTVSPost2010PropOp39
 70
     1
102
RTVSPost2010Prop40
 90
        0
102
RTVSPost2010PropOp40
 70
     1
102
RTVSPost2010Prop41ColorIndex
 90
       18
102
RTVSPost2010Prop41ColorRGB
 90
        0
102
RTVSPost2010PropOp41
 70
     1
102
RTVSPost2010Prop42
 90
       50
102
RTVSPost2010PropOp42
 70
     1
102
RTVSPost2010Prop43
 90
        3
102
RTVSPost2010PropOp43
 70
     1
102
RTVSPost2010Prop44ColorIndex
 90
        5
102
RTVSPost2010Prop44ColorRGB
 90
      255
102
RTVSPost2010PropOp44
 70
     1
102
RTVSPost2010Prop45
280
     0
102
RTVSPost2010PropOp45
 70
     1
102
RTVSPost2010Prop46
 90
       50
102
RTVSPost2010PropOp46
 70
     1
102
RTVSPost2010Prop47
 90
       50
102
RTVSPost2010PropOp47
 70
     1
102
RTVSPost2010Prop48
 90
       50
102
RTVSPost2010PropOp48
 70
     1
102
RTVSPost2010Prop49
280
     0
102
RTVSPost2010PropOp49
 70
     1
102
RTVSPost2010Prop50
 90
       50
102
RTVSPost2010PropOp50
 70
     1
102
RTVSPost2010Prop51ColorIndex
 90
      256
102
RTVSPost2010Prop51ColorRGB
 90
-16777216
102
RTVSPost2010PropOp51
 70
     0
102
RTVSPost2010Prop52
140
1.0
102
RTVSPost2010PropOp52
 70
     0
102
RTVSPost2010Prop53
 90
        2
102
RTVSPost2010PropOp53
 70
     1
102
RTVSPost2010Prop54
  1
strokes_ogs.tif
102
RTVSPost2010PropOp54
 70
     1
102
RTVSPost2010Prop55
280
     0
102
RTVSPost2010PropOp55
 70
     1
102
RTVSPost2010Prop56
140
1.0
102
RTVSPost2010PropOp56
 70
     1
102
RTVSPost2010Prop57
140
1.0
102
RTVSPost2010PropOp57
 70
     1
102
RTVSPropertyOp0
 70
     1
102
RTVSPropertyOp1
 70
     1
102
RTVSPropertyOp2
 70
     1
102
RTVSPropertyOp3
 70
     1
102
RTVSPropertyOp4
 70
     1
102
RTVSPropertyOp5
 70
     1
102
RTVSPropertyOp6
 70
     1
102
RTVSPropertyOp7
 70
     1
102
RTVSPropertyOp8
 70
     1
102
RTVSPropertyOp9
 70
     1
102
RTVSPropertyOp10
 70
     1
102
RTVSPropertyOp11
 70
     1
102
RTVSPropertyOp12
 70
     1
102
RTVSPropertyOp13
 70
     1
102
RTVSPropertyOp14
 70
     1
102
RTVSPropertyOp15
 70
     1
102
RTVSPropertyOp16
 70
     1
102
RTVSPropertyOp17
 70
     1
102
RTVSPropertyOp18
 70
     1
102
RTVSPropertyOp19
 70
     1
102
RTVSPropertyOp20
 70
     1
102
RTVSPropertyOp21
 70
     1
102
RTVSPropertyOp22
 70
     1
102
RTVSPropertyOp23
 70
     1
102
RTVSPropertyOp24
 70
     1
102
RTVSPropertyOp25
 70
     1
102
RTVSPropertyOp26
 70
     1
102
RTVSPropertyOp27
 70
     1
102
RTVSPropertyOp28
 70
     1
102
RTVSPropertyOp29
 70
     1
102
RTVSPropertyOp30
 70
     1
102
RTVSPropertyOp31
 70
     1
102
RTVSPropertyOp32
 70
     1
102
RTVSPropertyOp33
 70
     1
102
RTVSPropertyOp34
 70
     1
102
RTVSPropertyOp35
 70
     1
102
RTVSPropertyOp36
 70
     1
102
RTVSPropertyOp37
 70
     1
102
RTVSPropertyOp38
 70
     1
102
RTVSPropertyOp39
 70
     1
102
RTVSPropertyOp40
 70
     1
102
RTVSPropertyOp41
 70
     1
102
RTVSPropertyOp42
 70
     1
102
RTVSPropertyOp43
 70
     1
102
RTVSPropertyOp44
 70
     1
102
RTVSPropertyOp45
 70
     1
102
RTVSPropertyOp46
 70
     1
102
RTVSPropertyOp47
 70
     1
102
RTVSPropertyOp48
 70
     1
102
RTVSPropertyOp49
 70
     1
102
RTVSPropertyOp50
 70
     1
102
RTVSPropertyOp51
 70
     0
102
RTVSPropertyOp52
 70
     0
102
RTVSPropertyOp53
 70
     1
102
RTVSPropertyOp54
 70
     1
102
RTVSPropertyOp55
 70
     1
102
RTVSPropertyOp56
 70
     1
102
RTVSPropertyOp57
 70
     1
102
RTVSPropertyOp58
 70
     1
102
RTVSPropertyOp59
 70
     1
102
RTVSPropertyOp60
 70
     1
102
RTVSPropertyOp61
 70
     1
102
RTVSPropertyOp62
 70
     1
  0
XRECORD
  5
386
102
{ACAD_REACTORS
330
385
102
}
330
385
100
AcDbXrecord
280
     1
102
RTVSPost2010Prop28
280
     0
102
RTVSPost2010PropOp28
 70
     1
102
RTVSPost2010Prop29
280
     1
102
RTVSPost2010PropOp29
 70
     1
102
RTVSPost2010Prop30
280
     1
102
RTVSPost2010PropOp30
 70
     1
102
RTVSPost2010Prop31
280
     0
102
RTVSPost2010PropOp31
 70
     1
102
RTVSPost2010Prop32
280
     0
102
RTVSPost2010PropOp32
 70
     1
102
RTVSPost2010Prop33
280
     0
102
RTVSPost2010PropOp33
 70
     1
102
RTVSPost2010Prop34
280
     0
102
RTVSPost2010PropOp34
 70
     1
102
RTVSPost2010Prop35
280
     0
102
RTVSPost2010PropOp35
 70
     1
102
RTVSPost2010Prop36
280
     0
102
RTVSPost2010PropOp36
 70
     1
102
RTVSPost2010Prop37
 90
       50
102
RTVSPost2010PropOp37
 70
     1
102
RTVSPost2010Prop38
140
0.0
102
RTVSPost2010PropOp38
 70
     1
102
RTVSPost2010Prop39
140
1.0
102
RTVSPost2010PropOp39
 70
     1
102
RTVSPost2010Prop40
 90
        0
102
RTVSPost2010PropOp40
 70
     1
102
RTVSPost2010Prop41ColorIndex
 90
       18
102
RTVSPost2010Prop41ColorRGB
 90
        0
102
RTVSPost2010PropOp41
 70
     1
102
RTVSPost2010Prop42
 90
       50
102
RTVSPost2010PropOp42
 70
     1
102
RTVSPost2010Prop43
 90
        3
102
RTVSPost2010PropOp43
 70
     1
102
RTVSPost2010Prop44ColorIndex
 90
        5
102
RTVSPost2010Prop44ColorRGB
 90
      255
102
RTVSPost2010PropOp44
 70
     1
102
RTVSPost2010Prop45
280
     0
102
RTVSPost2010PropOp45
 70
     1
102
RTVSPost2010Prop46
 90
       50
102
RTVSPost2010PropOp46
 70
     1
102
RTVSPost2010Prop47
 90
       50
102
RTVSPost2010PropOp47
 70
     1
102
RTVSPost2010Prop48
 90
       50
102
RTVSPost2010PropOp48
 70
     1
102
RTVSPost2010Prop49
280
     0
102
RTVSPost2010PropOp49
 70
     1
102
RTVSPost2010Prop50
 90
       50
102
RTVSPost2010PropOp50
 70
     1
102
RTVSPost2010Prop51ColorIndex
 90
      256
102
RTVSPost2010Prop51ColorRGB
 90
-16777216
102
RTVSPost2010PropOp51
 70
     0
102
RTVSPost2010Prop52
140
1.0
102
RTVSPost2010PropOp52
 70
     0
102
RTVSPost2010Prop53
 90
        2
102
RTVSPost2010PropOp53
 70
     1
102
RTVSPost2010Prop54
  1
strokes_ogs.tif
102
RTVSPost2010PropOp54
 70
     1
102
RTVSPost2010Prop55
280
     0
102
RTVSPost2010PropOp55
 70
     1
102
RTVSPost2010Prop56
140
1.0
102
RTVSPost2010PropOp56
 70
     1
102
RTVSPost2010Prop57
140
1.0
102
RTVSPost2010PropOp57
 70
     1
102
RTVSPropertyOp0
 70
     1
102
RTVSPropertyOp1
 70
     1
102
RTVSPropertyOp2
 70
     1
102
RTVSPropertyOp3
 70
     1
102
RTVSPropertyOp4
 70
     1
102
RTVSPropertyOp5
 70
     1
102
RTVSPropertyOp6
 70
     1
102
RTVSPropertyOp7
 70
     1
102
RTVSPropertyOp8
 70
     1
102
RTVSPropertyOp9
 70
     1
102
RTVSPropertyOp10
 70
     1
102
RTVSPropertyOp11
 70
     1
102
RTVSPropertyOp12
 70
     1
102
RTVSPropertyOp13
 70
     1
102
RTVSPropertyOp14
 70
     1
102
RTVSPropertyOp15
 70
     1
102
RTVSPropertyOp16
 70
     1
102
RTVSPropertyOp17
 70
     1
102
RTVSPropertyOp18
 70
     1
102
RTVSPropertyOp19
 70
     1
102
RTVSPropertyOp20
 70
     1
102
RTVSPropertyOp21
 70
     1
102
RTVSPropertyOp22
 70
     1
102
RTVSPropertyOp23
 70
     1
102
RTVSPropertyOp24
 70
     1
102
RTVSPropertyOp25
 70
     1
102
RTVSPropertyOp26
 70
     1
102
RTVSPropertyOp27
 70
     1
102
RTVSPropertyOp28
 70
     1
102
RTVSPropertyOp29
 70
     1
102
RTVSPropertyOp30
 70
     1
102
RTVSPropertyOp31
 70
     1
102
RTVSPropertyOp32
 70
     1
102
RTVSPropertyOp33
 70
     1
102
RTVSPropertyOp34
 70
     1
102
RTVSPropertyOp35
 70
     1
102
RTVSPropertyOp36
 70
     1
102
RTVSPropertyOp37
 70
     1
102
RTVSPropertyOp38
 70
     1
102
RTVSPropertyOp39
 70
     1
102
RTVSPropertyOp40
 70
     1
102
RTVSPropertyOp41
 70
     1
102
RTVSPropertyOp42
 70
     1
102
RTVSPropertyOp43
 70
     1
102
RTVSPropertyOp44
 70
     1
102
RTVSPropertyOp45
 70
     1
102
RTVSPropertyOp46
 70
     1
102
RTVSPropertyOp47
 70
     1
102
RTVSPropertyOp48
 70
     1
102
RTVSPropertyOp49
 70
     1
102
RTVSPropertyOp50
 70
     1
102
RTVSPropertyOp51
 70
     0
102
RTVSPropertyOp52
 70
     0
102
RTVSPropertyOp53
 70
     1
102
RTVSPropertyOp54
 70
     1
102
RTVSPropertyOp55
 70
     1
102
RTVSPropertyOp56
 70
     1
102
RTVSPropertyOp57
 70
     1
102
RTVSPropertyOp58
 70
     1
102
RTVSPropertyOp59
 70
     1
102
RTVSPropertyOp60
 70
     1
102
RTVSPropertyOp61
 70
     1
102
RTVSPropertyOp62
 70
     1
  0
ENDSEC
  0
EOF
