  0
SECTION
  2
HEADER
  9
$ACADVER
  1
AC1015
  9
$ACADMAINTVER
 70
    20
  9
$DWGCODEPAGE
  3
ANSI_932
  9
$INSBASE
 10
0.0
 20
0.0
 30
0.0
  9
$EXTMIN
 10
-1335.950064418844
 20
-742.0041535979269
 30
0.0
  9
$EXTMAX
 10
1668.260017560305
 20
799.0485863023013
 30
0.0
  9
$LIMMIN
 10
-4267.152221060482
 20
-2696.083210198413
  9
$LIMMAX
 10
7190.717422586465
 20
5141.155363923066
  9
$ORTHOMODE
 70
     0
  9
$REGENMODE
 70
     1
  9
$FILLMODE
 70
     1
  9
$QTEXTMODE
 70
     0
  9
$MIRRTEXT
 70
     0
  9
$LTSCALE
 40
20.0
  9
$ATTMODE
 70
     1
  9
$TEXTSIZE
 40
53.0
  9
$TRACEWID
 40
0.05
  9
$TEXTSTYLE
  7
KAIGAI_STANDARD_1
  9
$CLAYER
  8
NOTE
  9
$CELTYPE
  6
CONTINUOUS
  9
$CECOLOR
 62
     7
  9
$CELTSCALE
 40
1.0
  9
$DISPSILH
 70
     0
  9
$DIMSCALE
 40
1.0
  9
$DIMASZ
 40
30.0
  9
$DIMEXO
 40
20.0
  9
$DIMDLI
 40
80.0
  9
$DIMRND
 40
0.0
  9
$DIMDLE
 40
0.0
  9
$DIMEXE
 40
20.0
  9
$DIMTP
 40
0.0
  9
$DIMTM
 40
0.0
  9
$DIMTXT
 40
40.0
  9
$DIMCEN
 40
0.09
  9
$DIMTSZ
 40
0.0
  9
$DIMTOL
 70
     0
  9
$DIMLIM
 70
     0
  9
$DIMTIH
 70
     0
  9
$DIMTOH
 70
     0
  9
$DIMSE1
 70
     0
  9
$DIMSE2
 70
     0
  9
$DIMTAD
 70
     1
  9
$DIMZIN
 70
     8
  9
$DIMBLK
  1

  9
$DIMASO
 70
     1
  9
$DIMSHO
 70
     0
  9
$DIMPOST
  1

  9
$DIMAPOST
  1

  9
$DIMALT
 70
     0
  9
$DIMALTD
 70
     2
  9
$DIMALTF
 40
25.4
  9
$DIMLFAC
 40
1.0
  9
$DIMTOFL
 70
     1
  9
$DIMTVP
 40
0.0
  9
$DIMTIX
 70
     0
  9
$DIMSOXD
 70
     0
  9
$DIMSAH
 70
     0
  9
$DIMBLK1
  1

  9
$DIMBLK2
  1

  9
$DIMSTYLE
  2
Standard
  9
$DIMCLRD
 70
     0
  9
$DIMCLRE
 70
     0
  9
$DIMCLRT
 70
     0
  9
$DIMTFAC
 40
1.0
  9
$DIMGAP
 40
0.09
  9
$DIMJUST
 70
     0
  9
$DIMSD1
 70
     0
  9
$DIMSD2
 70
     0
  9
$DIMTOLJ
 70
     1
  9
$DIMTZIN
 70
     0
  9
$DIMALTZ
 70
     0
  9
$DIMALTTZ
 70
     0
  9
$DIMUPT
 70
     0
  9
$DIMDEC
 70
     4
  9
$DIMTDEC
 70
     4
  9
$DIMALTU
 70
     2
  9
$DIMALTTD
 70
     2
  9
$DIMTXSTY
  7
STANDARD
  9
$DIMAUNIT
 70
     0
  9
$DIMADEC
 70
     0
  9
$DIMALTRND
 40
0.0
  9
$DIMAZIN
 70
     0
  9
$DIMDSEP
 70
    46
  9
$DIMATFIT
 70
     3
  9
$DIMFRAC
 70
     0
  9
$DIMLDRBLK
  1

  9
$DIMLUNIT
 70
     2
  9
$DIMLWD
 70
    -2
  9
$DIMLWE
 70
    -2
  9
$DIMTMOVE
 70
     0
  9
$LUNITS
 70
     2
  9
$LUPREC
 70
     4
  9
$SKETCHINC
 40
0.1
  9
$FILLETRAD
 40
0.0
  9
$AUNITS
 70
     1
  9
$AUPREC
 70
     3
  9
$MENU
  1
ACAD
  9
$ELEVATION
 40
0.0
  9
$PELEVATION
 40
0.0
  9
$THICKNESS
 40
0.0
  9
$LIMCHECK
 70
     0
  9
$CHAMFERA
 40
0.0
  9
$CHAMFERB
 40
0.0
  9
$CHAMFERC
 40
0.0
  9
$CHAMFERD
 40
0.0
  9
$SKPOLY
 70
     0
  9
$TDCREATE
 40
2455902.607164352
  9
$TDUCREATE
 40
2455902.232164352
  9
$TDUPDATE
 40
2458569.546331019
  9
$TDUUPDATE
 40
2458569.171331019
  9
$TDINDWG
 40
1.6392229051
  9
$TDUSRTIMER
 40
1.6392192940
  9
$USRTIMER
 70
     1
  9
$ANGBASE
 50
0.0
  9
$ANGDIR
 70
     0
  9
$PDMODE
 70
     3
  9
$PDSIZE
 40
-2.0
  9
$PLINEWID
 40
0.0
  9
$SPLFRAME
 70
     0
  9
$SPLINETYPE
 70
     6
  9
$SPLINESEGS
 70
     8
  9
$HANDSEED
  5
729
  9
$SURFTAB1
 70
     6
  9
$SURFTAB2
 70
     6
  9
$SURFTYPE
 70
     6
  9
$SURFU
 70
     6
  9
$SURFV
 70
     6
  9
$UCSBASE
  2

  9
$UCSNAME
  2

  9
$UCSORG
 10
0.0
 20
0.0
 30
0.0
  9
$UCSXDIR
 10
1.0
 20
0.0
 30
0.0
  9
$UCSYDIR
 10
0.0
 20
1.0
 30
0.0
  9
$UCSORTHOREF
  2

  9
$UCSORTHOVIEW
 70
     0
  9
$UCSORGTOP
 10
0.0
 20
0.0
 30
0.0
  9
$UCSORGBOTTOM
 10
0.0
 20
0.0
 30
0.0
  9
$UCSORGLEFT
 10
0.0
 20
0.0
 30
0.0
  9
$UCSORGRIGHT
 10
0.0
 20
0.0
 30
0.0
  9
$UCSORGFRONT
 10
0.0
 20
0.0
 30
0.0
  9
$UCSORGBACK
 10
0.0
 20
0.0
 30
0.0
  9
$PUCSBASE
  2

  9
$PUCSNAME
  2

  9
$PUCSORG
 10
0.0
 20
0.0
 30
0.0
  9
$PUCSXDIR
 10
1.0
 20
0.0
 30
0.0
  9
$PUCSYDIR
 10
0.0
 20
1.0
 30
0.0
  9
$PUCSORTHOREF
  2

  9
$PUCSORTHOVIEW
 70
     0
  9
$PUCSORGTOP
 10
0.0
 20
0.0
 30
0.0
  9
$PUCSORGBOTTOM
 10
0.0
 20
0.0
 30
0.0
  9
$PUCSORGLEFT
 10
0.0
 20
0.0
 30
0.0
  9
$PUCSORGRIGHT
 10
0.0
 20
0.0
 30
0.0
  9
$PUCSORGFRONT
 10
0.0
 20
0.0
 30
0.0
  9
$PUCSORGBACK
 10
0.0
 20
0.0
 30
0.0
  9
$USERI1
 70
     0
  9
$USERI2
 70
     0
  9
$USERI3
 70
     0
  9
$USERI4
 70
     0
  9
$USERI5
 70
     0
  9
$USERR1
 40
20.0
  9
$USERR2
 40
0.0
  9
$USERR3
 40
0.0
  9
$USERR4
 40
0.0
  9
$USERR5
 40
0.0
  9
$WORLDVIEW
 70
     1
  9
$SHADEDGE
 70
     3
  9
$SHADEDIF
 70
    70
  9
$TILEMODE
 70
     1
  9
$MAXACTVP
 70
    64
  9
$PINSBASE
 10
0.0
 20
0.0
 30
0.0
  9
$PLIMCHECK
 70
     0
  9
$PEXTMIN
 10
1.000000000000000E+20
 20
1.000000000000000E+20
 30
1.000000000000000E+20
  9
$PEXTMAX
 10
-1.000000000000000E+20
 20
-1.000000000000000E+20
 30
-1.000000000000000E+20
  9
$PLIMMIN
 10
0.0
 20
0.0
  9
$PLIMMAX
 10
12.0
 20
9.0
  9
$UNITMODE
 70
     0
  9
$VISRETAIN
 70
     1
  9
$PLINEGEN
 70
     0
  9
$PSLTSCALE
 70
     1
  9
$TREEDEPTH
 70
  3020
  9
$CMLSTYLE
  2
Standard
  9
$CMLJUST
 70
     0
  9
$CMLSCALE
 40
1.0
  9
$PROXYGRAPHICS
 70
     1
  9
$MEASUREMENT
 70
     0
  9
$CELWEIGHT
370
    -1
  9
$ENDCAPS
280
     0
  9
$JOINSTYLE
280
     0
  9
$LWDISPLAY
290
     0
  9
$INSUNITS
 70
     0
  9
$HYPERLINKBASE
  1

  9
$STYLESHEET
  1

  9
$XEDIT
290
     1
  9
$CEPSNTYPE
380
     0
  9
$PSTYLEMODE
290
     1
  9
$FINGERPRINTGUID
  2
{9835677E-D0ED-144F-B8E9-3B6FF733C043}
  9
$VERSIONGUID
  2
{D4043C44-8294-9B4F-9B2F-DA7337A84635}
  9
$EXTNAMES
290
     1
  9
$PSVPSCALE
 40
0.0
  9
$OLESTARTUP
290
     0
  0
ENDSEC
  0
SECTION
  2
CLASSES
  0
CLASS
  1
ACDBDICTIONARYWDFLT
  2
AcDbDictionaryWithDefault
  3
ObjectDBX Classes
 90
        0
280
     0
281
     0
  0
CLASS
  1
MATERIAL
  2
AcDbMaterial
  3
ObjectDBX Classes
 90
     1153
280
     0
281
     0
  0
CLASS
  1
VISUALSTYLE
  2
AcDbVisualStyle
  3
ObjectDBX Classes
 90
     4095
280
     0
281
     0
  0
CLASS
  1
SCALE
  2
AcDbScale
  3
ObjectDBX Classes
 90
     1153
280
     0
281
     0
  0
CLASS
  1
TABLESTYLE
  2
AcDbTableStyle
  3
ObjectDBX Classes
 90
     4095
280
     0
281
     0
  0
CLASS
  1
MLEADERSTYLE
  2
AcDbMLeaderStyle
  3
ACDB_MLEADERSTYLE_CLASS
 90
     4095
280
     0
281
     0
  0
CLASS
  1
ACDBSECTIONVIEWSTYLE
  2
AcDbSectionViewStyle
  3
ObjectDBX Classes
 90
     1025
280
     0
281
     0
  0
CLASS
  1
ACDBDETAILVIEWSTYLE
  2
AcDbDetailViewStyle
  3
ObjectDBX Classes
 90
     1025
280
     0
281
     0
  0
CLASS
  1
DICTIONARYVAR
  2
AcDbDictionaryVar
  3
ObjectDBX Classes
 90
        0
280
     0
281
     0
  0
CLASS
  1
CELLSTYLEMAP
  2
AcDbCellStyleMap
  3
ObjectDBX Classes
 90
     1152
280
     0
281
     0
  0
CLASS
  1
ACDBPLACEHOLDER
  2
AcDbPlaceHolder
  3
ObjectDBX Classes
 90
        0
280
     0
281
     0
  0
CLASS
  1
LAYOUT
  2
AcDbLayout
  3
ObjectDBX Classes
 90
        0
280
     0
281
     0
  0
ENDSEC
  0
SECTION
  2
TABLES
  0
TABLE
  2
VPORT
  5
8
330
0
100
AcDbSymbolTable
 70
     1
  0
VPORT
  5
81
330
8
100
AcDbSymbolTableRecord
100
AcDbViewportTableRecord
  2
*ACTIVE
 70
     0
 10
0.0
 20
0.0
 11
1.0
 21
1.0
 12
166.2684953868395
 22
133.3803887850561
 13
0.0
 23
0.0
 14
50.0
 24
50.0
 15
100.0
 25
100.0
 16
0.0
 26
0.0
 36
1.0
 17
0.0
 27
0.0
 37
0.0
 40
1763.43809460775
 41
2.080592105263157
 42
50.0
 43
0.0
 44
0.0
 50
0.0
 51
0.0
 71
     0
 72
  1000
 73
     1
 74
     0
 75
     0
 76
     0
 77
     0
 78
     0
281
     0
 65
     1
110
0.0
120
0.0
130
0.0
111
1.0
121
0.0
131
0.0
112
0.0
122
1.0
132
0.0
 79
     0
146
0.0
1001
ACAD_NAV_VCDISPLAY
1070
     3
  0
ENDTAB
  0
TABLE
  2
LTYPE
  5
5
330
0
100
AcDbSymbolTable
 70
     3
  0
LTYPE
  5
5A
330
5
100
AcDbSymbolTableRecord
100
AcDbLinetypeTableRecord
  2
ByBlock
 70
     0
  3

 72
    65
 73
     0
 40
0.0
  0
LTYPE
  5
5B
330
5
100
AcDbSymbolTableRecord
100
AcDbLinetypeTableRecord
  2
ByLayer
 70
     0
  3

 72
    65
 73
     0
 40
0.0
  0
LTYPE
  5
5C
330
5
100
AcDbSymbolTableRecord
100
AcDbLinetypeTableRecord
  2
CONTINUOUS
 70
     0
  3
実線
 72
    65
 73
     0
 40
0.0
  0
LTYPE
  5
75
330
5
100
AcDbSymbolTableRecord
100
AcDbLinetypeTableRecord
  2
DASHDOT
 70
     0
  3
____ _ ____ _ ____ _ ____ _ ____ _ ____ _ ____
 72
    65
 73
     4
 40
5.5
 49
4.0
 74
     0
 49
-0.6
 74
     0
 49
0.3
 74
     0
 49
-0.6
 74
     0
  0
ENDTAB
  0
TABLE
  2
LAYER
  5
2
330
0
100
AcDbSymbolTable
 70
    12
  0
LAYER
  5
54
102
{ACAD_XDICTIONARY
360
6C7
102
}
330
2
100
AcDbSymbolTableRecord
100
AcDbLayerTableRecord
  2
0
 70
     0
 62
     7
  6
CONTINUOUS
370
    -3
390
F
  0
LAYER
  5
73
102
{ACAD_XDICTIONARY
360
6C9
102
}
330
2
100
AcDbSymbolTableRecord
100
AcDbLayerTableRecord
  2
NOTE
 70
     0
 62
     4
  6
CONTINUOUS
370
    -3
390
F
  0
LAYER
  5
76
102
{ACAD_XDICTIONARY
360
6CB
102
}
330
2
100
AcDbSymbolTableRecord
100
AcDbLayerTableRecord
  2
OUTLINE
 70
     0
 62
     3
  6
CONTINUOUS
370
    -3
390
F
  0
LAYER
  5
77
102
{ACAD_XDICTIONARY
360
6CD
102
}
330
2
100
AcDbSymbolTableRecord
100
AcDbLayerTableRecord
  2
DETAIL
 70
     0
 62
     5
  6
CONTINUOUS
370
    -3
390
F
  0
LAYER
  5
78
102
{ACAD_XDICTIONARY
360
6CF
102
}
330
2
100
AcDbSymbolTableRecord
100
AcDbLayerTableRecord
  2
BASIS
 70
     0
 62
     6
  6
DASHDOT
370
    -3
390
F
  0
LAYER
  5
79
102
{ACAD_XDICTIONARY
360
6D1
102
}
330
2
100
AcDbSymbolTableRecord
100
AcDbLayerTableRecord
  2
SIZE
 70
     0
 62
    30
  6
CONTINUOUS
370
    -3
390
F
  0
LAYER
  5
7A
102
{ACAD_XDICTIONARY
360
6D3
102
}
330
2
100
AcDbSymbolTableRecord
100
AcDbLayerTableRecord
  2
ARRANGE
 70
     0
 62
     1
  6
CONTINUOUS
370
    -3
390
F
  0
LAYER
  5
7B
102
{ACAD_XDICTIONARY
360
6D5
102
}
330
2
100
AcDbSymbolTableRecord
100
AcDbLayerTableRecord
  2
FIX
 70
     0
 62
    11
  6
CONTINUOUS
370
    -3
390
F
  0
LAYER
  5
7C
102
{ACAD_XDICTIONARY
360
6D7
102
}
330
2
100
AcDbSymbolTableRecord
100
AcDbLayerTableRecord
  2
SERVICESPACE
 70
     0
 62
     2
  6
DASHDOT
370
    -3
390
F
  0
LAYER
  5
7D
102
{ACAD_XDICTIONARY
360
6D9
102
}
330
2
100
AcDbSymbolTableRecord
100
AcDbLayerTableRecord
  2
ETC
 70
     0
 62
    61
  6
CONTINUOUS
370
    -3
390
F
  0
LAYER
  5
7E
102
{ACAD_XDICTIONARY
360
6DB
102
}
330
2
100
AcDbSymbolTableRecord
100
AcDbLayerTableRecord
  2
SYMBOLLINE
 70
     0
 62
    15
  6
CONTINUOUS
370
    -3
390
F
  0
LAYER
  5
7F
330
2
100
AcDbSymbolTableRecord
100
AcDbLayerTableRecord
  2
DEFPOINTS
 70
     0
 62
     7
  6
CONTINUOUS
290
     0
370
    -3
390
F
  0
ENDTAB
  0
TABLE
  2
STYLE
  5
3
330
0
100
AcDbSymbolTable
 70
     3
  0
STYLE
  5
55
330
3
100
AcDbSymbolTableRecord
100
AcDbTextStyleTableRecord
  2
STANDARD
 70
     0
 40
0.0
 41
0.9
 50
0.0
 71
     0
 42
64.0
  3
SIMPLEX
  4
BIGFONT
  0
STYLE
  5
59
330
3
100
AcDbSymbolTableRecord
100
AcDbTextStyleTableRecord
  2
Annotative
 70
     0
 40
0.0
 41
1.0
 50
0.0
 71
     0
 42
0.2
  3
txt
  4

1001
AcadAnnotative
1000
AnnotativeData
1002
{
1070
     1
1070
     1
1002
}
  0
STYLE
  5
74
330
3
100
AcDbSymbolTableRecord
100
AcDbTextStyleTableRecord
  2
KAIGAI_STANDARD_1
 70
     0
 40
53.0
 41
0.51
 50
0.0
 71
     0
 42
53.0
  3
MONOTXT.shx
  4
BIGFONT.shx
  0
ENDTAB
  0
TABLE
  2
VIEW
  5
6
330
0
100
AcDbSymbolTable
 70
     1
  0
VIEW
  5
80
330
6
100
AcDbSymbolTableRecord
100
AcDbViewTableRecord
  2
ALL
 70
     0
 40
9000.0
 10
241.506647
 20
0.0
 41
12483.01
 11
0.0
 21
0.0
 31
1.0
 12
0.0
 22
0.0
 32
0.0
 42
50.0
 43
0.0
 44
0.0
 50
0.0
 71
     0
281
     0
 72
     0
  0
ENDTAB
  0
TABLE
  2
UCS
  5
7
330
0
100
AcDbSymbolTable
 70
     0
  0
ENDTAB
  0
TABLE
  2
APPID
  5
9
330
0
100
AcDbSymbolTable
 70
     5
  0
APPID
  5
56
330
9
100
AcDbSymbolTableRecord
100
AcDbRegAppTableRecord
  2
ACAD
 70
     0
  0
APPID
  5
5D
330
9
100
AcDbSymbolTableRecord
100
AcDbRegAppTableRecord
  2
AcadAnnotative
 70
     0
  0
APPID
  5
6C5
330
9
100
AcDbSymbolTableRecord
100
AcDbRegAppTableRecord
  2
ACAD_EXEMPT_FROM_CAD_STANDARDS
 70
     0
  0
APPID
  5
6E7
330
9
100
AcDbSymbolTableRecord
100
AcDbRegAppTableRecord
  2
ACAD_NAV_VCDISPLAY
 70
     0
  0
APPID
  5
720
330
9
100
AcDbSymbolTableRecord
100
AcDbRegAppTableRecord
  2
ACAD_MLEADERVER
 70
     0
  0
ENDTAB
  0
TABLE
  2
DIMSTYLE
  5
A
330
0
100
AcDbSymbolTable
 70
     2
100
AcDbDimStyleTable
 71
     0
  0
DIMSTYLE
105
57
330
A
100
AcDbSymbolTableRecord
100
AcDbDimStyleTableRecord
  2
Standard
 70
     0
340
55
  0
DIMSTYLE
105
58
330
A
100
AcDbSymbolTableRecord
100
AcDbDimStyleTableRecord
  2
Annotative
 70
     0
340
55
1001
AcadAnnotative
1000
AnnotativeData
1002
{
1070
     1
1070
     1
1002
}
  0
ENDTAB
  0
TABLE
  2
BLOCK_RECORD
  5
1
330
0
100
AcDbSymbolTable
 70
     0
  0
BLOCK_RECORD
  5
6F
330
1
100
AcDbSymbolTableRecord
100
AcDbBlockTableRecord
  2
*Model_Space
340
72
  0
BLOCK_RECORD
  5
6B
330
1
100
AcDbSymbolTableRecord
100
AcDbBlockTableRecord
  2
*Paper_Space
340
6E
  0
ENDTAB
  0
ENDSEC
  0
SECTION
  2
BLOCKS
  0
BLOCK
  5
70
330
6F
100
AcDbEntity
  8
0
100
AcDbBlockBegin
  2
*Model_Space
 70
     0
 10
0.0
 20
0.0
 30
0.0
  3
*Model_Space
  1

  0
ENDBLK
  5
71
330
6F
100
AcDbEntity
  8
0
100
AcDbBlockEnd
  0
BLOCK
  5
6C
330
6B
100
AcDbEntity
 67
     1
  8
0
100
AcDbBlockBegin
  2
*Paper_Space
 70
     0
 10
0.0
 20
0.0
 30
0.0
  3
*Paper_Space
  1

  0
ENDBLK
  5
6D
330
6B
100
AcDbEntity
 67
     1
  8
0
100
AcDbBlockEnd
  0
ENDSEC
  0
SECTION
  2
ENTITIES
  0
LWPOLYLINE
  5
86
330
6F
100
AcDbEntity
  8
DETAIL
  6
Continuous
 62
     5
100
AcDbPolyline
 90
       18
 70
     0
 43
0.0
 10
-439.2151419828005
 20
-208.7603026935003
 10
-439.172225827
 20
-209.6826674211998
 10
-439.0444052363999
 20
-210.5971658939998
 10
-438.8327703508003
 20
-211.4959989992003
 10
-438.5391260239994
 20
-212.3715011404001
 10
-438.1659765706992
 20
-213.2162057518999
 10
-437.7165043313998
 20
-214.0229088989999
 10
-437.1945425600006
 20
-214.7847307430002
 10
-436.6045427239005
 20
-215.4951742066
 10
-435.9515365433999
 20
-216.1481803853003
 10
-435.2410930783007
 20
-216.7381802198002
 10
-434.4792712333001
 20
-217.2601419903003
 10
-433.6725680855996
 20
-217.7096142291002
 10
-432.8278634742
 20
-218.0827636825002
 10
-431.9523613327
 20
-218.3764080089004
 10
-431.0535282300008
 20
-218.5880428970004
 10
-430.1390297543002
 20
-218.7158634847001
 10
-429.2166650312009
 20
-218.7587796450998
  0
LWPOLYLINE
  5
9A
330
6F
100
AcDbEntity
  8
DETAIL
  6
Continuous
 62
     5
100
AcDbPolyline
 90
       23
 70
     0
 43
0.0
 10
-441.5677565275999
 20
-193.0302603672999
 10
-441.5491550653005
 20
-194.4065504874997
 10
-441.5408512234007
 20
-195.1408641823
 10
-441.5353281776004
 20
-195.9087583330001
 10
-441.5346846894007
 20
-196.7113529496
 10
-441.5414753371004
 20
-197.5489514335004
 10
-441.5586482933994
 20
-198.4181914240998
 10
-441.5885727718996
 20
-199.2948238445001
 10
-441.6318919710009
 20
-200.1474343931
 10
-441.6878231368008
 20
-200.9567673756001
 10
-441.7554419144997
 20
-201.7207492633998
 10
-441.8334884568992
 20
-202.4389604889001
 10
-441.9207381805008
 20
-203.1136089034999
 10
-442.0162888986997
 20
-203.7491996651997
 10
-442.1194948344999
 20
-204.3505196164001
 10
-442.2299778559009
 20
-204.9223183922004
 10
-442.3476406180998
 20
-205.4692244907001
 10
-442.4727043685996
 20
-205.9958422504001
 10
-442.6057438479001
 20
-206.5067653476999
 10
-442.7476688464993
 20
-207.0064847983003
 10
-442.8997754044011
 20
-207.4992894278004
 10
-443.0636101809994
 20
-207.9893326927004
 10
-443.2414164486999
 20
-208.4808620675003
  0
LWPOLYLINE
  5
B3
330
6F
100
AcDbEntity
  8
DETAIL
  6
Continuous
 62
     5
100
AcDbPolyline
 90
        4
 70
     0
 43
0.0
 10
-441.5848939198003
 20
-191.1631492730001
 10
-441.5816462727997
 20
-191.7622909448
 10
-441.5756990573989
 20
-192.3838538575001
 10
-441.5677565275999
 20
-193.0302603672999
  0
LINE
  5
B9
330
6F
100
AcDbEntity
  8
DETAIL
  6
Continuous
 62
     5
100
AcDbLine
 10
-441.5852523797001
 20
-190.1718455116002
 30
0.0
 11
-441.5848939198003
 21
-191.1631492730001
 31
0.0
  0
LINE
  5
BA
330
6F
100
AcDbEntity
  8
DETAIL
  6
Continuous
 62
     5
100
AcDbLine
 10
-500.0
 20
-30.0
 30
0.0
 11
-500.0
 21
-20.69999999999982
 31
0.0
  0
LINE
  5
BB
330
6F
100
AcDbEntity
  8
DETAIL
  6
Continuous
 62
     5
100
AcDbLine
 10
-497.5
 20
-20.69999999999982
 30
0.0
 11
-497.5
 21
-30.0
 31
0.0
  0
LINE
  5
BC
330
6F
100
AcDbEntity
  8
DETAIL
  6
Continuous
 62
     5
100
AcDbLine
 10
-454.0
 20
-15.0
 30
0.0
 11
-454.0
 21
-18.0
 31
0.0
  0
LINE
  5
BD
330
6F
100
AcDbEntity
  8
DETAIL
  6
Continuous
 62
     5
100
AcDbLine
 10
-454.0
 20
-23.41837661840009
 30
0.0
 11
-454.0
 21
-240.0
 31
0.0
  0
LINE
  5
BE
330
6F
100
AcDbEntity
  8
DETAIL
  6
Continuous
 62
     5
100
AcDbLine
 10
-451.4999999999999
 20
-78.0
 30
0.0
 11
-451.4999999999999
 21
-20.69999999999982
 31
0.0
  0
LINE
  5
BF
330
6F
100
AcDbEntity
  8
DETAIL
  6
Continuous
 62
     5
100
AcDbLine
 10
-450.0
 20
0.0
 30
0.0
 11
-450.0
 21
-26.40000000000009
 31
0.0
  0
LINE
  5
C0
330
6F
100
AcDbEntity
  8
DETAIL
  6
Continuous
 62
     5
100
AcDbLine
 10
-450.0
 20
-26.40000000000009
 30
0.0
 11
-450.0
 21
-204.0
 31
0.0
  0
LINE
  5
C1
330
6F
100
AcDbEntity
  8
DETAIL
  6
Continuous
 62
     5
100
AcDbLine
 10
-449.5
 20
-229.0
 30
0.0
 11
-449.5
 21
-8.0
 31
0.0
  0
LINE
  5
C2
330
6F
100
AcDbEntity
  8
DETAIL
  6
Continuous
 62
     5
100
AcDbLine
 10
-449.3999999999996
 20
-240.0
 30
0.0
 11
-449.3999999999996
 21
-240.0285398163001
 31
0.0
  0
LINE
  5
C3
330
6F
100
AcDbEntity
  8
DETAIL
  6
Continuous
 62
     5
100
AcDbLine
 10
-449.0
 20
-231.1781838678999
 30
0.0
 11
-449.0
 21
-240.0
 31
0.0
  0
LINE
  5
C4
330
6F
100
AcDbEntity
  8
DETAIL
  6
Continuous
 62
     5
100
AcDbLine
 10
-439.2151419828005
 20
-28.23969730650015
 30
0.0
 11
-439.2151419828005
 21
-208.7603026935003
 31
0.0
  0
LINE
  5
C5
330
6F
100
AcDbEntity
  8
DETAIL
  6
Continuous
 62
     5
100
AcDbLine
 10
-429.0166650312003
 20
-224.1245319446998
 30
0.0
 11
-429.0166650312003
 21
-12.44083232310004
 31
0.0
  0
LWPOLYLINE
  5
C6
330
6F
100
AcDbEntity
  8
DETAIL
  6
Continuous
 62
     5
100
AcDbPolyline
 90
        4
 70
     0
 43
0.0
 10
-441.5761179671007
 20
-43.90487512260006
 10
-441.5813951973996
 20
-44.55224534850002
 10
-441.5847196033992
 20
-45.19325240000035
 10
-441.5852523797001
 20
-190.1718455116002
  0
LWPOLYLINE
  5
CC
330
6F
100
AcDbEntity
  8
DETAIL
  6
Continuous
 62
     5
100
AcDbPolyline
 90
        4
 70
     0
 43
0.0
 10
-444.1998616137007
 20
-211.0850291138004
 10
-444.3644633542008
 20
-211.5350926603
 10
-444.5211473244
 20
-211.9605425166001
 10
-444.6717699451
 20
-212.3657303997002
  0
LWPOLYLINE
  5
D2
330
6F
100
AcDbEntity
  8
DETAIL
  6
Continuous
 62
     5
100
AcDbPolyline
 90
        4
 70
     0
 43
0.0
 10
-443.4124672129001
 20
-208.9385899153003
 10
-443.6326477038001
 20
-209.5322032462
 10
-443.8373670419005
 20
-210.0903806278001
 10
-444.1998616137007
 20
-211.0850291138004
  0
LWPOLYLINE
  5
D8
330
6F
100
AcDbEntity
  8
DETAIL
  6
Continuous
 62
     5
100
AcDbPolyline
 90
        3
 70
     0
 43
0.0
 10
-443.2414164486999
 20
-208.4808620675003
 10
-443.3259085639001
 20
-208.7078104335001
 10
-443.4124672129001
 20
-208.9385899153003
  0
LINE
  5
DD
330
6F
100
AcDbEntity
  8
DETAIL
  6
Continuous
 62
     5
100
AcDbLine
 10
-444.6717699451
 20
-212.3657303997002
 30
0.0
 11
-446.1643544468005
 21
-216.3605285841004
 31
0.0
  0
LWPOLYLINE
  5
DE
330
6F
100
AcDbEntity
  8
DETAIL
  6
Continuous
 62
     5
100
AcDbPolyline
 90
       18
 70
     0
 43
0.0
 10
429.2166650310972
 20
-218.7587796450998
 10
430.1390297541983
 20
-218.7158634847001
 10
431.0535282299969
 20
-218.5880428970004
 10
431.9523613325982
 20
-218.3764080089004
 10
432.8278634741981
 20
-218.0827636825002
 10
433.6725680855978
 20
-217.7096142291002
 10
434.4792712331981
 20
-217.2601419903003
 10
435.2410930781988
 20
-216.7381802198002
 10
435.951536543298
 20
-216.1481803853003
 10
436.6045427237986
 20
-215.4951742066
 10
437.1945425598987
 20
-214.7847307430002
 10
437.7165043312979
 20
-214.0229088989999
 10
438.1659765706971
 20
-213.2162057518999
 10
438.5391260239976
 20
-212.3715011404001
 10
438.8327703506984
 20
-211.4959989992003
 10
439.0444052362981
 20
-210.5971658939998
 10
439.1722258269982
 20
-209.6826674211998
 10
439.2151419826985
 20
-208.7603026935003
  0
LINE
  5
F2
330
6F
100
AcDbEntity
  8
DETAIL
  6
Continuous
 62
     5
100
AcDbLine
 10
-452.0500000000009
 20
-240.0285398163001
 30
0.0
 11
-450.0500000000011
 21
-240.0285398164001
 31
0.0
  0
LINE
  5
F3
330
6F
100
AcDbEntity
  8
DETAIL
  6
Continuous
 62
     5
100
AcDbLine
 10
-449.0
 20
-240.0
 30
0.0
 11
448.999999999998
 21
-240.0
 31
0.0
  0
LINE
  5
F4
330
6F
100
AcDbEntity
  8
DETAIL
  6
Continuous
 62
     5
100
AcDbLine
 10
449.3999999999977
 20
-240.0
 30
0.0
 11
449.9999999999982
 21
-240.0
 31
0.0
  0
LINE
  5
F5
330
6F
100
AcDbEntity
  8
DETAIL
  6
Continuous
 62
     5
100
AcDbLine
 10
448.999999999998
 20
-240.0
 30
0.0
 11
453.9999999999982
 21
-240.0
 31
0.0
  0
LINE
  5
F6
330
6F
100
AcDbEntity
  8
DETAIL
  6
Continuous
 62
     5
100
AcDbLine
 10
-449.3999999999996
 20
-240.0
 30
0.0
 11
-450.0
 21
-240.0
 31
0.0
  0
LINE
  5
F7
330
6F
100
AcDbEntity
  8
DETAIL
  6
Continuous
 62
     5
100
AcDbLine
 10
-449.0
 20
-240.0
 30
0.0
 11
-454.0
 21
-240.0
 31
0.0
  0
LINE
  5
F8
330
6F
100
AcDbEntity
  8
DETAIL
  6
Continuous
 62
     5
100
AcDbLine
 10
444.499999999998
 20
-234.0
 30
0.0
 11
-444.5
 21
-234.0
 31
0.0
  0
LINE
  5
F9
330
6F
100
AcDbEntity
  8
DETAIL
  6
Continuous
 62
     5
100
AcDbLine
 10
-417.3500000000003
 20
-226.5
 30
0.0
 11
-416.5500000000011
 21
-226.5
 31
0.0
  0
LINE
  5
FA
330
6F
100
AcDbEntity
  8
DETAIL
  6
Continuous
 62
     5
100
AcDbLine
 10
127.6499999999996
 20
-226.5
 30
0.0
 11
128.4499999999989
 21
-226.5
 31
0.0
  0
LINE
  5
FB
330
6F
100
AcDbEntity
  8
DETAIL
  6
Continuous
 62
     5
100
AcDbLine
 10
447.6499999999996
 20
-226.5
 30
0.0
 11
448.4499999999989
 21
-226.5
 31
0.0
  0
LINE
  5
FC
330
6F
100
AcDbEntity
  8
DETAIL
  6
Continuous
 62
     5
100
AcDbLine
 10
67.64999999999782
 20
-226.5
 30
0.0
 11
68.44999999999709
 21
-226.5
 31
0.0
  0
LINE
  5
FD
330
6F
100
AcDbEntity
  8
DETAIL
  6
Continuous
 62
     5
100
AcDbLine
 10
412.6499999999976
 20
-226.5
 30
0.0
 11
413.4499999999969
 21
-226.5
 31
0.0
  0
LINE
  5
FE
330
6F
100
AcDbEntity
  8
DETAIL
  6
Continuous
 62
     5
100
AcDbLine
 10
417.3499999999984
 20
-226.5
 30
0.0
 11
416.5499999999974
 21
-226.5
 31
0.0
  0
LINE
  5
FF
330
6F
100
AcDbEntity
  8
DETAIL
  6
Continuous
 62
     5
100
AcDbLine
 10
72.34999999999854
 20
-226.5
 30
0.0
 11
71.54999999999745
 21
-226.5
 31
0.0
  0
LINE
  5
100
330
6F
100
AcDbEntity
  8
DETAIL
  6
Continuous
 62
     5
100
AcDbLine
 10
452.3500000000002
 20
-226.5
 30
0.0
 11
451.5499999999992
 21
-226.5
 31
0.0
  0
LINE
  5
101
330
6F
100
AcDbEntity
  8
DETAIL
  6
Continuous
 62
     5
100
AcDbLine
 10
132.3500000000003
 20
-226.5
 30
0.0
 11
131.5499999999993
 21
-226.5
 31
0.0
  0
LINE
  5
102
330
6F
100
AcDbEntity
  8
DETAIL
  6
Continuous
 62
     5
100
AcDbLine
 10
-412.6499999999996
 20
-226.5
 30
0.0
 11
-413.4500000000008
 21
-226.5
 31
0.0
  0
LINE
  5
103
330
6F
100
AcDbEntity
  8
DETAIL
  6
Continuous
 62
     5
100
AcDbLine
 10
-429.0166650312003
 20
-224.1245319446998
 30
0.0
 11
429.0166650310983
 21
-224.1245319446998
 31
0.0
  0
LINE
  5
104
330
6F
100
AcDbEntity
  8
DETAIL
  6
Continuous
 62
     5
100
AcDbLine
 10
-429.2166650312009
 20
-218.7587796450998
 30
0.0
 11
-429.0166650312003
 21
-218.7587796450998
 31
0.0
  0
LINE
  5
105
330
6F
100
AcDbEntity
  8
DETAIL
  6
Continuous
 62
     5
100
AcDbLine
 10
429.0166650310983
 20
-218.7587796450998
 30
0.0
 11
429.2166650310972
 21
-218.7587796450998
 31
0.0
  0
LINE
  5
106
330
6F
100
AcDbEntity
  8
DETAIL
  6
Continuous
 62
     5
100
AcDbLine
 10
429.0166650310983
 20
-208.8008105293002
 30
0.0
 11
278.5810000168817
 21
-208.8008105291024
 31
0.0
  0
LINE
  5
107
330
6F
100
AcDbEntity
  8
DETAIL
  6
Continuous
 62
     5
100
AcDbLine
 10
171.4189999832147
 20
-208.8008105291615
 30
0.0
 11
-171.4189999841887
 21
-208.8008105297376
 31
0.0
  0
LINE
  5
108
330
6F
100
AcDbEntity
  8
DETAIL
  6
Continuous
 62
     5
100
AcDbLine
 10
-278.5810000166752
 20
-208.800810529227
 30
0.0
 11
-429.0166650312003
 21
-208.8008105293002
 31
0.0
  0
LINE
  5
109
330
6F
100
AcDbEntity
  8
DETAIL
  6
Continuous
 62
     5
100
AcDbLine
 10
449.9999999999982
 20
-207.0
 30
0.0
 11
449.4999999999982
 21
-207.0
 31
0.0
  0
LINE
  5
10A
330
6F
100
AcDbEntity
  8
DETAIL
  6
Continuous
 62
     5
100
AcDbLine
 10
-450.0
 20
-204.0
 30
0.0
 11
-449.5
 21
-204.0
 31
0.0
  0
LINE
  5
10B
330
6F
100
AcDbEntity
  8
DETAIL
  6
Continuous
 62
     5
100
AcDbLine
 10
453.9999999999982
 20
-200.3000000000002
 30
0.0
 11
489.999999999998
 21
-200.3000000000002
 31
0.0
  0
LINE
  5
10C
330
6F
100
AcDbEntity
  8
DETAIL
  6
Continuous
 62
     5
100
AcDbLine
 10
453.9999999999982
 20
-177.1999999999998
 30
0.0
 11
479.9999999999982
 21
-177.1999999999998
 31
0.0
  0
LINE
  5
10D
330
6F
100
AcDbEntity
  8
DETAIL
  6
Continuous
 62
     5
100
AcDbLine
 10
521.4999999999982
 20
-174.9499999999998
 30
0.0
 11
503.499999999998
 21
-174.9499999999998
 31
0.0
  0
LINE
  5
10E
330
6F
100
AcDbEntity
  8
DETAIL
  6
Continuous
 62
     5
100
AcDbLine
 10
479.9999999999982
 20
-171.4790561914
 30
0.0
 11
495.2209438085993
 21
-171.4790561914
 31
0.0
  0
LINE
  5
10F
330
6F
100
AcDbEntity
  8
DETAIL
  6
Continuous
 62
     5
100
AcDbLine
 10
496.9999999999981
 20
-169.3000000000002
 30
0.0
 11
501.4999999999981
 21
-169.3000000000002
 31
0.0
  0
LINE
  5
110
330
6F
100
AcDbEntity
  8
DETAIL
  6
Continuous
 62
     5
100
AcDbLine
 10
521.4999999999982
 20
-166.5749999999998
 30
0.0
 11
503.499999999998
 21
-166.5749999999998
 31
0.0
  0
LINE
  5
111
330
6F
100
AcDbEntity
  8
DETAIL
  6
Continuous
 62
     5
100
AcDbLine
 10
479.9999999999982
 20
-164.8395280957002
 30
0.0
 11
495.2209438085993
 21
-164.8395280957002
 31
0.0
  0
LINE
  5
112
330
6F
100
AcDbEntity
  8
DETAIL
  6
Continuous
 62
     5
100
AcDbLine
 10
479.9999999999982
 20
-151.5604719043003
 30
0.0
 11
495.2209438085993
 21
-151.5604719043003
 31
0.0
  0
LINE
  5
113
330
6F
100
AcDbEntity
  8
DETAIL
  6
Continuous
 62
     5
100
AcDbLine
 10
521.4999999999982
 20
-149.8249999999998
 30
0.0
 11
503.499999999998
 21
-149.8249999999998
 31
0.0
  0
LINE
  5
114
330
6F
100
AcDbEntity
  8
DETAIL
  6
Continuous
 62
     5
100
AcDbLine
 10
496.9999999999981
 20
-147.1000000000003
 30
0.0
 11
501.4999999999981
 21
-147.1000000000003
 31
0.0
  0
LINE
  5
115
330
6F
100
AcDbEntity
  8
DETAIL
  6
Continuous
 62
     5
100
AcDbLine
 10
479.9999999999982
 20
-144.9209438086
 30
0.0
 11
495.2209438085993
 21
-144.9209438086
 31
0.0
  0
LINE
  5
116
330
6F
100
AcDbEntity
  8
DETAIL
  6
Continuous
 62
     5
100
AcDbLine
 10
453.9999999999982
 20
-141.6999999999998
 30
0.0
 11
472.999999999998
 21
-141.6999999999998
 31
0.0
  0
LINE
  5
117
330
6F
100
AcDbEntity
  8
DETAIL
  6
Continuous
 62
     5
100
AcDbLine
 10
521.4999999999982
 20
-141.4499999999998
 30
0.0
 11
503.499999999998
 21
-141.4499999999998
 31
0.0
  0
LINE
  5
118
330
6F
100
AcDbEntity
  8
DETAIL
  6
Continuous
 62
     5
100
AcDbLine
 10
472.999999999998
 20
-139.1999999999998
 30
0.0
 11
479.9999999999982
 21
-139.1999999999998
 31
0.0
  0
LINE
  5
119
330
6F
100
AcDbEntity
  8
DETAIL
  6
Continuous
 62
     5
100
AcDbLine
 10
504.7982940777982
 20
-137.9017059222001
 30
0.0
 11
490.2017059220979
 21
-137.9017059222001
 31
0.0
  0
LINE
  5
11A
330
6F
100
AcDbEntity
  8
DETAIL
  6
Continuous
 62
     5
100
AcDbLine
 10
472.999999999998
 20
-135.0149545762001
 30
0.0
 11
485.6850454236991
 21
-135.0149545762001
 31
0.0
  0
LINE
  5
11B
330
6F
100
AcDbEntity
  8
DETAIL
  6
Continuous
 62
     5
100
AcDbLine
 10
486.9999999999982
 20
-133.1400000000003
 30
0.0
 11
488.4999999999982
 21
-133.1400000000003
 31
0.0
  0
LINE
  5
11C
330
6F
100
AcDbEntity
  8
DETAIL
  6
Continuous
 62
     5
100
AcDbLine
 10
504.7982940777982
 20
-131.5508529610997
 30
0.0
 11
490.2017059220979
 21
-131.5508529610997
 31
0.0
  0
LINE
  5
11D
330
6F
100
AcDbEntity
  8
DETAIL
  6
Continuous
 62
     5
100
AcDbLine
 10
472.999999999998
 20
-130.1074772881002
 30
0.0
 11
485.6850454236991
 21
-130.1074772881002
 31
0.0
  0
LINE
  5
11E
330
6F
100
AcDbEntity
  8
DETAIL
  6
Continuous
 62
     5
100
AcDbLine
 10
-456.8591869263999
 20
-20.55918969210006
 30
0.0
 11
-451.5590649936001
 21
-25.85931162480028
 31
0.0
  0
LWPOLYLINE
  5
11F
330
6F
100
AcDbEntity
  8
DETAIL
  6
Continuous
 62
     5
100
AcDbPolyline
 90
        4
 70
     0
 43
0.0
 10
-451.5585786979008
 20
-25.85979644550025
 10
-451.5290886212006
 20
-25.8973463762004
 10
-451.5074031099993
 20
-25.94730696680017
 10
-451.5000002653996
 20
-26.0011635269002
  0
LWPOLYLINE
  5
125
330
6F
100
AcDbEntity
  8
DETAIL
  6
Continuous
 62
     5
100
AcDbPolyline
 90
        3
 70
     0
 43
0.0
 10
-443.4124980085997
 20
-28.06128210469978
 10
-443.3257990959009
 20
-28.29214291690006
 10
-443.2415673804007
 20
-28.51919486850011
  0
LINE
  5
12A
330
6F
100
AcDbEntity
  8
DETAIL
  6
Continuous
 62
     5
100
AcDbLine
 10
-446.1643544468005
 20
-20.63947141590006
 30
0.0
 11
-444.6717697744007
 21
-24.63426623000032
 31
0.0
  0
LWPOLYLINE
  5
12B
330
6F
100
AcDbEntity
  8
DETAIL
  6
Continuous
 62
     5
100
AcDbPolyline
 90
        5
 70
     0
 43
0.0
 10
-444.6717697744007
 20
-24.63426623000032
 10
-444.5224621967991
 20
-25.03590858389999
 10
-444.3657566165001
 20
-25.46134427490006
 10
-444.2011766644008
 20
-25.91136103010013
 10
-443.8413818563002
 20
-26.89858663030009
  0
LWPOLYLINE
  5
132
330
6F
100
AcDbEntity
  8
DETAIL
  6
Continuous
 62
     5
100
AcDbPolyline
 90
        3
 70
     0
 43
0.0
 10
-443.8413818563002
 20
-26.89858663030009
 10
-443.6381515657994
 20
-27.45292186020015
 10
-443.4124980085997
 20
-28.06128210469978
  0
LWPOLYLINE
  5
137
330
6F
100
AcDbEntity
  8
DETAIL
  6
Continuous
 62
     5
100
AcDbPolyline
 90
       23
 70
     0
 43
0.0
 10
-443.2415673804007
 20
-28.51919486850011
 10
-443.0800591941006
 20
-28.97110664310003
 10
-442.9255106534
 20
-29.43678695500011
 10
-442.7775941993004
 20
-29.91792927720008
 10
-442.6364277225001
 20
-30.41620737840003
 10
-442.5021097002009
 20
-30.9332514976004
 10
-442.3748939534997
 20
-31.47068278739971
 10
-442.2551721034996
 20
-32.02980819460027
 10
-442.1435249416007
 20
-32.6111998112001
 10
-442.0403254146004
 20
-33.21655210520021
 10
-441.9452898344006
 20
-33.85267142049997
 10
-441.8582614745991
 20
-34.52905707540003
 10
-441.7797826076002
 20
-35.25428670640032
 10
-441.7113321963006
 20
-36.03073134819988
 10
-441.6547346465994
 20
-36.85251742289985
 10
-441.6110382745991
 20
-37.71219972860035
 10
-441.5806731906996
 20
-38.59012160359998
 10
-441.5626834823997
 20
-39.45750335200001
 10
-441.5546367195002
 20
-40.29148032720013
 10
-441.5536066793992
 20
-41.08689080860039
 10
-441.5570428344
 20
-41.8416641484
 10
-441.5628940016993
 20
-42.55777765870015
 10
-441.5761179671007
 20
-43.90487512260006
  0
LINE
  5
150
330
6F
100
AcDbEntity
  8
DETAIL
  6
Continuous
 62
     5
100
AcDbLine
 10
-436.4605285841989
 20
-226.0643544467002
 30
0.0
 11
-432.1980856536009
 21
-224.4717685833002
 31
0.0
  0
LWPOLYLINE
  5
151
330
6F
100
AcDbEntity
  8
DETAIL
  6
Continuous
 62
     5
100
AcDbPolyline
 90
        4
 70
     0
 43
0.0
 10
-432.1980856536009
 20
-224.4717685833002
 10
-431.7945536244004
 20
-224.3216700023999
 10
-431.3725720341007
 20
-224.1659667807998
 10
-430.9283841329997
 20
-224.0030835510002
  0
LWPOLYLINE
  5
157
330
6F
100
AcDbEntity
  8
DETAIL
  6
Continuous
 62
     5
100
AcDbPolyline
 90
        4
 70
     0
 43
0.0
 10
-430.9283841329997
 20
-224.0030835510002
 10
-429.9636465550011
 20
-223.6506770765
 10
-429.4449036186996
 20
-223.4606513344997
 10
-429.0166650312003
 20
-223.3027397199003
  0
LWPOLYLINE
  5
15D
330
6F
100
AcDbEntity
  8
DETAIL
  6
Continuous
 62
     5
100
AcDbPolyline
 90
       18
 70
     0
 43
0.0
 10
-429.2166650312009
 20
-18.24122035500022
 10
-430.1390297543002
 20
-18.28413651529989
 10
-431.0535282300008
 20
-18.41195710300008
 10
-431.9523613327
 20
-18.6235919912001
 10
-432.8278634742
 20
-18.91723631750028
 10
-433.6725680855996
 20
-19.29038577099981
 10
-434.4792712333001
 20
-19.73985800970013
 10
-435.2410930783007
 20
-20.26181978020031
 10
-435.9515365433999
 20
-20.85181961470016
 10
-436.6045427239005
 20
-21.50482579340041
 10
-437.1945425600006
 20
-22.21526925699983
 10
-437.7165043313998
 20
-22.97709110100004
 10
-438.1659765706992
 20
-23.7837942481001
 10
-438.5391260239994
 20
-24.62849885959986
 10
-438.8327703508003
 20
-25.50400100080015
 10
-439.0444052363999
 20
-26.40283410600023
 10
-439.172225827
 20
-27.31733257890028
 10
-439.2151419828005
 20
-28.23969730650015
  0
LINE
  5
171
330
6F
100
AcDbEntity
  8
DETAIL
  6
Continuous
 62
     5
100
AcDbLine
 10
472.999999999998
 20
-120.2925227119003
 30
0.0
 11
485.6850454236991
 21
-120.2925227119003
 31
0.0
  0
LINE
  5
172
330
6F
100
AcDbEntity
  8
DETAIL
  6
Continuous
 62
     5
100
AcDbLine
 10
504.7982940777982
 20
-118.8491470388999
 30
0.0
 11
490.2017059220979
 21
-118.8491470388999
 31
0.0
  0
LINE
  5
173
330
6F
100
AcDbEntity
  8
DETAIL
  6
Continuous
 62
     5
100
AcDbLine
 10
486.9999999999982
 20
-117.2600000000002
 30
0.0
 11
488.4999999999982
 21
-117.2600000000002
 31
0.0
  0
LINE
  5
174
330
6F
100
AcDbEntity
  8
DETAIL
  6
Continuous
 62
     5
100
AcDbLine
 10
472.999999999998
 20
-115.3850454237999
 30
0.0
 11
485.6850454236991
 21
-115.3850454237999
 31
0.0
  0
LINE
  5
175
330
6F
100
AcDbEntity
  8
DETAIL
  6
Continuous
 62
     5
100
AcDbLine
 10
504.7982940777982
 20
-112.4982940778
 30
0.0
 11
490.2017059220979
 21
-112.4982940778
 31
0.0
  0
LINE
  5
176
330
6F
100
AcDbEntity
  8
DETAIL
  6
Continuous
 62
     5
100
AcDbLine
 10
453.9999999999982
 20
-108.6999999999998
 30
0.0
 11
472.999999999998
 21
-108.6999999999998
 31
0.0
  0
LINE
  5
177
330
6F
100
AcDbEntity
  8
DETAIL
  6
Continuous
 62
     5
100
AcDbLine
 10
-454.0
 20
-93.0
 30
0.0
 11
-450.0
 21
-93.0
 31
0.0
  0
LINE
  5
178
330
6F
100
AcDbEntity
  8
DETAIL
  6
Continuous
 62
     5
100
AcDbLine
 10
-451.4999999999999
 20
-78.0
 30
0.0
 11
-450.0
 21
-78.0
 31
0.0
  0
LINE
  5
179
330
6F
100
AcDbEntity
  8
DETAIL
  6
Continuous
 62
     5
100
AcDbLine
 10
489.6999999999988
 20
-60.0
 30
0.0
 11
507.499999999998
 21
-60.0
 31
0.0
  0
LINE
  5
17A
330
6F
100
AcDbEntity
  8
DETAIL
  6
Continuous
 62
     5
100
AcDbLine
 10
497.499999999998
 20
-30.0
 30
0.0
 11
499.9999999999982
 21
-30.0
 31
0.0
  0
LINE
  5
17B
330
6F
100
AcDbEntity
  8
DETAIL
  6
Continuous
 62
     5
100
AcDbLine
 10
-497.5
 20
-30.0
 30
0.0
 11
-500.0
 21
-30.0
 31
0.0
  0
LINE
  5
17C
330
6F
100
AcDbEntity
  8
DETAIL
  6
Continuous
 62
     5
100
AcDbLine
 10
482.9999999999982
 20
-28.0
 30
0.0
 11
497.499999999998
 21
-28.0
 31
0.0
  0
LINE
  5
17D
330
6F
100
AcDbEntity
  8
DETAIL
  6
Continuous
 62
     5
100
AcDbLine
 10
499.9999999999982
 20
-28.0
 30
0.0
 11
507.499999999998
 21
-28.0
 31
0.0
  0
LINE
  5
17E
330
6F
100
AcDbEntity
  8
DETAIL
  6
Continuous
 62
     5
100
AcDbLine
 10
429.0166650310983
 20
-27.83998285069993
 30
0.0
 11
277.9709470887537
 21
-27.83998285052894
 31
0.0
  0
LINE
  5
17F
330
6F
100
AcDbEntity
  8
DETAIL
  6
Continuous
 62
     5
100
AcDbLine
 10
172.029052911123
 20
-27.83998285059897
 30
0.0
 11
-172.0290529103531
 21
-27.83998285105099
 31
0.0
  0
LINE
  5
180
330
6F
100
AcDbEntity
  8
DETAIL
  6
Continuous
 62
     5
100
AcDbLine
 10
-277.9709470891826
 20
-27.8399828507777
 30
0.0
 11
-429.0166650312003
 21
-27.83998285070038
 31
0.0
  0
LINE
  5
181
330
6F
100
AcDbEntity
  8
DETAIL
  6
Continuous
 62
     5
100
AcDbLine
 10
449.4999999999982
 20
-27.0
 30
0.0
 11
449.9999999999982
 21
-27.0
 31
0.0
  0
LINE
  5
182
330
6F
100
AcDbEntity
  8
DETAIL
  6
Continuous
 62
     5
100
AcDbLine
 10
449.9999999999982
 20
-26.40000000000009
 30
0.0
 11
449.4999999999982
 21
-26.40000000000009
 31
0.0
  0
LINE
  5
183
330
6F
100
AcDbEntity
  8
DETAIL
  6
Continuous
 62
     5
100
AcDbLine
 10
-449.5
 20
-26.40000000000009
 30
0.0
 11
-450.0
 21
-26.40000000000009
 31
0.0
  0
LINE
  5
184
330
6F
100
AcDbEntity
  8
DETAIL
  6
Continuous
 62
     5
100
AcDbLine
 10
451.699999999997
 20
-20.5
 30
0.0
 11
497.2999999999991
 21
-20.5
 31
0.0
  0
LINE
  5
185
330
6F
100
AcDbEntity
  8
DETAIL
  6
Continuous
 62
     5
100
AcDbLine
 10
-451.7000000000008
 20
-20.5
 30
0.0
 11
-497.3000000000011
 21
-20.5
 31
0.0
  0
LINE
  5
186
330
6F
100
AcDbEntity
  8
DETAIL
  6
Continuous
 62
     5
100
AcDbLine
 10
429.2166650310972
 20
-18.24122035500022
 30
0.0
 11
429.0166650310983
 21
-18.24122035500022
 31
0.0
  0
LINE
  5
187
330
6F
100
AcDbEntity
  8
DETAIL
  6
Continuous
 62
     5
100
AcDbLine
 10
-429.0166650312003
 20
-18.24122035500022
 30
0.0
 11
-429.2166650312009
 21
-18.24122035500022
 31
0.0
  0
LINE
  5
188
330
6F
100
AcDbEntity
  8
DETAIL
  6
Continuous
 62
     5
100
AcDbLine
 10
451.699999999997
 20
-18.0
 30
0.0
 11
497.2999999999991
 21
-18.0
 31
0.0
  0
LINE
  5
189
330
6F
100
AcDbEntity
  8
DETAIL
  6
Continuous
 62
     5
100
AcDbLine
 10
-451.7000000000008
 20
-18.0
 30
0.0
 11
-497.3000000000011
 21
-18.0
 31
0.0
  0
LINE
  5
18A
330
6F
100
AcDbEntity
  8
DETAIL
  6
Continuous
 62
     5
100
AcDbLine
 10
452.999999999998
 20
-16.5
 30
0.0
 11
449.9999999999982
 21
-16.5
 31
0.0
  0
LINE
  5
18B
330
6F
100
AcDbEntity
  8
DETAIL
  6
Continuous
 62
     5
100
AcDbLine
 10
-454.0
 20
-15.0
 30
0.0
 11
-450.0
 21
-15.0
 31
0.0
  0
LINE
  5
18C
330
6F
100
AcDbEntity
  8
DETAIL
  6
Continuous
 62
     5
100
AcDbLine
 10
429.0166650310983
 20
-12.44083232310004
 30
0.0
 11
-429.0166650312003
 21
-12.44083232310004
 31
0.0
  0
LINE
  5
18D
330
6F
100
AcDbEntity
  8
DETAIL
  6
Continuous
 62
     5
100
AcDbLine
 10
-444.5
 20
-3.0
 30
0.0
 11
444.499999999998
 21
-3.0
 31
0.0
  0
LINE
  5
18E
330
6F
100
AcDbEntity
  8
DETAIL
  6
Continuous
 62
     5
100
AcDbLine
 10
-450.0
 20
0.0
 30
0.0
 11
449.9999999999982
 21
0.0
 31
0.0
  0
LINE
  5
18F
330
6F
100
AcDbEntity
  8
DETAIL
  6
Continuous
 62
     5
100
AcDbLine
 10
453.9825475934976
 20
-27.24349848420025
 30
0.0
 11
482.9999999999982
 21
-27.75
 31
0.0
  0
LWPOLYLINE
  5
190
330
6F
100
AcDbEntity
  8
DETAIL
  6
Continuous
 62
     5
100
AcDbPolyline
 90
        8
 70
     0
 43
0.0
 10
-429.0166650312003
 20
-13.69725818640018
 10
-429.4463021934006
 20
-13.53883623399997
 10
-429.9647920352
 20
-13.34890271960012
 10
-430.4594001557997
 20
-13.16825302389998
 10
-430.9286719724005
 20
-12.99681088170018
 10
-431.3729617966
 20
-12.83389026829991
 10
-431.7949655746996
 20
-12.67817771850014
 10
-432.1980859573994
 20
-12.52823132360026
  0
LINE
  5
19A
330
6F
100
AcDbEntity
  8
DETAIL
  6
Continuous
 62
     5
100
AcDbLine
 10
-432.1980859573994
 20
-12.52823132360026
 30
0.0
 11
-436.4605285841989
 21
-10.93564555329976
 31
0.0
  0
LWPOLYLINE
  5
19B
330
6F
100
AcDbEntity
  8
DETAIL
  6
Continuous
 62
     5
100
AcDbPolyline
 90
       23
 70
     0
 43
0.0
 10
-278.5810000166003
 20
-208.8008105293002
 10
-275.6962360743
 20
-210.1714822135
 10
-272.5281586654
 20
-211.5382168676001
 10
-269.0165287682013
 20
-212.8694528792002
 10
-265.1022613458008
 20
-214.1269369491001
 10
-260.7265728028015
 20
-215.2652310599001
 10
-255.8216449112006
 20
-216.2440252278001
 10
-250.3351991681011
 20
-217.0296104065001
 10
-244.3401570539009
 20
-217.5980807815004
 10
-238.0221003342013
 20
-217.9586161921998
 10
-231.5410397597006
 20
-218.1499066293
 10
-225.0000000000018
 20
-218.2088645076001
 10
-218.4589602404012
 20
-218.1499066293
 10
-211.9778996659006
 20
-217.9586161921998
 10
-205.659842946201
 20
-217.5980807815004
 10
-199.6648008319006
 20
-217.0296104065001
 10
-194.1783550889013
 20
-216.2440252278001
 10
-189.2734271973004
 20
-215.2652310599001
 10
-184.897738654301
 20
-214.1269369491001
 10
-180.9834712319006
 20
-212.8694528792002
 10
-177.4718413347018
 20
-211.5382168676001
 10
-174.3037639258018
 20
-210.1714822135
 10
-171.4189999833998
 20
-208.8008105293002
  0
LINE
  5
1B4
330
6F
100
AcDbEntity
  8
DETAIL
  6
Continuous
 62
     5
100
AcDbLine
 10
436.3605285840986
 20
-10.93564555329976
 30
0.0
 11
432.148231718398
 21
-12.50949535890004
 31
0.0
  0
LWPOLYLINE
  5
1B5
330
6F
100
AcDbEntity
  8
DETAIL
  6
Continuous
 62
     5
100
AcDbPolyline
 90
        4
 70
     0
 43
0.0
 10
432.148231718398
 20
-12.50949535890004
 10
431.7855317451976
 20
-12.64446978750038
 10
431.4084314942975
 20
-12.78378157669976
 10
431.0141405826979
 20
-12.92859046959984
  0
LWPOLYLINE
  5
1BB
330
6F
100
AcDbEntity
  8
DETAIL
  6
Continuous
 62
     5
100
AcDbPolyline
 90
        3
 70
     0
 43
0.0
 10
429.7117450987971
 20
-13.40463028720023
 10
429.2405040729972
 20
-13.57758700199974
 10
429.0166650310983
 20
-13.66025524169981
  0
LINE
  5
1C0
330
6F
100
AcDbEntity
  8
DETAIL
  6
Continuous
 62
     5
100
AcDbLine
 10
431.0141405826979
 20
-12.92859046959984
 30
0.0
 11
429.7117450987971
 21
-13.40463028720023
 31
0.0
  0
LWPOLYLINE
  5
1C1
330
6F
100
AcDbEntity
  8
DETAIL
  6
Continuous
 62
     5
100
AcDbPolyline
 90
        5
 70
     0
 43
0.0
 10
429.7135532115971
 20
-223.5960341773997
 10
431.0146427187974
 20
-224.0715923648004
 10
431.4090017993985
 20
-224.2164284850001
 10
431.7860419278985
 20
-224.3557187749002
 10
432.148231265899
 20
-224.4905044968
  0
LWPOLYLINE
  5
1C8
330
6F
100
AcDbEntity
  8
DETAIL
  6
Continuous
 62
     5
100
AcDbPolyline
 90
        3
 70
     0
 43
0.0
 10
429.0166650310983
 20
-223.3397444243001
 10
429.2422763033972
 20
-223.4230636471002
 10
429.7135532115971
 20
-223.5960341773997
  0
LINE
  5
1CD
330
6F
100
AcDbEntity
  8
DETAIL
  6
Continuous
 62
     5
100
AcDbLine
 10
432.148231265899
 20
-224.4905044968
 30
0.0
 11
436.3605285840986
 21
-226.0643544467002
 31
0.0
  0
LWPOLYLINE
  5
1CE
330
6F
100
AcDbEntity
  8
DETAIL
  6
Continuous
 62
     5
100
AcDbPolyline
 90
       23
 70
     0
 43
0.0
 10
171.4189999833998
 20
-208.8008105293002
 10
174.3037639256999
 20
-210.1714822135
 10
177.4718413345999
 20
-211.5382168676001
 10
180.9834712317988
 20
-212.8694528792002
 10
184.8977386541992
 20
-214.1269369491001
 10
189.2734271971985
 20
-215.2652310599001
 10
194.1783550887994
 20
-216.2440252278001
 10
199.6648008318989
 20
-217.0296104065001
 10
205.6598429460992
 20
-217.5980807815004
 10
211.9778996657987
 20
-217.9586161921998
 10
218.4589602402994
 20
-218.1499066293
 10
224.9999999999982
 20
-218.2088645076001
 10
231.5410397595988
 20
-218.1499066293
 10
238.0221003340994
 20
-217.9586161921998
 10
244.340157053799
 20
-217.5980807815004
 10
250.3351991680993
 20
-217.0296104065001
 10
255.8216449110987
 20
-216.2440252278001
 10
260.7265728026996
 20
-215.2652310599001
 10
265.1022613456989
 20
-214.1269369491001
 10
269.0165287680993
 20
-212.8694528792002
 10
272.5281586652982
 20
-211.5382168676001
 10
275.6962360741983
 20
-210.1714822135
 10
278.5810000166003
 20
-208.8008105293002
  0
LWPOLYLINE
  5
1E7
330
6F
100
AcDbEntity
  8
DETAIL
  6
Continuous
 62
     5
100
AcDbPolyline
 90
       30
 70
     0
 43
0.0
 10
-278.5810000166003
 20
-208.8008105293002
 10
-276.3448059687016
 20
-210.4095783002003
 10
-273.9513435787012
 20
-212.0143322112999
 10
-271.3764496615004
 20
-213.5940361155999
 10
-268.5939363131019
 20
-215.1245069019001
 10
-265.5782752368013
 20
-216.5794112996
 10
-262.3070978512004
 20
-217.9267759507002
 10
-258.754919360701
 20
-219.1404107197
 10
-254.8976050750007
 20
-220.1956107061
 10
-250.727899503001
 20
-221.0736913250002
 10
-246.2926994632017
 20
-221.7610883205998
 10
-241.6759717455005
 20
-222.2624415713999
 10
-236.9568585331999
 20
-222.6008104315001
 10
-232.1867318101013
 20
-222.8056011453
 10
-227.3965863647009
 20
-222.9012643311999
 10
-222.603413635401
 20
-222.9012643311999
 10
-217.8132681899005
 20
-222.8056011453
 10
-213.0431414669019
 20
-222.6008104315001
 10
-208.3240282545012
 20
-222.2624415713999
 10
-203.7073005368002
 20
-221.7610883205998
 10
-199.2721004971008
 20
-221.0736913250002
 10
-195.1023949250011
 20
-220.1956107061
 10
-191.2450806394008
 20
-219.1404107197
 10
-187.6929021488012
 20
-217.9267759507002
 10
-184.4217247633005
 20
-216.5794112996
 10
-181.4060636869999
 20
-215.1245069019001
 10
-178.6235503386014
 20
-213.5940361155999
 10
-176.0486564214006
 20
-212.0143322112999
 10
-173.6551940313002
 20
-210.4095783002003
 10
-171.4189999833998
 20
-208.8008105293002
  0
LWPOLYLINE
  5
207
330
6F
100
AcDbEntity
  8
DETAIL
  6
Continuous
 62
     5
100
AcDbPolyline
 90
       23
 70
     0
 43
0.0
 10
-172.0290529110006
 20
-27.83998285069993
 10
-174.9094195244015
 20
-26.49229740359988
 10
-178.0718947461009
 20
-25.14830192609998
 10
-181.5749869113006
 20
-23.83864644070036
 10
-185.4757382020997
 20
-22.60043706000033
 10
-189.8293077482012
 20
-21.47773815179971
 10
-194.6978272608012
 20
-20.50975007689976
 10
-200.1241511951012
 20
-19.72943460340001
 10
-206.0288078017002
 20
-19.16048772969998
 10
-212.2332779851003
 20
-18.79523709390014
 10
-218.5887644978011
 20
-18.59873446900019
 10
-225.0000000000018
 20
-18.53758870399997
 10
-231.4112355023008
 20
-18.59873446900019
 10
-237.7667220150015
 20
-18.79523709390014
 10
-243.9711921983017
 20
-19.16048772969998
 10
-249.8758488050007
 20
-19.72943460340001
 10
-255.3021727393006
 20
-20.50975007689976
 10
-260.1706922519006
 20
-21.47773815179971
 10
-264.5242617980003
 20
-22.60043706000033
 10
-268.4250130887012
 20
-23.83864644070036
 10
-271.9281052539009
 20
-25.14830192609998
 10
-275.0905804757003
 20
-26.49229740359988
 10
-277.9709470891012
 20
-27.83998285069993
  0
LWPOLYLINE
  5
220
330
6F
100
AcDbEntity
  8
DETAIL
  6
Continuous
 62
     5
100
AcDbPolyline
 90
       30
 70
     0
 43
0.0
 10
-172.0290529110006
 20
-27.83998285069993
 10
-174.2610572751018
 20
-26.25875875869997
 10
-176.6497458507018
 20
-24.68130461130022
 10
-179.2187433754006
 20
-23.12799814289975
 10
-181.9932996733005
 20
-21.62228729740036
 10
-184.9979685904018
 20
-20.18977718800034
 10
-188.2534066834014
 20
-18.86148752129975
 10
-191.7828512538017
 20
-17.66295074690015
 10
-195.6071741590003
 20
-16.61814709579994
 10
-199.7293530736006
 20
-15.74553170800027
 10
-204.1002641776013
 20
-15.05851559730035
 10
-208.6389652906019
 20
-14.55320115960012
 10
-213.2717684622003
 20
-14.20854493360002
 10
-217.9514391249013
 20
-13.99774296240002
 10
-222.6495445484998
 20
-13.8984948809002
 10
-227.3504554516003
 20
-13.8984948809002
 10
-232.0485608752006
 20
-13.99774296240002
 10
-236.7282315378016
 20
-14.20854493360002
 10
-241.3610347095
 20
-14.55320115960012
 10
-245.8997358225006
 20
-15.05851559730035
 10
-250.2706469264012
 20
-15.74553170800027
 10
-254.3928258411015
 20
-16.61814709579994
 10
-258.2171487463002
 20
-17.66295074690015
 10
-261.7465933166004
 20
-18.86148752129975
 10
-265.0020314097001
 20
-20.18977718800034
 10
-268.0067003267013
 20
-21.62228729740036
 10
-270.7812566247012
 20
-23.12799814289975
 10
-273.3502541493999
 20
-24.68130461130022
 10
-275.738942725
 20
-26.25875875869997
 10
-277.9709470891012
 20
-27.83998285069993
  0
LWPOLYLINE
  5
240
330
6F
100
AcDbEntity
  8
DETAIL
  6
Continuous
 62
     5
100
AcDbPolyline
 90
       30
 70
     0
 43
0.0
 10
171.4189999833998
 20
-208.8008105293002
 10
173.6551940312984
 20
-210.4095783002003
 10
176.0486564212988
 20
-212.0143322112999
 10
178.6235503384996
 20
-213.5940361155999
 10
181.406063686898
 20
-215.1245069019001
 10
184.4217247631986
 20
-216.5794112996
 10
187.6929021487995
 20
-217.9267759507002
 10
191.2450806392988
 20
-219.1404107197
 10
195.1023949249993
 20
-220.1956107061
 10
199.2721004969988
 20
-221.0736913250002
 10
203.7073005367984
 20
-221.7610883205998
 10
208.3240282544994
 20
-222.2624415713999
 10
213.0431414668001
 20
-222.6008104315001
 10
217.8132681898987
 20
-222.8056011453
 10
222.6034136353991
 20
-222.9012643311999
 10
227.396586364599
 20
-222.9012643311999
 10
232.1867318100995
 20
-222.8056011453
 10
236.9568585330981
 20
-222.6008104315001
 10
241.6759717454988
 20
-222.2624415713999
 10
246.2926994631998
 20
-221.7610883205998
 10
250.7278995028991
 20
-221.0736913250002
 10
254.8976050749989
 20
-220.1956107061
 10
258.7549193605992
 20
-219.1404107197
 10
262.3070978511987
 20
-217.9267759507002
 10
265.5782752366995
 20
-216.5794112996
 10
268.5939363130001
 20
-215.1245069019001
 10
271.3764496613984
 20
-213.5940361155999
 10
273.9513435785994
 20
-212.0143322112999
 10
276.3448059686998
 20
-210.4095783002003
 10
278.5810000166003
 20
-208.8008105293002
  0
LWPOLYLINE
  5
260
330
6F
100
AcDbEntity
  8
DETAIL
  6
Continuous
 62
     5
100
AcDbPolyline
 90
        4
 70
     0
 43
0.0
 10
456.8597939494975
 20
-20.55857878680035
 10
456.897409935498
 20
-20.52904862630021
 10
456.9473934278976
 20
-20.50737848740027
 10
457.0012142086978
 20
-20.5000006831001
  0
LWPOLYLINE
  5
266
330
6F
100
AcDbEntity
  8
DETAIL
  6
Continuous
 62
     5
100
AcDbPolyline
 90
        6
 70
     0
 43
0.0
 10
527.499999999998
 20
-165.1558976590004
 10
528.333900991898
 20
-164.7053295634
 10
529.4962908767992
 20
-163.5748623054
 10
530.3298823676978
 20
-162.1155966534997
 10
530.8320169278977
 20
-160.3248740709
 10
530.999999999998
 20
-158.1999999999998
  0
LWPOLYLINE
  5
26E
330
6F
100
AcDbEntity
  8
DETAIL
  6
Continuous
 62
     5
100
AcDbPolyline
 90
       23
 70
     0
 43
0.0
 10
277.9709470889993
 20
-27.83998285069993
 10
275.0905804755985
 20
-26.49229740359988
 10
271.928105253899
 20
-25.14830192609998
 10
268.4250130886995
 20
-23.83864644070036
 10
264.5242617979002
 20
-22.60043706000033
 10
260.1706922517987
 20
-21.47773815179971
 10
255.3021727391988
 20
-20.50975007689976
 10
249.8758488048988
 20
-19.72943460340001
 10
243.9711921982998
 20
-19.16048772969998
 10
237.7667220148997
 20
-18.79523709390014
 10
231.4112355021989
 20
-18.59873446900019
 10
224.9999999999982
 20
-18.53758870399997
 10
218.5887644976992
 20
-18.59873446900019
 10
212.2332779849985
 20
-18.79523709390014
 10
206.0288078016982
 20
-19.16048772969998
 10
200.1241511949993
 20
-19.72943460340001
 10
194.6978272606992
 20
-20.50975007689976
 10
189.8293077480994
 20
-21.47773815179971
 10
185.4757382019998
 20
-22.60043706000033
 10
181.5749869112987
 20
-23.83864644070036
 10
178.0718947460991
 20
-25.14830192609998
 10
174.9094195242996
 20
-26.49229740359988
 10
172.0290529108988
 20
-27.83998285069993
  0
LWPOLYLINE
  5
287
330
6F
100
AcDbEntity
  8
DETAIL
  6
Continuous
 62
     5
100
AcDbPolyline
 90
        6
 70
     0
 43
0.0
 10
527.499999999998
 20
-151.2441023410001
 10
528.333900991898
 20
-151.6946704366
 10
529.4962908767992
 20
-152.8251376946
 10
530.3298823676978
 20
-154.2844033465999
 10
530.8320169278977
 20
-156.0751259292001
 10
530.999999999998
 20
-158.1999999999998
  0
LINE
  5
28F
330
6F
100
AcDbEntity
  8
DETAIL
  6
Continuous
 62
     5
100
AcDbLine
 10
456.8591869262982
 20
-20.55918969210006
 30
0.0
 11
451.5590649934984
 21
-25.85931162480028
 31
0.0
  0
LWPOLYLINE
  5
290
330
6F
100
AcDbEntity
  8
DETAIL
  6
Continuous
 62
     5
100
AcDbPolyline
 90
        5
 70
     0
 43
0.0
 10
506.499999999998
 20
-129.3439573789
 10
507.2728904619979
 20
-128.8243623245998
 10
507.9776490776985
 20
-127.8957876069998
 10
508.4048089792977
 20
-126.6896141752004
 10
508.5485281373985
 20
-125.1999999999998
  0
LWPOLYLINE
  5
297
330
6F
100
AcDbEntity
  8
DETAIL
  6
Continuous
 62
     5
100
AcDbPolyline
 90
        5
 70
     0
 43
0.0
 10
506.499999999998
 20
-121.0560426211
 10
507.2728904619979
 20
-121.5756376753998
 10
507.9776490776985
 20
-122.5042123929997
 10
508.4048089792977
 20
-123.7103858248001
 10
508.5485281373985
 20
-125.1999999999998
  0
LWPOLYLINE
  5
29E
330
6F
100
AcDbEntity
  8
DETAIL
  6
Continuous
 62
     5
100
AcDbPolyline
 90
       30
 70
     0
 43
0.0
 10
277.9709470889993
 20
-27.83998285069993
 10
275.7389427248981
 20
-26.25875875869997
 10
273.3502541492981
 20
-24.68130461130022
 10
270.7812566245993
 20
-23.12799814289975
 10
268.0067003266995
 20
-21.62228729740036
 10
265.0020314095982
 20
-20.18977718800034
 10
261.7465933165985
 20
-18.86148752129975
 10
258.2171487461983
 20
-17.66295074690015
 10
254.3928258409997
 20
-16.61814709579994
 10
250.2706469263994
 20
-15.74553170800027
 10
245.8997358223987
 20
-15.05851559730035
 10
241.3610347095
 20
-14.55320115960012
 10
236.7282315377997
 20
-14.20854493360002
 10
232.0485608750987
 20
-13.99774296240002
 10
227.3504554515002
 20
-13.8984948809002
 10
222.6495445483997
 20
-13.8984948809002
 10
217.9514391247995
 20
-13.99774296240002
 10
213.2717684621984
 20
-14.20854493360002
 10
208.6389652905
 20
-14.55320115960012
 10
204.1002641774994
 20
-15.05851559730035
 10
199.7293530735986
 20
-15.74553170800027
 10
195.6071741588984
 20
-16.61814709579994
 10
191.7828512536997
 20
-17.66295074690015
 10
188.2534066833996
 20
-18.86148752129975
 10
184.9979685902999
 20
-20.18977718800034
 10
181.9932996732987
 20
-21.62228729740036
 10
179.2187433752988
 20
-23.12799814289975
 10
176.6497458506001
 20
-24.68130461130022
 10
174.261057275
 20
-26.25875875869997
 10
172.0290529108988
 20
-27.83998285069993
  0
LWPOLYLINE
  5
2BE
330
6F
100
AcDbEntity
  8
DETAIL
  6
Continuous
 62
     5
100
AcDbPolyline
 90
        5
 70
     0
 43
0.0
 10
490.2017059220979
 20
-112.4982940778
 10
489.4446509003973
 20
-113.3459165967997
 10
488.9161367734978
 20
-114.1466171867
 10
488.6036586076989
 20
-114.9168793468998
 10
488.4999999842984
 20
-115.6737204440001
  0
LINE
  5
2C5
330
6F
100
AcDbEntity
  8
DETAIL
  6
Continuous
 62
     5
100
AcDbLine
 10
488.4999999999982
 20
-114.1999999999998
 30
0.0
 11
490.2017059220979
 21
-112.4982940778
 31
0.0
  0
LINE
  5
2C6
330
6F
100
AcDbEntity
  8
DETAIL
  6
Continuous
 62
     5
100
AcDbLine
 10
485.6850454236991
 20
-135.0149545762001
 30
0.0
 11
486.9999999999982
 21
-133.6999999999998
 31
0.0
  0
LINE
  5
2C7
330
6F
100
AcDbEntity
  8
DETAIL
  6
Continuous
 62
     5
100
AcDbLine
 10
504.7982940777982
 20
-137.9017059222001
 30
0.0
 11
506.499999999998
 21
-136.1999999999998
 31
0.0
  0
LINE
  5
2C8
330
6F
100
AcDbEntity
  8
DETAIL
  6
Continuous
 62
     5
100
AcDbLine
 10
501.4999999999981
 20
-143.4499999999998
 30
0.0
 11
503.499999999998
 21
-141.4499999999998
 31
0.0
  0
LINE
  5
2C9
330
6F
100
AcDbEntity
  8
DETAIL
  6
Continuous
 62
     5
100
AcDbLine
 10
495.2209438085993
 20
-171.4790561914
 30
0.0
 11
496.9999999999981
 21
-169.6999999999998
 31
0.0
  0
LINE
  5
2CA
330
6F
100
AcDbEntity
  8
DETAIL
  6
Continuous
 62
     5
100
AcDbLine
 10
523.499999999998
 20
-172.9499999999998
 30
0.0
 11
527.499999999998
 21
-169.6999999999998
 31
0.0
  0
LINE
  5
2CB
330
6F
100
AcDbEntity
  8
DETAIL
  6
Continuous
 62
     5
100
AcDbLine
 10
523.499999999998
 20
-143.4499999999998
 30
0.0
 11
527.499999999998
 21
-146.6999999999998
 31
0.0
  0
LINE
  5
2CC
330
6F
100
AcDbEntity
  8
DETAIL
  6
Continuous
 62
     5
100
AcDbLine
 10
501.4999999999981
 20
-172.9499999999998
 30
0.0
 11
503.499999999998
 21
-174.9499999999998
 31
0.0
  0
LINE
  5
2CD
330
6F
100
AcDbEntity
  8
DETAIL
  6
Continuous
 62
     5
100
AcDbLine
 10
495.2209438085993
 20
-144.9209438086
 30
0.0
 11
496.9999999999981
 21
-146.6999999999998
 31
0.0
  0
LINE
  5
2CE
330
6F
100
AcDbEntity
  8
DETAIL
  6
Continuous
 62
     5
100
AcDbLine
 10
488.4999999999982
 20
-136.1999999999998
 30
0.0
 11
490.2017059220979
 21
-137.9017059222001
 31
0.0
  0
LINE
  5
2CF
330
6F
100
AcDbEntity
  8
DETAIL
  6
Continuous
 62
     5
100
AcDbLine
 10
485.6850454236991
 20
-115.3850454237999
 30
0.0
 11
486.9999999999982
 21
-116.6999999999998
 31
0.0
  0
LINE
  5
2D0
330
6F
100
AcDbEntity
  8
DETAIL
  6
Continuous
 62
     5
100
AcDbLine
 10
521.4999999999982
 20
-141.4499999999998
 30
0.0
 11
523.499999999998
 21
-143.4499999999998
 31
0.0
  0
LINE
  5
2D1
330
6F
100
AcDbEntity
  8
DETAIL
  6
Continuous
 62
     5
100
AcDbLine
 10
504.7982940777982
 20
-112.4982940778
 30
0.0
 11
506.499999999998
 21
-114.1999999999998
 31
0.0
  0
LWPOLYLINE
  5
2D2
330
6F
100
AcDbEntity
  8
DETAIL
  6
Continuous
 62
     5
100
AcDbPolyline
 90
        6
 70
     0
 43
0.0
 10
495.2209438085993
 20
-164.8395280957002
 10
495.8831797002984
 20
-165.5643858603998
 10
496.3793907371982
 20
-166.2449274381001
 10
496.7254353278985
 20
-166.8953327674998
 10
496.9314086931989
 20
-167.5303436516001
 10
496.9999999999981
 20
-168.1592921435003
  0
LWPOLYLINE
  5
2DA
330
6F
100
AcDbEntity
  8
DETAIL
  6
Continuous
 62
     5
100
AcDbPolyline
 90
        5
 70
     0
 43
0.0
 10
490.2017059220979
 20
-131.5508529610997
 10
489.4446508759974
 20
-132.3984755113997
 10
488.9161367417981
 20
-133.1991761292002
 10
488.6036585841974
 20
-133.9694383165
 10
488.4999999999982
 20
-134.7262794416001
  0
LWPOLYLINE
  5
2E1
330
6F
100
AcDbEntity
  8
DETAIL
  6
Continuous
 62
     5
100
AcDbPolyline
 90
        4
 70
     0
 43
0.0
 10
503.499999999998
 20
-141.4499999999998
 10
502.5947087036983
 20
-142.4503022140998
 10
501.9348696732977
 20
-143.3925951024002
 10
501.4999999999981
 20
-144.3014026046003
  0
LWPOLYLINE
  5
2E7
330
6F
100
AcDbEntity
  8
DETAIL
  6
Continuous
 62
     5
100
AcDbPolyline
 90
        4
 70
     0
 43
0.0
 10
503.499999999998
 20
-166.5749999999998
 10
502.5947087036983
 20
-167.5753022140998
 10
501.9348696732977
 20
-168.5175951024002
 10
501.4999999999981
 20
-169.4264026046003
  0
LINE
  5
2ED
330
6F
100
AcDbEntity
  8
DETAIL
  6
Continuous
 62
     5
100
AcDbLine
 10
521.4999999999982
 20
-174.9499999999998
 30
0.0
 11
523.499999999998
 21
-172.9499999999998
 31
0.0
  0
LWPOLYLINE
  5
2EE
330
6F
100
AcDbEntity
  8
DETAIL
  6
Continuous
 62
     5
100
AcDbPolyline
 90
        6
 70
     0
 43
0.0
 10
495.2209438085993
 20
-144.9209438086
 10
495.8803832811972
 20
-145.6424042691001
 10
496.3766404608978
 20
-146.3219943218
 10
496.7241646533985
 20
-146.9737924971999
 10
496.9311087915976
 20
-147.6103817919002
 10
496.9999999999981
 20
-148.2407078565002
  0
LWPOLYLINE
  5
2F6
330
6F
100
AcDbEntity
  8
DETAIL
  6
Continuous
 62
     5
100
AcDbPolyline
 90
        4
 70
     0
 43
0.0
 10
521.4999999999982
 20
-166.5749999999998
 10
522.4052912961979
 20
-167.5753022140998
 10
523.0651303265984
 20
-168.5175951024002
 10
523.499999999998
 20
-169.4264026046003
  0
LWPOLYLINE
  5
2FC
330
6F
100
AcDbEntity
  8
DETAIL
  6
Continuous
 62
     5
100
AcDbPolyline
 90
        4
 70
     0
 43
0.0
 10
521.4999999999982
 20
-141.4499999999998
 10
522.4052912961979
 20
-142.4503022140998
 10
523.0651303265984
 20
-143.3925951024002
 10
523.499999999998
 20
-144.3014026046003
  0
LWPOLYLINE
  5
302
330
6F
100
AcDbEntity
  8
DETAIL
  6
Continuous
 62
     5
100
AcDbPolyline
 90
        5
 70
     0
 43
0.0
 10
504.7982940777982
 20
-131.5508529610997
 10
505.5553491238969
 20
-132.3984755113997
 10
506.083863258198
 20
-133.1991761292002
 10
506.3963414156969
 20
-133.9694383165
 10
506.499999999998
 20
-134.7262794416001
  0
LWPOLYLINE
  5
309
330
6F
100
AcDbEntity
  8
DETAIL
  6
Continuous
 62
     5
100
AcDbPolyline
 90
        5
 70
     0
 43
0.0
 10
504.7982940777982
 20
-112.4982940778
 10
505.5553491238969
 20
-113.3459166281
 10
506.083863258198
 20
-114.146617246
 10
506.3963414156969
 20
-114.9168794331999
 10
506.499999999998
 20
-115.6737205584004
  0
LWPOLYLINE
  5
310
330
6F
100
AcDbEntity
  8
DETAIL
  6
Continuous
 62
     5
100
AcDbPolyline
 90
        5
 70
     0
 43
0.0
 10
485.6850454236991
 20
-130.1074772881002
 10
486.2730518713979
 20
-130.7663223583004
 10
486.6802707944988
 20
-131.3846081748997
 10
486.9203542014984
 20
-131.9780517127001
 10
486.9999999999982
 20
-132.5612159321999
  0
LWPOLYLINE
  5
317
330
6F
100
AcDbEntity
  8
DETAIL
  6
Continuous
 62
     5
100
AcDbPolyline
 90
        4
 70
     0
 43
0.0
 10
485.6850454236991
 20
-115.3850454237999
 10
486.2721148808977
 20
-116.0426866476
 10
486.6795120179975
 20
-116.6607551802999
 10
486.9201447544982
 20
-117.2548499892
  0
LWPOLYLINE
  5
31D
330
6F
100
AcDbEntity
  8
DETAIL
  6
Continuous
 62
     5
100
AcDbPolyline
 90
        4
 70
     0
 43
0.0
 10
444.1551227107975
 20
-25.76683961859999
 10
444.3161247618991
 20
-25.32651488080001
 10
444.469531825598
 20
-24.90992855560036
 10
444.6170926936973
 20
-24.51296443499996
  0
LWPOLYLINE
  5
323
330
6F
100
AcDbEntity
  8
DETAIL
  6
Continuous
 62
     5
100
AcDbPolyline
 90
        4
 70
     0
 43
0.0
 10
443.3825059952978
 20
-27.87394166300011
 10
443.6005807799975
 20
-27.28582626050002
 10
443.8005033145981
 20
-26.74034285010022
 10
444.1551227107975
 20
-25.76683961859999
  0
LWPOLYLINE
  5
329
330
6F
100
AcDbEntity
  8
DETAIL
  6
Continuous
 62
     5
100
AcDbPolyline
 90
        3
 70
     0
 43
0.0
 10
443.241416448698
 20
-28.25149516110014
 10
443.3111751370979
 20
-28.0640207956003
 10
443.3825059952978
 20
-27.87394166300011
  0
LINE
  5
32E
330
6F
100
AcDbEntity
  8
DETAIL
  6
Continuous
 62
     5
100
AcDbLine
 10
444.6170926936973
 20
-24.51296443499996
 30
0.0
 11
446.0643544466983
 21
-20.63947141590006
 31
0.0
  0
LWPOLYLINE
  5
32F
330
6F
100
AcDbEntity
  8
DETAIL
  6
Continuous
 62
     5
100
AcDbPolyline
 90
        4
 70
     0
 43
0.0
 10
486.9202311842982
 20
-133.1448324436001
 10
486.6799781865973
 20
-133.7383719103
 10
486.2728678484982
 20
-134.3563459930001
 10
485.6850454236991
 20
-135.0149545762001
  0
LWPOLYLINE
  5
335
330
6F
100
AcDbEntity
  8
DETAIL
  6
Continuous
 62
     5
100
AcDbPolyline
 90
        5
 70
     0
 43
0.0
 10
490.2017059220979
 20
-118.8491470388999
 10
489.4446508954969
 20
-120.5443920895
 10
488.9161367670984
 20
-122.1457932805001
 10
488.6036586029986
 20
-123.6863176119
 10
488.499999987498
 20
-125.1999998175001
  0
LWPOLYLINE
  5
33C
330
6F
100
AcDbEntity
  8
DETAIL
  6
Continuous
 62
     5
100
AcDbPolyline
 90
        4
 70
     0
 43
0.0
 10
503.499999999998
 20
-149.8249999999998
 10
502.5947087036983
 20
-151.8256044281997
 10
501.9348696732977
 20
-153.7101902047998
 10
501.4999999999981
 20
-155.5278052091998
  0
LWPOLYLINE
  5
342
330
6F
100
AcDbEntity
  8
DETAIL
  6
Continuous
 62
     5
100
AcDbPolyline
 90
        4
 70
     0
 43
0.0
 10
523.499999999998
 20
-146.9735973954002
 10
523.0621361628982
 20
-147.8874629404999
 10
522.4016468702976
 20
-148.8292245308002
 10
521.4999999999982
 20
-149.8249999999998
  0
LWPOLYLINE
  5
348
330
6F
100
AcDbEntity
  8
DETAIL
  6
Continuous
 62
     5
100
AcDbPolyline
 90
        4
 70
     0
 43
0.0
 10
523.499999999998
 20
-172.0985973954002
 10
523.0621361628982
 20
-173.0124629404999
 10
522.4016468702976
 20
-173.9542245308001
 10
521.4999999999982
 20
-174.9499999999998
  0
LWPOLYLINE
  5
34E
330
6F
100
AcDbEntity
  8
DETAIL
  6
Continuous
 62
     5
100
AcDbPolyline
 90
        4
 70
     0
 43
0.0
 10
501.4999999999981
 20
-172.0985973954002
 10
501.937863837098
 20
-173.0124629404999
 10
502.5983531295969
 20
-173.9542245308001
 10
503.499999999998
 20
-174.9499999999998
  0
LWPOLYLINE
  5
354
330
6F
100
AcDbEntity
  8
DETAIL
  6
Continuous
 62
     5
100
AcDbPolyline
 90
        4
 70
     0
 43
0.0
 10
501.4999999999981
 20
-146.9735973954002
 10
501.937863837098
 20
-147.8874629404999
 10
502.5983531295969
 20
-148.8292245308002
 10
503.499999999998
 20
-149.8249999999998
  0
LWPOLYLINE
  5
35A
330
6F
100
AcDbEntity
  8
DETAIL
  6
Continuous
 62
     5
100
AcDbPolyline
 90
        4
 70
     0
 43
0.0
 10
521.4999999999982
 20
-149.8249999999998
 10
522.4052912961979
 20
-151.8256044281997
 10
523.0651303265984
 20
-153.7101902047998
 10
523.499999999998
 20
-155.5278052091998
  0
LWPOLYLINE
  5
360
330
6F
100
AcDbEntity
  8
DETAIL
  6
Continuous
 62
     5
100
AcDbPolyline
 90
        5
 70
     0
 43
0.0
 10
504.7982940777982
 20
-118.8491470388999
 10
505.5553491238969
 20
-120.5443921393998
 10
506.083863258198
 20
-122.1457933751999
 10
506.3963414156969
 20
-123.6863177496998
 10
506.499999999998
 20
-125.1999999999998
  0
LWPOLYLINE
  5
367
330
6F
100
AcDbEntity
  8
DETAIL
  6
Continuous
 62
     5
100
AcDbPolyline
 90
        5
 70
     0
 43
0.0
 10
485.6850454236991
 20
-120.2925227119003
 10
486.2729106832976
 20
-121.6098499671998
 10
486.6803581651983
 20
-122.8471119675
 10
486.920305659698
 20
-124.0333145355998
 10
486.9999999999982
 20
-125.1999999999998
  0
LWPOLYLINE
  5
36E
330
6F
100
AcDbEntity
  8
DETAIL
  6
Continuous
 62
     5
100
AcDbPolyline
 90
        5
 70
     0
 43
0.0
 10
495.2209438085993
 20
-151.5604719043003
 10
496.0206365105987
 20
-153.3539177577004
 10
496.5694171669984
 20
-155.0237117994002
 10
496.8926479125983
 20
-156.6250008001998
 10
496.9999999999981
 20
-158.1999999999998
  0
LWPOLYLINE
  5
375
330
6F
100
AcDbEntity
  8
DETAIL
  6
Continuous
 62
     5
100
AcDbPolyline
 90
        3
 70
     0
 43
0.0
 10
443.3825004410972
 20
-209.1260354268998
 10
443.3110895993976
 20
-208.9359649949001
 10
443.241567309098
 20
-208.7484479297
  0
LINE
  5
37A
330
6F
100
AcDbEntity
  8
DETAIL
  6
Continuous
 62
     5
100
AcDbLine
 10
446.0643544466983
 20
-216.3605285841004
 30
0.0
 11
444.6170927470974
 21
-212.4870354741001
 31
0.0
  0
LWPOLYLINE
  5
37B
330
6F
100
AcDbEntity
  8
DETAIL
  6
Continuous
 62
     5
100
AcDbPolyline
 90
        4
 70
     0
 43
0.0
 10
444.6170927470974
 20
-212.4870354741001
 10
444.4900707343985
 20
-212.1455656806002
 10
444.3571897918991
 20
-211.7853291872997
 10
444.2183778577981
 20
-211.4064539915997
  0
LWPOLYLINE
  5
381
330
6F
100
AcDbEntity
  8
DETAIL
  6
Continuous
 62
     5
100
AcDbPolyline
 90
        3
 70
     0
 43
0.0
 10
443.7572277061989
 20
-210.1412624051
 10
443.5798885651982
 20
-209.6578460696
 10
443.3825004410972
 20
-209.1260354268998
  0
LINE
  5
386
330
6F
100
AcDbEntity
  8
DETAIL
  6
Continuous
 62
     5
100
AcDbLine
 10
444.2183778577981
 20
-211.4064539915997
 30
0.0
 11
443.7572277061989
 21
-210.1412624051
 31
0.0
  0
LWPOLYLINE
  5
387
330
6F
100
AcDbEntity
  8
DETAIL
  6
Continuous
 62
     5
100
AcDbPolyline
 90
       23
 70
     0
 43
0.0
 10
443.241567309098
 20
-208.7484479297
 10
443.0800588866985
 20
-208.2965364987003
 10
442.9255100083974
 20
-207.8308561670001
 10
442.7775931602991
 20
-207.349713608
 10
442.6364262985988
 20
-206.8514351849999
 10
442.5021079359976
 20
-206.3343907998001
 10
442.3748919315984
 20
-205.7969594760998
 10
442.2551699274991
 20
-205.2378344466001
 10
442.1435226629983
 20
-204.6564434699003
 10
442.0403230051978
 20
-204.0510916717003
 10
441.9452872853979
 20
-203.4149727685999
 10
441.8582588197986
 20
-202.7385877411998
 10
441.779779895898
 20
-202.0133591878003
 10
441.7113294494973
 20
-201.2369159568998
 10
441.6547318488974
 20
-200.4151310883999
 10
441.6110354145984
 20
-199.5554492544997
 10
441.5806703031976
 20
-198.6775269931004
 10
441.5626806452983
 20
-197.8101443154
 10
441.5546340181972
 20
-196.9761661213997
 10
441.5536041902978
 20
-196.1807539306001
 10
441.5570406252991
 20
-195.4259780643
 10
441.5628921276983
 20
-194.7098613236003
 10
441.576116836899
 20
-193.3627583355001
  0
LWPOLYLINE
  5
3A0
330
6F
100
AcDbEntity
  8
DETAIL
  6
Continuous
 62
     5
100
AcDbPolyline
 90
        5
 70
     0
 43
0.0
 10
488.499999987498
 20
-125.1999998175001
 10
488.6036162899982
 20
-126.7133719691001
 10
488.9157918340969
 20
-128.2529171625001
 10
489.4440215352988
 20
-129.8539929562003
 10
490.2017059220979
 20
-131.5508529610997
  0
LWPOLYLINE
  5
3A7
330
6F
100
AcDbEntity
  8
DETAIL
  6
Continuous
 62
     5
100
AcDbPolyline
 90
       18
 70
     0
 43
0.0
 10
439.2151419826985
 20
-28.23969730650015
 10
439.1722258223981
 20
-27.31733258350005
 10
439.0444052345974
 20
-26.40283410770007
 10
438.8327703464983
 20
-25.50400100499974
 10
438.5391260200976
 20
-24.62849886349977
 10
438.1659765666992
 20
-23.78379425210005
 10
437.7165043278981
 20
-22.97709110439973
 10
437.1945425573976
 20
-22.21526925939997
 10
436.6045427228981
 20
-21.5048257942999
 10
435.9515365441985
 20
-20.85181961380022
 10
435.241093080698
 20
-20.26181977780016
 10
434.4792712365979
 20
-19.73985800629997
 10
433.6725680894978
 20
-19.29038576699986
 10
432.827863477998
 20
-18.91723631370041
 10
431.9523613367983
 20
-18.62359198700005
 10
431.0535282316976
 20
-18.41195710129978
 10
430.1390297587985
 20
-18.28413651070014
 10
429.2166650310972
 20
-18.24122035500022
  0
LWPOLYLINE
  5
3BB
330
6F
100
AcDbEntity
  8
DETAIL
  6
Continuous
 62
     5
100
AcDbPolyline
 90
       23
 70
     0
 43
0.0
 10
441.5677553678979
 20
-43.70210608120031
 10
441.5491518972975
 20
-42.32571252209981
 10
441.5408476265983
 20
-41.59135575229992
 10
441.5353249368981
 20
-40.82344061850017
 10
441.5346824286971
 20
-40.02084550240033
 10
441.5414744208973
 20
-39.18325479170017
 10
441.5586490180976
 20
-38.31402272920013
 10
441.5885752459979
 20
-37.43740050910036
 10
441.6318959353975
 20
-36.58480415210033
 10
441.6878281522985
 20
-35.77548695889981
 10
441.7554475409978
 20
-35.01152051910003
 10
441.8334943430981
 20
-34.29332321350012
 10
441.9207441047984
 20
-33.61868661600011
 10
442.0162946639974
 20
-32.98310608680004
 10
442.1195001996983
 20
-32.38179549750021
 10
442.2299825257977
 20
-31.81000570939977
 10
442.3476443328982
 20
-31.26310813940018
 10
442.472706953198
 20
-30.73649820209995
 10
442.6057452308977
 20
-30.22558198160004
 10
442.7476691112968
 20
-29.72586813330008
 10
442.8997748617985
 20
-29.23306735589995
 10
443.0636094562978
 20
-28.7430257015003
 10
443.241416448698
 20
-28.25149516110014
  0
LWPOLYLINE
  5
3D4
330
6F
100
AcDbEntity
  8
DETAIL
  6
Continuous
 62
     5
100
AcDbPolyline
 90
        4
 70
     0
 43
0.0
 10
441.5848938449981
 20
-45.56920795590031
 10
441.5816461066968
 20
-44.97011059240003
 10
441.5756986310988
 20
-44.34854565529985
 10
441.5677553678979
 20
-43.70210608120031
  0
LINE
  5
3DA
330
6F
100
AcDbEntity
  8
DETAIL
  6
Continuous
 62
     5
100
AcDbLine
 10
429.0166650310983
 20
-224.1245319446998
 30
0.0
 11
429.0166650310983
 21
-12.44083232310004
 31
0.0
  0
LINE
  5
3DB
330
6F
100
AcDbEntity
  8
DETAIL
  6
Continuous
 62
     5
100
AcDbLine
 10
439.2151419826985
 20
-208.7603026935003
 30
0.0
 11
439.2151419826985
 21
-28.23969730650015
 31
0.0
  0
LINE
  5
3DC
330
6F
100
AcDbEntity
  8
DETAIL
  6
Continuous
 62
     5
100
AcDbLine
 10
441.5850389175974
 20
-47.66694149130034
 30
0.0
 11
441.5848938449981
 21
-45.56920795590031
 31
0.0
  0
LINE
  5
3DD
330
6F
100
AcDbEntity
  8
DETAIL
  6
Continuous
 62
     5
100
AcDbLine
 10
448.999999999998
 20
-240.0
 30
0.0
 11
448.999999999998
 21
-231.1781838678999
 31
0.0
  0
LINE
  5
3DE
330
6F
100
AcDbEntity
  8
DETAIL
  6
Continuous
 62
     5
100
AcDbLine
 10
449.3999999999977
 20
-240.0285398163001
 30
0.0
 11
449.3999999999977
 21
-240.0
 31
0.0
  0
LINE
  5
3DF
330
6F
100
AcDbEntity
  8
DETAIL
  6
Continuous
 62
     5
100
AcDbLine
 10
449.4999999999982
 20
-8.0
 30
0.0
 11
449.4999999999982
 21
-229.0
 31
0.0
  0
LINE
  5
3E0
330
6F
100
AcDbEntity
  8
DETAIL
  6
Continuous
 62
     5
100
AcDbLine
 10
449.9999999999982
 20
0.0
 30
0.0
 11
449.9999999999982
 21
-26.40000000000009
 31
0.0
  0
LINE
  5
3E1
330
6F
100
AcDbEntity
  8
DETAIL
  6
Continuous
 62
     5
100
AcDbLine
 10
449.9999999999982
 20
-27.0
 30
0.0
 11
449.9999999999982
 21
-207.0
 31
0.0
  0
LINE
  5
3E2
330
6F
100
AcDbEntity
  8
DETAIL
  6
Continuous
 62
     5
100
AcDbLine
 10
451.4999999999981
 20
-38.5
 30
0.0
 11
451.4999999999981
 21
-20.69999999999982
 31
0.0
  0
LINE
  5
3E3
330
6F
100
AcDbEntity
  8
DETAIL
  6
Continuous
 62
     5
100
AcDbLine
 10
452.999999999998
 20
-16.5
 30
0.0
 11
452.999999999998
 21
-18.0
 31
0.0
  0
LINE
  5
3E4
330
6F
100
AcDbEntity
  8
DETAIL
  6
Continuous
 62
     5
100
AcDbLine
 10
452.999999999998
 20
-24.41837661840009
 30
0.0
 11
452.999999999998
 21
-38.5
 31
0.0
  0
LINE
  5
3E5
330
6F
100
AcDbEntity
  8
DETAIL
  6
Continuous
 62
     5
100
AcDbLine
 10
453.9999999999982
 20
-240.0
 30
0.0
 11
453.9999999999982
 21
-129.5694941184583
 31
0.0
  0
LINE
  5
3E6
330
6F
100
AcDbEntity
  8
DETAIL
  6
Continuous
 62
     5
100
AcDbLine
 10
453.9999999999982
 20
-113.4305058815416
 30
0.0
 11
453.9999999999982
 21
-98.50000000000044
 31
0.0
  0
LINE
  5
3E7
330
6F
100
AcDbEntity
  8
DETAIL
  6
Continuous
 62
     5
100
AcDbLine
 10
472.999999999998
 20
-108.7007413821002
 30
0.0
 11
472.999999999998
 21
-141.6992586179003
 31
0.0
  0
LINE
  5
3E8
330
6F
100
AcDbEntity
  8
DETAIL
  6
Continuous
 62
     5
100
AcDbLine
 10
479.9999999999982
 20
-139.1999999999998
 30
0.0
 11
479.9999999999982
 21
-177.1999999999998
 31
0.0
  0
LINE
  5
3E9
330
6F
100
AcDbEntity
  8
DETAIL
  6
Continuous
 62
     5
100
AcDbLine
 10
482.9999999999982
 20
-27.75
 30
0.0
 11
482.9999999999982
 21
-38.5
 31
0.0
  0
LINE
  5
3EA
330
6F
100
AcDbEntity
  8
DETAIL
  6
Continuous
 62
     5
100
AcDbLine
 10
486.9999999999982
 20
-133.6996305151001
 30
0.0
 11
486.9999999999982
 21
-116.700369485
 31
0.0
  0
LINE
  5
3EB
330
6F
100
AcDbEntity
  8
DETAIL
  6
Continuous
 62
     5
100
AcDbLine
 10
488.4999999999982
 20
-136.1995072181998
 30
0.0
 11
488.4999999999982
 21
-114.2004927817998
 31
0.0
  0
LINE
  5
3EC
330
6F
100
AcDbEntity
  8
DETAIL
  6
Continuous
 62
     5
100
AcDbLine
 10
489.999999999998
 20
-200.3000000000002
 30
0.0
 11
489.999999999998
 21
-240.3000000000002
 31
0.0
  0
LINE
  5
3ED
330
6F
100
AcDbEntity
  8
DETAIL
  6
Continuous
 62
     5
100
AcDbLine
 10
496.9999999999981
 20
-169.6999999999998
 30
0.0
 11
496.9999999999981
 21
-146.6999999999998
 31
0.0
  0
LINE
  5
3EE
330
6F
100
AcDbEntity
  8
DETAIL
  6
Continuous
 62
     5
100
AcDbLine
 10
497.499999999998
 20
-30.0
 30
0.0
 11
497.499999999998
 21
-20.69999999999982
 31
0.0
  0
LINE
  5
3EF
330
6F
100
AcDbEntity
  8
DETAIL
  6
Continuous
 62
     5
100
AcDbLine
 10
499.9999999999982
 20
-20.69999999999982
 30
0.0
 11
499.9999999999982
 21
-30.0
 31
0.0
  0
LINE
  5
3F0
330
6F
100
AcDbEntity
  8
DETAIL
  6
Continuous
 62
     5
100
AcDbLine
 10
501.4999999999981
 20
-172.9499999999998
 30
0.0
 11
501.4999999999981
 21
-143.4499999999998
 31
0.0
  0
LINE
  5
3F1
330
6F
100
AcDbEntity
  8
DETAIL
  6
Continuous
 62
     5
100
AcDbLine
 10
506.499999999998
 20
-114.2004927817998
 30
0.0
 11
506.499999999998
 21
-136.1995072181998
 31
0.0
  0
LINE
  5
3F2
330
6F
100
AcDbEntity
  8
DETAIL
  6
Continuous
 62
     5
100
AcDbLine
 10
507.499999999998
 20
-28.0
 30
0.0
 11
507.499999999998
 21
-60.0
 31
0.0
  0
LINE
  5
3F3
330
6F
100
AcDbEntity
  8
DETAIL
  6
Continuous
 62
     5
100
AcDbLine
 10
507.9999999999982
 20
-28.5
 30
0.0
 11
507.9999999999982
 21
-59.5
 31
0.0
  0
LINE
  5
3F4
330
6F
100
AcDbEntity
  8
DETAIL
  6
Continuous
 62
     5
100
AcDbLine
 10
523.499999999998
 20
-143.4499999999998
 30
0.0
 11
523.499999999998
 21
-144.3014026046003
 31
0.0
  0
LINE
  5
3F5
330
6F
100
AcDbEntity
  8
DETAIL
  6
Continuous
 62
     5
100
AcDbLine
 10
523.499999999998
 20
-146.9735973954002
 30
0.0
 11
523.499999999998
 21
-155.5278052091998
 31
0.0
  0
LINE
  5
3F6
330
6F
100
AcDbEntity
  8
DETAIL
  6
Continuous
 62
     5
100
AcDbLine
 10
523.499999999998
 20
-160.8721947907997
 30
0.0
 11
523.499999999998
 21
-169.4264026046003
 31
0.0
  0
LINE
  5
3F7
330
6F
100
AcDbEntity
  8
DETAIL
  6
Continuous
 62
     5
100
AcDbLine
 10
523.499999999998
 20
-172.0985973954002
 30
0.0
 11
523.499999999998
 21
-172.9499999999998
 31
0.0
  0
LINE
  5
3F8
330
6F
100
AcDbEntity
  8
DETAIL
  6
Continuous
 62
     5
100
AcDbLine
 10
527.499999999998
 20
-146.6999999999998
 30
0.0
 11
527.499999999998
 21
-169.6999999999998
 31
0.0
  0
LWPOLYLINE
  5
3F9
330
6F
100
AcDbEntity
  8
DETAIL
  6
Continuous
 62
     5
100
AcDbPolyline
 90
        4
 70
     0
 43
0.0
 10
441.576116836899
 20
-193.3627583355001
 10
441.5813944377986
 20
-192.7153876195998
 10
441.5847192219989
 20
-192.0743832052002
 10
441.5850389175974
 20
-47.66694149130034
  0
LWPOLYLINE
  5
3FF
330
6F
100
AcDbEntity
  8
DETAIL
  6
Continuous
 62
     5
100
AcDbPolyline
 90
        5
 70
     0
 43
0.0
 10
496.9999999999981
 20
-158.1999999999998
 10
496.8925998181984
 20
-159.7753536047003
 10
496.5695585178981
 20
-161.3757572258
 10
496.0213021638991
 20
-163.0443678313004
 10
495.2209438085993
 20
-164.8395280957002
  0
LWPOLYLINE
  5
406
330
6F
100
AcDbEntity
  8
DETAIL
  6
Continuous
 62
     5
100
AcDbPolyline
 90
        5
 70
     0
 43
0.0
 10
486.9999999999982
 20
-125.1999999999998
 10
486.9202700486985
 20
-126.3669473152003
 10
486.6802888175988
 20
-127.5531479641004
 10
486.2728207474973
 20
-128.7903811716001
 10
485.6850454236991
 20
-130.1074772881002
  0
LWPOLYLINE
  5
40D
330
6F
100
AcDbEntity
  8
DETAIL
  6
Continuous
 62
     5
100
AcDbPolyline
 90
        5
 70
     0
 43
0.0
 10
506.499999999998
 20
-125.1999999999998
 10
506.3963837268984
 20
-126.7133718443001
 10
506.0842081886985
 20
-128.2529170768002
 10
505.555978482298
 20
-129.8539929109001
 10
504.7982940777982
 20
-131.5508529610997
  0
LWPOLYLINE
  5
414
330
6F
100
AcDbEntity
  8
DETAIL
  6
Continuous
 62
     5
100
AcDbPolyline
 90
        6
 70
     0
 43
0.0
 10
496.9999999999981
 20
-168.1592921435003
 10
496.9312648655978
 20
-168.7889016671997
 10
496.7247694052984
 20
-169.4248014834002
 10
496.3777319111977
 20
-170.0762809030002
 10
495.8814768431984
 20
-170.7562676275001
 10
495.2209438085993
 20
-171.4790561914
  0
LWPOLYLINE
  5
41C
330
6F
100
AcDbEntity
  8
DETAIL
  6
Continuous
 62
     5
100
AcDbPolyline
 90
        6
 70
     0
 43
0.0
 10
496.9999999999981
 20
-148.2407078565002
 10
496.9311869500979
 20
-148.8706751934
 10
496.7246763669972
 20
-149.5064336028999
 10
496.3784431440981
 20
-150.1565719312002
 10
495.882583842098
 20
-150.8363383434998
 10
495.2209438085993
 20
-151.5604719043003
  0
LWPOLYLINE
  5
424
330
6F
100
AcDbEntity
  8
DETAIL
  6
Continuous
 62
     5
100
AcDbPolyline
 90
        5
 70
     0
 43
0.0
 10
486.9999999999982
 20
-117.8387840678001
 10
486.9202158492988
 20
-118.4224569369999
 10
486.679941834498
 20
-119.0160081376998
 10
486.2727497718988
 20
-119.6340658543004
 10
485.6850454236991
 20
-120.2925227119003
  0
LINE
  5
42B
330
6F
100
AcDbEntity
  8
DETAIL
  6
Continuous
 62
     5
100
AcDbLine
 10
486.9999999999982
 20
-132.5612159321999
 30
0.0
 11
486.9202311842982
 21
-133.1448324436001
 31
0.0
  0
LWPOLYLINE
  5
42C
330
6F
100
AcDbEntity
  8
DETAIL
  6
Continuous
 62
     5
100
AcDbPolyline
 90
        5
 70
     0
 43
0.0
 10
506.499999999998
 20
-115.6737205584004
 10
506.3963837268984
 20
-116.4304064805001
 10
506.0842081886985
 20
-117.2001790967997
 10
505.555978482298
 20
-118.0007170138001
 10
504.7982940777982
 20
-118.8491470388999
  0
LWPOLYLINE
  5
433
330
6F
100
AcDbEntity
  8
DETAIL
  6
Continuous
 62
     5
100
AcDbPolyline
 90
        5
 70
     0
 43
0.0
 10
506.499999999998
 20
-134.7262794416001
 10
506.3963837268984
 20
-135.4829653637998
 10
506.0842081886985
 20
-136.2527379800003
 10
505.555978482298
 20
-137.0532758971002
 10
504.7982940777982
 20
-137.9017059222001
  0
LWPOLYLINE
  5
43A
330
6F
100
AcDbEntity
  8
DETAIL
  6
Continuous
 62
     5
100
AcDbPolyline
 90
        4
 70
     0
 43
0.0
 10
523.499999999998
 20
-160.8721947907997
 10
523.0621361628982
 20
-162.6999258810001
 10
522.4016468702976
 20
-164.5834490615998
 10
521.4999999999982
 20
-166.5749999999998
  0
LWPOLYLINE
  5
440
330
6F
100
AcDbEntity
  8
DETAIL
  6
Continuous
 62
     5
100
AcDbPolyline
 90
        4
 70
     0
 43
0.0
 10
523.499999999998
 20
-169.4264026046003
 10
523.7672396145971
 20
-170.3202410620997
 10
523.7672238502983
 20
-171.2048641491001
 10
523.499999999998
 20
-172.0985973954002
  0
LWPOLYLINE
  5
446
330
6F
100
AcDbEntity
  8
DETAIL
  6
Continuous
 62
     5
100
AcDbPolyline
 90
        4
 70
     0
 43
0.0
 10
523.499999999998
 20
-144.3014026046003
 10
523.7672396145971
 20
-145.1952410620997
 10
523.7672238502983
 20
-146.0798641491001
 10
523.499999999998
 20
-146.9735973954002
  0
LWPOLYLINE
  5
44C
330
6F
100
AcDbEntity
  8
DETAIL
  6
Continuous
 62
     5
100
AcDbPolyline
 90
        4
 70
     0
 43
0.0
 10
501.4999999999981
 20
-160.8721947907997
 10
501.937863837098
 20
-162.6999258810001
 10
502.5983531295969
 20
-164.5834490615998
 10
503.499999999998
 20
-166.5749999999998
  0
LWPOLYLINE
  5
452
330
6F
100
AcDbEntity
  8
DETAIL
  6
Continuous
 62
     5
100
AcDbPolyline
 90
        4
 70
     0
 43
0.0
 10
523.499999999998
 20
-155.5278052091998
 10
523.7672396145971
 20
-157.3154821243001
 10
523.7672238502983
 20
-159.0847282981003
 10
523.499999999998
 20
-160.8721947907997
  0
LWPOLYLINE
  5
458
330
6F
100
AcDbEntity
  8
DETAIL
  6
Continuous
 62
     5
100
AcDbPolyline
 90
        5
 70
     0
 43
0.0
 10
488.4999999999982
 20
-134.7262794416001
 10
488.6036162729977
 20
-135.4829653637998
 10
488.9157918111976
 20
-136.2527379800003
 10
489.4440215176983
 20
-137.0532758971002
 10
490.2017059220979
 20
-137.9017059222001
  0
LWPOLYLINE
  5
45F
330
6F
100
AcDbEntity
  8
DETAIL
  6
Continuous
 62
     5
100
AcDbPolyline
 90
        5
 70
     0
 43
0.0
 10
488.4999999842984
 20
-115.6737204440001
 10
488.6036162729977
 20
-116.4304064805001
 10
488.9157918111976
 20
-117.2001790967997
 10
489.4440215176983
 20
-118.0007170138001
 10
490.2017059220979
 20
-118.8491470388999
  0
LINE
  5
466
330
6F
100
AcDbEntity
  8
DETAIL
  6
Continuous
 62
     5
100
AcDbLine
 10
486.9201447544982
 20
-117.2548499892
 30
0.0
 11
486.9999999999982
 21
-117.8387840678001
 31
0.0
  0
ARC
  5
467
330
6F
100
AcDbEntity
  8
DETAIL
  6
Continuous
 62
     5
100
AcDbCircle
 10
-448.2000000000008
 20
-241.0
 30
0.0
 40
1.0
100
AcDbArc
 50
90.0
 51
102.9860200716911
  0
ARC
  5
468
330
6F
100
AcDbEntity
  8
DETAIL
  6
Continuous
 62
     5
100
AcDbCircle
 10
-439.1000000000003
 20
-219.0
 30
0.0
 40
7.5413468963
100
AcDbArc
 50
159.5126848852236
 51
290.4873151147428
  0
ARC
  5
469
330
6F
100
AcDbEntity
  8
DETAIL
  6
Continuous
 62
     5
100
AcDbCircle
 10
-444.5
 20
-229.0
 30
0.0
 40
5.0
100
AcDbArc
 50
180.0
 51
270.0
  0
ARC
  5
46A
330
6F
100
AcDbEntity
  8
DETAIL
  6
Continuous
 62
     5
100
AcDbCircle
 10
-415.0
 20
-226.5
 30
0.0
 40
2.5
100
AcDbArc
 50
107.8829712887849
 51
72.11702871121504
  0
CIRCLE
  5
46B
330
6F
100
AcDbEntity
  8
DETAIL
  6
Continuous
 62
     5
100
AcDbCircle
 10
-415.0
 20
-226.5
 30
0.0
 40
1.55
  0
ARC
  5
46C
330
6F
100
AcDbEntity
  8
DETAIL
  6
Continuous
 62
     5
100
AcDbCircle
 10
130.0
 20
-226.5
 30
0.0
 40
2.5
100
AcDbArc
 50
107.8829712887849
 51
72.11702871121504
  0
CIRCLE
  5
46D
330
6F
100
AcDbEntity
  8
DETAIL
  6
Continuous
 62
     5
100
AcDbCircle
 10
130.0
 20
-226.5
 30
0.0
 40
1.55
  0
ARC
  5
46E
330
6F
100
AcDbEntity
  8
DETAIL
  6
Continuous
 62
     5
100
AcDbCircle
 10
-439.1000000000003
 20
-18.0
 30
0.0
 40
7.5413468963
100
AcDbArc
 50
69.51268488525721
 51
200.4873151146848
  0
ARC
  5
46F
330
6F
100
AcDbEntity
  8
DETAIL
  6
Continuous
 62
     5
100
AcDbCircle
 10
-444.5
 20
-8.0
 30
0.0
 40
5.0
100
AcDbArc
 50
90.0
 51
180.0
  0
ARC
  5
470
330
6F
100
AcDbEntity
  8
DETAIL
  6
Continuous
 62
     5
100
AcDbCircle
 10
-497.3000000000011
 20
-20.69999999999982
 30
0.0
 40
2.7
100
AcDbArc
 50
90.0
 51
180.0
  0
ARC
  5
471
330
6F
100
AcDbEntity
  8
DETAIL
  6
Continuous
 62
     5
100
AcDbCircle
 10
-451.7000000000008
 20
-20.69999999999982
 30
0.0
 40
2.7
100
AcDbArc
 50
50.84634906084922
 51
90.0
  0
ARC
  5
472
330
6F
100
AcDbEntity
  8
DETAIL
  6
Continuous
 62
     5
100
AcDbCircle
 10
-415.0
 20
-10.5
 30
0.0
 40
2.5
100
AcDbArc
 50
308.9093032907263
 51
231.0906967092738
  0
CIRCLE
  5
473
330
6F
100
AcDbEntity
  8
DETAIL
  6
Continuous
 62
     5
100
AcDbCircle
 10
-415.0
 20
-10.5
 30
0.0
 40
1.55
  0
ARC
  5
474
330
6F
100
AcDbEntity
  8
DETAIL
  6
Continuous
 62
     5
100
AcDbCircle
 10
-451.7000000000008
 20
-20.69999999999982
 30
0.0
 40
0.2
100
AcDbArc
 50
0.0
 51
90.0
  0
ARC
  5
475
330
6F
100
AcDbEntity
  8
DETAIL
  6
Continuous
 62
     5
100
AcDbCircle
 10
-497.3000000000011
 20
-20.69999999999982
 30
0.0
 40
0.2
100
AcDbArc
 50
90.0
 51
180.0
  0
ARC
  5
476
330
6F
100
AcDbEntity
  8
DETAIL
  6
Continuous
 62
     5
100
AcDbCircle
 10
130.0
 20
-10.5
 30
0.0
 40
2.5
100
AcDbArc
 50
308.9093032907263
 51
231.0906967092738
  0
CIRCLE
  5
477
330
6F
100
AcDbEntity
  8
DETAIL
  6
Continuous
 62
     5
100
AcDbCircle
 10
130.0
 20
-10.5
 30
0.0
 40
1.55
  0
ARC
  5
478
330
6F
100
AcDbEntity
  8
DETAIL
  6
Continuous
 62
     5
100
AcDbCircle
 10
450.0
 20
-226.5
 30
0.0
 40
2.5
100
AcDbArc
 50
107.8829712887849
 51
72.11702871121504
  0
CIRCLE
  5
479
330
6F
100
AcDbEntity
  8
DETAIL
  6
Continuous
 62
     5
100
AcDbCircle
 10
450.0
 20
-226.5
 30
0.0
 40
1.55
  0
ARC
  5
47A
330
6F
100
AcDbEntity
  8
DETAIL
  6
Continuous
 62
     5
100
AcDbCircle
 10
-225.0000000000018
 20
-118.5
 30
0.0
 40
105.0007616402
100
AcDbArc
 50
120.2969426106851
 51
239.3167491915185
  0
ARC
  5
47B
330
6F
100
AcDbEntity
  8
DETAIL
  6
Continuous
 62
     5
100
AcDbCircle
 10
-225.0000000000018
 20
-118.5
 30
0.0
 40
105.0007616402
100
AcDbArc
 50
300.6832508084817
 51
59.70305738931489
  0
CIRCLE
  5
47C
330
6F
100
AcDbEntity
  8
DETAIL
  6
Continuous
 62
     5
100
AcDbCircle
 10
-225.0000000000018
 20
-118.5
 30
0.0
 40
100.0
  0
CIRCLE
  5
47D
330
6F
100
AcDbEntity
  8
DETAIL
  6
Continuous
 62
     5
100
AcDbCircle
 10
-225.0000000000018
 20
-118.5
 30
0.0
 40
94.9847543461
  0
CIRCLE
  5
47E
330
6F
100
AcDbEntity
  8
DETAIL
  6
Continuous
 62
     5
100
AcDbCircle
 10
-225.0000000000018
 20
-118.5
 30
0.0
 40
94.9847543461
  0
CIRCLE
  5
47F
330
6F
100
AcDbEntity
  8
DETAIL
  6
Continuous
 62
     5
100
AcDbCircle
 10
-225.0000000000018
 20
-118.5
 30
0.0
 40
82.50266545079998
  0
ARC
  5
480
330
6F
100
AcDbEntity
  8
DETAIL
  6
Continuous
 62
     5
100
AcDbCircle
 10
69.99999999999818
 20
-226.5
 30
0.0
 40
2.5
100
AcDbArc
 50
107.8829712887849
 51
72.11702871121504
  0
CIRCLE
  5
481
330
6F
100
AcDbEntity
  8
DETAIL
  6
Continuous
 62
     5
100
AcDbCircle
 10
69.99999999999818
 20
-226.5
 30
0.0
 40
1.55
  0
ARC
  5
482
330
6F
100
AcDbEntity
  8
DETAIL
  6
Continuous
 62
     5
100
AcDbCircle
 10
224.9999999999982
 20
-118.5
 30
0.0
 40
105.0007616402
100
AcDbArc
 50
300.6832508084817
 51
59.70305738931489
  0
ARC
  5
483
330
6F
100
AcDbEntity
  8
DETAIL
  6
Continuous
 62
     5
100
AcDbCircle
 10
224.9999999999982
 20
-118.5
 30
0.0
 40
105.0007616402
100
AcDbArc
 50
120.2969426106851
 51
239.3167491915185
  0
CIRCLE
  5
484
330
6F
100
AcDbEntity
  8
DETAIL
  6
Continuous
 62
     5
100
AcDbCircle
 10
224.9999999999982
 20
-118.5
 30
0.0
 40
100.0
  0
CIRCLE
  5
485
330
6F
100
AcDbEntity
  8
DETAIL
  6
Continuous
 62
     5
100
AcDbCircle
 10
224.9999999999982
 20
-118.5
 30
0.0
 40
94.9847543461
  0
CIRCLE
  5
486
330
6F
100
AcDbEntity
  8
DETAIL
  6
Continuous
 62
     5
100
AcDbCircle
 10
224.9999999999982
 20
-118.5
 30
0.0
 40
94.9847543461
  0
CIRCLE
  5
487
330
6F
100
AcDbEntity
  8
DETAIL
  6
Continuous
 62
     5
100
AcDbCircle
 10
224.9999999999982
 20
-118.5
 30
0.0
 40
82.50266545079998
  0
ARC
  5
488
330
6F
100
AcDbEntity
  8
DETAIL
  6
Continuous
 62
     5
100
AcDbCircle
 10
69.99999999999818
 20
-10.5
 30
0.0
 40
2.5
100
AcDbArc
 50
308.9093032907263
 51
231.0906967092738
  0
CIRCLE
  5
489
330
6F
100
AcDbEntity
  8
DETAIL
  6
Continuous
 62
     5
100
AcDbCircle
 10
69.99999999999818
 20
-10.5
 30
0.0
 40
1.55
  0
ARC
  5
48A
330
6F
100
AcDbEntity
  8
DETAIL
  6
Continuous
 62
     5
100
AcDbCircle
 10
438.9999999999981
 20
-219.0
 30
0.0
 40
7.5413468963
100
AcDbArc
 50
249.5126848852572
 51
20.48731511468485
  0
ARC
  5
48B
330
6F
100
AcDbEntity
  8
DETAIL
  6
Continuous
 62
     5
100
AcDbCircle
 10
444.499999999998
 20
-229.0
 30
0.0
 40
5.0
100
AcDbArc
 50
270.0
 51
0.0
  0
ARC
  5
48C
330
6F
100
AcDbEntity
  8
DETAIL
  6
Continuous
 62
     5
100
AcDbCircle
 10
414.999999999998
 20
-226.5
 30
0.0
 40
2.5
100
AcDbArc
 50
107.8829712887849
 51
72.11702871121504
  0
CIRCLE
  5
48D
330
6F
100
AcDbEntity
  8
DETAIL
  6
Continuous
 62
     5
100
AcDbCircle
 10
414.999999999998
 20
-226.5
 30
0.0
 40
1.55
  0
ARC
  5
48E
330
6F
100
AcDbEntity
  8
DETAIL
  6
Continuous
 62
     5
100
AcDbCircle
 10
448.199999999997
 20
-241.0
 30
0.0
 40
1.0
100
AcDbArc
 50
77.01397992830881
 51
90.0
  0
ARC
  5
48F
330
6F
100
AcDbEntity
  8
DETAIL
  6
Continuous
 62
     5
100
AcDbCircle
 10
438.9999999999981
 20
-18.0
 30
0.0
 40
7.5413468963
100
AcDbArc
 50
339.5126848853152
 51
110.4873151147427
  0
ARC
  5
490
330
6F
100
AcDbEntity
  8
DETAIL
  6
Continuous
 62
     5
100
AcDbCircle
 10
444.499999999998
 20
-8.0
 30
0.0
 40
5.0
100
AcDbArc
 50
0.0
 51
90.0
  0
ARC
  5
491
330
6F
100
AcDbEntity
  8
DETAIL
  6
Continuous
 62
     5
100
AcDbCircle
 10
497.2999999999991
 20
-20.69999999999982
 30
0.0
 40
2.7
100
AcDbArc
 50
0.0
 51
90.0
  0
ARC
  5
492
330
6F
100
AcDbEntity
  8
DETAIL
  6
Continuous
 62
     5
100
AcDbCircle
 10
451.699999999997
 20
-20.69999999999982
 30
0.0
 40
2.7
100
AcDbArc
 50
90.0
 51
129.1536509391507
  0
ARC
  5
493
330
6F
100
AcDbEntity
  8
DETAIL
  6
Continuous
 62
     5
100
AcDbCircle
 10
414.999999999998
 20
-10.5
 30
0.0
 40
2.5
100
AcDbArc
 50
308.9093032907263
 51
231.0906967092738
  0
CIRCLE
  5
494
330
6F
100
AcDbEntity
  8
DETAIL
  6
Continuous
 62
     5
100
AcDbCircle
 10
414.999999999998
 20
-10.5
 30
0.0
 40
1.55
  0
ARC
  5
495
330
6F
100
AcDbEntity
  8
DETAIL
  6
Continuous
 62
     5
100
AcDbCircle
 10
453.9999999999982
 20
-26.24365078899973
 30
0.0
 40
1.0
100
AcDbArc
 50
180.0
 51
269.0000000000243
  0
ARC
  5
496
330
6F
100
AcDbEntity
  8
DETAIL
  6
Continuous
 62
     5
100
AcDbCircle
 10
507.499999999998
 20
-28.5
 30
0.0
 40
0.5
100
AcDbArc
 50
0.0
 51
90.0
  0
ARC
  5
497
330
6F
100
AcDbEntity
  8
DETAIL
  6
Continuous
 62
     5
100
AcDbCircle
 10
507.499999999998
 20
-59.5
 30
0.0
 40
0.5
100
AcDbArc
 50
270.0
 51
0.0
  0
ARC
  5
498
330
6F
100
AcDbEntity
  8
DETAIL
  6
Continuous
 62
     5
100
AcDbCircle
 10
451.699999999997
 20
-20.69999999999982
 30
0.0
 40
0.2
100
AcDbArc
 50
90.0
 51
180.0
  0
ARC
  5
499
330
6F
100
AcDbEntity
  8
DETAIL
  6
Continuous
 62
     5
100
AcDbCircle
 10
497.2999999999991
 20
-20.69999999999982
 30
0.0
 40
0.2
100
AcDbArc
 50
0.0
 51
90.0
  0
ARC
  5
49A
330
6F
100
AcDbEntity
  8
DETAIL
  6
Continuous
 62
     5
100
AcDbCircle
 10
449.5999999999985
 20
-239.0
 30
0.0
 40
3.000000000000048
100
AcDbArc
 50
324.9109090762532
 51
334.2041359794413
  0
ARC
  5
49B
330
6F
100
AcDbEntity
  8
DETAIL
  6
Continuous
 62
     5
100
AcDbCircle
 10
449.9999999999982
 20
-249.9499999999997
 30
0.0
 40
0.0499999999999998
100
AcDbArc
 50
270.0
 51
0.0
  0
ARC
  5
49C
330
6F
100
AcDbEntity
  8
DETAIL
  6
Continuous
 62
     5
100
AcDbCircle
 10
347.8680016025974
 20
-275.1999999999999
 30
0.0
 40
1.00000000000008
100
AcDbArc
 50
30.00000000003288
 51
90.0
  0
ARC
  5
49D
330
6F
100
AcDbEntity
  8
DETAIL
  6
Continuous
 62
     5
100
AcDbCircle
 10
368.1319983972971
 20
-275.1999999999999
 30
0.0
 40
1.0
100
AcDbArc
 50
90.0
 51
149.9999999999671
  0
ARC
  5
49E
330
6F
100
AcDbEntity
  8
DETAIL
  6
Continuous
 62
     5
100
AcDbCircle
 10
432.5679491923984
 20
-251.3999999999996
 30
0.0
 40
1.0
100
AcDbArc
 50
270.0
 51
323.053145345038
  0
ARC
  5
49F
330
6F
100
AcDbEntity
  8
DETAIL
  6
Continuous
 62
     5
100
AcDbCircle
 10
449.9999999999982
 20
-249.9499999999997
 30
0.0
 40
2.049999999999998
100
AcDbArc
 50
270.0
 51
0.0
  0
ARC
  5
4A0
330
6F
100
AcDbEntity
  8
DETAIL
  6
Continuous
 62
     5
100
AcDbCircle
 10
415.499999999998
 20
-268.1000000000004
 30
0.0
 40
3.0
100
AcDbArc
 50
180.0
 51
270.0
  0
ARC
  5
4A1
330
6F
100
AcDbEntity
  8
DETAIL
  6
Continuous
 62
     5
100
AcDbCircle
 10
364.6678967821972
 20
-273.1999999999999
 30
0.0
 40
3.0
100
AcDbArc
 50
270.0
 51
340.4862535184278
  0
ARC
  5
4A2
330
6F
100
AcDbEntity
  8
DETAIL
  6
Continuous
 62
     5
100
AcDbCircle
 10
351.3321032176973
 20
-273.1999999999999
 30
0.0
 40
3.00000000000005
100
AcDbArc
 50
199.513746481572
 51
270.0
  0
ARC
  5
4A3
330
6F
100
AcDbEntity
  8
DETAIL
  6
Continuous
 62
     5
100
AcDbCircle
 10
25.86800160259736
 20
-275.1999999999999
 30
0.0
 40
1.00000000000008
100
AcDbArc
 50
30.00000000003288
 51
90.0
  0
ARC
  5
4A4
330
6F
100
AcDbEntity
  8
DETAIL
  6
Continuous
 62
     5
100
AcDbCircle
 10
46.13199839729714
 20
-275.1999999999999
 30
0.0
 40
1.0
100
AcDbArc
 50
90.0
 51
149.9999999999671
  0
ARC
  5
4A5
330
6F
100
AcDbEntity
  8
DETAIL
  6
Continuous
 62
     5
100
AcDbCircle
 10
175.8680016025973
 20
-275.1999999999999
 30
0.0
 40
1.00000000000008
100
AcDbArc
 50
30.00000000003288
 51
90.0
  0
ARC
  5
4A6
330
6F
100
AcDbEntity
  8
DETAIL
  6
Continuous
 62
     5
100
AcDbCircle
 10
196.1319983972971
 20
-275.1999999999999
 30
0.0
 40
1.0
100
AcDbArc
 50
90.0
 51
149.9999999999671
  0
ARC
  5
4A7
330
6F
100
AcDbEntity
  8
DETAIL
  6
Continuous
 62
     5
100
AcDbCircle
 10
42.6678967821972
 20
-273.1999999999999
 30
0.0
 40
3.0
100
AcDbArc
 50
270.0
 51
340.486253535709
  0
ARC
  5
4A8
330
6F
100
AcDbEntity
  8
DETAIL
  6
Continuous
 62
     5
100
AcDbCircle
 10
29.3321032176973
 20
-273.1999999999999
 30
0.0
 40
3.00000000000005
100
AcDbArc
 50
199.513746481572
 51
270.0
  0
ARC
  5
4A9
330
6F
100
AcDbEntity
  8
DETAIL
  6
Continuous
 62
     5
100
AcDbCircle
 10
192.6678967821971
 20
-273.1999999999999
 30
0.0
 40
3.0
100
AcDbArc
 50
270.0
 51
340.4862535184278
  0
ARC
  5
4AA
330
6F
100
AcDbEntity
  8
DETAIL
  6
Continuous
 62
     5
100
AcDbCircle
 10
179.3321032176973
 20
-273.1999999999999
 30
0.0
 40
3.00000000000005
100
AcDbArc
 50
199.513746481572
 51
270.0
  0
ARC
  5
4AB
330
6F
100
AcDbEntity
  8
DETAIL
  6
Continuous
 62
     5
100
AcDbCircle
 10
353.8680016025992
 20
-275.1999999999999
 30
0.0
 40
1.00000000000008
100
AcDbArc
 50
30.00000000003288
 51
90.0
  0
ARC
  5
4AC
330
6F
100
AcDbEntity
  8
DETAIL
  6
Continuous
 62
     5
100
AcDbCircle
 10
203.8680016025992
 20
-275.1999999999999
 30
0.0
 40
1.00000000000008
100
AcDbArc
 50
30.00000000003288
 51
90.0
  0
ARC
  5
4AD
330
6F
100
AcDbEntity
  8
DETAIL
  6
Continuous
 62
     5
100
AcDbCircle
 10
224.131998397299
 20
-275.1999999999999
 30
0.0
 40
1.0
100
AcDbArc
 50
90.0
 51
149.9999999999671
  0
ARC
  5
4AE
330
6F
100
AcDbEntity
  8
DETAIL
  6
Continuous
 62
     5
100
AcDbCircle
 10
357.3321032176991
 20
-273.1999999999999
 30
0.0
 40
3.00000000000005
100
AcDbArc
 50
199.513746481572
 51
270.0
  0
ARC
  5
4AF
330
6F
100
AcDbEntity
  8
DETAIL
  6
Continuous
 62
     5
100
AcDbCircle
 10
220.667896782199
 20
-273.1999999999999
 30
0.0
 40
3.0
100
AcDbArc
 50
270.0
 51
340.486253535709
  0
ARC
  5
4B0
330
6F
100
AcDbEntity
  8
DETAIL
  6
Continuous
 62
     5
100
AcDbCircle
 10
207.3321032176991
 20
-273.1999999999999
 30
0.0
 40
3.00000000000005
100
AcDbArc
 50
199.513746481572
 51
270.0
  0
ARC
  5
4B1
330
6F
100
AcDbEntity
  8
DETAIL
  6
Continuous
 62
     5
100
AcDbCircle
 10
-450.0
 20
-249.9499999999997
 30
0.0
 40
0.0500000000001819
100
AcDbArc
 50
179.9999999998957
 51
270.0
  0
ARC
  5
4B2
330
6F
100
AcDbEntity
  8
DETAIL
  6
Continuous
 62
     5
100
AcDbCircle
 10
-168.1319983974008
 20
-275.1999999999999
 30
0.0
 40
1.00000000000008
100
AcDbArc
 50
30.00000000003288
 51
90.0
  0
ARC
  5
4B3
330
6F
100
AcDbEntity
  8
DETAIL
  6
Continuous
 62
     5
100
AcDbCircle
 10
-147.868001602701
 20
-275.1999999999999
 30
0.0
 40
1.0
100
AcDbArc
 50
90.0
 51
149.9999999999671
  0
ARC
  5
4B4
330
6F
100
AcDbEntity
  8
DETAIL
  6
Continuous
 62
     5
100
AcDbCircle
 10
-432.5679491925002
 20
-251.3999999999996
 30
0.0
 40
0.9999999999999003
100
AcDbArc
 50
216.9468546549619
 51
270.0
  0
ARC
  5
4B5
330
6F
100
AcDbEntity
  8
DETAIL
  6
Continuous
 62
     5
100
AcDbCircle
 10
-450.0
 20
-249.9499999999997
 30
0.0
 40
2.050000000000181
100
AcDbArc
 50
179.9999999998957
 51
270.0
  0
ARC
  5
4B6
330
6F
100
AcDbEntity
  8
DETAIL
  6
Continuous
 62
     5
100
AcDbCircle
 10
-415.5
 20
-268.1000000000004
 30
0.0
 40
3.0
100
AcDbArc
 50
270.0
 51
0.0
  0
ARC
  5
4B7
330
6F
100
AcDbEntity
  8
DETAIL
  6
Continuous
 62
     5
100
AcDbCircle
 10
-164.6678967823009
 20
-273.1999999999999
 30
0.0
 40
3.00000000000005
100
AcDbArc
 50
199.513746481572
 51
270.0
  0
ARC
  5
4B8
330
6F
100
AcDbEntity
  8
DETAIL
  6
Continuous
 62
     5
100
AcDbCircle
 10
-151.3321032178009
 20
-273.1999999999999
 30
0.0
 40
3.0
100
AcDbArc
 50
270.0
 51
340.486253535709
  0
ARC
  5
4B9
330
6F
100
AcDbEntity
  8
DETAIL
  6
Continuous
 62
     5
100
AcDbCircle
 10
-444.0
 20
-247.5999999999995
 30
0.0
 40
4.798697739999989
100
AcDbArc
 50
264.0192146750255
 51
275.9807853249745
  0
ARC
  5
4BA
330
6F
100
AcDbEntity
  8
DETAIL
  6
Continuous
 62
     5
100
AcDbCircle
 10
-444.0
 20
-247.5999999999995
 30
0.0
 40
5.276362383300076
100
AcDbArc
 50
244.7587791611208
 51
264.5623636786909
  0
ARC
  5
4BB
330
6F
100
AcDbEntity
  8
DETAIL
  6
Continuous
 62
     5
100
AcDbCircle
 10
-444.0
 20
-247.5999999999995
 30
0.0
 40
5.276362383299993
100
AcDbArc
 50
275.437636321309
 51
295.2412208388791
  0
ARC
  5
4BC
330
6F
100
AcDbEntity
  8
DETAIL
  6
Continuous
 62
     5
100
AcDbCircle
 10
-444.0
 20
-247.5999999999995
 30
0.0
 40
5.299999999999939
100
AcDbArc
 50
295.1208101144849
 51
303.0168041651044
  0
ARC
  5
4BD
330
6F
100
AcDbEntity
  8
DETAIL
  6
Continuous
 62
     5
100
AcDbCircle
 10
-444.0
 20
-247.5999999999995
 30
0.0
 40
5.299999999999985
100
AcDbArc
 50
236.9831958348957
 51
244.879189885515
  0
LINE
  5
4BE
330
6F
100
AcDbEntity
  8
DETAIL
  6
Continuous
 62
     5
100
AcDbLine
 10
452.0499999999974
 20
-240.0285398163997
 30
0.0
 11
452.0499999999974
 21
-249.9499999999997
 31
0.0
  0
LINE
  5
4BF
330
6F
100
AcDbEntity
  8
DETAIL
  6
Continuous
 62
     5
100
AcDbLine
 10
450.0499999999973
 20
-240.0285398163997
 30
0.0
 11
450.0499999999973
 21
-249.9499999999997
 31
0.0
  0
LINE
  5
4C0
330
6F
100
AcDbEntity
  8
DETAIL
  6
Continuous
 62
     5
100
AcDbLine
 10
449.9999999999982
 20
-240.0
 30
0.0
 11
449.9999999999982
 21
-252.0
 31
0.0
  0
LINE
  5
4C1
330
6F
100
AcDbEntity
  8
DETAIL
  6
Continuous
 62
     5
100
AcDbLine
 10
434.4999999999981
 20
-252.5999999999994
 30
0.0
 11
434.4999999999981
 21
-271.1000000000004
 31
0.0
  0
LINE
  5
4C2
330
6F
100
AcDbEntity
  8
DETAIL
  6
Continuous
 62
     5
100
AcDbLine
 10
433.4999999999982
 20
-271.1000000000004
 30
0.0
 11
433.4999999999982
 21
-252.5999999999994
 31
0.0
  0
LINE
  5
4C3
330
6F
100
AcDbEntity
  8
DETAIL
  6
Continuous
 62
     5
100
AcDbLine
 10
433.4999999999982
 20
-272.1000000000004
 30
0.0
 11
433.4999999999982
 21
-271.1000000000004
 31
0.0
  0
LINE
  5
4C4
330
6F
100
AcDbEntity
  8
DETAIL
  6
Continuous
 62
     5
100
AcDbLine
 10
432.5679491923984
 20
-254.5999999999994
 30
0.0
 11
432.5679491923984
 21
-252.0
 31
0.0
  0
LINE
  5
4C5
330
6F
100
AcDbEntity
  8
DETAIL
  6
Continuous
 62
     5
100
AcDbLine
 10
432.9999999999982
 20
-274.1999999999999
 30
0.0
 11
432.9633443635976
 21
-272.1000000000004
 31
0.0
  0
LINE
  5
4C6
330
6F
100
AcDbEntity
  8
DETAIL
  6
Continuous
 62
     5
100
AcDbLine
 10
431.0003046095991
 20
-274.1999999999999
 30
0.0
 11
430.9653944797973
 21
-272.1999999999999
 31
0.0
  0
LINE
  5
4C7
330
6F
100
AcDbEntity
  8
DETAIL
  6
Continuous
 62
     5
100
AcDbLine
 10
432.5679491923984
 20
-254.5999999999994
 30
0.0
 11
422.5999999999984
 21
-271.1000000000004
 31
0.0
  0
LINE
  5
4C8
330
6F
100
AcDbEntity
  8
DETAIL
  6
Continuous
 62
     5
100
AcDbLine
 10
367.6858088312983
 20
-272.1999999999999
 30
0.0
 11
367.6875543376991
 21
-272.1000000000004
 31
0.0
  0
LINE
  5
4C9
330
6F
100
AcDbEntity
  8
DETAIL
  6
Continuous
 62
     5
100
AcDbLine
 10
345.6858088312984
 20
-272.1999999999999
 30
0.0
 11
345.6875543376991
 21
-272.1000000000004
 31
0.0
  0
LINE
  5
4CA
330
6F
100
AcDbEntity
  8
DETAIL
  6
Continuous
 62
     5
100
AcDbLine
 10
412.4999999999982
 20
-268.1000000000004
 30
0.0
 11
412.4999999999982
 21
-252.0
 31
0.0
  0
LINE
  5
4CB
330
6F
100
AcDbEntity
  8
DETAIL
  6
Continuous
 62
     5
100
AcDbLine
 10
399.9999999999982
 20
-260.0
 30
0.0
 11
399.9999999999982
 21
-252.0
 31
0.0
  0
LINE
  5
4CC
330
6F
100
AcDbEntity
  8
DETAIL
  6
Continuous
 62
     5
100
AcDbLine
 10
370.314191168698
 20
-272.1999999999999
 30
0.0
 11
370.3124456621991
 21
-272.1000000000004
 31
0.0
  0
LINE
  5
4CD
330
6F
100
AcDbEntity
  8
DETAIL
  6
Continuous
 62
     5
100
AcDbLine
 10
348.3141911686979
 20
-272.1999999999999
 30
0.0
 11
348.3124456621991
 21
-272.1000000000004
 31
0.0
  0
LINE
  5
4CE
330
6F
100
AcDbEntity
  8
DETAIL
  6
Continuous
 62
     5
100
AcDbLine
 10
195.6858088312983
 20
-272.1999999999999
 30
0.0
 11
195.6875543376991
 21
-272.1000000000004
 31
0.0
  0
LINE
  5
4CF
330
6F
100
AcDbEntity
  8
DETAIL
  6
Continuous
 62
     5
100
AcDbLine
 10
173.6858088312983
 20
-272.1999999999999
 30
0.0
 11
173.6875543376991
 21
-272.1000000000004
 31
0.0
  0
LINE
  5
4D0
330
6F
100
AcDbEntity
  8
DETAIL
  6
Continuous
 62
     5
100
AcDbLine
 10
198.314191168698
 20
-272.1999999999999
 30
0.0
 11
198.312445662199
 21
-272.1000000000004
 31
0.0
  0
LINE
  5
4D1
330
6F
100
AcDbEntity
  8
DETAIL
  6
Continuous
 62
     5
100
AcDbLine
 10
176.314191168698
 20
-272.1999999999999
 30
0.0
 11
176.312445662199
 21
-272.1000000000004
 31
0.0
  0
LINE
  5
4D2
330
6F
100
AcDbEntity
  8
DETAIL
  6
Continuous
 62
     5
100
AcDbLine
 10
112.9996953902991
 20
-274.1999999999999
 30
0.0
 11
113.0346055200971
 21
-272.1999999999999
 31
0.0
  0
LINE
  5
4D3
330
6F
100
AcDbEntity
  8
DETAIL
  6
Continuous
 62
     5
100
AcDbLine
 10
111.0366556362987
 20
-272.1000000000004
 30
0.0
 11
110.9999999999982
 21
-274.1999999999999
 31
0.0
  0
LINE
  5
4D4
330
6F
100
AcDbEntity
  8
DETAIL
  6
Continuous
 62
     5
100
AcDbLine
 10
45.68580883129834
 20
-272.1999999999999
 30
0.0
 11
45.68755433769911
 21
-272.1000000000004
 31
0.0
  0
LINE
  5
4D5
330
6F
100
AcDbEntity
  8
DETAIL
  6
Continuous
 62
     5
100
AcDbLine
 10
110.9999999999982
 20
-274.1999999999999
 30
0.0
 11
110.9633443635976
 21
-272.1000000000004
 31
0.0
  0
LINE
  5
4D6
330
6F
100
AcDbEntity
  8
DETAIL
  6
Continuous
 62
     5
100
AcDbLine
 10
109.0003046095989
 20
-274.1999999999999
 30
0.0
 11
108.9653944797974
 21
-272.1999999999999
 31
0.0
  0
LINE
  5
4D7
330
6F
100
AcDbEntity
  8
DETAIL
  6
Continuous
 62
     5
100
AcDbLine
 10
48.31419116869803
 20
-272.1999999999999
 30
0.0
 11
48.31244566219901
 21
-272.1000000000004
 31
0.0
  0
LINE
  5
4D8
330
6F
100
AcDbEntity
  8
DETAIL
  6
Continuous
 62
     5
100
AcDbLine
 10
23.68580883129835
 20
-272.1999999999999
 30
0.0
 11
23.68755433769911
 21
-272.1000000000004
 31
0.0
  0
LINE
  5
4D9
330
6F
100
AcDbEntity
  8
DETAIL
  6
Continuous
 62
     5
100
AcDbLine
 10
26.31419116869802
 20
-272.1999999999999
 30
0.0
 11
26.31244566219903
 21
-272.1000000000004
 31
0.0
  0
LINE
  5
4DA
330
6F
100
AcDbEntity
  8
DETAIL
  6
Continuous
 62
     5
100
AcDbLine
 10
351.6858088313003
 20
-272.1999999999999
 30
0.0
 11
351.6875543377009
 21
-272.1000000000004
 31
0.0
  0
LINE
  5
4DB
330
6F
100
AcDbEntity
  8
DETAIL
  6
Continuous
 62
     5
100
AcDbLine
 10
354.3141911686997
 20
-272.1999999999999
 30
0.0
 11
354.3124456622008
 21
-272.1000000000004
 31
0.0
  0
LINE
  5
4DC
330
6F
100
AcDbEntity
  8
DETAIL
  6
Continuous
 62
     5
100
AcDbLine
 10
290.9996953903009
 20
-274.1999999999999
 30
0.0
 11
291.0346055200989
 21
-272.1999999999999
 31
0.0
  0
LINE
  5
4DD
330
6F
100
AcDbEntity
  8
DETAIL
  6
Continuous
 62
     5
100
AcDbLine
 10
289.0366556363006
 20
-272.1000000000004
 30
0.0
 11
289.0
 21
-274.1999999999999
 31
0.0
  0
LINE
  5
4DE
330
6F
100
AcDbEntity
  8
DETAIL
  6
Continuous
 62
     5
100
AcDbLine
 10
223.6858088313002
 20
-272.1999999999999
 30
0.0
 11
223.687554337701
 21
-272.1000000000004
 31
0.0
  0
LINE
  5
4DF
330
6F
100
AcDbEntity
  8
DETAIL
  6
Continuous
 62
     5
100
AcDbLine
 10
201.6858088313002
 20
-272.1999999999999
 30
0.0
 11
201.6875543377009
 21
-272.1000000000004
 31
0.0
  0
LINE
  5
4E0
330
6F
100
AcDbEntity
  8
DETAIL
  6
Continuous
 62
     5
100
AcDbLine
 10
289.0
 20
-274.1999999999999
 30
0.0
 11
288.9633443635993
 21
-272.1000000000004
 31
0.0
  0
LINE
  5
4E1
330
6F
100
AcDbEntity
  8
DETAIL
  6
Continuous
 62
     5
100
AcDbLine
 10
287.0003046096008
 20
-274.1999999999999
 30
0.0
 11
286.9653944797992
 21
-272.1999999999999
 31
0.0
  0
LINE
  5
4E2
330
6F
100
AcDbEntity
  8
DETAIL
  6
Continuous
 62
     5
100
AcDbLine
 10
226.3141911686998
 20
-272.1999999999999
 30
0.0
 11
226.3124456622009
 21
-272.1000000000004
 31
0.0
  0
LINE
  5
4E3
330
6F
100
AcDbEntity
  8
DETAIL
  6
Continuous
 62
     5
100
AcDbLine
 10
204.3141911686998
 20
-272.1999999999999
 30
0.0
 11
204.3124456622008
 21
-272.1000000000004
 31
0.0
  0
LINE
  5
4E4
330
6F
100
AcDbEntity
  8
DETAIL
  6
Continuous
 62
     5
100
AcDbLine
 10
452.0499999999974
 20
-240.3000000000002
 30
0.0
 11
489.999999999998
 21
-240.3000000000002
 31
0.0
  0
LINE
  5
4E5
330
6F
100
AcDbEntity
  8
DETAIL
  6
Continuous
 62
     5
100
AcDbLine
 10
-450.0500000000011
 20
-249.9499999999997
 30
0.0
 11
-452.0500000000009
 21
-249.9499999999997
 31
0.0
  0
LINE
  5
4E6
330
6F
100
AcDbEntity
  8
DETAIL
  6
Continuous
 62
     5
100
AcDbLine
 10
449.9999999999982
 20
-249.9499999999997
 30
0.0
 11
-450.0
 21
-249.9499999999997
 31
0.0
  0
LINE
  5
4E7
330
6F
100
AcDbEntity
  8
DETAIL
  6
Continuous
 62
     5
100
AcDbLine
 10
450.0499999999973
 20
-249.9499999999997
 30
0.0
 11
452.0499999999974
 21
-249.9499999999997
 31
0.0
  0
LINE
  5
4E8
330
6F
100
AcDbEntity
  8
DETAIL
  6
Continuous
 62
     5
100
AcDbLine
 10
449.9999999999982
 20
-252.0
 30
0.0
 11
-450.0
 21
-252.0
 31
0.0
  0
LINE
  5
4E9
330
6F
100
AcDbEntity
  8
DETAIL
  6
Continuous
 62
     5
100
AcDbLine
 10
-432.5679491925002
 20
-252.5999999999994
 30
0.0
 11
-434.4999999999999
 21
-252.5999999999994
 31
0.0
  0
LINE
  5
4EA
330
6F
100
AcDbEntity
  8
DETAIL
  6
Continuous
 62
     5
100
AcDbLine
 10
434.4999999999981
 20
-252.5999999999994
 30
0.0
 11
432.5679491923984
 21
-252.5999999999994
 31
0.0
  0
LINE
  5
4EB
330
6F
100
AcDbEntity
  8
DETAIL
  6
Continuous
 62
     5
100
AcDbLine
 10
412.4999999999982
 20
-252.5999999999994
 30
0.0
 11
432.5679491923984
 21
-252.5999999999994
 31
0.0
  0
LINE
  5
4EC
330
6F
100
AcDbEntity
  8
DETAIL
  6
Continuous
 62
     5
100
AcDbLine
 10
-432.5679491925002
 20
-252.5999999999994
 30
0.0
 11
-412.5
 21
-252.5999999999994
 31
0.0
  0
LINE
  5
4ED
330
6F
100
AcDbEntity
  8
DETAIL
  6
Continuous
 62
     5
100
AcDbLine
 10
399.9999999999982
 20
-259.1999999999999
 30
0.0
 11
-400.0
 21
-259.1999999999999
 31
0.0
  0
LINE
  5
4EE
330
6F
100
AcDbEntity
  8
DETAIL
  6
Continuous
 62
     5
100
AcDbLine
 10
399.9999999999982
 20
-260.0
 30
0.0
 11
-400.0
 21
-260.0
 31
0.0
  0
LINE
  5
4EF
330
6F
100
AcDbEntity
  8
DETAIL
  6
Continuous
 62
     5
100
AcDbLine
 10
-422.6000000000003
 20
-271.1000000000004
 30
0.0
 11
-433.4999999999999
 21
-271.1000000000004
 31
0.0
  0
LINE
  5
4F0
330
6F
100
AcDbEntity
  8
DETAIL
  6
Continuous
 62
     5
100
AcDbLine
 10
-415.5
 20
-271.1000000000004
 30
0.0
 11
-422.6000000000003
 21
-271.1000000000004
 31
0.0
  0
LINE
  5
4F1
330
6F
100
AcDbEntity
  8
DETAIL
  6
Continuous
 62
     5
100
AcDbLine
 10
415.499999999998
 20
-271.1000000000004
 30
0.0
 11
-415.5
 21
-271.1000000000004
 31
0.0
  0
LINE
  5
4F2
330
6F
100
AcDbEntity
  8
DETAIL
  6
Continuous
 62
     5
100
AcDbLine
 10
422.5999999999984
 20
-271.1000000000004
 30
0.0
 11
415.499999999998
 21
-271.1000000000004
 31
0.0
  0
LINE
  5
4F3
330
6F
100
AcDbEntity
  8
DETAIL
  6
Continuous
 62
     5
100
AcDbLine
 10
433.4999999999982
 20
-271.1000000000004
 30
0.0
 11
422.5999999999984
 21
-271.1000000000004
 31
0.0
  0
LINE
  5
4F4
330
6F
100
AcDbEntity
  8
DETAIL
  6
Continuous
 62
     5
100
AcDbLine
 10
434.4999999999981
 20
-271.1000000000004
 30
0.0
 11
433.4999999999982
 21
-271.1000000000004
 31
0.0
  0
LINE
  5
4F5
330
6F
100
AcDbEntity
  8
DETAIL
  6
Continuous
 62
     5
100
AcDbLine
 10
-434.4999999999999
 20
-271.1000000000004
 30
0.0
 11
-433.4999999999999
 21
-271.1000000000004
 31
0.0
  0
LINE
  5
4F6
330
6F
100
AcDbEntity
  8
DETAIL
  6
Continuous
 62
     5
100
AcDbLine
 10
433.4999999999982
 20
-272.1000000000004
 30
0.0
 11
-433.4999999999999
 21
-272.1000000000004
 31
0.0
  0
LINE
  5
4F7
330
6F
100
AcDbEntity
  8
DETAIL
  6
Continuous
 62
     5
100
AcDbLine
 10
288.9650898701002
 20
-272.1999999999999
 30
0.0
 11
-432.9650898702001
 21
-272.1999999999999
 31
0.0
  0
LINE
  5
4F8
330
6F
100
AcDbEntity
  8
DETAIL
  6
Continuous
 62
     5
100
AcDbLine
 10
110.9650898700984
 20
-272.1999999999999
 30
0.0
 11
289.0349101297998
 21
-272.1999999999999
 31
0.0
  0
LINE
  5
4F9
330
6F
100
AcDbEntity
  8
DETAIL
  6
Continuous
 62
     5
100
AcDbLine
 10
432.9650898700982
 20
-272.1999999999999
 30
0.0
 11
111.0349101297979
 21
-272.1999999999999
 31
0.0
  0
LINE
  5
4FA
330
6F
100
AcDbEntity
  8
DETAIL
  6
Continuous
 62
     5
100
AcDbLine
 10
432.9999999999982
 20
-274.1999999999999
 30
0.0
 11
-433.0
 21
-274.1999999999999
 31
0.0
  0
LINE
  5
4FB
330
6F
100
AcDbEntity
  8
DETAIL
  6
Continuous
 62
     5
100
AcDbLine
 10
-151.3321032178009
 20
-276.1999999999999
 30
0.0
 11
-164.6678967823009
 21
-276.1999999999999
 31
0.0
  0
LINE
  5
4FC
330
6F
100
AcDbEntity
  8
DETAIL
  6
Continuous
 62
     5
100
AcDbLine
 10
370.6678967821991
 20
-276.1999999999999
 30
0.0
 11
357.3321032176991
 21
-276.1999999999999
 31
0.0
  0
LINE
  5
4FD
330
6F
100
AcDbEntity
  8
DETAIL
  6
Continuous
 62
     5
100
AcDbLine
 10
192.6678967821971
 20
-276.1999999999999
 30
0.0
 11
179.3321032176973
 21
-276.1999999999999
 31
0.0
  0
LINE
  5
4FE
330
6F
100
AcDbEntity
  8
DETAIL
  6
Continuous
 62
     5
100
AcDbLine
 10
351.3321032176973
 20
-276.1999999999999
 30
0.0
 11
364.6678967821972
 21
-276.1999999999999
 31
0.0
  0
LINE
  5
4FF
330
6F
100
AcDbEntity
  8
DETAIL
  6
Continuous
 62
     5
100
AcDbLine
 10
29.3321032176973
 20
-276.1999999999999
 30
0.0
 11
42.6678967821972
 21
-276.1999999999999
 31
0.0
  0
LINE
  5
500
330
6F
100
AcDbEntity
  8
DETAIL
  6
Continuous
 62
     5
100
AcDbLine
 10
207.3321032176991
 20
-276.1999999999999
 30
0.0
 11
220.667896782199
 21
-276.1999999999999
 31
0.0
  0
LINE
  5
501
330
6F
100
AcDbEntity
  8
DETAIL
  6
Continuous
 62
     5
100
AcDbLine
 10
-148.3141911686998
 20
-272.1999999999999
 30
0.0
 11
-148.312445662299
 21
-272.1000000000004
 31
0.0
  0
LINE
  5
502
330
6F
100
AcDbEntity
  8
DETAIL
  6
Continuous
 62
     5
100
AcDbLine
 10
-170.3141911686998
 20
-272.1999999999999
 30
0.0
 11
-170.3124456622991
 21
-272.1000000000004
 31
0.0
  0
LINE
  5
503
330
6F
100
AcDbEntity
  8
DETAIL
  6
Continuous
 62
     5
100
AcDbLine
 10
-400.0
 20
-260.0
 30
0.0
 11
-400.0
 21
-252.0
 31
0.0
  0
LINE
  5
504
330
6F
100
AcDbEntity
  8
DETAIL
  6
Continuous
 62
     5
100
AcDbLine
 10
-145.6858088313001
 20
-272.1999999999999
 30
0.0
 11
-145.6875543377991
 21
-272.1000000000004
 31
0.0
  0
LINE
  5
505
330
6F
100
AcDbEntity
  8
DETAIL
  6
Continuous
 62
     5
100
AcDbLine
 10
-167.6858088313001
 20
-272.1999999999999
 30
0.0
 11
-167.6875543377991
 21
-272.1000000000004
 31
0.0
  0
LINE
  5
506
330
6F
100
AcDbEntity
  8
DETAIL
  6
Continuous
 62
     5
100
AcDbLine
 10
-432.5679491925002
 20
-254.5999999999994
 30
0.0
 11
-422.6000000000003
 21
-271.1000000000004
 31
0.0
  0
LINE
  5
507
330
6F
100
AcDbEntity
  8
DETAIL
  6
Continuous
 62
     5
100
AcDbLine
 10
-431.0003046096991
 20
-274.1999999999999
 30
0.0
 11
-430.9653944799009
 21
-272.1999999999999
 31
0.0
  0
LINE
  5
508
330
6F
100
AcDbEntity
  8
DETAIL
  6
Continuous
 62
     5
100
AcDbLine
 10
-432.9633443636993
 20
-272.1000000000004
 30
0.0
 11
-433.0
 21
-274.1999999999999
 31
0.0
  0
LINE
  5
509
330
6F
100
AcDbEntity
  8
DETAIL
  6
Continuous
 62
     5
100
AcDbLine
 10
-412.5
 20
-268.1000000000004
 30
0.0
 11
-412.5
 21
-252.0
 31
0.0
  0
LINE
  5
50A
330
6F
100
AcDbEntity
  8
DETAIL
  6
Continuous
 62
     5
100
AcDbLine
 10
-432.5679491925002
 20
-254.5999999999994
 30
0.0
 11
-432.5679491925002
 21
-252.0
 31
0.0
  0
LINE
  5
50B
330
6F
100
AcDbEntity
  8
DETAIL
  6
Continuous
 62
     5
100
AcDbLine
 10
-433.4999999999999
 20
-272.1000000000004
 30
0.0
 11
-433.4999999999999
 21
-271.1000000000004
 31
0.0
  0
LINE
  5
50C
330
6F
100
AcDbEntity
  8
DETAIL
  6
Continuous
 62
     5
100
AcDbLine
 10
-433.4999999999999
 20
-252.5999999999994
 30
0.0
 11
-433.4999999999999
 21
-271.1000000000004
 31
0.0
  0
LINE
  5
50D
330
6F
100
AcDbEntity
  8
DETAIL
  6
Continuous
 62
     5
100
AcDbLine
 10
-434.4999999999999
 20
-252.5999999999994
 30
0.0
 11
-434.4999999999999
 21
-271.1000000000004
 31
0.0
  0
LINE
  5
50E
330
6F
100
AcDbEntity
  8
DETAIL
  6
Continuous
 62
     5
100
AcDbLine
 10
-441.75
 20
-252.3725779197994
 30
0.0
 11
-441.75
 21
-252.39869774
 31
0.0
  0
LINE
  5
50F
330
6F
100
AcDbEntity
  8
DETAIL
  6
Continuous
 62
     5
100
AcDbLine
 10
-443.5
 20
-252.3725779197994
 30
0.0
 11
-443.5
 21
-252.8526183946997
 31
0.0
  0
LINE
  5
510
330
6F
100
AcDbEntity
  8
DETAIL
  6
Continuous
 62
     5
100
AcDbLine
 10
-444.5
 20
-252.8526183946997
 30
0.0
 11
-444.5
 21
-252.3725779197994
 31
0.0
  0
LINE
  5
511
330
6F
100
AcDbEntity
  8
DETAIL
  6
Continuous
 62
     5
100
AcDbLine
 10
-446.25
 20
-252.39869774
 30
0.0
 11
-446.25
 21
-252.3725779197994
 31
0.0
  0
LINE
  5
512
330
6F
100
AcDbEntity
  8
DETAIL
  6
Continuous
 62
     5
100
AcDbLine
 10
-450.0
 20
-252.0
 30
0.0
 11
-450.0
 21
-240.0
 31
0.0
  0
LINE
  5
513
330
6F
100
AcDbEntity
  8
DETAIL
  6
Continuous
 62
     5
100
AcDbLine
 10
-450.0500000000011
 20
-240.0285398163997
 30
0.0
 11
-450.0500000000011
 21
-249.9499999999997
 31
0.0
  0
LINE
  5
514
330
6F
100
AcDbEntity
  8
DETAIL
  6
Continuous
 62
     5
100
AcDbLine
 10
-452.0500000000009
 20
-240.0285398162996
 30
0.0
 11
-452.0500000000009
 21
-249.9499999999997
 31
0.0
  0
ARC
  5
515
330
6F
100
AcDbEntity
  8
DETAIL
  6
Continuous
 62
     5
100
AcDbCircle
 10
374.131998397299
 20
-275.1999999999999
 30
0.0
 40
1.0
100
AcDbArc
 50
90.0
 51
149.9999999999671
  0
ARC
  5
516
330
6F
100
AcDbEntity
  8
DETAIL
  6
Continuous
 62
     5
100
AcDbCircle
 10
370.6678967821991
 20
-273.1999999999999
 30
0.0
 40
3.0
100
AcDbArc
 50
270.0
 51
340.486253535709
  0
LINE
  5
517
330
6F
100
AcDbEntity
  8
DETAIL
  6
Continuous
 62
     5
100
AcDbLine
 10
449.9999999999982
 20
-98.50000000000001
 30
0.0
 11
488.8999999999978
 21
-98.50000000000001
 31
0.0
  0
LINE
  5
518
330
6F
100
AcDbEntity
  8
DETAIL
  6
Continuous
 62
     5
100
AcDbLine
 10
449.9999999999982
 20
-97.90000000000055
 30
0.0
 11
488.8999999999978
 21
-97.90000000000008
 31
0.0
  0
LINE
  5
519
330
6F
100
AcDbEntity
  8
DETAIL
  6
Continuous
 62
     5
100
AcDbLine
 10
449.9999999999982
 20
-39.09999999999945
 30
0.0
 11
488.8999999999978
 21
-39.0999999999999
 31
0.0
  0
LINE
  5
51A
330
6F
100
AcDbEntity
  8
DETAIL
  6
Continuous
 62
     5
100
AcDbLine
 10
449.9999999999982
 20
-38.5
 30
0.0
 11
488.8999999999978
 21
-38.5
 31
0.0
  0
LINE
  5
51B
330
6F
100
AcDbEntity
  8
DETAIL
  6
Continuous
 62
     5
100
AcDbLine
 10
488.8999999999978
 20
-38.5
 30
0.0
 11
488.8999999999978
 21
-39.0999999999999
 31
0.0
  0
LINE
  5
51C
330
6F
100
AcDbEntity
  8
DETAIL
  6
Continuous
 62
     5
100
AcDbLine
 10
488.8999999999978
 20
-98.50000000000001
 30
0.0
 11
488.8999999999978
 21
-97.90000000000008
 31
0.0
  0
LINE
  5
51D
330
6F
100
AcDbEntity
  8
DETAIL
  6
Continuous
 62
     5
100
AcDbLine
 10
489.6999999999988
 20
-39.29999999999973
 30
0.0
 11
489.6999999999988
 21
-97.6999999999998
 31
0.0
  0
ARC
  5
51E
330
6F
100
AcDbEntity
  8
DETAIL
  6
Continuous
 62
     5
100
AcDbCircle
 10
488.8999999999978
 20
-97.6999999999998
 30
0.0
 40
0.8
100
AcDbArc
 50
270.0
 51
0.0
  0
ARC
  5
51F
330
6F
100
AcDbEntity
  8
DETAIL
  6
Continuous
 62
     5
100
AcDbCircle
 10
488.8999999999978
 20
-39.29999999999973
 30
0.0
 40
0.8
100
AcDbArc
 50
0.0000000001042204
 51
90.0
  0
LINE
  5
520
330
6F
100
AcDbEntity
  8
DETAIL
  6
Continuous
 62
     5
100
AcDbLine
 10
449.9999999999982
 20
-130.0
 30
0.0
 11
453.7514473133978
 21
-130.0
 31
0.0
  0
LINE
  5
521
330
6F
100
AcDbEntity
  8
DETAIL
  6
Continuous
 62
     5
100
AcDbLine
 10
449.9999999999982
 20
-121.5
 30
0.0
 11
452.9928932187977
 21
-121.5
 31
0.0
  0
LINE
  5
522
330
6F
100
AcDbEntity
  8
DETAIL
  6
Continuous
 62
     5
100
AcDbLine
 10
449.9999999999982
 20
-113.0
 30
0.0
 11
453.7514473133978
 21
-113.0
 31
0.0
  0
LINE
  5
523
330
6F
100
AcDbEntity
  8
DETAIL
  6
Continuous
 62
     5
100
AcDbLine
 10
454.0407577319983
 20
-113.5
 30
0.0
 11
455.9928932187976
 21
-115.5
 31
0.0
  0
LINE
  5
524
330
6F
100
AcDbEntity
  8
DETAIL
  6
Continuous
 62
     5
100
AcDbLine
 10
455.9928932187976
 20
-115.5002894221002
 30
0.0
 11
455.9928932187976
 21
-127.4997105778998
 31
0.0
  0
LINE
  5
525
330
6F
100
AcDbEntity
  8
DETAIL
  6
Continuous
 62
     5
100
AcDbLine
 10
454.0407577319983
 20
-129.5
 30
0.0
 11
455.9928932187976
 21
-127.5
 31
0.0
  0
LINE
  5
526
330
6F
100
AcDbEntity
  8
DETAIL
  6
Continuous
 62
     5
100
AcDbLine
 10
453.7514473133978
 20
-113.0
 30
0.0
 11
454.0401224479974
 21
-113.5
 31
0.0
  0
LINE
  5
527
330
6F
100
AcDbEntity
  8
DETAIL
  6
Continuous
 62
     5
100
AcDbLine
 10
453.7514473133978
 20
-130.0
 30
0.0
 11
454.0401224479974
 21
-129.5
 31
0.0
  0
LINE
  5
528
330
6F
100
AcDbEntity
  8
DETAIL
  6
Continuous
 62
     5
100
AcDbLine
 10
-510.0000000001008
 20
-395.7565084381048
 30
0.0
 11
-510.0000000001008
 21
-391.75
 31
0.0
  0
LINE
  5
529
330
6F
100
AcDbEntity
  8
DETAIL
  6
Continuous
 62
     5
100
AcDbLine
 10
-478.470000000102
 20
-391.75
 30
0.0
 11
-478.470000000102
 21
-344.75
 31
0.0
  0
LINE
  5
52A
330
6F
100
AcDbEntity
  8
DETAIL
  6
Continuous
 62
     5
100
AcDbLine
 10
-478.470000000102
 20
-391.75
 30
0.0
 11
-483.470000000102
 21
-391.75
 31
0.0
  0
ARC
  5
52B
330
6F
100
AcDbEntity
  8
DETAIL
  6
Continuous
 62
     5
100
AcDbCircle
 10
-479.3000000001002
 20
-279.75
 30
0.0
 40
120.0
100
AcDbArc
 50
255.177030333076
 51
270.0
  0
LINE
  5
52C
330
6F
100
AcDbEntity
  8
DETAIL
  6
Continuous
 62
     5
100
AcDbLine
 10
858.4697530329338
 20
-391.75
 30
0.0
 11
858.4697530329338
 21
-344.75
 31
0.0
  0
LINE
  5
52D
330
6F
100
AcDbEntity
  8
DETAIL
  6
Continuous
 62
     5
100
AcDbLine
 10
858.4697530329338
 20
-344.75
 30
0.0
 11
-478.4700000001001
 21
-344.75
 31
0.0
  0
ARC
  5
52E
330
6F
100
AcDbEntity
  8
DETAIL
  6
Continuous
 62
     5
100
AcDbCircle
 10
859.2997530329322
 20
-279.75
 30
0.0
 40
120.0
100
AcDbArc
 50
270.0
 51
284.822969666924
  0
LINE
  5
52F
330
6F
100
AcDbEntity
  8
DETAIL
  6
Continuous
 62
     5
100
AcDbLine
 10
859.2997530329322
 20
-399.75
 30
0.0
 11
-479.3000000001002
 21
-399.7500000000009
 31
0.0
  0
LINE
  5
530
330
6F
100
AcDbEntity
  8
DETAIL
  6
Continuous
 62
     5
100
AcDbLine
 10
889.9997530329326
 20
-391.75
 30
0.0
 11
-510.0000000001008
 21
-391.75
 31
0.0
  0
LINE
  5
531
330
6F
100
AcDbEntity
  8
DETAIL
  6
Continuous
 62
     5
100
AcDbLine
 10
889.9997530329326
 20
-395.7565084381048
 30
0.0
 11
889.9997530329326
 21
-391.75
 31
0.0
  0
LINE
  5
532
330
6F
100
AcDbEntity
  8
NOTE
  6
Continuous
 62
     4
100
AcDbLine
 10
-94.33954157009614
 20
-118.5
 30
0.0
 11
-355.6604584299075
 21
-118.5
 31
0.0
  0
LINE
  5
533
330
6F
100
AcDbEntity
  8
NOTE
  6
Continuous
 62
     4
100
AcDbLine
 10
-225.0000000000018
 20
16.50076014019986
 30
0.0
 11
-225.0000000000018
 21
-253.5007601402003
 31
0.0
  0
LINE
  5
534
330
6F
100
AcDbEntity
  8
NOTE
  6
Continuous
 62
     4
100
AcDbLine
 10
89.99923985979874
 20
-118.4999999999963
 30
0.0
 11
360.0007601401994
 21
-118.4999999999963
 31
0.0
  0
LINE
  5
535
330
6F
100
AcDbEntity
  8
NOTE
  6
Continuous
 62
     4
100
AcDbLine
 10
224.9999999999982
 20
16.50076014020351
 30
0.0
 11
224.9999999999982
 21
-253.5007601401967
 31
0.0
  0
LINE
  5
536
330
6F
100
AcDbEntity
  8
NOTE
  6
Continuous
 62
     4
100
AcDbLine
 10
-476.999999999998
 20
-56.0
 30
0.0
 11
-476.999999999998
 21
20.0
 31
0.0
  0
LINE
  5
537
330
6F
100
AcDbEntity
  8
NOTE
  6
Continuous
 62
     4
100
AcDbLine
 10
-446.0876330378213
 20
-18.0
 30
0.0
 11
-507.9123669621785
 21
-18.0
 31
0.0
  0
CIRCLE
  5
538
330
6F
100
AcDbEntity
  8
FIX
  6
Continuous
 62
    11
100
AcDbCircle
 10
-476.999999999998
 20
-18.0
 30
0.0
 40
12.0
  0
LINE
  5
539
330
6F
100
AcDbEntity
  8
NOTE
  6
Continuous
 62
     4
100
AcDbLine
 10
477.0000000000017
 20
-56.0
 30
0.0
 11
477.0000000000017
 21
20.0
 31
0.0
  0
LINE
  5
53A
330
6F
100
AcDbEntity
  8
NOTE
  6
Continuous
 62
     4
100
AcDbLine
 10
507.9123669621785
 20
-18.0
 30
0.0
 11
446.0876330378213
 21
-18.0
 31
0.0
  0
CIRCLE
  5
53B
330
6F
100
AcDbEntity
  8
FIX
  6
Continuous
 62
    11
100
AcDbCircle
 10
477.0000000000017
 20
-18.0
 30
0.0
 40
12.0
  0
TEXT
  5
53C
330
6F
100
AcDbEntity
  8
ETC
  6
Continuous
 62
    61
100
AcDbText
 10
-640.5419961510943
 20
621.624507287972
 30
0.0
 40
64.0
  1
加湿器組込（下吸込）
 41
0.9
100
AcDbText
  0
LINE
  5
53D
330
6F
100
AcDbEntity
  8
SIZE
  6
Continuous
 62
    30
100
AcDbLine
 10
-450.0
 20
20.0
 30
0.0
 11
-450.0
 21
210.9890570364604
 31
0.0
  0
LINE
  5
53E
330
6F
100
AcDbEntity
  8
SIZE
  6
Continuous
 62
    30
100
AcDbLine
 10
450.0
 20
20.0
 30
0.0
 11
450.0
 21
210.9890570364604
 31
0.0
  0
LINE
  5
53F
330
6F
100
AcDbEntity
  8
SIZE
  6
Continuous
 62
    30
100
AcDbLine
 10
-450.0
 20
190.9890570364604
 30
0.0
 11
450.0
 21
190.9890570364604
 31
0.0
  0
CIRCLE
  5
540
330
6F
100
AcDbEntity
  8
SIZE
  6
Continuous
 62
    30
100
AcDbCircle
 10
-450.0
 20
190.9890570364604
 30
0.0
 40
7.5
  0
CIRCLE
  5
541
330
6F
100
AcDbEntity
  8
SIZE
  6
Continuous
 62
    30
100
AcDbCircle
 10
450.0
 20
190.9890570364604
 30
0.0
 40
7.5
  0
TEXT
  5
542
330
6F
100
AcDbEntity
  8
SIZE
  6
Continuous
 62
    30
100
AcDbText
 10
-46.28571428571429
 20
210.9890570364604
 30
0.0
 40
40.0
  1
900
 41
0.9
 72
     1
 11
0.0
 21
210.9890570364604
 31
0.0
100
AcDbText
  0
POINT
  5
543
330
6F
100
AcDbEntity
  8
DEFPOINTS
  6
Continuous
 62
    30
100
AcDbPoint
 10
-450.0
 20
0.0
 30
0.0
  0
POINT
  5
544
330
6F
100
AcDbEntity
  8
DEFPOINTS
  6
Continuous
 62
    30
100
AcDbPoint
 10
450.0
 20
0.0
 30
0.0
  0
POINT
  5
545
330
6F
100
AcDbEntity
  8
DEFPOINTS
  6
Continuous
 62
    30
100
AcDbPoint
 10
450.0
 20
190.9890570364604
 30
0.0
  0
LINE
  5
546
330
6F
100
AcDbEntity
  8
SIZE
  6
Continuous
 62
    30
100
AcDbLine
 10
224.9999999999982
 20
36.50076014020351
 30
0.0
 11
224.9999999999982
 21
125.3151590295001
 31
0.0
  0
LINE
  5
547
330
6F
100
AcDbEntity
  8
SIZE
  6
Continuous
 62
    30
100
AcDbLine
 10
450.0
 20
20.0
 30
0.0
 11
450.0
 21
125.3151590295001
 31
0.0
  0
LINE
  5
548
330
6F
100
AcDbEntity
  8
SIZE
  6
Continuous
 62
    30
100
AcDbLine
 10
224.9999999999982
 20
105.3151590295001
 30
0.0
 11
450.0
 21
105.3151590295001
 31
0.0
  0
CIRCLE
  5
549
330
6F
100
AcDbEntity
  8
SIZE
  6
Continuous
 62
    30
100
AcDbCircle
 10
224.9999999999982
 20
105.3151590295001
 30
0.0
 40
7.5
  0
CIRCLE
  5
54A
330
6F
100
AcDbEntity
  8
SIZE
  6
Continuous
 62
    30
100
AcDbCircle
 10
450.0
 20
105.3151590295001
 30
0.0
 40
7.5
  0
TEXT
  5
54B
330
6F
100
AcDbEntity
  8
SIZE
  6
Continuous
 62
    30
100
AcDbText
 10
291.2142857142848
 20
125.3151590295001
 30
0.0
 40
40.0
  1
225
 41
0.9
 72
     1
 11
337.499999999999
 21
125.3151590295001
 31
0.0
100
AcDbText
  0
POINT
  5
54C
330
6F
100
AcDbEntity
  8
DEFPOINTS
  6
Continuous
 62
    30
100
AcDbPoint
 10
224.9999999999982
 20
16.50076014020351
 30
0.0
  0
POINT
  5
54D
330
6F
100
AcDbEntity
  8
DEFPOINTS
  6
Continuous
 62
    30
100
AcDbPoint
 10
450.0
 20
0.0
 30
0.0
  0
POINT
  5
54E
330
6F
100
AcDbEntity
  8
DEFPOINTS
  6
Continuous
 62
    30
100
AcDbPoint
 10
450.0
 20
105.3151590295001
 30
0.0
  0
LINE
  5
54F
330
6F
100
AcDbEntity
  8
SIZE
  6
Continuous
 62
    30
100
AcDbLine
 10
224.9999999999982
 20
36.50076014020351
 30
0.0
 11
224.9999999999982
 21
125.3151590295001
 31
0.0
  0
LINE
  5
550
330
6F
100
AcDbEntity
  8
SIZE
  6
Continuous
 62
    30
100
AcDbLine
 10
-225.0000000000018
 20
36.50076014019987
 30
0.0
 11
-225.0000000000018
 21
125.3151590295001
 31
0.0
  0
LINE
  5
551
330
6F
100
AcDbEntity
  8
SIZE
  6
Continuous
 62
    30
100
AcDbLine
 10
224.9999999999982
 20
105.3151590295001
 30
0.0
 11
-225.0000000000018
 21
105.3151590295001
 31
0.0
  0
CIRCLE
  5
552
330
6F
100
AcDbEntity
  8
SIZE
  6
Continuous
 62
    30
100
AcDbCircle
 10
224.9999999999982
 20
105.3151590295001
 30
0.0
 40
7.5
  0
CIRCLE
  5
553
330
6F
100
AcDbEntity
  8
SIZE
  6
Continuous
 62
    30
100
AcDbCircle
 10
-225.0000000000018
 20
105.3151590295001
 30
0.0
 40
7.5
  0
TEXT
  5
554
330
6F
100
AcDbEntity
  8
SIZE
  6
Continuous
 62
    30
100
AcDbText
 10
-46.28571428571609
 20
125.3151590295001
 30
0.0
 40
40.0
  1
450
 41
0.9
 72
     1
 11
-0.000000000001819
 21
125.3151590295001
 31
0.0
100
AcDbText
  0
POINT
  5
555
330
6F
100
AcDbEntity
  8
DEFPOINTS
  6
Continuous
 62
    30
100
AcDbPoint
 10
224.9999999999982
 20
16.50076014020351
 30
0.0
  0
POINT
  5
556
330
6F
100
AcDbEntity
  8
DEFPOINTS
  6
Continuous
 62
    30
100
AcDbPoint
 10
-225.0000000000018
 20
16.50076014019986
 30
0.0
  0
POINT
  5
557
330
6F
100
AcDbEntity
  8
DEFPOINTS
  6
Continuous
 62
    30
100
AcDbPoint
 10
-225.0000000000018
 20
105.3151590295001
 30
0.0
  0
LINE
  5
558
330
6F
100
AcDbEntity
  8
SIZE
  6
Continuous
 62
    30
100
AcDbLine
 10
-500.0
 20
-0.7000000000007276
 30
0.0
 11
-500.0
 21
210.9890570364604
 31
0.0
  0
LINE
  5
559
330
6F
100
AcDbEntity
  8
SIZE
  6
Continuous
 62
    30
100
AcDbLine
 10
-450.0
 20
20.0
 30
0.0
 11
-450.0
 21
210.9890570364604
 31
0.0
  0
LINE
  5
55A
330
6F
100
AcDbEntity
  8
SIZE
  6
Continuous
 62
    30
100
AcDbLine
 10
-450.0
 20
190.9890570364604
 30
0.0
 11
-500.0
 21
190.9890570364604
 31
0.0
  0
LINE
  5
55B
330
6F
100
AcDbEntity
  8
SIZE
  6
Continuous
 62
    30
100
AcDbLine
 10
-500.0
 20
190.9890570364604
 30
0.0
 11
-658.2857142857122
 21
190.9890570364604
 31
0.0
  0
CIRCLE
  5
55C
330
6F
100
AcDbEntity
  8
SIZE
  6
Continuous
 62
    30
100
AcDbCircle
 10
-450.0
 20
190.9890570364604
 30
0.0
 40
7.5
  0
CIRCLE
  5
55D
330
6F
100
AcDbEntity
  8
SIZE
  6
Continuous
 62
    30
100
AcDbCircle
 10
-500.0
 20
190.9890570364604
 30
0.0
 40
7.5
  0
TEXT
  5
55E
330
6F
100
AcDbEntity
  8
SIZE
  6
Continuous
 62
    30
100
AcDbText
 10
-638.2857142857123
 20
210.9890570364604
 30
0.0
 40
40.0
  1
50
 41
0.9
 72
     1
 11
-609.1428571428552
 21
210.9890570364604
 31
0.0
100
AcDbText
  0
POINT
  5
55F
330
6F
100
AcDbEntity
  8
DEFPOINTS
  6
Continuous
 62
    30
100
AcDbPoint
 10
-500.0
 20
-20.70000000000073
 30
0.0
  0
POINT
  5
560
330
6F
100
AcDbEntity
  8
DEFPOINTS
  6
Continuous
 62
    30
100
AcDbPoint
 10
-450.0
 20
0.0
 30
0.0
  0
POINT
  5
561
330
6F
100
AcDbEntity
  8
DEFPOINTS
  6
Continuous
 62
    30
100
AcDbPoint
 10
-450.0
 20
190.9890570364604
 30
0.0
  0
LINE
  5
562
330
6F
100
AcDbEntity
  8
SIZE
  6
Continuous
 62
    30
100
AcDbLine
 10
-500.0
 20
-0.7000000000007276
 30
0.0
 11
-500.0
 21
423.8524051159838
 31
0.0
  0
LINE
  5
563
330
6F
100
AcDbEntity
  8
SIZE
  6
Continuous
 62
    30
100
AcDbLine
 10
500.0
 20
-0.7000000000007276
 30
0.0
 11
500.0
 21
423.8524051159838
 31
0.0
  0
LINE
  5
564
330
6F
100
AcDbEntity
  8
SIZE
  6
Continuous
 62
    30
100
AcDbLine
 10
-500.0
 20
403.8524051159837
 30
0.0
 11
500.0
 21
403.8524051159837
 31
0.0
  0
CIRCLE
  5
565
330
6F
100
AcDbEntity
  8
SIZE
  6
Continuous
 62
    30
100
AcDbCircle
 10
-500.0
 20
403.8524051159837
 30
0.0
 40
7.5
  0
CIRCLE
  5
566
330
6F
100
AcDbEntity
  8
SIZE
  6
Continuous
 62
    30
100
AcDbCircle
 10
500.0
 20
403.8524051159837
 30
0.0
 40
7.5
  0
TEXT
  5
567
330
6F
100
AcDbEntity
  8
SIZE
  6
Continuous
 62
    30
100
AcDbText
 10
-60.0
 20
423.8524051159838
 30
0.0
 40
40.0
  1
1000
 41
0.9
 72
     1
 11
0.0
 21
423.8524051159838
 31
0.0
100
AcDbText
  0
POINT
  5
568
330
6F
100
AcDbEntity
  8
DEFPOINTS
  6
Continuous
 62
    30
100
AcDbPoint
 10
-500.0
 20
-20.70000000000073
 30
0.0
  0
POINT
  5
569
330
6F
100
AcDbEntity
  8
DEFPOINTS
  6
Continuous
 62
    30
100
AcDbPoint
 10
500.0
 20
-20.70000000000073
 30
0.0
  0
POINT
  5
56A
330
6F
100
AcDbEntity
  8
DEFPOINTS
  6
Continuous
 62
    30
100
AcDbPoint
 10
500.0
 20
403.8524051159837
 30
0.0
  0
LINE
  5
56B
330
6F
100
AcDbEntity
  8
SIZE
  6
Continuous
 62
    30
100
AcDbLine
 10
461.3538121066929
 20
-3.000000000000004
 30
0.0
 11
763.5696215755831
 21
-3.000000000000091
 31
0.0
  0
LINE
  5
56C
330
6F
100
AcDbEntity
  8
SIZE
  6
Continuous
 62
    30
100
AcDbLine
 10
395.0007601401958
 20
-118.4999999999954
 30
0.0
 11
763.5696215755831
 21
-118.4999999999955
 31
0.0
  0
LINE
  5
56D
330
6F
100
AcDbEntity
  8
SIZE
  6
Continuous
 62
    30
100
AcDbLine
 10
743.5696215755831
 20
-3.000000000000084
 30
0.0
 11
743.5696215755831
 21
-118.4999999999955
 31
0.0
  0
CIRCLE
  5
56E
330
6F
100
AcDbEntity
  8
SIZE
  6
Continuous
 62
    30
100
AcDbCircle
 10
743.5696215755831
 20
-3.000000000000084
 30
0.0
 40
7.5
  0
CIRCLE
  5
56F
330
6F
100
AcDbEntity
  8
SIZE
  6
Continuous
 62
    30
100
AcDbCircle
 10
743.5696215755831
 20
-118.4999999999955
 30
0.0
 40
7.5
  0
TEXT
  5
570
330
6F
100
AcDbEntity
  8
SIZE
  6
Continuous
 62
    30
100
AcDbText
 10
723.5696215755833
 20
-99.32142857142627
 30
0.0
 40
40.0
  1
116
 50
90.0
 41
0.9
 72
     1
 11
723.5696215755833
 21
-60.74999999999771
 31
0.0
100
AcDbText
  0
POINT
  5
571
330
6F
100
AcDbEntity
  8
DEFPOINTS
  6
Continuous
 62
    30
100
AcDbPoint
 10
441.3538121066931
 20
-3.0
 30
0.0
  0
POINT
  5
572
330
6F
100
AcDbEntity
  8
DEFPOINTS
  6
Continuous
 62
    30
100
AcDbPoint
 10
375.0007601401958
 20
-118.4999999999954
 30
0.0
  0
POINT
  5
573
330
6F
100
AcDbEntity
  8
DEFPOINTS
  6
Continuous
 62
    30
100
AcDbPoint
 10
743.5696215755831
 20
-118.4999999999955
 30
0.0
  0
LINE
  5
574
330
6F
100
AcDbEntity
  8
SIZE
  6
Continuous
 62
    30
100
AcDbLine
 10
500.0
 20
-0.7000000000007276
 30
0.0
 11
500.0
 21
210.9890570364604
 31
0.0
  0
LINE
  5
575
330
6F
100
AcDbEntity
  8
SIZE
  6
Continuous
 62
    30
100
AcDbLine
 10
450.0
 20
20.0
 30
0.0
 11
450.0
 21
210.9890570364604
 31
0.0
  0
LINE
  5
576
330
6F
100
AcDbEntity
  8
SIZE
  6
Continuous
 62
    30
100
AcDbLine
 10
450.0
 20
190.9890570364604
 30
0.0
 11
500.0
 21
190.9890570364604
 31
0.0
  0
LINE
  5
577
330
6F
100
AcDbEntity
  8
SIZE
  6
Continuous
 62
    30
100
AcDbLine
 10
500.0
 20
190.9890570364604
 30
0.0
 11
629.142857142857
 21
190.9890570364604
 31
0.0
  0
CIRCLE
  5
578
330
6F
100
AcDbEntity
  8
SIZE
  6
Continuous
 62
    30
100
AcDbCircle
 10
450.0
 20
190.9890570364604
 30
0.0
 40
7.5
  0
CIRCLE
  5
579
330
6F
100
AcDbEntity
  8
SIZE
  6
Continuous
 62
    30
100
AcDbCircle
 10
500.0
 20
190.9890570364604
 30
0.0
 40
7.5
  0
TEXT
  5
57A
330
6F
100
AcDbEntity
  8
SIZE
  6
Continuous
 62
    30
100
AcDbText
 10
550.8571428571428
 20
210.9890570364604
 30
0.0
 40
40.0
  1
50
 41
0.9
 72
     1
 11
580.0
 21
210.9890570364604
 31
0.0
100
AcDbText
  0
POINT
  5
57B
330
6F
100
AcDbEntity
  8
DEFPOINTS
  6
Continuous
 62
    30
100
AcDbPoint
 10
500.0
 20
-20.70000000000073
 30
0.0
  0
POINT
  5
57C
330
6F
100
AcDbEntity
  8
DEFPOINTS
  6
Continuous
 62
    30
100
AcDbPoint
 10
450.0
 20
0.0
 30
0.0
  0
POINT
  5
57D
330
6F
100
AcDbEntity
  8
DEFPOINTS
  6
Continuous
 62
    30
100
AcDbPoint
 10
450.0
 20
190.9890570364604
 30
0.0
  0
LINE
  5
57E
330
6F
100
AcDbEntity
  8
SIZE
  6
Continuous
 62
    30
100
AcDbLine
 10
-470.0000000000036
 20
0.0000000000000057
 30
0.0
 11
-807.6337342966478
 21
0.0000000000001013
 31
0.0
  0
LINE
  5
57F
330
6F
100
AcDbEntity
  8
SIZE
  6
Continuous
 62
    30
100
AcDbLine
 10
-453.5
 20
-272.0000000000005
 30
0.0
 11
-807.6337342966478
 21
-272.0000000000004
 31
0.0
  0
LINE
  5
580
330
6F
100
AcDbEntity
  8
SIZE
  6
Continuous
 62
    30
100
AcDbLine
 10
-787.6337342966479
 20
0.0000000000000956
 30
0.0
 11
-787.6337342966479
 21
-272.0000000000004
 31
0.0
  0
CIRCLE
  5
581
330
6F
100
AcDbEntity
  8
SIZE
  6
Continuous
 62
    30
100
AcDbCircle
 10
-787.6337342966479
 20
0.0000000000000956
 30
0.0
 40
7.5
  0
CIRCLE
  5
582
330
6F
100
AcDbEntity
  8
SIZE
  6
Continuous
 62
    30
100
AcDbCircle
 10
-787.6337342966479
 20
-272.0000000000004
 30
0.0
 40
7.5
  0
TEXT
  5
583
330
6F
100
AcDbEntity
  8
SIZE
  6
Continuous
 62
    30
100
AcDbText
 10
-807.6337342966478
 20
-182.2857142857144
 30
0.0
 40
40.0
  1
272
 50
90.0
 41
0.9
 72
     1
 11
-807.6337342966478
 21
-136.0000000000002
 31
0.0
100
AcDbText
  0
POINT
  5
584
330
6F
100
AcDbEntity
  8
DEFPOINTS
  6
Continuous
 62
    30
100
AcDbPoint
 10
-450.0000000000036
 20
0.0
 30
0.0
  0
POINT
  5
585
330
6F
100
AcDbEntity
  8
DEFPOINTS
  6
Continuous
 62
    30
100
AcDbPoint
 10
-433.4999999999999
 20
-272.0000000000005
 30
0.0
  0
POINT
  5
586
330
6F
100
AcDbEntity
  8
DEFPOINTS
  6
Continuous
 62
    30
100
AcDbPoint
 10
-787.6337342966479
 20
-272.0000000000004
 30
0.0
  0
LINE
  5
587
330
6F
100
AcDbEntity
  8
SIZE
  6
Continuous
 62
    30
100
AcDbLine
 10
-530.0000000001046
 20
-391.75
 30
0.0
 11
-807.6337342966619
 21
-391.75
 31
0.0
  0
LINE
  5
588
330
6F
100
AcDbEntity
  8
SIZE
  6
Continuous
 62
    30
100
AcDbLine
 10
-473.4999999999963
 20
-272.0000000000005
 30
0.0
 11
-807.6337342966619
 21
-272.0000000000004
 31
0.0
  0
LINE
  5
589
330
6F
100
AcDbEntity
  8
SIZE
  6
Continuous
 62
    30
100
AcDbLine
 10
-787.6337342966617
 20
-272.0000000000004
 30
0.0
 11
-787.6337342966617
 21
-391.75
 31
0.0
  0
LINE
  5
58A
330
6F
100
AcDbEntity
  8
SIZE
  6
Continuous
 62
    30
100
AcDbLine
 10
-787.6337342966617
 20
-391.75
 30
0.0
 11
-787.6337342966617
 21
-697.1797836051836
 31
0.0
  0
CIRCLE
  5
58B
330
6F
100
AcDbEntity
  8
SIZE
  6
Continuous
 62
    30
100
AcDbCircle
 10
-787.6337342966617
 20
-272.0000000000004
 30
0.0
 40
7.5
  0
CIRCLE
  5
58C
330
6F
100
AcDbEntity
  8
SIZE
  6
Continuous
 62
    30
100
AcDbCircle
 10
-787.6337342966617
 20
-391.75
 30
0.0
 40
7.5
  0
TEXT
  5
58D
330
6F
100
AcDbEntity
  8
SIZE
  6
Continuous
 62
    30
100
AcDbText
 10
-807.6337342966617
 20
-677.1797836051838
 30
0.0
 40
40.0
  1
130～280
 50
90.0
 41
0.9
 72
     1
 11
-807.6337342966617
 21
-561.2940693194696
 31
0.0
100
AcDbText
  0
POINT
  5
58E
330
6F
100
AcDbEntity
  8
DEFPOINTS
  6
Continuous
 62
    30
100
AcDbPoint
 10
-510.0000000001045
 20
-391.75
 30
0.0
  0
POINT
  5
58F
330
6F
100
AcDbEntity
  8
DEFPOINTS
  6
Continuous
 62
    30
100
AcDbPoint
 10
-453.4999999999963
 20
-272.0000000000005
 30
0.0
  0
POINT
  5
590
330
6F
100
AcDbEntity
  8
DEFPOINTS
  6
Continuous
 62
    30
100
AcDbPoint
 10
-787.6337342966617
 20
-272.0000000000004
 30
0.0
  0
LINE
  5
591
330
6F
100
AcDbEntity
  8
NOTE
  6
Continuous
 62
     4
100
AcDbLine
 10
545.6752901328027
 20
-157.7125132001711
 30
0.0
 11
509.2210512828922
 21
-157.7125132001711
 31
0.0
  0
LINE
  5
592
330
6F
100
AcDbEntity
  8
SIZE
  6
Continuous
 62
    30
100
AcDbLine
 10
464.4481707078475
 20
-2.512513200170365
 30
0.0
 11
851.251270763325
 21
-2.512513200170475
 31
0.0
  0
LINE
  5
593
330
6F
100
AcDbEntity
  8
SIZE
  6
Continuous
 62
    30
100
AcDbLine
 10
544.6752901328027
 20
-124.7125132001711
 30
0.0
 11
851.251270763325
 21
-124.7125132001712
 31
0.0
  0
LINE
  5
594
330
6F
100
AcDbEntity
  8
SIZE
  6
Continuous
 62
    30
100
AcDbLine
 10
831.2512707633249
 20
-2.51251320017047
 30
0.0
 11
831.2512707633249
 21
-124.7125132001712
 31
0.0
  0
CIRCLE
  5
595
330
6F
100
AcDbEntity
  8
SIZE
  6
Continuous
 62
    30
100
AcDbCircle
 10
831.2512707633249
 20
-2.51251320017047
 30
0.0
 40
7.5
  0
CIRCLE
  5
596
330
6F
100
AcDbEntity
  8
SIZE
  6
Continuous
 62
    30
100
AcDbCircle
 10
831.2512707633249
 20
-124.7125132001712
 30
0.0
 40
7.5
  0
TEXT
  5
597
330
6F
100
AcDbEntity
  8
SIZE
  6
Continuous
 62
    30
100
AcDbText
 10
811.251270763325
 20
-106.4696560573135
 30
0.0
 40
40.0
  1
122
 50
90.0
 41
0.9
 72
     1
 11
811.251270763325
 21
-63.61251320017069
 31
0.0
100
AcDbText
  0
POINT
  5
598
330
6F
100
AcDbEntity
  8
DEFPOINTS
  6
Continuous
 62
    30
100
AcDbPoint
 10
444.4481707078475
 20
-2.51251320017036
 30
0.0
  0
POINT
  5
599
330
6F
100
AcDbEntity
  8
DEFPOINTS
  6
Continuous
 62
    30
100
AcDbPoint
 10
524.6752901328027
 20
-124.7125132001711
 30
0.0
  0
POINT
  5
59A
330
6F
100
AcDbEntity
  8
DEFPOINTS
  6
Continuous
 62
    30
100
AcDbPoint
 10
831.2512707633249
 20
-124.7125132001712
 30
0.0
  0
LINE
  5
59B
330
6F
100
AcDbEntity
  8
SIZE
  6
Continuous
 62
    30
100
AcDbLine
 10
565.6752901328027
 20
-157.7125132001711
 30
0.0
 11
851.251270763325
 21
-157.7125132001711
 31
0.0
  0
LINE
  5
59C
330
6F
100
AcDbEntity
  8
SIZE
  6
Continuous
 62
    30
100
AcDbLine
 10
544.6752901328027
 20
-124.7125132001711
 30
0.0
 11
851.251270763325
 21
-124.7125132001712
 31
0.0
  0
LINE
  5
59D
330
6F
100
AcDbEntity
  8
SIZE
  6
Continuous
 62
    30
100
AcDbLine
 10
831.2512707633249
 20
-124.7125132001712
 30
0.0
 11
831.2512707633249
 21
-94.71251320017115
 31
0.0
  0
LINE
  5
59E
330
6F
100
AcDbEntity
  8
SIZE
  6
Continuous
 62
    30
100
AcDbLine
 10
831.2512707633249
 20
-157.7125132001711
 30
0.0
 11
831.2512707633249
 21
-315.9982274858876
 31
0.0
  0
LINE
  5
59F
330
6F
100
AcDbEntity
  8
SIZE
  6
Continuous
 62
    30
100
AcDbLine
 10
831.2512707633249
 20
-124.7125132001712
 30
0.0
 11
831.2512707633249
 21
-157.7125132001711
 31
0.0
  0
CIRCLE
  5
5A0
330
6F
100
AcDbEntity
  8
SIZE
  6
Continuous
 62
    30
100
AcDbCircle
 10
831.2512707633249
 20
-124.7125132001712
 30
0.0
 40
7.5
  0
CIRCLE
  5
5A1
330
6F
100
AcDbEntity
  8
SIZE
  6
Continuous
 62
    30
100
AcDbCircle
 10
831.2512707633249
 20
-157.7125132001711
 30
0.0
 40
7.5
  0
TEXT
  5
5A2
330
6F
100
AcDbEntity
  8
SIZE
  6
Continuous
 62
    30
100
AcDbText
 10
811.251270763325
 20
-295.9982274858875
 30
0.0
 40
40.0
  1
33
 50
90.0
 41
0.9
 72
     1
 11
811.251270763325
 21
-266.8553703430303
 31
0.0
100
AcDbText
  0
POINT
  5
5A3
330
6F
100
AcDbEntity
  8
DEFPOINTS
  6
Continuous
 62
    30
100
AcDbPoint
 10
545.6752901328027
 20
-157.7125132001711
 30
0.0
  0
POINT
  5
5A4
330
6F
100
AcDbEntity
  8
DEFPOINTS
  6
Continuous
 62
    30
100
AcDbPoint
 10
524.6752901328027
 20
-124.7125132001711
 30
0.0
  0
POINT
  5
5A5
330
6F
100
AcDbEntity
  8
DEFPOINTS
  6
Continuous
 62
    30
100
AcDbPoint
 10
831.2512707633249
 20
-124.7125132001712
 30
0.0
  0
LINE
  5
5A6
330
6F
100
AcDbEntity
  8
SIZE
  6
Continuous
 62
    30
100
AcDbLine
 10
449.9481707078476
 20
-19.51251320017036
 30
0.0
 11
449.9481707078475
 21
-586.7058530506201
 31
0.0
  0
LINE
  5
5A7
330
6F
100
AcDbEntity
  8
SIZE
  6
Continuous
 62
    30
100
AcDbLine
 10
506.4481707078475
 20
-124.4431588748502
 30
0.0
 11
506.4481707078475
 21
-586.7058530506201
 31
0.0
  0
LINE
  5
5A8
330
6F
100
AcDbEntity
  8
SIZE
  6
Continuous
 62
    30
100
AcDbLine
 10
449.9481707078475
 20
-566.7058530506201
 30
0.0
 11
506.4481707078475
 21
-566.7058530506201
 31
0.0
  0
LINE
  5
5A9
330
6F
100
AcDbEntity
  8
SIZE
  6
Continuous
 62
    30
100
AcDbLine
 10
506.4481707078475
 20
-566.7058530506201
 30
0.0
 11
634.7338849935632
 21
-566.7058530506201
 31
0.0
  0
CIRCLE
  5
5AA
330
6F
100
AcDbEntity
  8
SIZE
  6
Continuous
 62
    30
100
AcDbCircle
 10
449.9481707078475
 20
-566.7058530506201
 30
0.0
 40
7.5
  0
CIRCLE
  5
5AB
330
6F
100
AcDbEntity
  8
SIZE
  6
Continuous
 62
    30
100
AcDbCircle
 10
506.4481707078475
 20
-566.7058530506201
 30
0.0
 40
7.5
  0
TEXT
  5
5AC
330
6F
100
AcDbEntity
  8
SIZE
  6
Continuous
 62
    30
100
AcDbText
 10
556.448170707849
 20
-546.7058530506202
 30
0.0
 40
40.0
  1
57
 41
0.9
 72
     1
 11
585.5910278507061
 21
-546.7058530506202
 31
0.0
100
AcDbText
  0
POINT
  5
5AD
330
6F
100
AcDbEntity
  8
DEFPOINTS
  6
Continuous
 62
    30
100
AcDbPoint
 10
449.9481707078476
 20
0.4874867998296395
 30
0.0
  0
POINT
  5
5AE
330
6F
100
AcDbEntity
  8
DEFPOINTS
  6
Continuous
 62
    30
100
AcDbPoint
 10
506.4481707078475
 20
-104.4431588748502
 30
0.0
  0
POINT
  5
5AF
330
6F
100
AcDbEntity
  8
DEFPOINTS
  6
Continuous
 62
    30
100
AcDbPoint
 10
506.4481707078475
 20
-566.7058530506201
 30
0.0
  0
LINE
  5
5B0
330
6F
100
AcDbEntity
  8
SIZE
  6
Continuous
 62
    30
100
AcDbLine
 10
449.9481707078476
 20
-22.31589134387286
 30
0.0
 11
449.9481707078475
 21
-680.0806153359245
 31
0.0
  0
LINE
  5
5B1
330
6F
100
AcDbEntity
  8
SIZE
  6
Continuous
 62
    30
100
AcDbLine
 10
527.4481707078474
 20
-157.4431588748502
 30
0.0
 11
527.4481707078474
 21
-680.0806153359245
 31
0.0
  0
LINE
  5
5B2
330
6F
100
AcDbEntity
  8
SIZE
  6
Continuous
 62
    30
100
AcDbLine
 10
449.9481707078475
 20
-660.0806153359245
 30
0.0
 11
527.4481707078474
 21
-660.0806153359245
 31
0.0
  0
LINE
  5
5B3
330
6F
100
AcDbEntity
  8
SIZE
  6
Continuous
 62
    30
100
AcDbLine
 10
527.4481707078474
 20
-660.0806153359245
 30
0.0
 11
655.7338849935623
 21
-660.0806153359245
 31
0.0
  0
CIRCLE
  5
5B4
330
6F
100
AcDbEntity
  8
SIZE
  6
Continuous
 62
    30
100
AcDbCircle
 10
449.9481707078475
 20
-660.0806153359245
 30
0.0
 40
7.5
  0
CIRCLE
  5
5B5
330
6F
100
AcDbEntity
  8
SIZE
  6
Continuous
 62
    30
100
AcDbCircle
 10
527.4481707078474
 20
-660.0806153359245
 30
0.0
 40
7.5
  0
TEXT
  5
5B6
330
6F
100
AcDbEntity
  8
SIZE
  6
Continuous
 62
    30
100
AcDbText
 10
577.4481707078481
 20
-640.0806153359245
 30
0.0
 40
40.0
  1
78
 41
0.9
 72
     1
 11
606.5910278507052
 21
-640.0806153359245
 31
0.0
100
AcDbText
  0
POINT
  5
5B7
330
6F
100
AcDbEntity
  8
DEFPOINTS
  6
Continuous
 62
    30
100
AcDbPoint
 10
449.9481707078476
 20
-2.315891343872863
 30
0.0
  0
POINT
  5
5B8
330
6F
100
AcDbEntity
  8
DEFPOINTS
  6
Continuous
 62
    30
100
AcDbPoint
 10
527.4481707078474
 20
-137.4431588748503
 30
0.0
  0
POINT
  5
5B9
330
6F
100
AcDbEntity
  8
DEFPOINTS
  6
Continuous
 62
    30
100
AcDbPoint
 10
527.4481707078474
 20
-660.0806153359245
 30
0.0
  0
LINE
  5
5BA
330
6F
100
AcDbEntity
  8
NOTE
  6
Continuous
 62
     4
100
AcDbLine
 10
554.8836322410005
 20
-172.8544797542944
 30
0.0
 11
527.499999999998
 21
-158.1999999999998
 31
0.0
  0
LINE
  5
5BB
330
6F
100
AcDbEntity
  8
NOTE
  6
Continuous
 62
     4
100
AcDbLine
 10
527.499999999998
 20
-158.1999999999998
 30
0.0
 11
558.5421610502835
 21
-157.1993357667866
 31
0.0
  0
LINE
  5
5BC
330
6F
100
AcDbEntity
  8
NOTE
  6
Continuous
 62
     4
100
AcDbLine
 10
527.499999999998
 20
-158.1999999999998
 30
0.0
 11
556.712896645642
 21
-165.0269077605408
 31
0.0
  0
LINE
  5
5BD
330
6F
100
AcDbEntity
  8
NOTE
  6
Continuous
 62
     4
100
AcDbLine
 10
556.712896645642
 20
-165.0269077605408
 30
0.0
 11
887.6548315012714
 21
-242.3663818551522
 31
0.0
  0
LINE
  5
5BE
330
6F
100
AcDbEntity
  8
NOTE
  6
Continuous
 62
     4
100
AcDbLine
 10
887.6548315012714
 20
-242.3663818551522
 30
0.0
 11
1341.532255820124
 21
-242.3663818551522
 31
0.0
  0
LINE
  5
5BF
330
6F
100
AcDbEntity
  8
NOTE
  6
Continuous
 62
     4
100
AcDbLine
 10
534.9390498552065
 20
-112.0784147614426
 30
0.0
 11
506.4481707078475
 21
-124.4431588748502
 31
0.0
  0
LINE
  5
5C0
330
6F
100
AcDbEntity
  8
NOTE
  6
Continuous
 62
     4
100
AcDbLine
 10
506.4481707078475
 20
-124.4431588748502
 30
0.0
 11
524.9396238821121
 21
-99.48953687155244
 31
0.0
  0
LINE
  5
5C1
330
6F
100
AcDbEntity
  8
NOTE
  6
Continuous
 62
     4
100
AcDbLine
 10
506.4481707078475
 20
-124.4431588748502
 30
0.0
 11
529.9393368686597
 21
-105.7839758164973
 31
0.0
  0
LINE
  5
5C2
330
6F
100
AcDbEntity
  8
NOTE
  6
Continuous
 62
     4
100
AcDbLine
 10
529.9393368686597
 20
-105.7839758164973
 30
0.0
 11
792.0212655623855
 21
102.3893711474465
 31
0.0
  0
LINE
  5
5C3
330
6F
100
AcDbEntity
  8
NOTE
  6
Continuous
 62
     4
100
AcDbLine
 10
792.0212655623855
 20
102.3893711474465
 30
0.0
 11
1237.57711834409
 21
102.3893711474465
 31
0.0
  0
TEXT
  5
5C4
330
6F
100
AcDbEntity
  8
NOTE
  6
Continuous
 62
     4
100
AcDbText
 10
911.7798074249968
 20
-213.3121142405198
 30
0.0
 40
64.0
  1
RG %%c12.7
100
AcDbText
  0
TEXT
  5
5C5
330
6F
100
AcDbEntity
  8
NOTE
  6
Continuous
 62
     4
100
AcDbText
 10
810.4382415339879
 20
132.3636814658221
 30
0.0
 40
64.0
  1
RL %%c6.35
100
AcDbText
  0
LINE
  5
5C6
330
6F
100
AcDbEntity
  8
SIZE
  6
Continuous
 62
    30
100
AcDbLine
 10
-477.0
 20
40.0
 30
0.0
 11
-477.0
 21
322.6835812552762
 31
0.0
  0
LINE
  5
5C7
330
6F
100
AcDbEntity
  8
SIZE
  6
Continuous
 62
    30
100
AcDbLine
 10
477.0
 20
40.0
 30
0.0
 11
477.0
 21
322.6835812552762
 31
0.0
  0
LINE
  5
5C8
330
6F
100
AcDbEntity
  8
SIZE
  6
Continuous
 62
    30
100
AcDbLine
 10
-477.0
 20
302.6835812552763
 30
0.0
 11
477.0
 21
302.6835812552763
 31
0.0
  0
CIRCLE
  5
5C9
330
6F
100
AcDbEntity
  8
SIZE
  6
Continuous
 62
    30
100
AcDbCircle
 10
-477.0
 20
302.6835812552763
 30
0.0
 40
7.5
  0
CIRCLE
  5
5CA
330
6F
100
AcDbEntity
  8
SIZE
  6
Continuous
 62
    30
100
AcDbCircle
 10
477.0
 20
302.6835812552763
 30
0.0
 40
7.5
  0
TEXT
  5
5CB
330
6F
100
AcDbEntity
  8
SIZE
  6
Continuous
 62
    30
100
AcDbText
 10
-47.14285714285713
 20
322.6835812552762
 30
0.0
 40
40.0
  1
954
 41
0.9
 72
     1
 11
0.0
 21
322.6835812552762
 31
0.0
100
AcDbText
  0
POINT
  5
5CC
330
6F
100
AcDbEntity
  8
DEFPOINTS
  6
Continuous
 62
    30
100
AcDbPoint
 10
-477.0
 20
20.0
 30
0.0
  0
POINT
  5
5CD
330
6F
100
AcDbEntity
  8
DEFPOINTS
  6
Continuous
 62
    30
100
AcDbPoint
 10
477.0
 20
20.0
 30
0.0
  0
POINT
  5
5CE
330
6F
100
AcDbEntity
  8
DEFPOINTS
  6
Continuous
 62
    30
100
AcDbPoint
 10
477.0
 20
302.6835812552763
 30
0.0
  0
LINE
  5
5CF
330
6F
100
AcDbEntity
  8
SIZE
  6
Continuous
 62
    30
100
AcDbLine
 10
-500.0
 20
-0.7000000000007276
 30
0.0
 11
-500.0
 21
322.6835812552762
 31
0.0
  0
LINE
  5
5D0
330
6F
100
AcDbEntity
  8
SIZE
  6
Continuous
 62
    30
100
AcDbLine
 10
-477.0
 20
40.0
 30
0.0
 11
-477.0
 21
322.6835812552762
 31
0.0
  0
LINE
  5
5D1
330
6F
100
AcDbEntity
  8
SIZE
  6
Continuous
 62
    30
100
AcDbLine
 10
-477.0
 20
302.6835812552763
 30
0.0
 11
-447.0
 21
302.6835812552763
 31
0.0
  0
LINE
  5
5D2
330
6F
100
AcDbEntity
  8
SIZE
  6
Continuous
 62
    30
100
AcDbLine
 10
-500.0
 20
302.6835812552763
 30
0.0
 11
-662.4761904761928
 21
302.6835812552763
 31
0.0
  0
LINE
  5
5D3
330
6F
100
AcDbEntity
  8
SIZE
  6
Continuous
 62
    30
100
AcDbLine
 10
-477.0
 20
302.6835812552763
 30
0.0
 11
-500.0
 21
302.6835812552763
 31
0.0
  0
CIRCLE
  5
5D4
330
6F
100
AcDbEntity
  8
SIZE
  6
Continuous
 62
    30
100
AcDbCircle
 10
-477.0
 20
302.6835812552763
 30
0.0
 40
7.5
  0
CIRCLE
  5
5D5
330
6F
100
AcDbEntity
  8
SIZE
  6
Continuous
 62
    30
100
AcDbCircle
 10
-500.0
 20
302.6835812552763
 30
0.0
 40
7.5
  0
TEXT
  5
5D6
330
6F
100
AcDbEntity
  8
SIZE
  6
Continuous
 62
    30
100
AcDbText
 10
-642.4761904761927
 20
322.6835812552762
 30
0.0
 40
40.0
  1
23
 41
0.9
 72
     1
 11
-613.3333333333356
 21
322.6835812552762
 31
0.0
100
AcDbText
  0
POINT
  5
5D7
330
6F
100
AcDbEntity
  8
DEFPOINTS
  6
Continuous
 62
    30
100
AcDbPoint
 10
-500.0
 20
-20.70000000000073
 30
0.0
  0
POINT
  5
5D8
330
6F
100
AcDbEntity
  8
DEFPOINTS
  6
Continuous
 62
    30
100
AcDbPoint
 10
-477.0
 20
20.0
 30
0.0
  0
POINT
  5
5D9
330
6F
100
AcDbEntity
  8
DEFPOINTS
  6
Continuous
 62
    30
100
AcDbPoint
 10
-477.0
 20
302.6835812552763
 30
0.0
  0
LINE
  5
5DA
330
6F
100
AcDbEntity
  8
SIZE
  6
Continuous
 62
    30
100
AcDbLine
 10
500.0
 20
-0.7000000000007276
 30
0.0
 11
500.0
 21
322.6835812552762
 31
0.0
  0
LINE
  5
5DB
330
6F
100
AcDbEntity
  8
SIZE
  6
Continuous
 62
    30
100
AcDbLine
 10
477.0
 20
40.0
 30
0.0
 11
477.0
 21
322.6835812552762
 31
0.0
  0
LINE
  5
5DC
330
6F
100
AcDbEntity
  8
SIZE
  6
Continuous
 62
    30
100
AcDbLine
 10
477.0
 20
302.6835812552763
 30
0.0
 11
447.0
 21
302.6835812552763
 31
0.0
  0
LINE
  5
5DD
330
6F
100
AcDbEntity
  8
SIZE
  6
Continuous
 62
    30
100
AcDbLine
 10
500.0
 20
302.6835812552763
 30
0.0
 11
662.4761904761856
 21
302.6835812552763
 31
0.0
  0
LINE
  5
5DE
330
6F
100
AcDbEntity
  8
SIZE
  6
Continuous
 62
    30
100
AcDbLine
 10
477.0
 20
302.6835812552763
 30
0.0
 11
500.0
 21
302.6835812552763
 31
0.0
  0
CIRCLE
  5
5DF
330
6F
100
AcDbEntity
  8
SIZE
  6
Continuous
 62
    30
100
AcDbCircle
 10
477.0
 20
302.6835812552763
 30
0.0
 40
7.5
  0
CIRCLE
  5
5E0
330
6F
100
AcDbEntity
  8
SIZE
  6
Continuous
 62
    30
100
AcDbCircle
 10
500.0
 20
302.6835812552763
 30
0.0
 40
7.5
  0
TEXT
  5
5E1
330
6F
100
AcDbEntity
  8
SIZE
  6
Continuous
 62
    30
100
AcDbText
 10
584.1904761904713
 20
322.6835812552762
 30
0.0
 40
40.0
  1
23
 41
0.9
 72
     1
 11
613.3333333333284
 21
322.6835812552762
 31
0.0
100
AcDbText
  0
POINT
  5
5E2
330
6F
100
AcDbEntity
  8
DEFPOINTS
  6
Continuous
 62
    30
100
AcDbPoint
 10
500.0
 20
-20.70000000000073
 30
0.0
  0
POINT
  5
5E3
330
6F
100
AcDbEntity
  8
DEFPOINTS
  6
Continuous
 62
    30
100
AcDbPoint
 10
477.0
 20
20.0
 30
0.0
  0
POINT
  5
5E4
330
6F
100
AcDbEntity
  8
DEFPOINTS
  6
Continuous
 62
    30
100
AcDbPoint
 10
477.0
 20
302.6835812552763
 30
0.0
  0
LINE
  5
5E5
330
6F
100
AcDbEntity
  8
NOTE
  6
Continuous
 62
     4
100
AcDbLine
 10
506.4481707078475
 20
-144.9818675254919
 30
0.0
 11
506.4481707078475
 21
-104.4431588748502
 31
0.0
  0
LINE
  5
5E6
330
6F
100
AcDbEntity
  8
NOTE
  6
Continuous
 62
     4
100
AcDbLine
 10
524.6752901328027
 20
-124.7125132001711
 30
0.0
 11
488.2210512828922
 21
-124.7125132001711
 31
0.0
  0
LINE
  5
5E7
330
6F
100
AcDbEntity
  8
NOTE
  6
Continuous
 62
     4
100
AcDbLine
 10
527.4481707078474
 20
-177.9818675254919
 30
0.0
 11
527.4481707078474
 21
-137.4431588748503
 31
0.0
  0
LINE
  5
5E8
330
6F
100
AcDbEntity
  8
NOTE
  6
Continuous
 62
     4
100
AcDbLine
 10
545.6752901328027
 20
-157.7125132001711
 30
0.0
 11
509.2210512828922
 21
-157.7125132001711
 31
0.0
  0
LINE
  5
5E9
330
6F
100
AcDbEntity
  8
BASIS
  6
DASHDOT
 62
     6
100
AcDbLine
 10
0.0
 20
78.82200203269622
 30
0.0
 11
0.0
 21
-438.5419926641288
 31
0.0
  0
CIRCLE
  5
5EA
330
6F
100
AcDbEntity
  8
ARRANGE
  6
Continuous
 62
     1
100
AcDbCircle
 10
0.0
 20
0.0
 30
0.0
 40
40.0
  0
LINE
  5
5EB
330
6F
100
AcDbEntity
  8
ARRANGE
  6
Continuous
 62
     1
100
AcDbLine
 10
-36.84543740734807
 20
-36.84543740734807
 30
0.0
 11
36.84543740734807
 21
36.84543740734807
 31
0.0
  0
LINE
  5
5EC
330
6F
100
AcDbEntity
  8
ARRANGE
  6
Continuous
 62
     1
100
AcDbLine
 10
-36.84543740734807
 20
36.84543740734807
 30
0.0
 11
36.84543740734807
 21
-36.84543740735171
 31
0.0
  0
LINE
  5
5ED
330
6F
100
AcDbEntity
  8
NOTE
  6
Continuous
 62
     4
100
AcDbLine
 10
501.8121963512276
 20
0.6808051334073753
 30
0.0
 11
477.0000065651164
 21
-17.99999596283851
 31
0.0
  0
LINE
  5
5EE
330
6F
100
AcDbEntity
  8
NOTE
  6
Continuous
 62
     4
100
AcDbLine
 10
477.0000065651164
 20
-17.99999596283851
 30
0.0
 11
489.1475928249591
 21
10.58414718750237
 31
0.0
  0
LINE
  5
5EF
330
6F
100
AcDbEntity
  8
NOTE
  6
Continuous
 62
     4
100
AcDbLine
 10
477.0000065651164
 20
-17.99999596283851
 30
0.0
 11
495.4798945880932
 21
5.632476160454642
 31
0.0
  0
LINE
  5
5F0
330
6F
100
AcDbEntity
  8
NOTE
  6
Continuous
 62
     4
100
AcDbLine
 10
495.4798945880932
 20
5.632476160454642
 30
0.0
 11
756.5337684501993
 21
339.4736979824356
 31
0.0
  0
LINE
  5
5F1
330
6F
100
AcDbEntity
  8
NOTE
  6
Continuous
 62
     4
100
AcDbLine
 10
756.5337684501993
 20
339.4736979824356
 30
0.0
 11
1668.260017560305
 21
339.4736979824356
 31
0.0
  0
TEXT
  5
5F2
330
6F
100
AcDbEntity
  8
NOTE
  6
Continuous
 62
     4
100
AcDbText
 10
763.2772271058621
 20
363.7655755928099
 30
0.0
 40
64.0
  1
AH 2×2 M10ボルト用
100
AcDbText
  0
LINE
  5
5F3
330
6F
100
AcDbEntity
  8
SIZE
  6
Continuous
 62
    30
100
AcDbLine
 10
-510.0000000001155
 20
-415.7565084381016
 30
0.0
 11
-510.0000000001155
 21
-742.0041535979269
 31
0.0
  0
LINE
  5
5F4
330
6F
100
AcDbEntity
  8
SIZE
  6
Continuous
 62
    30
100
AcDbLine
 10
889.999753032921
 20
-415.7565084381016
 30
0.0
 11
889.999753032921
 21
-742.0041535979269
 31
0.0
  0
LINE
  5
5F5
330
6F
100
AcDbEntity
  8
SIZE
  6
Continuous
 62
    30
100
AcDbLine
 10
-510.0000000001155
 20
-722.0041535979269
 30
0.0
 11
889.999753032921
 21
-722.0041535979269
 31
0.0
  0
CIRCLE
  5
5F6
330
6F
100
AcDbEntity
  8
SIZE
  6
Continuous
 62
    30
100
AcDbCircle
 10
-510.0000000001155
 20
-722.0041535979269
 30
0.0
 40
7.5
  0
CIRCLE
  5
5F7
330
6F
100
AcDbEntity
  8
SIZE
  6
Continuous
 62
    30
100
AcDbCircle
 10
889.999753032921
 20
-722.0041535979269
 30
0.0
 40
7.5
  0
TEXT
  5
5F8
330
6F
100
AcDbEntity
  8
SIZE
  6
Continuous
 62
    30
100
AcDbText
 10
129.9998765164028
 20
-702.0041535979272
 30
0.0
 40
40.0
  1
1400
 41
0.9
 72
     1
 11
189.9998765164028
 21
-702.0041535979272
 31
0.0
100
AcDbText
  0
POINT
  5
5F9
330
6F
100
AcDbEntity
  8
DEFPOINTS
  6
Continuous
 62
    30
100
AcDbPoint
 10
-510.0000000001155
 20
-395.7565084381016
 30
0.0
  0
POINT
  5
5FA
330
6F
100
AcDbEntity
  8
DEFPOINTS
  6
Continuous
 62
    30
100
AcDbPoint
 10
889.999753032921
 20
-395.7565084381016
 30
0.0
  0
POINT
  5
5FB
330
6F
100
AcDbEntity
  8
DEFPOINTS
  6
Continuous
 62
    30
100
AcDbPoint
 10
889.999753032921
 20
-722.0041535979269
 30
0.0
  0
LINE
  5
5FC
330
6F
100
AcDbEntity
  8
OUTLINE
  6
Continuous
 62
     3
100
AcDbLine
 10
-500.0
 20
-30.0
 30
0.0
 11
-500.0
 21
-20.69999999999982
 31
0.0
  0
LINE
  5
5FD
330
6F
100
AcDbEntity
  8
OUTLINE
  6
Continuous
 62
     3
100
AcDbLine
 10
-497.5
 20
-20.69999999999982
 30
0.0
 11
-497.5
 21
-30.0
 31
0.0
  0
LINE
  5
5FE
330
6F
100
AcDbEntity
  8
OUTLINE
  6
Continuous
 62
     3
100
AcDbLine
 10
-454.0
 20
-15.0
 30
0.0
 11
-454.0
 21
-18.0
 31
0.0
  0
LINE
  5
5FF
330
6F
100
AcDbEntity
  8
OUTLINE
  6
Continuous
 62
     3
100
AcDbLine
 10
-454.0
 20
-23.41837661840009
 30
0.0
 11
-454.0
 21
-240.0
 31
0.0
  0
LINE
  5
600
330
6F
100
AcDbEntity
  8
OUTLINE
  6
Continuous
 62
     3
100
AcDbLine
 10
-450.0
 20
0.0
 30
0.0
 11
-450.0
 21
-15.0
 31
0.0
  0
LINE
  5
601
330
6F
100
AcDbEntity
  8
OUTLINE
  6
Continuous
 62
     3
100
AcDbLine
 10
-452.0500000000009
 20
-240.0285398163001
 30
0.0
 11
-450.0500000000011
 21
-240.0285398164001
 31
0.0
  0
LINE
  5
602
330
6F
100
AcDbEntity
  8
OUTLINE
  6
Continuous
 62
     3
100
AcDbLine
 10
-450.0000000000008
 20
-240.0
 30
0.0
 11
-454.0
 21
-240.0
 31
0.0
  0
LINE
  5
603
330
6F
100
AcDbEntity
  8
OUTLINE
  6
Continuous
 62
     3
100
AcDbLine
 10
453.9999999999982
 20
-200.3000000000002
 30
0.0
 11
489.999999999998
 21
-200.3000000000002
 31
0.0
  0
LINE
  5
604
330
6F
100
AcDbEntity
  8
OUTLINE
  6
Continuous
 62
     3
100
AcDbLine
 10
453.9999999999982
 20
-177.1999999999998
 30
0.0
 11
479.9999999999982
 21
-177.1999999999998
 31
0.0
  0
LINE
  5
605
330
6F
100
AcDbEntity
  8
OUTLINE
  6
Continuous
 62
     3
100
AcDbLine
 10
521.4999999999982
 20
-174.9499999999998
 30
0.0
 11
503.499999999998
 21
-174.9499999999998
 31
0.0
  0
LINE
  5
606
330
6F
100
AcDbEntity
  8
OUTLINE
  6
Continuous
 62
     3
100
AcDbLine
 10
479.9999999999982
 20
-171.4790561914
 30
0.0
 11
495.2209438085993
 21
-171.4790561914
 31
0.0
  0
LINE
  5
607
330
6F
100
AcDbEntity
  8
OUTLINE
  6
Continuous
 62
     3
100
AcDbLine
 10
496.9999999999981
 20
-169.3000000000002
 30
0.0
 11
501.4999999999981
 21
-169.3000000000002
 31
0.0
  0
LINE
  5
608
330
6F
100
AcDbEntity
  8
OUTLINE
  6
Continuous
 62
     3
100
AcDbLine
 10
496.9999999999981
 20
-147.1000000000003
 30
0.0
 11
501.4999999999981
 21
-147.1000000000003
 31
0.0
  0
LINE
  5
609
330
6F
100
AcDbEntity
  8
OUTLINE
  6
Continuous
 62
     3
100
AcDbLine
 10
479.9999999999982
 20
-144.9209438086
 30
0.0
 11
495.2209438085993
 21
-144.9209438086
 31
0.0
  0
LINE
  5
60A
330
6F
100
AcDbEntity
  8
OUTLINE
  6
Continuous
 62
     3
100
AcDbLine
 10
521.4999999999982
 20
-141.4499999999998
 30
0.0
 11
503.499999999998
 21
-141.4499999999998
 31
0.0
  0
LINE
  5
60B
330
6F
100
AcDbEntity
  8
OUTLINE
  6
Continuous
 62
     3
100
AcDbLine
 10
472.999999999998
 20
-139.1999999999998
 30
0.0
 11
479.9999999999982
 21
-139.1999999999998
 31
0.0
  0
LINE
  5
60C
330
6F
100
AcDbEntity
  8
OUTLINE
  6
Continuous
 62
     3
100
AcDbLine
 10
504.7982940777982
 20
-137.9017059222001
 30
0.0
 11
490.2017059220979
 21
-137.9017059222001
 31
0.0
  0
LINE
  5
60D
330
6F
100
AcDbEntity
  8
OUTLINE
  6
Continuous
 62
     3
100
AcDbLine
 10
472.999999999998
 20
-135.0149545762001
 30
0.0
 11
485.6850454236991
 21
-135.0149545762001
 31
0.0
  0
LINE
  5
60E
330
6F
100
AcDbEntity
  8
OUTLINE
  6
Continuous
 62
     3
100
AcDbLine
 10
486.9999999999982
 20
-133.1400000000003
 30
0.0
 11
488.4999999999982
 21
-133.1400000000003
 31
0.0
  0
LINE
  5
60F
330
6F
100
AcDbEntity
  8
OUTLINE
  6
Continuous
 62
     3
100
AcDbLine
 10
-456.9183766185004
 20
-20.5
 30
0.0
 11
-454.0000000000008
 21
-23.41837661844693
 31
0.0
  0
LINE
  5
610
330
6F
100
AcDbEntity
  8
OUTLINE
  6
Continuous
 62
     3
100
AcDbLine
 10
486.9999999999982
 20
-117.2600000000002
 30
0.0
 11
488.4999999999982
 21
-117.2600000000002
 31
0.0
  0
LINE
  5
611
330
6F
100
AcDbEntity
  8
OUTLINE
  6
Continuous
 62
     3
100
AcDbLine
 10
472.999999999998
 20
-115.3850454237999
 30
0.0
 11
485.6850454236991
 21
-115.3850454237999
 31
0.0
  0
LINE
  5
612
330
6F
100
AcDbEntity
  8
OUTLINE
  6
Continuous
 62
     3
100
AcDbLine
 10
504.7982940777982
 20
-112.4982940778
 30
0.0
 11
490.2017059220979
 21
-112.4982940778
 31
0.0
  0
LINE
  5
613
330
6F
100
AcDbEntity
  8
OUTLINE
  6
Continuous
 62
     3
100
AcDbLine
 10
453.9999999999982
 20
-108.6999999999998
 30
0.0
 11
472.999999999998
 21
-108.6999999999998
 31
0.0
  0
LINE
  5
614
330
6F
100
AcDbEntity
  8
OUTLINE
  6
Continuous
 62
     3
100
AcDbLine
 10
489.6999999999988
 20
-60.0
 30
0.0
 11
507.499999999998
 21
-60.0
 31
0.0
  0
LINE
  5
615
330
6F
100
AcDbEntity
  8
OUTLINE
  6
Continuous
 62
     3
100
AcDbLine
 10
-497.5
 20
-30.0
 30
0.0
 11
-500.0
 21
-30.0
 31
0.0
  0
LINE
  5
616
330
6F
100
AcDbEntity
  8
OUTLINE
  6
Continuous
 62
     3
100
AcDbLine
 10
499.9999999999982
 20
-28.0
 30
0.0
 11
507.499999999998
 21
-28.0
 31
0.0
  0
LINE
  5
617
330
6F
100
AcDbEntity
  8
OUTLINE
  6
Continuous
 62
     3
100
AcDbLine
 10
-456.9183766185004
 20
-20.5
 30
0.0
 11
-497.3000000000011
 21
-20.5
 31
0.0
  0
LINE
  5
618
330
6F
100
AcDbEntity
  8
OUTLINE
  6
Continuous
 62
     3
100
AcDbLine
 10
452.999999999998
 20
-18.0
 30
0.0
 11
497.2999999999991
 21
-18.0
 31
0.0
  0
LINE
  5
619
330
6F
100
AcDbEntity
  8
OUTLINE
  6
Continuous
 62
     3
100
AcDbLine
 10
-454.0
 20
-18.0
 30
0.0
 11
-497.3000000000011
 21
-18.0
 31
0.0
  0
LINE
  5
61A
330
6F
100
AcDbEntity
  8
OUTLINE
  6
Continuous
 62
     3
100
AcDbLine
 10
452.999999999998
 20
-16.5
 30
0.0
 11
449.9999999999982
 21
-16.5
 31
0.0
  0
LINE
  5
61B
330
6F
100
AcDbEntity
  8
OUTLINE
  6
Continuous
 62
     3
100
AcDbLine
 10
-454.0
 20
-15.0
 30
0.0
 11
-450.0
 21
-15.0
 31
0.0
  0
LINE
  5
61C
330
6F
100
AcDbEntity
  8
OUTLINE
  6
Continuous
 62
     3
100
AcDbLine
 10
-450.0
 20
0.0
 30
0.0
 11
449.9999999999982
 21
0.0
 31
0.0
  0
LWPOLYLINE
  5
61D
330
6F
100
AcDbEntity
  8
OUTLINE
  6
Continuous
 62
     3
100
AcDbPolyline
 90
        6
 70
     0
 43
0.0
 10
527.499999999998
 20
-165.1558976590004
 10
528.333900991898
 20
-164.7053295634
 10
529.4962908767992
 20
-163.5748623054
 10
530.3298823676978
 20
-162.1155966534997
 10
530.8320169278977
 20
-160.3248740709
 10
530.999999999998
 20
-158.1999999999998
  0
LWPOLYLINE
  5
625
330
6F
100
AcDbEntity
  8
OUTLINE
  6
Continuous
 62
     3
100
AcDbPolyline
 90
        6
 70
     0
 43
0.0
 10
527.499999999998
 20
-151.2441023410001
 10
528.333900991898
 20
-151.6946704366
 10
529.4962908767992
 20
-152.8251376946
 10
530.3298823676978
 20
-154.2844033465999
 10
530.8320169278977
 20
-156.0751259292001
 10
530.999999999998
 20
-158.1999999999998
  0
LWPOLYLINE
  5
62D
330
6F
100
AcDbEntity
  8
OUTLINE
  6
Continuous
 62
     3
100
AcDbPolyline
 90
        5
 70
     0
 43
0.0
 10
506.499999999998
 20
-129.3439573789
 10
507.2728904619979
 20
-128.8243623245998
 10
507.9776490776985
 20
-127.8957876069998
 10
508.4048089792977
 20
-126.6896141752004
 10
508.5485281373985
 20
-125.1999999999998
  0
LWPOLYLINE
  5
634
330
6F
100
AcDbEntity
  8
OUTLINE
  6
Continuous
 62
     3
100
AcDbPolyline
 90
        5
 70
     0
 43
0.0
 10
506.499999999998
 20
-121.0560426211
 10
507.2728904619979
 20
-121.5756376753998
 10
507.9776490776985
 20
-122.5042123929997
 10
508.4048089792977
 20
-123.7103858248001
 10
508.5485281373985
 20
-125.1999999999998
  0
LINE
  5
63B
330
6F
100
AcDbEntity
  8
OUTLINE
  6
Continuous
 62
     3
100
AcDbLine
 10
488.4999999999982
 20
-114.1999999999998
 30
0.0
 11
490.2017059220979
 21
-112.4982940778
 31
0.0
  0
LINE
  5
63C
330
6F
100
AcDbEntity
  8
OUTLINE
  6
Continuous
 62
     3
100
AcDbLine
 10
485.6850454236991
 20
-135.0149545762001
 30
0.0
 11
486.9999999999982
 21
-133.6999999999998
 31
0.0
  0
LINE
  5
63D
330
6F
100
AcDbEntity
  8
OUTLINE
  6
Continuous
 62
     3
100
AcDbLine
 10
504.7982940777982
 20
-137.9017059222001
 30
0.0
 11
506.499999999998
 21
-136.1999999999998
 31
0.0
  0
LINE
  5
63E
330
6F
100
AcDbEntity
  8
OUTLINE
  6
Continuous
 62
     3
100
AcDbLine
 10
501.4999999999981
 20
-143.4499999999998
 30
0.0
 11
503.499999999998
 21
-141.4499999999998
 31
0.0
  0
LINE
  5
63F
330
6F
100
AcDbEntity
  8
OUTLINE
  6
Continuous
 62
     3
100
AcDbLine
 10
495.2209438085993
 20
-171.4790561914
 30
0.0
 11
496.9999999999981
 21
-169.6999999999998
 31
0.0
  0
LINE
  5
640
330
6F
100
AcDbEntity
  8
OUTLINE
  6
Continuous
 62
     3
100
AcDbLine
 10
523.499999999998
 20
-172.9499999999998
 30
0.0
 11
527.499999999998
 21
-169.6999999999998
 31
0.0
  0
LINE
  5
641
330
6F
100
AcDbEntity
  8
OUTLINE
  6
Continuous
 62
     3
100
AcDbLine
 10
523.499999999998
 20
-143.4499999999998
 30
0.0
 11
527.499999999998
 21
-146.6999999999998
 31
0.0
  0
LINE
  5
642
330
6F
100
AcDbEntity
  8
OUTLINE
  6
Continuous
 62
     3
100
AcDbLine
 10
501.4999999999981
 20
-172.9499999999998
 30
0.0
 11
503.499999999998
 21
-174.9499999999998
 31
0.0
  0
LINE
  5
643
330
6F
100
AcDbEntity
  8
OUTLINE
  6
Continuous
 62
     3
100
AcDbLine
 10
495.2209438085993
 20
-144.9209438086
 30
0.0
 11
496.9999999999981
 21
-146.6999999999998
 31
0.0
  0
LINE
  5
644
330
6F
100
AcDbEntity
  8
OUTLINE
  6
Continuous
 62
     3
100
AcDbLine
 10
488.4999999999982
 20
-136.1999999999998
 30
0.0
 11
490.2017059220979
 21
-137.9017059222001
 31
0.0
  0
LINE
  5
645
330
6F
100
AcDbEntity
  8
OUTLINE
  6
Continuous
 62
     3
100
AcDbLine
 10
485.6850454236991
 20
-115.3850454237999
 30
0.0
 11
486.9999999999982
 21
-116.6999999999998
 31
0.0
  0
LINE
  5
646
330
6F
100
AcDbEntity
  8
OUTLINE
  6
Continuous
 62
     3
100
AcDbLine
 10
521.4999999999982
 20
-141.4499999999998
 30
0.0
 11
523.499999999998
 21
-143.4499999999998
 31
0.0
  0
LINE
  5
647
330
6F
100
AcDbEntity
  8
OUTLINE
  6
Continuous
 62
     3
100
AcDbLine
 10
504.7982940777982
 20
-112.4982940778
 30
0.0
 11
506.499999999998
 21
-114.1999999999998
 31
0.0
  0
LINE
  5
648
330
6F
100
AcDbEntity
  8
OUTLINE
  6
Continuous
 62
     3
100
AcDbLine
 10
521.4999999999982
 20
-174.9499999999998
 30
0.0
 11
523.499999999998
 21
-172.9499999999998
 31
0.0
  0
LINE
  5
649
330
6F
100
AcDbEntity
  8
OUTLINE
  6
Continuous
 62
     3
100
AcDbLine
 10
449.9999999999982
 20
0.0
 30
0.0
 11
449.9999999999982
 21
-16.5
 31
0.0
  0
LINE
  5
64A
330
6F
100
AcDbEntity
  8
OUTLINE
  6
Continuous
 62
     3
100
AcDbLine
 10
452.999999999998
 20
-16.5
 30
0.0
 11
452.999999999998
 21
-18.0
 31
0.0
  0
LINE
  5
64B
330
6F
100
AcDbEntity
  8
OUTLINE
  6
Continuous
 62
     3
100
AcDbLine
 10
453.9999999999982
 20
-200.3000000000002
 30
0.0
 11
453.9999999999982
 21
-177.1999999999998
 31
0.0
  0
LINE
  5
64C
330
6F
100
AcDbEntity
  8
OUTLINE
  6
Continuous
 62
     3
100
AcDbLine
 10
453.9999999999991
 20
-108.6999999999998
 30
0.0
 11
453.9999999999982
 21
-98.50000000000044
 31
0.0
  0
LINE
  5
64D
330
6F
100
AcDbEntity
  8
OUTLINE
  6
Continuous
 62
     3
100
AcDbLine
 10
472.999999999998
 20
-108.7007413821002
 30
0.0
 11
472.9999999999972
 21
-115.3850454237999
 31
0.0
  0
LINE
  5
64E
330
6F
100
AcDbEntity
  8
OUTLINE
  6
Continuous
 62
     3
100
AcDbLine
 10
472.9999999999988
 20
-135.0149545762001
 30
0.0
 11
472.9999999999988
 21
-139.1999999999998
 31
0.0
  0
LINE
  5
64F
330
6F
100
AcDbEntity
  8
OUTLINE
  6
Continuous
 62
     3
100
AcDbLine
 10
479.9999999999982
 20
-139.1999999999998
 30
0.0
 11
479.9999999999982
 21
-177.1999999999998
 31
0.0
  0
LINE
  5
650
330
6F
100
AcDbEntity
  8
OUTLINE
  6
Continuous
 62
     3
100
AcDbLine
 10
486.9999999999982
 20
-133.6996305151001
 30
0.0
 11
486.9999999999982
 21
-133.1304232236502
 31
0.0
  0
LINE
  5
651
330
6F
100
AcDbEntity
  8
OUTLINE
  6
Continuous
 62
     3
100
AcDbLine
 10
488.4999999999982
 20
-136.1995072181998
 30
0.0
 11
488.4999999999982
 21
-133.1400000000003
 31
0.0
  0
LINE
  5
652
330
6F
100
AcDbEntity
  8
OUTLINE
  6
Continuous
 62
     3
100
AcDbLine
 10
488.4999999999982
 20
-117.2600000000002
 30
0.0
 11
488.4999999999982
 21
-114.2004927817998
 31
0.0
  0
LINE
  5
653
330
6F
100
AcDbEntity
  8
OUTLINE
  6
Continuous
 62
     3
100
AcDbLine
 10
489.999999999998
 20
-200.3000000000002
 30
0.0
 11
489.999999999998
 21
-240.3000000000002
 31
0.0
  0
LINE
  5
654
330
6F
100
AcDbEntity
  8
OUTLINE
  6
Continuous
 62
     3
100
AcDbLine
 10
496.9999999999981
 20
-169.6999999999998
 30
0.0
 11
496.9999999999981
 21
-169.3000000000002
 31
0.0
  0
LINE
  5
655
330
6F
100
AcDbEntity
  8
OUTLINE
  6
Continuous
 62
     3
100
AcDbLine
 10
496.9999999999981
 20
-147.1000000000003
 30
0.0
 11
496.9999999999981
 21
-146.6999999999998
 31
0.0
  0
LINE
  5
656
330
6F
100
AcDbEntity
  8
OUTLINE
  6
Continuous
 62
     3
100
AcDbLine
 10
499.9999999999982
 20
-20.69999999999982
 30
0.0
 11
499.9999999999982
 21
-28.0
 31
0.0
  0
LINE
  5
657
330
6F
100
AcDbEntity
  8
OUTLINE
  6
Continuous
 62
     3
100
AcDbLine
 10
501.4999999999981
 20
-172.9499999999998
 30
0.0
 11
501.4999999999981
 21
-169.3000000000002
 31
0.0
  0
LINE
  5
658
330
6F
100
AcDbEntity
  8
OUTLINE
  6
Continuous
 62
     3
100
AcDbLine
 10
501.4999999999989
 20
-147.1000000000003
 30
0.0
 11
501.4999999999981
 21
-143.4499999999998
 31
0.0
  0
LINE
  5
659
330
6F
100
AcDbEntity
  8
OUTLINE
  6
Continuous
 62
     3
100
AcDbLine
 10
506.499999999998
 20
-114.2004927817998
 30
0.0
 11
506.499999999998
 21
-136.1995072181998
 31
0.0
  0
LINE
  5
65A
330
6F
100
AcDbEntity
  8
OUTLINE
  6
Continuous
 62
     3
100
AcDbLine
 10
507.9999999999982
 20
-28.5
 30
0.0
 11
507.9999999999982
 21
-59.5
 31
0.0
  0
LINE
  5
65B
330
6F
100
AcDbEntity
  8
OUTLINE
  6
Continuous
 62
     3
100
AcDbLine
 10
527.499999999998
 20
-146.6999999999998
 30
0.0
 11
527.499999999998
 21
-151.2441023410001
 31
0.0
  0
LINE
  5
65C
330
6F
100
AcDbEntity
  8
OUTLINE
  6
Continuous
 62
     3
100
AcDbLine
 10
527.499999999998
 20
-165.1558976590004
 30
0.0
 11
527.499999999998
 21
-169.6999999999998
 31
0.0
  0
ARC
  5
65D
330
6F
100
AcDbEntity
  8
OUTLINE
  6
Continuous
 62
     3
100
AcDbCircle
 10
-497.3000000000011
 20
-20.69999999999982
 30
0.0
 40
2.7
100
AcDbArc
 50
90.0
 51
180.0
  0
ARC
  5
65E
330
6F
100
AcDbEntity
  8
OUTLINE
  6
Continuous
 62
     3
100
AcDbCircle
 10
-497.3000000000011
 20
-20.69999999999982
 30
0.0
 40
0.2
100
AcDbArc
 50
90.0
 51
180.0
  0
ARC
  5
65F
330
6F
100
AcDbEntity
  8
OUTLINE
  6
Continuous
 62
     3
100
AcDbCircle
 10
497.2999999999991
 20
-20.69999999999982
 30
0.0
 40
2.7
100
AcDbArc
 50
0.0
 51
90.0
  0
ARC
  5
660
330
6F
100
AcDbEntity
  8
OUTLINE
  6
Continuous
 62
     3
100
AcDbCircle
 10
507.499999999998
 20
-28.5
 30
0.0
 40
0.5
100
AcDbArc
 50
0.0
 51
90.0
  0
ARC
  5
661
330
6F
100
AcDbEntity
  8
OUTLINE
  6
Continuous
 62
     3
100
AcDbCircle
 10
507.499999999998
 20
-59.5
 30
0.0
 40
0.5
100
AcDbArc
 50
270.0
 51
0.0
  0
ARC
  5
662
330
6F
100
AcDbEntity
  8
OUTLINE
  6
Continuous
 62
     3
100
AcDbCircle
 10
449.5999999999985
 20
-239.0
 30
0.0
 40
3.000000000000048
100
AcDbArc
 50
324.7524930079043
 51
334.3207113805351
  0
ARC
  5
663
330
6F
100
AcDbEntity
  8
OUTLINE
  6
Continuous
 62
     3
100
AcDbCircle
 10
347.8680016025974
 20
-275.1999999999999
 30
0.0
 40
1.00000000000008
100
AcDbArc
 50
30.00000000003288
 51
90.0
  0
ARC
  5
664
330
6F
100
AcDbEntity
  8
OUTLINE
  6
Continuous
 62
     3
100
AcDbCircle
 10
432.5679491923984
 20
-251.3999999999996
 30
0.0
 40
1.0
100
AcDbArc
 50
270.0
 51
323.1301023540934
  0
ARC
  5
665
330
6F
100
AcDbEntity
  8
OUTLINE
  6
Continuous
 62
     3
100
AcDbCircle
 10
449.9999999999982
 20
-249.9499999999997
 30
0.0
 40
2.049999999999998
100
AcDbArc
 50
270.0
 51
0.0
  0
ARC
  5
666
330
6F
100
AcDbEntity
  8
OUTLINE
  6
Continuous
 62
     3
100
AcDbCircle
 10
351.3321032176973
 20
-273.1999999999999
 30
0.0
 40
3.00000000000005
100
AcDbArc
 50
210.0000000002654
 51
270.0
  0
ARC
  5
667
330
6F
100
AcDbEntity
  8
OUTLINE
  6
Continuous
 62
     3
100
AcDbCircle
 10
25.86800160259736
 20
-275.1999999999999
 30
0.0
 40
1.00000000000008
100
AcDbArc
 50
30.00000000003288
 51
90.0
  0
ARC
  5
668
330
6F
100
AcDbEntity
  8
OUTLINE
  6
Continuous
 62
     3
100
AcDbCircle
 10
46.13199839729714
 20
-275.1999999999999
 30
0.0
 40
1.0
100
AcDbArc
 50
90.0
 51
149.9999999999671
  0
ARC
  5
669
330
6F
100
AcDbEntity
  8
OUTLINE
  6
Continuous
 62
     3
100
AcDbCircle
 10
175.8680016025973
 20
-275.1999999999999
 30
0.0
 40
1.00000000000008
100
AcDbArc
 50
30.00000000003288
 51
90.0
  0
ARC
  5
66A
330
6F
100
AcDbEntity
  8
OUTLINE
  6
Continuous
 62
     3
100
AcDbCircle
 10
196.1319983972971
 20
-275.1999999999999
 30
0.0
 40
1.0
100
AcDbArc
 50
90.0
 51
149.9999999999671
  0
ARC
  5
66B
330
6F
100
AcDbEntity
  8
OUTLINE
  6
Continuous
 62
     3
100
AcDbCircle
 10
42.6678967821972
 20
-273.1999999999999
 30
0.0
 40
3.0
100
AcDbArc
 50
270.0
 51
329.9999999997345
  0
ARC
  5
66C
330
6F
100
AcDbEntity
  8
OUTLINE
  6
Continuous
 62
     3
100
AcDbCircle
 10
29.3321032176973
 20
-273.1999999999999
 30
0.0
 40
3.00000000000005
100
AcDbArc
 50
210.0000000002654
 51
270.0
  0
ARC
  5
66D
330
6F
100
AcDbEntity
  8
OUTLINE
  6
Continuous
 62
     3
100
AcDbCircle
 10
192.6678967821971
 20
-273.1999999999999
 30
0.0
 40
3.0
100
AcDbArc
 50
270.0
 51
329.9999999997345
  0
ARC
  5
66E
330
6F
100
AcDbEntity
  8
OUTLINE
  6
Continuous
 62
     3
100
AcDbCircle
 10
179.3321032176973
 20
-273.1999999999999
 30
0.0
 40
3.00000000000005
100
AcDbArc
 50
210.0000000002654
 51
270.0
  0
ARC
  5
66F
330
6F
100
AcDbEntity
  8
OUTLINE
  6
Continuous
 62
     3
100
AcDbCircle
 10
203.8680016025992
 20
-275.1999999999999
 30
0.0
 40
1.00000000000008
100
AcDbArc
 50
30.00000000003288
 51
90.0
  0
ARC
  5
670
330
6F
100
AcDbEntity
  8
OUTLINE
  6
Continuous
 62
     3
100
AcDbCircle
 10
224.131998397299
 20
-275.1999999999999
 30
0.0
 40
1.0
100
AcDbArc
 50
90.0
 51
149.9999999999671
  0
ARC
  5
671
330
6F
100
AcDbEntity
  8
OUTLINE
  6
Continuous
 62
     3
100
AcDbCircle
 10
220.667896782199
 20
-273.1999999999999
 30
0.0
 40
3.0
100
AcDbArc
 50
270.0
 51
329.9999999997345
  0
ARC
  5
672
330
6F
100
AcDbEntity
  8
OUTLINE
  6
Continuous
 62
     3
100
AcDbCircle
 10
207.3321032176991
 20
-273.1999999999999
 30
0.0
 40
3.00000000000005
100
AcDbArc
 50
210.0000000002654
 51
270.0
  0
ARC
  5
673
330
6F
100
AcDbEntity
  8
OUTLINE
  6
Continuous
 62
     3
100
AcDbCircle
 10
-450.0
 20
-249.9499999999997
 30
0.0
 40
0.0500000000001819
100
AcDbArc
 50
179.9999999998957
 51
270.0
  0
ARC
  5
674
330
6F
100
AcDbEntity
  8
OUTLINE
  6
Continuous
 62
     3
100
AcDbCircle
 10
-168.1319983974008
 20
-275.1999999999999
 30
0.0
 40
1.00000000000008
100
AcDbArc
 50
30.00000000003288
 51
90.0
  0
ARC
  5
675
330
6F
100
AcDbEntity
  8
OUTLINE
  6
Continuous
 62
     3
100
AcDbCircle
 10
-147.868001602701
 20
-275.1999999999999
 30
0.0
 40
1.0
100
AcDbArc
 50
90.0
 51
149.9999999999671
  0
ARC
  5
676
330
6F
100
AcDbEntity
  8
OUTLINE
  6
Continuous
 62
     3
100
AcDbCircle
 10
-432.5679491925002
 20
-251.3999999999996
 30
0.0
 40
0.9999999999999003
100
AcDbArc
 50
216.8698976458336
 51
270.0
  0
ARC
  5
677
330
6F
100
AcDbEntity
  8
OUTLINE
  6
Continuous
 62
     3
100
AcDbCircle
 10
-450.0
 20
-249.9499999999997
 30
0.0
 40
2.050000000000181
100
AcDbArc
 50
179.9999999998957
 51
270.0
  0
ARC
  5
678
330
6F
100
AcDbEntity
  8
OUTLINE
  6
Continuous
 62
     3
100
AcDbCircle
 10
-164.6678967823009
 20
-273.1999999999999
 30
0.0
 40
3.00000000000005
100
AcDbArc
 50
210.0000000002654
 51
270.0
  0
ARC
  5
679
330
6F
100
AcDbEntity
  8
OUTLINE
  6
Continuous
 62
     3
100
AcDbCircle
 10
-151.3321032178009
 20
-273.1999999999999
 30
0.0
 40
3.0
100
AcDbArc
 50
270.0
 51
329.9999999997345
  0
ARC
  5
67A
330
6F
100
AcDbEntity
  8
OUTLINE
  6
Continuous
 62
     3
100
AcDbCircle
 10
-444.0
 20
-247.5999999999995
 30
0.0
 40
4.798697739999989
100
AcDbArc
 50
264.0192146750255
 51
275.9807853249745
  0
ARC
  5
67B
330
6F
100
AcDbEntity
  8
OUTLINE
  6
Continuous
 62
     3
100
AcDbCircle
 10
-444.0
 20
-247.5999999999995
 30
0.0
 40
5.276362383300076
100
AcDbArc
 50
244.7587791611208
 51
264.5623636786909
  0
ARC
  5
67C
330
6F
100
AcDbEntity
  8
OUTLINE
  6
Continuous
 62
     3
100
AcDbCircle
 10
-444.0
 20
-247.5999999999995
 30
0.0
 40
5.276362383299993
100
AcDbArc
 50
275.437636321309
 51
295.2412208388791
  0
ARC
  5
67D
330
6F
100
AcDbEntity
  8
OUTLINE
  6
Continuous
 62
     3
100
AcDbCircle
 10
-444.0
 20
-247.5999999999995
 30
0.0
 40
5.299999999999939
100
AcDbArc
 50
295.1208101144849
 51
303.8818752029306
  0
ARC
  5
67E
330
6F
100
AcDbEntity
  8
OUTLINE
  6
Continuous
 62
     3
100
AcDbCircle
 10
-444.0
 20
-247.5999999999995
 30
0.0
 40
5.299999999999985
100
AcDbArc
 50
236.1181247970694
 51
244.879189885515
  0
LINE
  5
67F
330
6F
100
AcDbEntity
  8
OUTLINE
  6
Continuous
 62
     3
100
AcDbLine
 10
452.0499999999974
 20
-240.7313289693193
 30
0.0
 11
452.0499999999974
 21
-249.9499999999997
 31
0.0
  0
LINE
  5
680
330
6F
100
AcDbEntity
  8
OUTLINE
  6
Continuous
 62
     3
100
AcDbLine
 10
434.4999999999981
 20
-252.5999999999994
 30
0.0
 11
434.4999999999981
 21
-271.1000000000004
 31
0.0
  0
LINE
  5
681
330
6F
100
AcDbEntity
  8
OUTLINE
  6
Continuous
 62
     3
100
AcDbLine
 10
433.4999999999982
 20
-272.1000000000004
 30
0.0
 11
433.4999999999982
 21
-271.1000000000004
 31
0.0
  0
LINE
  5
682
330
6F
100
AcDbEntity
  8
OUTLINE
  6
Continuous
 62
     3
100
AcDbLine
 10
432.5679491923984
 20
-252.5999999999994
 30
0.0
 11
432.5679491923984
 21
-252.3999999999996
 31
0.0
  0
LINE
  5
683
330
6F
100
AcDbEntity
  8
OUTLINE
  6
Continuous
 62
     3
100
AcDbLine
 10
432.9999999999982
 20
-274.1999999999999
 30
0.0
 11
432.9633443635976
 21
-272.1000000000004
 31
0.0
  0
LINE
  5
684
330
6F
100
AcDbEntity
  8
OUTLINE
  6
Continuous
 62
     3
100
AcDbLine
 10
452.3037011669175
 20
-240.3000000000002
 30
0.0
 11
489.999999999998
 21
-240.3000000000002
 31
0.0
  0
LINE
  5
685
330
6F
100
AcDbEntity
  8
OUTLINE
  6
Continuous
 62
     3
100
AcDbLine
 10
449.9999999999982
 20
-252.0
 30
0.0
 11
433.3679491923976
 21
-252.0
 31
0.0
  0
LINE
  5
686
330
6F
100
AcDbEntity
  8
OUTLINE
  6
Continuous
 62
     3
100
AcDbLine
 10
-433.3679491924995
 20
-252.0
 30
0.0
 11
-441.0453426594623
 21
-252.0
 31
0.0
  0
LINE
  5
687
330
6F
100
AcDbEntity
  8
OUTLINE
  6
Continuous
 62
     3
100
AcDbLine
 10
-446.9546573405377
 20
-252.0
 30
0.0
 11
-450.0
 21
-252.0
 31
0.0
  0
LINE
  5
688
330
6F
100
AcDbEntity
  8
OUTLINE
  6
Continuous
 62
     3
100
AcDbLine
 10
-432.5679491925002
 20
-252.5999999999994
 30
0.0
 11
-434.4999999999999
 21
-252.5999999999994
 31
0.0
  0
LINE
  5
689
330
6F
100
AcDbEntity
  8
OUTLINE
  6
Continuous
 62
     3
100
AcDbLine
 10
434.4999999999981
 20
-252.5999999999994
 30
0.0
 11
432.5679491923984
 21
-252.5999999999994
 31
0.0
  0
LINE
  5
68A
330
6F
100
AcDbEntity
  8
OUTLINE
  6
Continuous
 62
     3
100
AcDbLine
 10
434.4999999999981
 20
-271.1000000000004
 30
0.0
 11
433.4999999999982
 21
-271.1000000000004
 31
0.0
  0
LINE
  5
68B
330
6F
100
AcDbEntity
  8
OUTLINE
  6
Continuous
 62
     3
100
AcDbLine
 10
-434.4999999999999
 20
-271.1000000000004
 30
0.0
 11
-433.4999999999999
 21
-271.1000000000004
 31
0.0
  0
LINE
  5
68C
330
6F
100
AcDbEntity
  8
OUTLINE
  6
Continuous
 62
     3
100
AcDbLine
 10
433.4999999999982
 20
-272.1000000000004
 30
0.0
 11
432.9633443635994
 21
-272.1000000000004
 31
0.0
  0
LINE
  5
68D
330
6F
100
AcDbEntity
  8
OUTLINE
  6
Continuous
 62
     3
100
AcDbLine
 10
-432.9633443636993
 20
-272.1000000000004
 30
0.0
 11
-433.4999999999999
 21
-272.1000000000004
 31
0.0
  0
LINE
  5
68E
330
6F
100
AcDbEntity
  8
OUTLINE
  6
Continuous
 62
     3
100
AcDbLine
 10
432.9999999999982
 20
-274.1999999999999
 30
0.0
 11
374.131998397299
 21
-274.1999999999999
 31
0.0
  0
LINE
  5
68F
330
6F
100
AcDbEntity
  8
OUTLINE
  6
Continuous
 62
     3
100
AcDbLine
 10
347.8680016025974
 20
-274.1999999999999
 30
0.0
 11
224.131998397299
 21
-274.1999999999999
 31
0.0
  0
LINE
  5
690
330
6F
100
AcDbEntity
  8
OUTLINE
  6
Continuous
 62
     3
100
AcDbLine
 10
203.8680016025992
 20
-274.1999999999999
 30
0.0
 11
196.1319983972971
 21
-274.1999999999999
 31
0.0
  0
LINE
  5
691
330
6F
100
AcDbEntity
  8
OUTLINE
  6
Continuous
 62
     3
100
AcDbLine
 10
175.8680016025973
 20
-274.1999999999999
 30
0.0
 11
46.13199839729714
 21
-274.1999999999999
 31
0.0
  0
LINE
  5
692
330
6F
100
AcDbEntity
  8
OUTLINE
  6
Continuous
 62
     3
100
AcDbLine
 10
25.86800160259736
 20
-274.1999999999999
 30
0.0
 11
-147.868001602701
 21
-274.1999999999999
 31
0.0
  0
LINE
  5
693
330
6F
100
AcDbEntity
  8
OUTLINE
  6
Continuous
 62
     3
100
AcDbLine
 10
-168.1319983974008
 20
-274.1999999999999
 30
0.0
 11
-433.0
 21
-274.1999999999999
 31
0.0
  0
LINE
  5
694
330
6F
100
AcDbEntity
  8
OUTLINE
  6
Continuous
 62
     3
100
AcDbLine
 10
-151.3321032178009
 20
-276.1999999999999
 30
0.0
 11
-164.6678967823009
 21
-276.1999999999999
 31
0.0
  0
LINE
  5
695
330
6F
100
AcDbEntity
  8
OUTLINE
  6
Continuous
 62
     3
100
AcDbLine
 10
370.6678967821991
 20
-276.1999999999999
 30
0.0
 11
357.3321032176991
 21
-276.1999999999999
 31
0.0
  0
LINE
  5
696
330
6F
100
AcDbEntity
  8
OUTLINE
  6
Continuous
 62
     3
100
AcDbLine
 10
192.6678967821971
 20
-276.1999999999999
 30
0.0
 11
179.3321032176973
 21
-276.1999999999999
 31
0.0
  0
LINE
  5
697
330
6F
100
AcDbEntity
  8
OUTLINE
  6
Continuous
 62
     3
100
AcDbLine
 10
351.3321032176973
 20
-276.1999999999999
 30
0.0
 11
364.6678967821972
 21
-276.1999999999999
 31
0.0
  0
LINE
  5
698
330
6F
100
AcDbEntity
  8
OUTLINE
  6
Continuous
 62
     3
100
AcDbLine
 10
29.3321032176973
 20
-276.1999999999999
 30
0.0
 11
42.6678967821972
 21
-276.1999999999999
 31
0.0
  0
LINE
  5
699
330
6F
100
AcDbEntity
  8
OUTLINE
  6
Continuous
 62
     3
100
AcDbLine
 10
207.3321032176991
 20
-276.1999999999999
 30
0.0
 11
220.667896782199
 21
-276.1999999999999
 31
0.0
  0
LINE
  5
69A
330
6F
100
AcDbEntity
  8
OUTLINE
  6
Continuous
 62
     3
100
AcDbLine
 10
-432.9633443636993
 20
-272.1000000000004
 30
0.0
 11
-433.0
 21
-274.1999999999999
 31
0.0
  0
LINE
  5
69B
330
6F
100
AcDbEntity
  8
OUTLINE
  6
Continuous
 62
     3
100
AcDbLine
 10
-432.5679491925002
 20
-252.5999999999994
 30
0.0
 11
-432.5679491925002
 21
-252.3999999999996
 31
0.0
  0
LINE
  5
69C
330
6F
100
AcDbEntity
  8
OUTLINE
  6
Continuous
 62
     3
100
AcDbLine
 10
-433.4999999999999
 20
-272.1000000000004
 30
0.0
 11
-433.4999999999999
 21
-271.1000000000004
 31
0.0
  0
LINE
  5
69D
330
6F
100
AcDbEntity
  8
OUTLINE
  6
Continuous
 62
     3
100
AcDbLine
 10
-434.4999999999999
 20
-252.5999999999994
 30
0.0
 11
-434.4999999999999
 21
-271.1000000000004
 31
0.0
  0
LINE
  5
69E
330
6F
100
AcDbEntity
  8
OUTLINE
  6
Continuous
 62
     3
100
AcDbLine
 10
-441.75
 20
-252.3725779197994
 30
0.0
 11
-441.75
 21
-252.39869774
 31
0.0
  0
LINE
  5
69F
330
6F
100
AcDbEntity
  8
OUTLINE
  6
Continuous
 62
     3
100
AcDbLine
 10
-443.5
 20
-252.3725779197994
 30
0.0
 11
-443.5
 21
-252.8526183946997
 31
0.0
  0
LINE
  5
6A0
330
6F
100
AcDbEntity
  8
OUTLINE
  6
Continuous
 62
     3
100
AcDbLine
 10
-444.5
 20
-252.8526183946997
 30
0.0
 11
-444.5
 21
-252.3725779197994
 31
0.0
  0
LINE
  5
6A1
330
6F
100
AcDbEntity
  8
OUTLINE
  6
Continuous
 62
     3
100
AcDbLine
 10
-446.25
 20
-252.39869774
 30
0.0
 11
-446.25
 21
-252.3725779197994
 31
0.0
  0
LINE
  5
6A2
330
6F
100
AcDbEntity
  8
OUTLINE
  6
Continuous
 62
     3
100
AcDbLine
 10
-450.0
 20
-250.0
 30
0.0
 11
-450.0
 21
-240.0
 31
0.0
  0
LINE
  5
6A3
330
6F
100
AcDbEntity
  8
OUTLINE
  6
Continuous
 62
     3
100
AcDbLine
 10
-450.0500000000011
 20
-240.0285398163997
 30
0.0
 11
-450.0500000000011
 21
-249.9499999999997
 31
0.0
  0
LINE
  5
6A4
330
6F
100
AcDbEntity
  8
OUTLINE
  6
Continuous
 62
     3
100
AcDbLine
 10
-452.0500000000009
 20
-240.0285398162996
 30
0.0
 11
-452.0500000000009
 21
-249.9499999999997
 31
0.0
  0
ARC
  5
6A5
330
6F
100
AcDbEntity
  8
OUTLINE
  6
Continuous
 62
     3
100
AcDbCircle
 10
374.131998397299
 20
-275.1999999999999
 30
0.0
 40
1.0
100
AcDbArc
 50
90.0
 51
149.9999999999671
  0
ARC
  5
6A6
330
6F
100
AcDbEntity
  8
OUTLINE
  6
Continuous
 62
     3
100
AcDbCircle
 10
370.6678967821991
 20
-273.1999999999999
 30
0.0
 40
3.0
100
AcDbArc
 50
270.0
 51
329.9999999997345
  0
LINE
  5
6A7
330
6F
100
AcDbEntity
  8
OUTLINE
  6
Continuous
 62
     3
100
AcDbLine
 10
453.9999999999982
 20
-98.50000000000319
 30
0.0
 11
488.8999999999978
 21
-98.50000000000001
 31
0.0
  0
LINE
  5
6A8
330
6F
100
AcDbEntity
  8
OUTLINE
  6
Continuous
 62
     3
100
AcDbLine
 10
489.6999999999988
 20
-60.0
 30
0.0
 11
489.6999999999988
 21
-97.6999999999998
 31
0.0
  0
ARC
  5
6A9
330
6F
100
AcDbEntity
  8
OUTLINE
  6
Continuous
 62
     3
100
AcDbCircle
 10
488.8999999999978
 20
-97.6999999999998
 30
0.0
 40
0.8
100
AcDbArc
 50
270.0
 51
0.0
  0
LINE
  5
6AA
330
6F
100
AcDbEntity
  8
OUTLINE
  6
Continuous
 62
     3
100
AcDbLine
 10
486.9999999999982
 20
-117.2600000000002
 30
0.0
 11
486.9999999999982
 21
-116.6999999999998
 31
0.0
  0
LINE
  5
6AB
330
6F
100
AcDbEntity
  8
OUTLINE
  6
Continuous
 62
     3
100
AcDbLine
 10
-478.4700000001056
 20
-344.75
 30
0.0
 11
858.4697530329338
 21
-344.7500000000009
 31
0.0
  0
LINE
  5
6AC
330
6F
100
AcDbEntity
  8
OUTLINE
  6
Continuous
 62
     3
100
AcDbLine
 10
858.4697530329338
 20
-344.7500000000009
 30
0.0
 11
858.4697530329338
 21
-391.75
 31
0.0
  0
LINE
  5
6AD
330
6F
100
AcDbEntity
  8
OUTLINE
  6
Continuous
 62
     3
100
AcDbLine
 10
858.4697530329338
 20
-391.75
 30
0.0
 11
889.9997530329367
 21
-391.75
 31
0.0
  0
LINE
  5
6AE
330
6F
100
AcDbEntity
  8
OUTLINE
  6
Continuous
 62
     3
100
AcDbLine
 10
889.9997530329367
 20
-391.75
 30
0.0
 11
889.9997530329326
 21
-395.7565084381048
 31
0.0
  0
ARC
  5
6AF
330
6F
100
AcDbEntity
  8
OUTLINE
  6
Continuous
 62
     3
100
AcDbCircle
 10
859.2997530329355
 20
-279.7500000000036
 30
0.0
 40
119.9999999999961
100
AcDbArc
 50
270.0
 51
284.822969666924
  0
LINE
  5
6B0
330
6F
100
AcDbEntity
  8
OUTLINE
  6
Continuous
 62
     3
100
AcDbLine
 10
859.2997530329322
 20
-399.75
 30
0.0
 11
-479.3000000001002
 21
-399.7500000000009
 31
0.0
  0
ARC
  5
6B1
330
6F
100
AcDbEntity
  8
OUTLINE
  6
Continuous
 62
     3
100
AcDbCircle
 10
-479.3000000001002
 20
-279.7500000000036
 30
0.0
 40
119.9999999999972
100
AcDbArc
 50
255.177030333076
 51
270.0
  0
LINE
  5
6B2
330
6F
100
AcDbEntity
  8
OUTLINE
  6
Continuous
 62
     3
100
AcDbLine
 10
-510.0000000001008
 20
-395.7565084381048
 30
0.0
 11
-510.0000000001008
 21
-391.75
 31
0.0
  0
LINE
  5
6B3
330
6F
100
AcDbEntity
  8
OUTLINE
  6
Continuous
 62
     3
100
AcDbLine
 10
-510.0000000001008
 20
-391.75
 30
0.0
 11
-478.4700000001001
 21
-391.7499999999991
 31
0.0
  0
LINE
  5
6B4
330
6F
100
AcDbEntity
  8
OUTLINE
  6
Continuous
 62
     3
100
AcDbLine
 10
-478.4700000001001
 20
-391.7499999999991
 30
0.0
 11
-478.4700000001056
 21
-344.75
 31
0.0
  0
LINE
  5
6B5
330
6F
100
AcDbEntity
  8
OUTLINE
  6
Continuous
 62
     3
100
AcDbLine
 10
-478.4700000001056
 20
-344.75
 30
0.0
 11
-478.4700000001056
 21
-344.75
 31
0.0
  0
LINE
  5
6B6
330
6F
100
AcDbEntity
  8
NOTE
  6
Continuous
 62
     4
100
AcDbLine
 10
-227.1436801582831
 20
-87.51578261503981
 30
0.0
 11
-225.0000000000018
 21
-118.5
 31
0.0
  0
LINE
  5
6B7
330
6F
100
AcDbEntity
  8
NOTE
  6
Continuous
 62
     4
100
AcDbLine
 10
-225.0000000000018
 20
-118.5
 30
0.0
 11
-242.3485900502751
 21
-92.73872062868305
 31
0.0
  0
LINE
  5
6B8
330
6F
100
AcDbEntity
  8
NOTE
  6
Continuous
 62
     4
100
AcDbLine
 10
-225.0000000000018
 20
-118.5
 30
0.0
 11
-234.7461351042789
 21
-90.12725162186143
 31
0.0
  0
LINE
  5
6B9
330
6F
100
AcDbEntity
  8
NOTE
  6
Continuous
 62
     4
100
AcDbLine
 10
-234.7461351042789
 20
-90.12725162186143
 30
0.0
 11
-423.6326341633676
 21
459.7552456440638
 31
0.0
  0
LINE
  5
6BA
330
6F
100
AcDbEntity
  8
NOTE
  6
Continuous
 62
     4
100
AcDbLine
 10
-423.6326341633676
 20
459.7552456440638
 30
0.0
 11
-1335.950064418844
 21
459.7552456440638
 31
0.0
  0
TEXT
  5
6BB
330
6F
100
AcDbEntity
  8
NOTE
  6
Continuous
 62
     4
100
AcDbText
 10
-1313.871863128422
 20
486.2259256620645
 30
0.0
 40
64.0
  1
%%C200吹出円形フランジ
100
AcDbText
  0
LINE
  5
6BC
330
6F
100
AcDbEntity
  8
NOTE
  6
Continuous
 62
     4
100
AcDbLine
 10
54.6489449444607
 20
-489.3778236005146
 30
0.0
 11
74.8921515792772
 21
-489.3778236005146
 31
0.0
  0
LINE
  5
6BD
330
6F
100
AcDbEntity
  8
NOTE
  6
Continuous
 62
     4
100
AcDbLine
 10
0.8042613030474965
 20
-489.3778236005146
 30
0.0
 11
21.04746793786489
 21
-489.3778236005146
 31
0.0
  0
LINE
  5
6BE
330
6F
100
AcDbEntity
  8
NOTE
  6
Continuous
 62
     4
100
AcDbLine
 10
74.8921515792772
 20
-489.3778236005146
 30
0.0
 11
37.8482064411628
 21
-453.5211843962843
 31
0.0
  0
LINE
  5
6BF
330
6F
100
AcDbEntity
  8
NOTE
  6
Continuous
 62
     4
100
AcDbLine
 10
0.8042613030474965
 20
-489.3778236005146
 30
0.0
 11
37.8482064411628
 21
-453.5211843962843
 31
0.0
  0
LINE
  5
6C0
330
6F
100
AcDbEntity
  8
NOTE
  6
Continuous
 62
     4
100
AcDbLine
 10
54.6489449444607
 20
-489.3778236005146
 30
0.0
 11
54.6489449444607
 21
-525.0957583711497
 31
0.0
  0
LINE
  5
6C1
330
6F
100
AcDbEntity
  8
NOTE
  6
Continuous
 62
     4
100
AcDbLine
 10
21.04746793786489
 20
-489.3778236005146
 30
0.0
 11
21.04746793786489
 21
-525.0957583711497
 31
0.0
  0
LINE
  5
6C2
330
6F
100
AcDbEntity
  8
NOTE
  6
Continuous
 62
     4
100
AcDbLine
 10
21.04746793786489
 20
-525.0957583711497
 30
0.0
 11
54.6489449444607
 21
-525.0957583711497
 31
0.0
  0
TEXT
  5
6C3
330
6F
100
AcDbEntity
  8
ETC
  6
Continuous
 62
    61
100
AcDbText
 10
-640.5419961510943
 20
735.0485863023004
 30
0.0
 40
64.0
  1
PDFY-P45_56GMG6_2
 41
0.9
100
AcDbText
  0
ENDSEC
  0
SECTION
  2
OBJECTS
  0
DICTIONARY
  5
C
330
0
100
AcDbDictionary
281
     1
  3
ACAD_CIP_PREVIOUS_PRODUCT_INFO
350
6C4
  3
ACAD_COLOR
350
62
  3
ACAD_DETAILVIEWSTYLE
350
69
  3
ACAD_GROUP
350
D
  3
ACAD_LAYOUT
350
61
  3
ACAD_MATERIAL
350
10
  3
ACAD_MLEADERSTYLE
350
65
  3
ACAD_MLINESTYLE
350
5E
  3
ACAD_PLOTSETTINGS
350
60
  3
ACAD_PLOTSTYLENAME
350
E
  3
ACAD_SCALELIST
350
42
  3
ACAD_SECTIONVIEWSTYLE
350
67
  3
ACAD_TABLESTYLE
350
63
  3
ACAD_VISUALSTYLE
350
29
  3
ACDB_RECOMPOSE_DATA
350
6EA
  3
AcDbVariableDictionary
350
6DD
  3
DWGPROPS
350
6EB
  0
DICTIONARY
  5
6C7
330
54
100
AcDbDictionary
280
     1
281
     1
  3
ADSK_XREC_LAYER_RECONCILED
360
6C8
  0
DICTIONARY
  5
6C9
330
73
100
AcDbDictionary
280
     1
281
     1
  3
ADSK_XREC_LAYER_RECONCILED
360
6CA
  0
DICTIONARY
  5
6CB
330
76
100
AcDbDictionary
280
     1
281
     1
  3
ADSK_XREC_LAYER_RECONCILED
360
6CC
  0
DICTIONARY
  5
6CD
330
77
100
AcDbDictionary
280
     1
281
     1
  3
ADSK_XREC_LAYER_RECONCILED
360
6CE
  0
DICTIONARY
  5
6CF
330
78
100
AcDbDictionary
280
     1
281
     1
  3
ADSK_XREC_LAYER_RECONCILED
360
6D0
  0
DICTIONARY
  5
6D1
330
79
100
AcDbDictionary
280
     1
281
     1
  3
ADSK_XREC_LAYER_RECONCILED
360
6D2
  0
DICTIONARY
  5
6D3
330
7A
100
AcDbDictionary
280
     1
281
     1
  3
ADSK_XREC_LAYER_RECONCILED
360
6D4
  0
DICTIONARY
  5
6D5
330
7B
100
AcDbDictionary
280
     1
281
     1
  3
ADSK_XREC_LAYER_RECONCILED
360
6D6
  0
DICTIONARY
  5
6D7
330
7C
100
AcDbDictionary
280
     1
281
     1
  3
ADSK_XREC_LAYER_RECONCILED
360
6D8
  0
DICTIONARY
  5
6D9
330
7D
100
AcDbDictionary
280
     1
281
     1
  3
ADSK_XREC_LAYER_RECONCILED
360
6DA
  0
DICTIONARY
  5
6DB
330
7E
100
AcDbDictionary
280
     1
281
     1
  3
ADSK_XREC_LAYER_RECONCILED
360
6DC
  0
XRECORD
  5
6C4
102
{ACAD_REACTORS
330
C
102
}
330
C
100
AcDbXrecord
280
     1
300
ACDLT
300
2018
300
86831ACDLT_2018_0F
  0
DICTIONARY
  5
62
102
{ACAD_REACTORS
330
C
102
}
330
C
100
AcDbDictionary
281
     1
  0
DICTIONARY
  5
69
102
{ACAD_REACTORS
330
C
102
}
330
C
100
AcDbDictionary
281
     1
  3
Imperial24
350
6A
  0
DICTIONARY
  5
D
102
{ACAD_REACTORS
330
C
102
}
330
C
100
AcDbDictionary
281
     1
  0
DICTIONARY
  5
61
102
{ACAD_REACTORS
330
C
102
}
330
C
100
AcDbDictionary
281
     1
  3
Model
350
72
  3
レイアウト1
350
6E
  0
DICTIONARY
  5
10
102
{ACAD_REACTORS
330
C
102
}
330
C
100
AcDbDictionary
281
     1
  3
ByBlock
350
19
  3
ByLayer
350
11
  3
Global
350
21
  0
DICTIONARY
  5
65
102
{ACAD_REACTORS
330
C
102
}
330
C
100
AcDbDictionary
281
     1
  3
Standard
350
66
  0
DICTIONARY
  5
5E
102
{ACAD_REACTORS
330
C
102
}
330
C
100
AcDbDictionary
281
     1
  3
Standard
350
5F
  0
DICTIONARY
  5
60
102
{ACAD_REACTORS
330
C
102
}
330
C
100
AcDbDictionary
281
     1
  0
ACDBDICTIONARYWDFLT
  5
E
102
{ACAD_REACTORS
330
C
102
}
330
C
100
AcDbDictionary
281
     1
  3
Normal
350
F
100
AcDbDictionaryWithDefault
340
F
  0
DICTIONARY
  5
42
102
{ACAD_REACTORS
330
C
102
}
330
C
100
AcDbDictionary
281
     1
  3
A0
350
43
  3
A1
350
44
  3
A2
350
45
  3
A3
350
46
  3
A4
350
47
  3
A5
350
48
  3
A6
350
49
  3
A7
350
4A
  3
A8
350
4B
  3
A9
350
4C
  3
B0
350
4D
  3
B1
350
4E
  3
B2
350
4F
  3
B3
350
50
  3
B4
350
51
  3
B5
350
52
  3
B6
350
53
  0
DICTIONARY
  5
67
102
{ACAD_REACTORS
330
C
102
}
330
C
100
AcDbDictionary
281
     1
  3
Imperial24
350
68
  0
DICTIONARY
  5
63
102
{ACAD_REACTORS
330
C
102
}
330
C
100
AcDbDictionary
281
     1
  3
Standard
350
64
  0
DICTIONARY
  5
29
102
{ACAD_REACTORS
330
C
102
}
330
C
100
AcDbDictionary
281
     1
  3
2dWireframe
350
2F
  3
Basic
350
2E
  3
Brighten
350
35
  3
ColorChange
350
39
  3
Conceptual
350
32
  3
Dim
350
34
  3
EdgeColorOff
350
41
  3
Facepattern
350
38
  3
Flat
350
2A
  3
FlatWithEdges
350
2B
  3
Gouraud
350
2C
  3
GouraudWithEdges
350
2D
  3
Hidden
350
31
  3
JitterOff
350
3F
  3
Linepattern
350
37
  3
OverhangOff
350
40
  3
Realistic
350
33
  3
Shaded
350
3E
  3
Shaded with edges
350
3D
  3
Shades of Gray
350
3A
  3
Sketchy
350
3B
  3
Thicken
350
36
  3
Wireframe
350
30
  3
X-Ray
350
3C
  0
XRECORD
  5
6EA
102
{ACAD_REACTORS
330
C
102
}
330
C
100
AcDbXrecord
280
     1
 90
        1
330
64
  0
DICTIONARY
  5
6DD
102
{ACAD_REACTORS
330
C
102
}
330
C
100
AcDbDictionary
281
     1
  3
CANNOSCALE
350
6E2
  3
CMLEADERSTYLE
350
6DF
  3
CTABLESTYLE
350
6DE
  3
CVIEWDETAILSTYLE
350
6E0
  3
CVIEWSECTIONSTYLE
350
6E1
  3
DIMASSOC
350
6E5
  3
INDEXCTL
350
6E4
  3
SORTENTS
350
6E3
  3
XCLIPFRAME
350
6E6
  0
XRECORD
  5
6EB
102
{ACAD_REACTORS
330
C
102
}
330
C
100
AcDbXrecord
280
     1
  1
DWGPROPS COOKIE
  2

  3

  4

  6

  7

  8
proidobatak
  9

300
=
301
=
302
=
303
=
304
=
305
=
306
=
307
=
308
=
309
=
 40
1.639222905092592
 41
2455902.607164352
 42
2458569.546331019
  1

 90
        0
  0
XRECORD
  5
6C8
102
{ACAD_REACTORS
330
6C7
102
}
330
6C7
100
AcDbXrecord
280
     1
290
     1
  0
XRECORD
  5
6CA
102
{ACAD_REACTORS
330
6C9
102
}
330
6C9
100
AcDbXrecord
280
     1
290
     1
  0
XRECORD
  5
6CC
102
{ACAD_REACTORS
330
6CB
102
}
330
6CB
100
AcDbXrecord
280
     1
290
     1
  0
XRECORD
  5
6CE
102
{ACAD_REACTORS
330
6CD
102
}
330
6CD
100
AcDbXrecord
280
     1
290
     1
  0
XRECORD
  5
6D0
102
{ACAD_REACTORS
330
6CF
102
}
330
6CF
100
AcDbXrecord
280
     1
290
     1
  0
XRECORD
  5
6D2
102
{ACAD_REACTORS
330
6D1
102
}
330
6D1
100
AcDbXrecord
280
     1
290
     1
  0
XRECORD
  5
6D4
102
{ACAD_REACTORS
330
6D3
102
}
330
6D3
100
AcDbXrecord
280
     1
290
     1
  0
XRECORD
  5
6D6
102
{ACAD_REACTORS
330
6D5
102
}
330
6D5
100
AcDbXrecord
280
     1
290
     1
  0
XRECORD
  5
6D8
102
{ACAD_REACTORS
330
6D7
102
}
330
6D7
100
AcDbXrecord
280
     1
290
     1
  0
XRECORD
  5
6DA
102
{ACAD_REACTORS
330
6D9
102
}
330
6D9
100
AcDbXrecord
280
     1
290
     1
  0
XRECORD
  5
6DC
102
{ACAD_REACTORS
330
6DB
102
}
330
6DB
100
AcDbXrecord
280
     1
290
     1
  0
ACDBDETAILVIEWSTYLE
  5
6A
102
{ACAD_XDICTIONARY
360
723
102
}
102
{ACAD_REACTORS
330
69
102
}
330
69
100
AcDbModelDocViewStyle
 70
     0
  3
Imperial24
290
     0
100
AcDbDetailViewStyle
 70
     0
 71
     0
 90
        3
 71
     1
340
55
 40
0.24
340
0
 40
0.24
300

 40
0.36
280
     3
 71
     2
340
5C
 90
       25
 71
     3
340
55
 40
0.24
 90
        1
 40
0.75
 90
        1
300
%<\AcVar ViewType \f "%tc1">% %<\AcVar ViewDetailId>%\PSCALE %<\AcVar ViewScale \f "%sn">%
 71
     4
340
5C
 90
       25
340
5C
 90
       25
280
     0
  0
LAYOUT
  5
72
102
{ACAD_XDICTIONARY
360
727
102
}
102
{ACAD_REACTORS
330
61
102
}
330
61
100
AcDbPlotSettings
  1

  2
OKI C931(PS)
  4

  6

 40
0.0
 41
0.0
 42
0.0
 43
0.0
 44
0.0
 45
0.0
 46
0.0
 47
0.0
 48
0.0
 49
0.0
140
0.0
141
0.0
142
1.0
143
1.0
 70
  1712
 72
     0
 73
     0
 74
     0
  7

 75
     0
147
1.0
148
0.0
149
0.0
100
AcDbLayout
  1
Model
 70
     1
 71
     0
 10
0.0
 20
0.0
 11
12.0
 21
9.0
 12
0.0
 22
0.0
 32
0.0
 14
0.0
 24
0.0
 34
0.0
 15
0.0
 25
0.0
 35
0.0
146
0.0
 13
0.0
 23
0.0
 33
0.0
 16
1.0
 26
0.0
 36
0.0
 17
0.0
 27
1.0
 37
0.0
 76
     0
330
6F
331
81
  0
LAYOUT
  5
6E
102
{ACAD_XDICTIONARY
360
725
102
}
102
{ACAD_REACTORS
330
61
102
}
330
61
100
AcDbPlotSettings
  1

  2
OKI C931(PS)
  4

  6

 40
0.0
 41
0.0
 42
0.0
 43
0.0
 44
0.0
 45
0.0
 46
0.0
 47
0.0
 48
0.0
 49
0.0
140
0.0
141
0.0
142
1.0
143
1.0
 70
   688
 72
     0
 73
     0
 74
     5
  7

 75
    16
147
1.0
148
0.0
149
0.0
100
AcDbLayout
  1
レイアウト1
 70
     1
 71
     1
 10
0.0
 20
0.0
 11
12.0
 21
9.0
 12
0.0
 22
0.0
 32
0.0
 14
1.000000000000000E+20
 24
1.000000000000000E+20
 34
1.000000000000000E+20
 15
-1.000000000000000E+20
 25
-1.000000000000000E+20
 35
-1.000000000000000E+20
146
0.0
 13
0.0
 23
0.0
 33
0.0
 16
1.0
 26
0.0
 36
0.0
 17
0.0
 27
1.0
 37
0.0
 76
     0
330
6B
  0
MATERIAL
  5
19
102
{ACAD_XDICTIONARY
360
1A
102
}
102
{ACAD_REACTORS
330
10
102
}
330
10
100
AcDbMaterial
  1
ByBlock
 72
     0
 43
0.0208333333333333
 43
0.0
 43
0.0
 43
0.0
 43
0.0
 43
0.0208333333333333
 43
0.0
 43
0.0
 43
0.0
 43
0.0
 43
1.0
 43
0.0
 43
0.0
 43
0.0
 43
0.0
 43
1.0
 77
     0
 47
0.0208333333333333
 47
0.0
 47
0.0
 47
0.0
 47
0.0
 47
0.0208333333333333
 47
0.0
 47
0.0
 47
0.0
 47
0.0
 47
1.0
 47
0.0
 47
0.0
 47
0.0
 47
0.0
 47
1.0
171
     0
 49
0.0208333333333333
 49
0.0
 49
0.0
 49
0.0
 49
0.0
 49
0.0208333333333333
 49
0.0
 49
0.0
 49
0.0
 49
0.0
 49
1.0
 49
0.0
 49
0.0
 49
0.0
 49
0.0
 49
1.0
175
     0
142
0.0208333333333333
142
0.0
142
0.0
142
0.0
142
0.0
142
0.0208333333333333
142
0.0
142
0.0
142
0.0
142
0.0
142
1.0
142
0.0
142
0.0
142
0.0
142
0.0
142
1.0
179
     0
144
0.0208333333333333
144
0.0
144
0.0
144
0.0
144
0.0
144
0.0208333333333333
144
0.0
144
0.0
144
0.0
144
0.0
144
1.0
144
0.0
144
0.0
144
0.0
144
0.0
144
1.0
147
0.0208333333333333
147
0.0
147
0.0
147
0.0
147
0.0
147
0.0208333333333333
147
0.0
147
0.0
147
0.0
147
0.0
147
1.0
147
0.0
147
0.0
147
0.0
147
0.0
147
1.0
  0
MATERIAL
  5
11
102
{ACAD_XDICTIONARY
360
12
102
}
102
{ACAD_REACTORS
330
10
102
}
330
10
100
AcDbMaterial
  1
ByLayer
 72
     0
 43
0.0208333333333333
 43
0.0
 43
0.0
 43
0.0
 43
0.0
 43
0.0208333333333333
 43
0.0
 43
0.0
 43
0.0
 43
0.0
 43
1.0
 43
0.0
 43
0.0
 43
0.0
 43
0.0
 43
1.0
 77
     0
 47
0.0208333333333333
 47
0.0
 47
0.0
 47
0.0
 47
0.0
 47
0.0208333333333333
 47
0.0
 47
0.0
 47
0.0
 47
0.0
 47
1.0
 47
0.0
 47
0.0
 47
0.0
 47
0.0
 47
1.0
171
     0
 49
0.0208333333333333
 49
0.0
 49
0.0
 49
0.0
 49
0.0
 49
0.0208333333333333
 49
0.0
 49
0.0
 49
0.0
 49
0.0
 49
1.0
 49
0.0
 49
0.0
 49
0.0
 49
0.0
 49
1.0
175
     0
142
0.0208333333333333
142
0.0
142
0.0
142
0.0
142
0.0
142
0.0208333333333333
142
0.0
142
0.0
142
0.0
142
0.0
142
1.0
142
0.0
142
0.0
142
0.0
142
0.0
142
1.0
179
     0
144
0.0208333333333333
144
0.0
144
0.0
144
0.0
144
0.0
144
0.0208333333333333
144
0.0
144
0.0
144
0.0
144
0.0
144
1.0
144
0.0
144
0.0
144
0.0
144
0.0
144
1.0
147
0.0208333333333333
147
0.0
147
0.0
147
0.0
147
0.0
147
0.0208333333333333
147
0.0
147
0.0
147
0.0
147
0.0
147
1.0
147
0.0
147
0.0
147
0.0
147
0.0
147
1.0
  0
MATERIAL
  5
21
102
{ACAD_XDICTIONARY
360
22
102
}
102
{ACAD_REACTORS
330
10
102
}
330
10
100
AcDbMaterial
  1
Global
 72
     0
 43
0.0208333333333333
 43
0.0
 43
0.0
 43
0.0
 43
0.0
 43
0.0208333333333333
 43
0.0
 43
0.0
 43
0.0
 43
0.0
 43
1.0
 43
0.0
 43
0.0
 43
0.0
 43
0.0
 43
1.0
 77
     0
 47
0.0208333333333333
 47
0.0
 47
0.0
 47
0.0
 47
0.0
 47
0.0208333333333333
 47
0.0
 47
0.0
 47
0.0
 47
0.0
 47
1.0
 47
0.0
 47
0.0
 47
0.0
 47
0.0
 47
1.0
171
     0
 49
0.0208333333333333
 49
0.0
 49
0.0
 49
0.0
 49
0.0
 49
0.0208333333333333
 49
0.0
 49
0.0
 49
0.0
 49
0.0
 49
1.0
 49
0.0
 49
0.0
 49
0.0
 49
0.0
 49
1.0
175
     0
142
0.0208333333333333
142
0.0
142
0.0
142
0.0
142
0.0
142
0.0208333333333333
142
0.0
142
0.0
142
0.0
142
0.0
142
1.0
142
0.0
142
0.0
142
0.0
142
0.0
142
1.0
179
     0
144
0.0208333333333333
144
0.0
144
0.0
144
0.0
144
0.0
144
0.0208333333333333
144
0.0
144
0.0
144
0.0
144
0.0
144
1.0
144
0.0
144
0.0
144
0.0
144
0.0
144
1.0
147
0.0208333333333333
147
0.0
147
0.0
147
0.0
147
0.0
147
0.0208333333333333
147
0.0
147
0.0
147
0.0
147
0.0
147
1.0
147
0.0
147
0.0
147
0.0
147
0.0
147
1.0
  0
MLEADERSTYLE
  5
66
102
{ACAD_REACTORS
330
65
102
}
330
65
100
AcDbMLeaderStyle
170
     2
171
     1
172
     0
 90
        2
 40
0.0
 41
0.0
173
     1
 91
-1056964608
340
5A
 92
       -2
290
     1
 42
0.09
291
     1
 43
0.36
  3
Standard
 44
0.18
300

342
55
174
     1
178
     6
175
     1
176
     0
 93
-1056964608
 45
0.18
292
     0
297
     0
 46
0.18
 94
-1056964608
 47
1.0
 49
1.0
140
1.0
293
     1
141
0.0
294
     1
177
     0
142
1.0
295
     0
296
     0
143
0.125
1001
ACAD_MLEADERVER
1070
     2
  0
MLINESTYLE
  5
5F
102
{ACAD_REACTORS
330
5E
102
}
330
5E
100
AcDbMlineStyle
  2
STANDARD
 70
     0
  3

 62
   256
 51
90.0
 52
90.0
 71
     2
 49
0.5
 62
   256
  6
BYLAYER
 49
-0.5
 62
   256
  6
BYLAYER
  0
ACDBPLACEHOLDER
  5
F
102
{ACAD_REACTORS
330
E
102
}
330
E
  0
SCALE
  5
43
102
{ACAD_REACTORS
330
42
102
}
330
42
100
AcDbScale
 70
     0
300
1:1
140
1.0
141
1.0
290
     1
  0
SCALE
  5
44
102
{ACAD_REACTORS
330
42
102
}
330
42
100
AcDbScale
 70
     0
300
1/128" = 1'-0"
140
0.0078125
141
12.0
290
     0
  0
SCALE
  5
45
102
{ACAD_REACTORS
330
42
102
}
330
42
100
AcDbScale
 70
     0
300
1/64" = 1'-0"
140
0.015625
141
12.0
290
     0
  0
SCALE
  5
46
102
{ACAD_REACTORS
330
42
102
}
330
42
100
AcDbScale
 70
     0
300
1/32" = 1'-0"
140
0.03125
141
12.0
290
     0
  0
SCALE
  5
47
102
{ACAD_REACTORS
330
42
102
}
330
42
100
AcDbScale
 70
     0
300
1/16" = 1'-0"
140
0.0625
141
12.0
290
     0
  0
SCALE
  5
48
102
{ACAD_REACTORS
330
42
102
}
330
42
100
AcDbScale
 70
     0
300
3/32" = 1'-0"
140
0.09375
141
12.0
290
     0
  0
SCALE
  5
49
102
{ACAD_REACTORS
330
42
102
}
330
42
100
AcDbScale
 70
     0
300
1/8" = 1'-0"
140
0.125
141
12.0
290
     0
  0
SCALE
  5
4A
102
{ACAD_REACTORS
330
42
102
}
330
42
100
AcDbScale
 70
     0
300
3/16" = 1'-0"
140
0.1875
141
12.0
290
     0
  0
SCALE
  5
4B
102
{ACAD_REACTORS
330
42
102
}
330
42
100
AcDbScale
 70
     0
300
1/4" = 1'-0"
140
0.25
141
12.0
290
     0
  0
SCALE
  5
4C
102
{ACAD_REACTORS
330
42
102
}
330
42
100
AcDbScale
 70
     0
300
3/8" = 1'-0"
140
0.375
141
12.0
290
     0
  0
SCALE
  5
4D
102
{ACAD_REACTORS
330
42
102
}
330
42
100
AcDbScale
 70
     0
300
1/2" = 1'-0"
140
0.5
141
12.0
290
     0
  0
SCALE
  5
4E
102
{ACAD_REACTORS
330
42
102
}
330
42
100
AcDbScale
 70
     0
300
3/4" = 1'-0"
140
0.75
141
12.0
290
     0
  0
SCALE
  5
4F
102
{ACAD_REACTORS
330
42
102
}
330
42
100
AcDbScale
 70
     0
300
1" = 1'-0"
140
1.0
141
12.0
290
     0
  0
SCALE
  5
50
102
{ACAD_REACTORS
330
42
102
}
330
42
100
AcDbScale
 70
     0
300
1-1/2" = 1'-0"
140
1.5
141
12.0
290
     0
  0
SCALE
  5
51
102
{ACAD_REACTORS
330
42
102
}
330
42
100
AcDbScale
 70
     0
300
3" = 1'-0"
140
3.0
141
12.0
290
     0
  0
SCALE
  5
52
102
{ACAD_REACTORS
330
42
102
}
330
42
100
AcDbScale
 70
     0
300
6" = 1'-0"
140
6.0
141
12.0
290
     0
  0
SCALE
  5
53
102
{ACAD_REACTORS
330
42
102
}
330
42
100
AcDbScale
 70
     0
300
1'-0" = 1'-0"
140
12.0
141
12.0
290
     0
  0
ACDBSECTIONVIEWSTYLE
  5
68
102
{ACAD_XDICTIONARY
360
721
102
}
102
{ACAD_REACTORS
330
67
102
}
330
67
100
AcDbModelDocViewStyle
 70
     0
  3
Imperial24
290
     0
100
AcDbSectionViewStyle
 70
     0
 71
     0
 90
       78
 71
     1
340
55
 40
0.24
340
0
340
0
 40
0.24
300
I, O, Q, S, X, Z
 40
0.48
 90
        3
 40
0.18
 90
        1
 71
     2
340
5C
 90
       25
340
5C
 90
       50
 40
0.24
 40
0.0
 40
0.24
 71
     3
340
55
 40
0.24
 90
        1
 40
0.75
 90
        1
300
%<\AcVar ViewType \f "%tc1">% %<\AcVar ViewSectionStartId>%-%<\AcVar ViewSectionEndId>%\PSCALE %<\AcVar ViewScale \f "%sn">%
 71
     4
300
ANSI31
 40
1.0
 90
        0
290
     0
290
     0
 90
        6
 40
0.0
 40
1.570796326794896
 40
0.2617993877991494
 40
1.308996938995747
 40
-0.2617993877991494
 40
1.832595714594046
  0
TABLESTYLE
  5
64
102
{ACAD_XDICTIONARY
360
6E8
102
}
102
{ACAD_REACTORS
330
63
102
}
330
63
100
AcDbTableStyle
  3
Standard
 70
     0
 71
     0
 40
0.06
 41
0.06
280
     0
281
     0
  7
STANDARD
140
0.18
170
     2
 62
     0
 63
     7
283
     0
274
    -2
284
     1
 64
     0
275
    -2
285
     1
 65
     0
276
    -2
286
     1
 66
     0
277
    -2
287
     1
 67
     0
278
    -2
288
     1
 68
     0
279
    -2
289
     1
 69
     0
  7
STANDARD
140
0.25
170
     5
 62
     0
 63
     7
283
     0
274
    -2
284
     1
 64
     0
275
    -2
285
     1
 65
     0
276
    -2
286
     1
 66
     0
277
    -2
287
     1
 67
     0
278
    -2
288
     1
 68
     0
279
    -2
289
     1
 69
     0
  7
STANDARD
140
0.18
170
     5
 62
     0
 63
     7
283
     0
274
    -2
284
     1
 64
     0
275
    -2
285
     1
 65
     0
276
    -2
286
     1
 66
     0
277
    -2
287
     1
 67
     0
278
    -2
288
     1
 68
     0
279
    -2
289
     1
 69
     0
  0
VISUALSTYLE
  5
2F
102
{ACAD_XDICTIONARY
360
6F9
102
}
102
{ACAD_REACTORS
330
29
102
}
330
29
100
AcDbVisualStyle
  2
2dWireframe
 70
     4
 71
     0
 72
     2
 73
     0
 90
        0
 40
-0.6
 41
-30.0
 62
     5
 63
     7
 74
     1
 91
        4
 64
     7
 65
   257
 75
     1
175
     1
 42
1.0
 92
        0
 66
   257
 43
1.0
 76
     1
 77
     6
 78
     2
 67
     7
 79
     5
170
     0
171
     0
290
     0
174
     0
 93
        1
 44
0.0
173
     0
291
     0
 45
0.0
1001
ACAD
1000
AcDbSavedByObjectVersion
1070
     0
  0
VISUALSTYLE
  5
2E
102
{ACAD_XDICTIONARY
360
6F7
102
}
102
{ACAD_REACTORS
330
29
102
}
330
29
100
AcDbVisualStyle
  2
Basic
 70
     7
 71
     1
 72
     0
 73
     1
 90
        0
 40
-0.6
 41
-30.0
 62
     5
 63
     7
 74
     0
 91
        4
 64
     7
 65
   257
 75
     1
175
     1
 42
1.0
 92
        8
 66
     7
 43
1.0
 76
     1
 77
     6
 78
     2
 67
     7
 79
     5
170
     0
171
     0
290
     0
174
     0
 93
        1
 44
0.0
173
     0
291
     1
 45
0.0
1001
ACAD
1000
AcDbSavedByObjectVersion
1070
     0
  0
VISUALSTYLE
  5
35
102
{ACAD_XDICTIONARY
360
705
102
}
102
{ACAD_REACTORS
330
29
102
}
330
29
100
AcDbVisualStyle
  2
Brighten
 70
    12
 71
     2
 72
     2
 73
     0
 90
        0
 40
-0.6
 41
-30.0
 62
     5
 63
     7
 74
     1
 91
        4
 64
     7
 65
   257
 75
     1
175
     1
 42
1.0
 92
        8
 66
     7
 43
1.0
 76
     1
 77
     6
 78
     2
 67
     7
 79
     5
170
     0
171
     0
290
     0
174
     0
 93
        1
 44
50.0
173
     0
291
     1
 45
0.0
1001
ACAD
1000
AcDbSavedByObjectVersion
1070
     0
  0
VISUALSTYLE
  5
39
102
{ACAD_XDICTIONARY
360
70D
102
}
102
{ACAD_REACTORS
330
29
102
}
330
29
100
AcDbVisualStyle
  2
ColorChange
 70
    16
 71
     2
 72
     2
 73
     3
 90
        0
 40
-0.6
 41
-30.0
 62
     5
 63
     8
 74
     1
 91
        4
 64
     7
 65
   257
 75
     1
175
     1
 42
1.0
 92
        8
 66
     8
 43
1.0
 76
     1
 77
     6
 78
     2
 67
     7
 79
     5
170
     0
171
     0
290
     0
174
     0
 93
        1
 44
0.0
173
     0
291
     1
 45
0.0
1001
ACAD
1000
AcDbSavedByObjectVersion
1070
     0
  0
VISUALSTYLE
  5
32
102
{ACAD_XDICTIONARY
360
6FF
102
}
102
{ACAD_REACTORS
330
29
102
}
330
29
100
AcDbVisualStyle
  2
Conceptual
 70
     9
 71
     3
 72
     2
 73
     0
 90
        0
 40
-0.6
 41
-30.0
 62
     5
 63
     7
 74
     2
 91
        2
 64
     7
 65
   257
 75
     1
175
     1
 42
179.0
 92
        8
 66
     7
 43
1.0
 76
     1
 77
     6
 78
     2
 67
     7
 79
     3
170
     0
171
     0
290
     0
174
     0
 93
        1
 44
0.0
173
     0
291
     0
 45
0.0
1001
ACAD
1000
AcDbSavedByObjectVersion
1070
     0
  0
VISUALSTYLE
  5
34
102
{ACAD_XDICTIONARY
360
703
102
}
102
{ACAD_REACTORS
330
29
102
}
330
29
100
AcDbVisualStyle
  2
Dim
 70
    11
 71
     2
 72
     2
 73
     0
 90
        0
 40
-0.6
 41
-30.0
 62
     5
 63
     7
 74
     1
 91
        4
 64
     7
 65
   257
 75
     1
175
     1
 42
1.0
 92
        8
 66
     7
 43
1.0
 76
     1
 77
     6
 78
     2
 67
     7
 79
     5
170
     0
171
     0
290
     0
174
     0
 93
        1
 44
-50.0
173
     0
291
     1
 45
0.0
1001
ACAD
1000
AcDbSavedByObjectVersion
1070
     0
  0
VISUALSTYLE
  5
41
102
{ACAD_XDICTIONARY
360
71D
102
}
102
{ACAD_REACTORS
330
29
102
}
330
29
100
AcDbVisualStyle
  2
EdgeColorOff
 70
    22
 71
     2
 72
     2
 73
     0
 90
        0
 40
-0.6
 41
-30.0
 62
     5
 63
     7
 74
     1
 91
        4
 64
     7
 65
   257
 75
     1
175
     1
 42
1.0
 92
        8
 66
     7
 43
1.0
 76
     1
 77
     6
 78
     2
 67
     7
 79
     5
170
     0
171
     0
290
     0
174
     0
 93
        1
 44
0.0
173
     0
291
     1
 45
0.0
1001
ACAD
1000
AcDbSavedByObjectVersion
1070
     0
  0
VISUALSTYLE
  5
38
102
{ACAD_XDICTIONARY
360
70B
102
}
102
{ACAD_REACTORS
330
29
102
}
330
29
100
AcDbVisualStyle
  2
Facepattern
 70
    15
 71
     2
 72
     2
 73
     0
 90
        0
 40
-0.6
 41
-30.0
 62
     5
 63
     7
 74
     1
 91
        4
 64
     7
 65
   257
 75
     1
175
     1
 42
1.0
 92
        8
 66
     7
 43
1.0
 76
     1
 77
     6
 78
     2
 67
     7
 79
     5
170
     0
171
     0
290
     0
174
     0
 93
        1
 44
0.0
173
     0
291
     1
 45
0.0
1001
ACAD
1000
AcDbSavedByObjectVersion
1070
     0
  0
VISUALSTYLE
  5
2A
102
{ACAD_XDICTIONARY
360
6EF
102
}
102
{ACAD_REACTORS
330
29
102
}
330
29
100
AcDbVisualStyle
  2
Flat
 70
     0
 71
     2
 72
     1
 73
     1
 90
        2
 40
-0.6
 41
30.0
 62
     5
 63
     7
 74
     0
 91
        0
 64
     7
 65
   257
 75
     1
175
     1
 42
1.0
 92
        8
 66
     7
 43
1.0
 76
     1
 77
     6
 78
     2
 67
     7
 79
     5
170
     0
171
     0
290
     0
174
     0
 93
       13
 44
0.0
173
     0
291
     1
 45
0.0
1001
ACAD
1000
AcDbSavedByObjectVersion
1070
     0
  0
VISUALSTYLE
  5
2B
102
{ACAD_XDICTIONARY
360
6F1
102
}
102
{ACAD_REACTORS
330
29
102
}
330
29
100
AcDbVisualStyle
  2
FlatWithEdges
 70
     1
 71
     2
 72
     1
 73
     1
 90
        2
 40
-0.6
 41
30.0
 62
     5
 63
     7
 74
     1
 91
        0
 64
     7
 65
   257
 75
     1
175
     1
 42
1.0
 92
        0
 66
   257
 43
1.0
 76
     1
 77
     6
 78
     2
 67
     7
 79
     5
170
     0
171
     0
290
     0
174
     0
 93
       13
 44
0.0
173
     0
291
     1
 45
0.0
1001
ACAD
1000
AcDbSavedByObjectVersion
1070
     0
  0
VISUALSTYLE
  5
2C
102
{ACAD_XDICTIONARY
360
6F3
102
}
102
{ACAD_REACTORS
330
29
102
}
330
29
100
AcDbVisualStyle
  2
Gouraud
 70
     2
 71
     2
 72
     2
 73
     1
 90
        2
 40
-0.6
 41
30.0
 62
     5
 63
     7
 74
     0
 91
        0
 64
     7
 65
   257
 75
     1
175
     1
 42
1.0
 92
        0
 66
     7
 43
1.0
 76
     1
 77
     6
 78
     2
 67
     7
 79
     5
170
     0
171
     0
290
     0
174
     0
 93
       13
 44
0.0
173
     0
291
     1
 45
0.0
1001
ACAD
1000
AcDbSavedByObjectVersion
1070
     0
  0
VISUALSTYLE
  5
2D
102
{ACAD_XDICTIONARY
360
6F5
102
}
102
{ACAD_REACTORS
330
29
102
}
330
29
100
AcDbVisualStyle
  2
GouraudWithEdges
 70
     3
 71
     2
 72
     2
 73
     1
 90
        2
 40
-0.6
 41
30.0
 62
     5
 63
     7
 74
     1
 91
        0
 64
     7
 65
   257
 75
     1
175
     1
 42
1.0
 92
        0
 66
   257
 43
1.0
 76
     1
 77
     6
 78
     2
 67
     7
 79
     5
170
     0
171
     0
290
     0
174
     0
 93
       13
 44
0.0
173
     0
291
     1
 45
0.0
1001
ACAD
1000
AcDbSavedByObjectVersion
1070
     0
  0
VISUALSTYLE
  5
31
102
{ACAD_XDICTIONARY
360
6FD
102
}
102
{ACAD_REACTORS
330
29
102
}
330
29
100
AcDbVisualStyle
  2
Hidden
 70
     6
 71
     1
 72
     2
 73
     2
 90
        0
 40
-0.6
 41
-30.0
 62
     5
 63
     7
 74
     2
 91
        2
 64
     7
 65
   257
 75
     2
175
     1
 42
40.0
 92
        0
 66
   257
 43
1.0
 76
     1
 77
     6
 78
     2
 67
     7
 79
     3
170
     0
171
     0
290
     0
174
     0
 93
        1
 44
0.0
173
     0
291
     0
 45
0.0
1001
ACAD
1000
AcDbSavedByObjectVersion
1070
     0
  0
VISUALSTYLE
  5
3F
102
{ACAD_XDICTIONARY
360
719
102
}
102
{ACAD_REACTORS
330
29
102
}
330
29
100
AcDbVisualStyle
  2
JitterOff
 70
    20
 71
     2
 72
     2
 73
     0
 90
        0
 40
-0.6
 41
-30.0
 62
     5
 63
     7
 74
     1
 91
        4
 64
     7
 65
   257
 75
     1
175
     1
 42
1.0
 92
       10
 66
     7
 43
1.0
 76
     1
 77
     6
 78
     2
 67
     7
 79
     5
170
     0
171
     0
290
     0
174
     0
 93
        1
 44
0.0
173
     0
291
     1
 45
0.0
1001
ACAD
1000
AcDbSavedByObjectVersion
1070
     0
  0
VISUALSTYLE
  5
37
102
{ACAD_XDICTIONARY
360
709
102
}
102
{ACAD_REACTORS
330
29
102
}
330
29
100
AcDbVisualStyle
  2
Linepattern
 70
    14
 71
     2
 72
     2
 73
     0
 90
        0
 40
-0.6
 41
-30.0
 62
     5
 63
     7
 74
     1
 91
        4
 64
     7
 65
   257
 75
     7
175
     7
 42
1.0
 92
        8
 66
     7
 43
1.0
 76
     1
 77
     6
 78
     2
 67
     7
 79
     5
170
     0
171
     0
290
     0
174
     0
 93
        1
 44
0.0
173
     0
291
     1
 45
0.0
1001
ACAD
1000
AcDbSavedByObjectVersion
1070
     0
  0
VISUALSTYLE
  5
40
102
{ACAD_XDICTIONARY
360
71B
102
}
102
{ACAD_REACTORS
330
29
102
}
330
29
100
AcDbVisualStyle
  2
OverhangOff
 70
    21
 71
     2
 72
     2
 73
     0
 90
        0
 40
-0.6
 41
-30.0
 62
     5
 63
     7
 74
     1
 91
        4
 64
     7
 65
   257
 75
     1
175
     1
 42
1.0
 92
        9
 66
     7
 43
1.0
 76
     1
 77
     6
 78
     2
 67
     7
 79
     5
170
     0
171
     0
290
     0
174
     0
 93
        1
 44
0.0
173
     0
291
     1
 45
0.0
1001
ACAD
1000
AcDbSavedByObjectVersion
1070
     0
  0
VISUALSTYLE
  5
33
102
{ACAD_XDICTIONARY
360
701
102
}
102
{ACAD_REACTORS
330
29
102
}
330
29
100
AcDbVisualStyle
  2
Realistic
 70
     8
 71
     2
 72
     3
 73
     0
 90
        2
 40
-0.6
 41
30.0
 62
     5
 63
     7
 74
     0
 91
        0
 64
     7
 65
   257
 75
     1
175
     1
 42
1.0
 92
        8
 66
   257
 43
1.0
 76
     1
 77
     6
 78
     2
 67
     7
 79
     3
170
     0
171
     0
290
     0
174
     0
 93
       13
 44
0.0
173
     0
291
     0
 45
0.0
1001
ACAD
1000
AcDbSavedByObjectVersion
1070
     0
  0
VISUALSTYLE
  5
3E
102
{ACAD_XDICTIONARY
360
717
102
}
102
{ACAD_REACTORS
330
29
102
}
330
29
100
AcDbVisualStyle
  2
Shaded
 70
    27
 71
     2
 72
     2
 73
     1
 90
        2
 40
-0.6
 41
30.0
 62
     5
 63
     7
 74
     0
 91
        4
 64
     7
 65
   257
 75
     1
175
     1
 42
1.0
 92
        8
 66
   257
 43
1.0
 76
     1
 77
     6
 78
     2
 67
     8
 79
     3
170
     0
171
     0
290
     0
174
     0
 93
        5
 44
0.0
173
     0
291
     0
 45
0.0
1001
ACAD
1000
AcDbSavedByObjectVersion
1070
     0
  0
VISUALSTYLE
  5
3D
102
{ACAD_XDICTIONARY
360
715
102
}
102
{ACAD_REACTORS
330
29
102
}
330
29
100
AcDbVisualStyle
  2
Shaded with edges
 70
    26
 71
     2
 72
     2
 73
     1
 90
        2
 40
-0.6
 41
30.0
 62
     5
 63
     7
 74
     1
 91
        2
 64
     7
 65
   257
 75
     2
175
     1
 42
1.0
 92
        8
 66
   257
 43
1.0
 76
     1
 77
     6
 78
     2
 67
     7
 79
     3
170
     0
171
     0
290
     0
174
     0
 93
        5
 44
0.0
173
     0
291
     0
 45
0.0
1001
ACAD
1000
AcDbSavedByObjectVersion
1070
     0
  0
VISUALSTYLE
  5
3A
102
{ACAD_XDICTIONARY
360
70F
102
}
102
{ACAD_REACTORS
330
29
102
}
330
29
100
AcDbVisualStyle
  2
Shades of Gray
 70
    23
 71
     2
 72
     2
 73
     3
 90
        0
 40
-0.6
 41
-30.0
 62
     5
 63
     7
 74
     2
 91
        2
 64
     7
 65
     7
 75
     1
175
     1
 42
40.0
 92
        8
 66
     7
 43
1.0
 76
     1
 77
     6
 78
     2
 67
     7
 79
     3
170
     0
171
     0
290
     0
174
     0
 93
        1
 44
0.0
173
     0
291
     0
 45
0.0
1001
ACAD
1000
AcDbSavedByObjectVersion
1070
     0
  0
VISUALSTYLE
  5
3B
102
{ACAD_XDICTIONARY
360
711
102
}
102
{ACAD_REACTORS
330
29
102
}
330
29
100
AcDbVisualStyle
  2
Sketchy
 70
    24
 71
     1
 72
     2
 73
     2
 90
        0
 40
-0.6
 41
-30.0
 62
     5
 63
     7
 74
     2
 91
        2
 64
     7
 65
     7
 75
     1
175
     1
 42
40.0
 92
       11
 66
     7
 43
1.0
 76
     1
 77
     6
 78
     2
 67
     7
 79
     6
170
     0
171
     0
290
     0
174
     0
 93
        1
 44
0.0
173
     0
291
     0
 45
0.0
1001
ACAD
1000
AcDbSavedByObjectVersion
1070
     0
  0
VISUALSTYLE
  5
36
102
{ACAD_XDICTIONARY
360
707
102
}
102
{ACAD_REACTORS
330
29
102
}
330
29
100
AcDbVisualStyle
  2
Thicken
 70
    13
 71
     2
 72
     2
 73
     0
 90
        0
 40
-0.6
 41
-30.0
 62
     5
 63
     7
 74
     1
 91
        4
 64
     7
 65
   257
 75
     1
175
     1
 42
1.0
 92
       12
 66
     7
 43
1.0
 76
     1
 77
     6
 78
     2
 67
     7
 79
     5
170
     0
171
     0
290
     0
174
     0
 93
        1
 44
0.0
173
     0
291
     1
 45
0.0
1001
ACAD
1000
AcDbSavedByObjectVersion
1070
     0
  0
VISUALSTYLE
  5
30
102
{ACAD_XDICTIONARY
360
6FB
102
}
102
{ACAD_REACTORS
330
29
102
}
330
29
100
AcDbVisualStyle
  2
Wireframe
 70
     5
 71
     0
 72
     2
 73
     0
 90
        0
 40
-0.6
 41
-30.0
 62
     5
 63
     7
 74
     1
 91
        4
 64
     7
 65
   257
 75
     1
175
     1
 42
1.0
 92
        0
 66
   257
 43
1.0
 76
     1
 77
     6
 78
     2
 67
     7
 79
     3
170
     0
171
     0
290
     0
174
     0
 93
        1
 44
0.0
173
     0
291
     0
 45
0.0
1001
ACAD
1000
AcDbSavedByObjectVersion
1070
     0
  0
VISUALSTYLE
  5
3C
102
{ACAD_XDICTIONARY
360
713
102
}
102
{ACAD_REACTORS
330
29
102
}
330
29
100
AcDbVisualStyle
  2
X-Ray
 70
    25
 71
     2
 72
     2
 73
     1
 90
        1
 40
0.5
 41
-30.0
 62
     5
 63
     7
 74
     1
 91
        0
 64
     7
 65
   257
 75
     1
175
     1
 42
1.0
 92
        8
 66
     7
 43
1.0
 76
     1
 77
     6
 78
     2
 67
     7
 79
     3
170
     0
171
     0
290
     0
174
     0
 93
       13
 44
0.0
173
     0
291
     0
 45
0.0
1001
ACAD
1000
AcDbSavedByObjectVersion
1070
     0
  0
DICTIONARYVAR
  5
6E2
102
{ACAD_REACTORS
330
6DD
102
}
330
6DD
100
DictionaryVariables
280
     0
  1
1:1
  0
DICTIONARYVAR
  5
6DF
102
{ACAD_REACTORS
330
6DD
102
}
330
6DD
100
DictionaryVariables
280
     0
  1
STANDARD
  0
DICTIONARYVAR
  5
6DE
102
{ACAD_REACTORS
330
6DD
102
}
330
6DD
100
DictionaryVariables
280
     0
  1
STANDARD
  0
DICTIONARYVAR
  5
6E0
102
{ACAD_REACTORS
330
6DD
102
}
330
6DD
100
DictionaryVariables
280
     0
  1
Imperial24
  0
DICTIONARYVAR
  5
6E1
102
{ACAD_REACTORS
330
6DD
102
}
330
6DD
100
DictionaryVariables
280
     0
  1
Imperial24
  0
DICTIONARYVAR
  5
6E5
102
{ACAD_REACTORS
330
6DD
102
}
330
6DD
100
DictionaryVariables
280
     0
  1
1
  0
DICTIONARYVAR
  5
6E4
102
{ACAD_REACTORS
330
6DD
102
}
330
6DD
100
DictionaryVariables
280
     0
  1
0
  0
DICTIONARYVAR
  5
6E3
102
{ACAD_REACTORS
330
6DD
102
}
330
6DD
100
DictionaryVariables
280
     0
  1
127
  0
DICTIONARYVAR
  5
6E6
102
{ACAD_REACTORS
330
6DD
102
}
330
6DD
100
DictionaryVariables
280
     0
  1
2
  0
DICTIONARY
  5
723
330
6A
100
AcDbDictionary
280
     1
281
     1
  3
ACAD_XREC_ROUNDTRIP
360
724
  0
DICTIONARY
  5
727
330
72
100
AcDbDictionary
280
     1
281
     1
  3
ACAD_XREC_ROUNDTRIP
360
728
  0
DICTIONARY
  5
725
330
6E
100
AcDbDictionary
280
     1
281
     1
  3
ACAD_XREC_ROUNDTRIP
360
726
  0
DICTIONARY
  5
1A
330
19
100
AcDbDictionary
280
     1
281
     1
  3
ACAD_XREC_ROUNDTRIP
360
6ED
  3
BUMPTILE
360
1C
  3
DIFFUSETILE
360
1B
  3
OPACITYTILE
360
1F
  3
REFLECTIONTILE
360
1E
  3
REFRACTIONTILE
360
20
  3
SPECULARTILE
360
1D
  0
DICTIONARY
  5
12
330
11
100
AcDbDictionary
280
     1
281
     1
  3
ACAD_XREC_ROUNDTRIP
360
6EC
  3
BUMPTILE
360
14
  3
DIFFUSETILE
360
13
  3
OPACITYTILE
360
17
  3
REFLECTIONTILE
360
16
  3
REFRACTIONTILE
360
18
  3
SPECULARTILE
360
15
  0
DICTIONARY
  5
22
330
21
100
AcDbDictionary
280
     1
281
     1
  3
ACAD_XREC_ROUNDTRIP
360
6EE
  3
BUMPTILE
360
24
  3
DIFFUSETILE
360
23
  3
OPACITYTILE
360
27
  3
REFLECTIONTILE
360
26
  3
REFRACTIONTILE
360
28
  3
SPECULARTILE
360
25
  0
DICTIONARY
  5
721
330
68
100
AcDbDictionary
280
     1
281
     1
  3
ACAD_XREC_ROUNDTRIP
360
722
  0
DICTIONARY
  5
6E8
330
64
100
AcDbDictionary
280
     1
281
     1
  3
ACAD_ROUNDTRIP_2008_TABLESTYLE_CELLSTYLEMAP
360
6E9
  3
ACAD_XREC_ROUNDTRIP
360
71F
  0
DICTIONARY
  5
6F9
330
2F
100
AcDbDictionary
280
     1
281
     1
  3
ACAD_XREC_ROUNDTRIP
360
6FA
  0
DICTIONARY
  5
6F7
330
2E
100
AcDbDictionary
280
     1
281
     1
  3
ACAD_XREC_ROUNDTRIP
360
6F8
  0
DICTIONARY
  5
705
330
35
100
AcDbDictionary
280
     1
281
     1
  3
ACAD_XREC_ROUNDTRIP
360
706
  0
DICTIONARY
  5
70D
330
39
100
AcDbDictionary
280
     1
281
     1
  3
ACAD_XREC_ROUNDTRIP
360
70E
  0
DICTIONARY
  5
6FF
330
32
100
AcDbDictionary
280
     1
281
     1
  3
ACAD_XREC_ROUNDTRIP
360
700
  0
DICTIONARY
  5
703
330
34
100
AcDbDictionary
280
     1
281
     1
  3
ACAD_XREC_ROUNDTRIP
360
704
  0
DICTIONARY
  5
71D
330
41
100
AcDbDictionary
280
     1
281
     1
  3
ACAD_XREC_ROUNDTRIP
360
71E
  0
DICTIONARY
  5
70B
330
38
100
AcDbDictionary
280
     1
281
     1
  3
ACAD_XREC_ROUNDTRIP
360
70C
  0
DICTIONARY
  5
6EF
330
2A
100
AcDbDictionary
280
     1
281
     1
  3
ACAD_XREC_ROUNDTRIP
360
6F0
  0
DICTIONARY
  5
6F1
330
2B
100
AcDbDictionary
280
     1
281
     1
  3
ACAD_XREC_ROUNDTRIP
360
6F2
  0
DICTIONARY
  5
6F3
330
2C
100
AcDbDictionary
280
     1
281
     1
  3
ACAD_XREC_ROUNDTRIP
360
6F4
  0
DICTIONARY
  5
6F5
330
2D
100
AcDbDictionary
280
     1
281
     1
  3
ACAD_XREC_ROUNDTRIP
360
6F6
  0
DICTIONARY
  5
6FD
330
31
100
AcDbDictionary
280
     1
281
     1
  3
ACAD_XREC_ROUNDTRIP
360
6FE
  0
DICTIONARY
  5
719
330
3F
100
AcDbDictionary
280
     1
281
     1
  3
ACAD_XREC_ROUNDTRIP
360
71A
  0
DICTIONARY
  5
709
330
37
100
AcDbDictionary
280
     1
281
     1
  3
ACAD_XREC_ROUNDTRIP
360
70A
  0
DICTIONARY
  5
71B
330
40
100
AcDbDictionary
280
     1
281
     1
  3
ACAD_XREC_ROUNDTRIP
360
71C
  0
DICTIONARY
  5
701
330
33
100
AcDbDictionary
280
     1
281
     1
  3
ACAD_XREC_ROUNDTRIP
360
702
  0
DICTIONARY
  5
717
330
3E
100
AcDbDictionary
280
     1
281
     1
  3
ACAD_XREC_ROUNDTRIP
360
718
  0
DICTIONARY
  5
715
330
3D
100
AcDbDictionary
280
     1
281
     1
  3
ACAD_XREC_ROUNDTRIP
360
716
  0
DICTIONARY
  5
70F
330
3A
100
AcDbDictionary
280
     1
281
     1
  3
ACAD_XREC_ROUNDTRIP
360
710
  0
DICTIONARY
  5
711
330
3B
100
AcDbDictionary
280
     1
281
     1
  3
ACAD_XREC_ROUNDTRIP
360
712
  0
DICTIONARY
  5
707
330
36
100
AcDbDictionary
280
     1
281
     1
  3
ACAD_XREC_ROUNDTRIP
360
708
  0
DICTIONARY
  5
6FB
330
30
100
AcDbDictionary
280
     1
281
     1
  3
ACAD_XREC_ROUNDTRIP
360
6FC
  0
DICTIONARY
  5
713
330
3C
100
AcDbDictionary
280
     1
281
     1
  3
ACAD_XREC_ROUNDTRIP
360
714
  0
XRECORD
  5
724
102
{ACAD_REACTORS
330
723
102
}
330
723
100
AcDbXrecord
280
     1
102
DISPLAYNAME
  1
Imperial24
102
FLAGS
 90
        0
  0
XRECORD
  5
728
102
{ACAD_REACTORS
330
727
102
}
330
727
100
AcDbXrecord
280
     1
102
SHADEPLOT
 70
     0
102
SHADEPLOTRESLEVEL
 70
     2
102
SHADEPLOTCUSTOMDPI
 70
   300
  0
XRECORD
  5
726
102
{ACAD_REACTORS
330
725
102
}
330
725
100
AcDbXrecord
280
     1
102
SHADEPLOT
 70
     0
102
SHADEPLOTRESLEVEL
 70
     2
102
SHADEPLOTCUSTOMDPI
 70
   300
  0
XRECORD
  5
6ED
102
{ACAD_REACTORS
330
1A
102
}
330
1A
100
AcDbXrecord
280
     1
102
MATERIAL
148
0.0
149
0.0
149
0.0
 93
        0
 94
      127
282
     0
 72
     0
 77
     0
171
     0
175
     0
179
     0
273
     0
  0
XRECORD
  5
1C
102
{ACAD_REACTORS
330
1A
102
}
330
1A
100
AcDbXrecord
280
     1
270
     1
271
     1
  0
XRECORD
  5
1B
102
{ACAD_REACTORS
330
1A
102
}
330
1A
100
AcDbXrecord
280
     1
270
     1
271
     1
  0
XRECORD
  5
1F
102
{ACAD_REACTORS
330
1A
102
}
330
1A
100
AcDbXrecord
280
     1
270
     1
271
     1
  0
XRECORD
  5
1E
102
{ACAD_REACTORS
330
1A
102
}
330
1A
100
AcDbXrecord
280
     1
270
     1
271
     1
  0
XRECORD
  5
20
102
{ACAD_REACTORS
330
1A
102
}
330
1A
100
AcDbXrecord
280
     1
270
     1
271
     1
  0
XRECORD
  5
1D
102
{ACAD_REACTORS
330
1A
102
}
330
1A
100
AcDbXrecord
280
     1
270
     1
271
     1
  0
XRECORD
  5
6EC
102
{ACAD_REACTORS
330
12
102
}
330
12
100
AcDbXrecord
280
     1
102
MATERIAL
148
0.0
149
0.0
149
0.0
 93
        0
 94
      127
282
     0
 72
     0
 77
     0
171
     0
175
     0
179
     0
273
     0
  0
XRECORD
  5
14
102
{ACAD_REACTORS
330
12
102
}
330
12
100
AcDbXrecord
280
     1
270
     1
271
     1
  0
XRECORD
  5
13
102
{ACAD_REACTORS
330
12
102
}
330
12
100
AcDbXrecord
280
     1
270
     1
271
     1
  0
XRECORD
  5
17
102
{ACAD_REACTORS
330
12
102
}
330
12
100
AcDbXrecord
280
     1
270
     1
271
     1
  0
XRECORD
  5
16
102
{ACAD_REACTORS
330
12
102
}
330
12
100
AcDbXrecord
280
     1
270
     1
271
     1
  0
XRECORD
  5
18
102
{ACAD_REACTORS
330
12
102
}
330
12
100
AcDbXrecord
280
     1
270
     1
271
     1
  0
XRECORD
  5
15
102
{ACAD_REACTORS
330
12
102
}
330
12
100
AcDbXrecord
280
     1
270
     1
271
     1
  0
XRECORD
  5
6EE
102
{ACAD_REACTORS
330
22
102
}
330
22
100
AcDbXrecord
280
     1
102
MATERIAL
148
0.0
149
0.0
149
0.0
 93
        0
 94
      127
282
     0
 72
     0
 77
     0
171
     0
175
     0
179
     0
273
     0
  0
XRECORD
  5
24
102
{ACAD_REACTORS
330
22
102
}
330
22
100
AcDbXrecord
280
     1
270
     1
271
     1
  0
XRECORD
  5
23
102
{ACAD_REACTORS
330
22
102
}
330
22
100
AcDbXrecord
280
     1
270
     1
271
     1
  0
XRECORD
  5
27
102
{ACAD_REACTORS
330
22
102
}
330
22
100
AcDbXrecord
280
     1
270
     1
271
     1
  0
XRECORD
  5
26
102
{ACAD_REACTORS
330
22
102
}
330
22
100
AcDbXrecord
280
     1
270
     1
271
     1
  0
XRECORD
  5
28
102
{ACAD_REACTORS
330
22
102
}
330
22
100
AcDbXrecord
280
     1
270
     1
271
     1
  0
XRECORD
  5
25
102
{ACAD_REACTORS
330
22
102
}
330
22
100
AcDbXrecord
280
     1
270
     1
271
     1
  0
XRECORD
  5
722
102
{ACAD_REACTORS
330
721
102
}
330
721
100
AcDbXrecord
280
     1
102
DISPLAYNAME
  1
Imperial24
102
FLAGS
 90
        0
  0
CELLSTYLEMAP
  5
6E9
102
{ACAD_REACTORS
330
6E8
102
}
330
6E8
100
AcDbCellStyleMap
 90
        3
300
CELLSTYLE
  1
TABLEFORMAT_BEGIN
 90
        5
170
     1
 91
        0
 92
    32768
 62
   257
 93
        1
300
CONTENTFORMAT
  1
CONTENTFORMAT_BEGIN
 90
        0
 91
        0
 92
      512
 93
        0
300

 40
0.0
140
1.0
 94
        5
 62
     0
340
55
144
0.25
309
CONTENTFORMAT_END
171
     0
 94
        0
309
TABLEFORMAT_END
  1
CELLSTYLE_BEGIN
 90
        1
 91
        1
300
_TITLE
309
CELLSTYLE_END
300
CELLSTYLE
  1
TABLEFORMAT_BEGIN
 90
        5
170
     1
 91
        0
 92
        0
 62
   257
 93
        1
300
CONTENTFORMAT
  1
CONTENTFORMAT_BEGIN
 90
        0
 91
        0
 92
      512
 93
        0
300

 40
0.0
140
1.0
 94
        5
 62
     0
340
55
144
0.18
309
CONTENTFORMAT_END
171
     0
 94
        0
309
TABLEFORMAT_END
  1
CELLSTYLE_BEGIN
 90
        2
 91
        1
300
_HEADER
309
CELLSTYLE_END
300
CELLSTYLE
  1
TABLEFORMAT_BEGIN
 90
        5
170
     1
 91
        0
 92
        0
 62
   257
 93
        1
300
CONTENTFORMAT
  1
CONTENTFORMAT_BEGIN
 90
        0
 91
        0
 92
      512
 93
        0
300

 40
0.0
140
1.0
 94
        2
 62
     0
340
55
144
0.18
309
CONTENTFORMAT_END
171
     0
 94
        0
309
TABLEFORMAT_END
  1
CELLSTYLE_BEGIN
 90
        3
 91
        2
300
_DATA
309
CELLSTYLE_END
  0
XRECORD
  5
71F
102
{ACAD_REACTORS
330
6E8
102
}
330
6E8
100
AcDbXrecord
280
     1
102
ACAD_ROUNDTRIP_PRE2007_TABLESTYLE
 90
      512
 91
        0
  1

 92
      512
 93
        0
  2

 94
      512
 95
        0
  3

  0
XRECORD
  5
6FA
102
{ACAD_REACTORS
330
6F9
102
}
330
6F9
100
AcDbXrecord
280
     1
102
RTVSPost2010Prop28
280
     1
102
RTVSPost2010PropOp28
 70
     1
102
RTVSPost2010Prop29
280
     1
102
RTVSPost2010PropOp29
 70
     1
102
RTVSPost2010Prop30
280
     0
102
RTVSPost2010PropOp30
 70
     1
102
RTVSPost2010Prop31
280
     0
102
RTVSPost2010PropOp31
 70
     1
102
RTVSPost2010Prop32
280
     0
102
RTVSPost2010PropOp32
 70
     1
102
RTVSPost2010Prop33
280
     0
102
RTVSPost2010PropOp33
 70
     1
102
RTVSPost2010Prop34
280
     0
102
RTVSPost2010PropOp34
 70
     1
102
RTVSPost2010Prop35
280
     0
102
RTVSPost2010PropOp35
 70
     1
102
RTVSPost2010Prop36
280
     0
102
RTVSPost2010PropOp36
 70
     1
102
RTVSPost2010Prop37
 90
       50
102
RTVSPost2010PropOp37
 70
     1
102
RTVSPost2010Prop38
140
0.0
102
RTVSPost2010PropOp38
 70
     1
102
RTVSPost2010Prop39
140
1.0
102
RTVSPost2010PropOp39
 70
     1
102
RTVSPost2010Prop40
 90
        0
102
RTVSPost2010PropOp40
 70
     1
102
RTVSPost2010Prop41ColorIndex
 90
       18
102
RTVSPost2010Prop41ColorRGB
 90
        0
102
RTVSPost2010PropOp41
 70
     1
102
RTVSPost2010Prop42
 90
       50
102
RTVSPost2010PropOp42
 70
     1
102
RTVSPost2010Prop43
 90
        3
102
RTVSPost2010PropOp43
 70
     1
102
RTVSPost2010Prop44ColorIndex
 90
        5
102
RTVSPost2010Prop44ColorRGB
 90
      255
102
RTVSPost2010PropOp44
 70
     1
102
RTVSPost2010Prop45
280
     0
102
RTVSPost2010PropOp45
 70
     1
102
RTVSPost2010Prop46
 90
       50
102
RTVSPost2010PropOp46
 70
     1
102
RTVSPost2010Prop47
 90
       50
102
RTVSPost2010PropOp47
 70
     1
102
RTVSPost2010Prop48
 90
       50
102
RTVSPost2010PropOp48
 70
     1
102
RTVSPost2010Prop49
280
     0
102
RTVSPost2010PropOp49
 70
     1
102
RTVSPost2010Prop50
 90
       50
102
RTVSPost2010PropOp50
 70
     1
102
RTVSPost2010Prop51ColorIndex
 90
      256
102
RTVSPost2010Prop51ColorRGB
 90
-16777216
102
RTVSPost2010PropOp51
 70
     0
102
RTVSPost2010Prop52
140
1.0
102
RTVSPost2010PropOp52
 70
     0
102
RTVSPost2010Prop53
 90
        2
102
RTVSPost2010PropOp53
 70
     1
102
RTVSPost2010Prop54
  1
strokes_ogs.tif
102
RTVSPost2010PropOp54
 70
     1
102
RTVSPost2010Prop55
280
     0
102
RTVSPost2010PropOp55
 70
     1
102
RTVSPost2010Prop56
140
1.0
102
RTVSPost2010PropOp56
 70
     1
102
RTVSPost2010Prop57
140
1.0
102
RTVSPost2010PropOp57
 70
     1
102
RTVSPropertyOp0
 70
     1
102
RTVSPropertyOp1
 70
     1
102
RTVSPropertyOp2
 70
     1
102
RTVSPropertyOp3
 70
     1
102
RTVSPropertyOp4
 70
     1
102
RTVSPropertyOp5
 70
     1
102
RTVSPropertyOp6
 70
     1
102
RTVSPropertyOp7
 70
     1
102
RTVSPropertyOp8
 70
     1
102
RTVSPropertyOp9
 70
     1
102
RTVSPropertyOp10
 70
     1
102
RTVSPropertyOp11
 70
     1
102
RTVSPropertyOp12
 70
     1
102
RTVSPropertyOp13
 70
     1
102
RTVSPropertyOp14
 70
     1
102
RTVSPropertyOp15
 70
     1
102
RTVSPropertyOp16
 70
     1
102
RTVSPropertyOp17
 70
     1
102
RTVSPropertyOp18
 70
     1
102
RTVSPropertyOp19
 70
     1
102
RTVSPropertyOp20
 70
     1
102
RTVSPropertyOp21
 70
     1
102
RTVSPropertyOp22
 70
     1
102
RTVSPropertyOp23
 70
     1
102
RTVSPropertyOp24
 70
     1
102
RTVSPropertyOp25
 70
     1
102
RTVSPropertyOp26
 70
     1
102
RTVSPropertyOp27
 70
     1
102
RTVSPropertyOp28
 70
     1
102
RTVSPropertyOp29
 70
     1
102
RTVSPropertyOp30
 70
     1
102
RTVSPropertyOp31
 70
     1
102
RTVSPropertyOp32
 70
     1
102
RTVSPropertyOp33
 70
     1
102
RTVSPropertyOp34
 70
     1
102
RTVSPropertyOp35
 70
     1
102
RTVSPropertyOp36
 70
     1
102
RTVSPropertyOp37
 70
     1
102
RTVSPropertyOp38
 70
     1
102
RTVSPropertyOp39
 70
     1
102
RTVSPropertyOp40
 70
     1
102
RTVSPropertyOp41
 70
     1
102
RTVSPropertyOp42
 70
     1
102
RTVSPropertyOp43
 70
     1
102
RTVSPropertyOp44
 70
     1
102
RTVSPropertyOp45
 70
     1
102
RTVSPropertyOp46
 70
     1
102
RTVSPropertyOp47
 70
     1
102
RTVSPropertyOp48
 70
     1
102
RTVSPropertyOp49
 70
     1
102
RTVSPropertyOp50
 70
     1
102
RTVSPropertyOp51
 70
     0
102
RTVSPropertyOp52
 70
     0
102
RTVSPropertyOp53
 70
     1
102
RTVSPropertyOp54
 70
     1
102
RTVSPropertyOp55
 70
     1
102
RTVSPropertyOp56
 70
     1
102
RTVSPropertyOp57
 70
     1
102
RTVSPropertyOp58
 70
     1
102
RTVSPropertyOp59
 70
     1
102
RTVSPropertyOp60
 70
     1
102
RTVSPropertyOp61
 70
     1
102
RTVSPropertyOp62
 70
     1
  0
XRECORD
  5
6F8
102
{ACAD_REACTORS
330
6F7
102
}
330
6F7
100
AcDbXrecord
280
     1
102
RTVSPost2010Prop28
280
     0
102
RTVSPost2010PropOp28
 70
     1
102
RTVSPost2010Prop29
280
     1
102
RTVSPost2010PropOp29
 70
     1
102
RTVSPost2010Prop30
280
     1
102
RTVSPost2010PropOp30
 70
     1
102
RTVSPost2010Prop31
280
     0
102
RTVSPost2010PropOp31
 70
     1
102
RTVSPost2010Prop32
280
     0
102
RTVSPost2010PropOp32
 70
     1
102
RTVSPost2010Prop33
280
     0
102
RTVSPost2010PropOp33
 70
     1
102
RTVSPost2010Prop34
280
     0
102
RTVSPost2010PropOp34
 70
     1
102
RTVSPost2010Prop35
280
     0
102
RTVSPost2010PropOp35
 70
     1
102
RTVSPost2010Prop36
280
     0
102
RTVSPost2010PropOp36
 70
     1
102
RTVSPost2010Prop37
 90
       50
102
RTVSPost2010PropOp37
 70
     1
102
RTVSPost2010Prop38
140
0.0
102
RTVSPost2010PropOp38
 70
     1
102
RTVSPost2010Prop39
140
1.0
102
RTVSPost2010PropOp39
 70
     1
102
RTVSPost2010Prop40
 90
        0
102
RTVSPost2010PropOp40
 70
     1
102
RTVSPost2010Prop41ColorIndex
 90
       18
102
RTVSPost2010Prop41ColorRGB
 90
        0
102
RTVSPost2010PropOp41
 70
     1
102
RTVSPost2010Prop42
 90
       50
102
RTVSPost2010PropOp42
 70
     1
102
RTVSPost2010Prop43
 90
        3
102
RTVSPost2010PropOp43
 70
     1
102
RTVSPost2010Prop44ColorIndex
 90
        5
102
RTVSPost2010Prop44ColorRGB
 90
      255
102
RTVSPost2010PropOp44
 70
     1
102
RTVSPost2010Prop45
280
     0
102
RTVSPost2010PropOp45
 70
     1
102
RTVSPost2010Prop46
 90
       50
102
RTVSPost2010PropOp46
 70
     1
102
RTVSPost2010Prop47
 90
       50
102
RTVSPost2010PropOp47
 70
     1
102
RTVSPost2010Prop48
 90
       50
102
RTVSPost2010PropOp48
 70
     1
102
RTVSPost2010Prop49
280
     0
102
RTVSPost2010PropOp49
 70
     1
102
RTVSPost2010Prop50
 90
       50
102
RTVSPost2010PropOp50
 70
     1
102
RTVSPost2010Prop51ColorIndex
 90
      256
102
RTVSPost2010Prop51ColorRGB
 90
-16777216
102
RTVSPost2010PropOp51
 70
     0
102
RTVSPost2010Prop52
140
1.0
102
RTVSPost2010PropOp52
 70
     0
102
RTVSPost2010Prop53
 90
        2
102
RTVSPost2010PropOp53
 70
     1
102
RTVSPost2010Prop54
  1
strokes_ogs.tif
102
RTVSPost2010PropOp54
 70
     1
102
RTVSPost2010Prop55
280
     0
102
RTVSPost2010PropOp55
 70
     1
102
RTVSPost2010Prop56
140
1.0
102
RTVSPost2010PropOp56
 70
     1
102
RTVSPost2010Prop57
140
1.0
102
RTVSPost2010PropOp57
 70
     1
102
RTVSPropertyOp0
 70
     1
102
RTVSPropertyOp1
 70
     1
102
RTVSPropertyOp2
 70
     1
102
RTVSPropertyOp3
 70
     1
102
RTVSPropertyOp4
 70
     1
102
RTVSPropertyOp5
 70
     1
102
RTVSPropertyOp6
 70
     1
102
RTVSPropertyOp7
 70
     1
102
RTVSPropertyOp8
 70
     1
102
RTVSPropertyOp9
 70
     1
102
RTVSPropertyOp10
 70
     1
102
RTVSPropertyOp11
 70
     1
102
RTVSPropertyOp12
 70
     1
102
RTVSPropertyOp13
 70
     1
102
RTVSPropertyOp14
 70
     1
102
RTVSPropertyOp15
 70
     1
102
RTVSPropertyOp16
 70
     1
102
RTVSPropertyOp17
 70
     1
102
RTVSPropertyOp18
 70
     1
102
RTVSPropertyOp19
 70
     1
102
RTVSPropertyOp20
 70
     1
102
RTVSPropertyOp21
 70
     1
102
RTVSPropertyOp22
 70
     1
102
RTVSPropertyOp23
 70
     1
102
RTVSPropertyOp24
 70
     1
102
RTVSPropertyOp25
 70
     1
102
RTVSPropertyOp26
 70
     1
102
RTVSPropertyOp27
 70
     1
102
RTVSPropertyOp28
 70
     1
102
RTVSPropertyOp29
 70
     1
102
RTVSPropertyOp30
 70
     1
102
RTVSPropertyOp31
 70
     1
102
RTVSPropertyOp32
 70
     1
102
RTVSPropertyOp33
 70
     1
102
RTVSPropertyOp34
 70
     1
102
RTVSPropertyOp35
 70
     1
102
RTVSPropertyOp36
 70
     1
102
RTVSPropertyOp37
 70
     1
102
RTVSPropertyOp38
 70
     1
102
RTVSPropertyOp39
 70
     1
102
RTVSPropertyOp40
 70
     1
102
RTVSPropertyOp41
 70
     1
102
RTVSPropertyOp42
 70
     1
102
RTVSPropertyOp43
 70
     1
102
RTVSPropertyOp44
 70
     1
102
RTVSPropertyOp45
 70
     1
102
RTVSPropertyOp46
 70
     1
102
RTVSPropertyOp47
 70
     1
102
RTVSPropertyOp48
 70
     1
102
RTVSPropertyOp49
 70
     1
102
RTVSPropertyOp50
 70
     1
102
RTVSPropertyOp51
 70
     0
102
RTVSPropertyOp52
 70
     0
102
RTVSPropertyOp53
 70
     1
102
RTVSPropertyOp54
 70
     1
102
RTVSPropertyOp55
 70
     1
102
RTVSPropertyOp56
 70
     1
102
RTVSPropertyOp57
 70
     1
102
RTVSPropertyOp58
 70
     1
102
RTVSPropertyOp59
 70
     1
102
RTVSPropertyOp60
 70
     1
102
RTVSPropertyOp61
 70
     1
102
RTVSPropertyOp62
 70
     1
  0
XRECORD
  5
706
102
{ACAD_REACTORS
330
705
102
}
330
705
100
AcDbXrecord
280
     1
102
RTVSPost2010Prop28
280
     0
102
RTVSPost2010PropOp28
 70
     1
102
RTVSPost2010Prop29
280
     1
102
RTVSPost2010PropOp29
 70
     1
102
RTVSPost2010Prop30
280
     1
102
RTVSPost2010PropOp30
 70
     1
102
RTVSPost2010Prop31
280
     0
102
RTVSPost2010PropOp31
 70
     1
102
RTVSPost2010Prop32
280
     0
102
RTVSPost2010PropOp32
 70
     1
102
RTVSPost2010Prop33
280
     0
102
RTVSPost2010PropOp33
 70
     1
102
RTVSPost2010Prop34
280
     0
102
RTVSPost2010PropOp34
 70
     1
102
RTVSPost2010Prop35
280
     0
102
RTVSPost2010PropOp35
 70
     1
102
RTVSPost2010Prop36
280
     0
102
RTVSPost2010PropOp36
 70
     1
102
RTVSPost2010Prop37
 90
       50
102
RTVSPost2010PropOp37
 70
     1
102
RTVSPost2010Prop38
140
0.0
102
RTVSPost2010PropOp38
 70
     1
102
RTVSPost2010Prop39
140
1.0
102
RTVSPost2010PropOp39
 70
     1
102
RTVSPost2010Prop40
 90
        0
102
RTVSPost2010PropOp40
 70
     1
102
RTVSPost2010Prop41ColorIndex
 90
       18
102
RTVSPost2010Prop41ColorRGB
 90
        0
102
RTVSPost2010PropOp41
 70
     1
102
RTVSPost2010Prop42
 90
       50
102
RTVSPost2010PropOp42
 70
     1
102
RTVSPost2010Prop43
 90
        3
102
RTVSPost2010PropOp43
 70
     1
102
RTVSPost2010Prop44ColorIndex
 90
        5
102
RTVSPost2010Prop44ColorRGB
 90
      255
102
RTVSPost2010PropOp44
 70
     1
102
RTVSPost2010Prop45
280
     0
102
RTVSPost2010PropOp45
 70
     1
102
RTVSPost2010Prop46
 90
       50
102
RTVSPost2010PropOp46
 70
     1
102
RTVSPost2010Prop47
 90
       50
102
RTVSPost2010PropOp47
 70
     1
102
RTVSPost2010Prop48
 90
       50
102
RTVSPost2010PropOp48
 70
     1
102
RTVSPost2010Prop49
280
     0
102
RTVSPost2010PropOp49
 70
     1
102
RTVSPost2010Prop50
 90
       50
102
RTVSPost2010PropOp50
 70
     1
102
RTVSPost2010Prop51ColorIndex
 90
      256
102
RTVSPost2010Prop51ColorRGB
 90
-16777216
102
RTVSPost2010PropOp51
 70
     0
102
RTVSPost2010Prop52
140
1.0
102
RTVSPost2010PropOp52
 70
     0
102
RTVSPost2010Prop53
 90
        2
102
RTVSPost2010PropOp53
 70
     1
102
RTVSPost2010Prop54
  1
strokes_ogs.tif
102
RTVSPost2010PropOp54
 70
     1
102
RTVSPost2010Prop55
280
     0
102
RTVSPost2010PropOp55
 70
     1
102
RTVSPost2010Prop56
140
1.0
102
RTVSPost2010PropOp56
 70
     1
102
RTVSPost2010Prop57
140
1.0
102
RTVSPost2010PropOp57
 70
     1
102
RTVSPropertyOp0
 70
     1
102
RTVSPropertyOp1
 70
     1
102
RTVSPropertyOp2
 70
     1
102
RTVSPropertyOp3
 70
     1
102
RTVSPropertyOp4
 70
     1
102
RTVSPropertyOp5
 70
     1
102
RTVSPropertyOp6
 70
     1
102
RTVSPropertyOp7
 70
     1
102
RTVSPropertyOp8
 70
     1
102
RTVSPropertyOp9
 70
     1
102
RTVSPropertyOp10
 70
     1
102
RTVSPropertyOp11
 70
     1
102
RTVSPropertyOp12
 70
     1
102
RTVSPropertyOp13
 70
     1
102
RTVSPropertyOp14
 70
     1
102
RTVSPropertyOp15
 70
     1
102
RTVSPropertyOp16
 70
     1
102
RTVSPropertyOp17
 70
     1
102
RTVSPropertyOp18
 70
     1
102
RTVSPropertyOp19
 70
     1
102
RTVSPropertyOp20
 70
     1
102
RTVSPropertyOp21
 70
     1
102
RTVSPropertyOp22
 70
     1
102
RTVSPropertyOp23
 70
     1
102
RTVSPropertyOp24
 70
     1
102
RTVSPropertyOp25
 70
     1
102
RTVSPropertyOp26
 70
     1
102
RTVSPropertyOp27
 70
     1
102
RTVSPropertyOp28
 70
     1
102
RTVSPropertyOp29
 70
     1
102
RTVSPropertyOp30
 70
     1
102
RTVSPropertyOp31
 70
     1
102
RTVSPropertyOp32
 70
     1
102
RTVSPropertyOp33
 70
     1
102
RTVSPropertyOp34
 70
     1
102
RTVSPropertyOp35
 70
     1
102
RTVSPropertyOp36
 70
     1
102
RTVSPropertyOp37
 70
     1
102
RTVSPropertyOp38
 70
     1
102
RTVSPropertyOp39
 70
     1
102
RTVSPropertyOp40
 70
     1
102
RTVSPropertyOp41
 70
     1
102
RTVSPropertyOp42
 70
     1
102
RTVSPropertyOp43
 70
     1
102
RTVSPropertyOp44
 70
     1
102
RTVSPropertyOp45
 70
     1
102
RTVSPropertyOp46
 70
     1
102
RTVSPropertyOp47
 70
     1
102
RTVSPropertyOp48
 70
     1
102
RTVSPropertyOp49
 70
     1
102
RTVSPropertyOp50
 70
     1
102
RTVSPropertyOp51
 70
     0
102
RTVSPropertyOp52
 70
     0
102
RTVSPropertyOp53
 70
     1
102
RTVSPropertyOp54
 70
     1
102
RTVSPropertyOp55
 70
     1
102
RTVSPropertyOp56
 70
     1
102
RTVSPropertyOp57
 70
     1
102
RTVSPropertyOp58
 70
     1
102
RTVSPropertyOp59
 70
     1
102
RTVSPropertyOp60
 70
     1
102
RTVSPropertyOp61
 70
     1
102
RTVSPropertyOp62
 70
     1
  0
XRECORD
  5
70E
102
{ACAD_REACTORS
330
70D
102
}
330
70D
100
AcDbXrecord
280
     1
102
RTVSPost2010Prop28
280
     0
102
RTVSPost2010PropOp28
 70
     1
102
RTVSPost2010Prop29
280
     1
102
RTVSPost2010PropOp29
 70
     1
102
RTVSPost2010Prop30
280
     1
102
RTVSPost2010PropOp30
 70
     1
102
RTVSPost2010Prop31
280
     0
102
RTVSPost2010PropOp31
 70
     1
102
RTVSPost2010Prop32
280
     0
102
RTVSPost2010PropOp32
 70
     1
102
RTVSPost2010Prop33
280
     0
102
RTVSPost2010PropOp33
 70
     1
102
RTVSPost2010Prop34
280
     0
102
RTVSPost2010PropOp34
 70
     1
102
RTVSPost2010Prop35
280
     0
102
RTVSPost2010PropOp35
 70
     1
102
RTVSPost2010Prop36
280
     0
102
RTVSPost2010PropOp36
 70
     1
102
RTVSPost2010Prop37
 90
       50
102
RTVSPost2010PropOp37
 70
     1
102
RTVSPost2010Prop38
140
0.0
102
RTVSPost2010PropOp38
 70
     1
102
RTVSPost2010Prop39
140
1.0
102
RTVSPost2010PropOp39
 70
     1
102
RTVSPost2010Prop40
 90
        0
102
RTVSPost2010PropOp40
 70
     1
102
RTVSPost2010Prop41ColorIndex
 90
       18
102
RTVSPost2010Prop41ColorRGB
 90
        0
102
RTVSPost2010PropOp41
 70
     1
102
RTVSPost2010Prop42
 90
       50
102
RTVSPost2010PropOp42
 70
     1
102
RTVSPost2010Prop43
 90
        3
102
RTVSPost2010PropOp43
 70
     1
102
RTVSPost2010Prop44ColorIndex
 90
        5
102
RTVSPost2010Prop44ColorRGB
 90
      255
102
RTVSPost2010PropOp44
 70
     1
102
RTVSPost2010Prop45
280
     0
102
RTVSPost2010PropOp45
 70
     1
102
RTVSPost2010Prop46
 90
       50
102
RTVSPost2010PropOp46
 70
     1
102
RTVSPost2010Prop47
 90
       50
102
RTVSPost2010PropOp47
 70
     1
102
RTVSPost2010Prop48
 90
       50
102
RTVSPost2010PropOp48
 70
     1
102
RTVSPost2010Prop49
280
     0
102
RTVSPost2010PropOp49
 70
     1
102
RTVSPost2010Prop50
 90
       50
102
RTVSPost2010PropOp50
 70
     1
102
RTVSPost2010Prop51ColorIndex
 90
      256
102
RTVSPost2010Prop51ColorRGB
 90
-16777216
102
RTVSPost2010PropOp51
 70
     0
102
RTVSPost2010Prop52
140
1.0
102
RTVSPost2010PropOp52
 70
     0
102
RTVSPost2010Prop53
 90
        2
102
RTVSPost2010PropOp53
 70
     1
102
RTVSPost2010Prop54
  1
strokes_ogs.tif
102
RTVSPost2010PropOp54
 70
     1
102
RTVSPost2010Prop55
280
     0
102
RTVSPost2010PropOp55
 70
     1
102
RTVSPost2010Prop56
140
1.0
102
RTVSPost2010PropOp56
 70
     1
102
RTVSPost2010Prop57
140
1.0
102
RTVSPost2010PropOp57
 70
     1
102
RTVSPropertyOp0
 70
     1
102
RTVSPropertyOp1
 70
     1
102
RTVSPropertyOp2
 70
     1
102
RTVSPropertyOp3
 70
     1
102
RTVSPropertyOp4
 70
     1
102
RTVSPropertyOp5
 70
     1
102
RTVSPropertyOp6
 70
     1
102
RTVSPropertyOp7
 70
     1
102
RTVSPropertyOp8
 70
     1
102
RTVSPropertyOp9
 70
     1
102
RTVSPropertyOp10
 70
     1
102
RTVSPropertyOp11
 70
     1
102
RTVSPropertyOp12
 70
     1
102
RTVSPropertyOp13
 70
     1
102
RTVSPropertyOp14
 70
     1
102
RTVSPropertyOp15
 70
     1
102
RTVSPropertyOp16
 70
     1
102
RTVSPropertyOp17
 70
     1
102
RTVSPropertyOp18
 70
     1
102
RTVSPropertyOp19
 70
     1
102
RTVSPropertyOp20
 70
     1
102
RTVSPropertyOp21
 70
     1
102
RTVSPropertyOp22
 70
     1
102
RTVSPropertyOp23
 70
     1
102
RTVSPropertyOp24
 70
     1
102
RTVSPropertyOp25
 70
     1
102
RTVSPropertyOp26
 70
     1
102
RTVSPropertyOp27
 70
     1
102
RTVSPropertyOp28
 70
     1
102
RTVSPropertyOp29
 70
     1
102
RTVSPropertyOp30
 70
     1
102
RTVSPropertyOp31
 70
     1
102
RTVSPropertyOp32
 70
     1
102
RTVSPropertyOp33
 70
     1
102
RTVSPropertyOp34
 70
     1
102
RTVSPropertyOp35
 70
     1
102
RTVSPropertyOp36
 70
     1
102
RTVSPropertyOp37
 70
     1
102
RTVSPropertyOp38
 70
     1
102
RTVSPropertyOp39
 70
     1
102
RTVSPropertyOp40
 70
     1
102
RTVSPropertyOp41
 70
     1
102
RTVSPropertyOp42
 70
     1
102
RTVSPropertyOp43
 70
     1
102
RTVSPropertyOp44
 70
     1
102
RTVSPropertyOp45
 70
     1
102
RTVSPropertyOp46
 70
     1
102
RTVSPropertyOp47
 70
     1
102
RTVSPropertyOp48
 70
     1
102
RTVSPropertyOp49
 70
     1
102
RTVSPropertyOp50
 70
     1
102
RTVSPropertyOp51
 70
     0
102
RTVSPropertyOp52
 70
     0
102
RTVSPropertyOp53
 70
     1
102
RTVSPropertyOp54
 70
     1
102
RTVSPropertyOp55
 70
     1
102
RTVSPropertyOp56
 70
     1
102
RTVSPropertyOp57
 70
     1
102
RTVSPropertyOp58
 70
     1
102
RTVSPropertyOp59
 70
     1
102
RTVSPropertyOp60
 70
     1
102
RTVSPropertyOp61
 70
     1
102
RTVSPropertyOp62
 70
     1
  0
XRECORD
  5
700
102
{ACAD_REACTORS
330
6FF
102
}
330
6FF
100
AcDbXrecord
280
     1
102
RTVSPost2010Prop28
280
     0
102
RTVSPost2010PropOp28
 70
     1
102
RTVSPost2010Prop29
280
     1
102
RTVSPost2010PropOp29
 70
     1
102
RTVSPost2010Prop30
280
     1
102
RTVSPost2010PropOp30
 70
     1
102
RTVSPost2010Prop31
280
     0
102
RTVSPost2010PropOp31
 70
     1
102
RTVSPost2010Prop32
280
     0
102
RTVSPost2010PropOp32
 70
     1
102
RTVSPost2010Prop33
280
     0
102
RTVSPost2010PropOp33
 70
     1
102
RTVSPost2010Prop34
280
     0
102
RTVSPost2010PropOp34
 70
     1
102
RTVSPost2010Prop35
280
     0
102
RTVSPost2010PropOp35
 70
     1
102
RTVSPost2010Prop36
280
     0
102
RTVSPost2010PropOp36
 70
     1
102
RTVSPost2010Prop37
 90
       50
102
RTVSPost2010PropOp37
 70
     1
102
RTVSPost2010Prop38
140
0.0
102
RTVSPost2010PropOp38
 70
     1
102
RTVSPost2010Prop39
140
1.0
102
RTVSPost2010PropOp39
 70
     1
102
RTVSPost2010Prop40
 90
        0
102
RTVSPost2010PropOp40
 70
     1
102
RTVSPost2010Prop41ColorIndex
 90
       18
102
RTVSPost2010Prop41ColorRGB
 90
        0
102
RTVSPost2010PropOp41
 70
     1
102
RTVSPost2010Prop42
 90
       50
102
RTVSPost2010PropOp42
 70
     1
102
RTVSPost2010Prop43
 90
        3
102
RTVSPost2010PropOp43
 70
     1
102
RTVSPost2010Prop44ColorIndex
 90
        5
102
RTVSPost2010Prop44ColorRGB
 90
      255
102
RTVSPost2010PropOp44
 70
     1
102
RTVSPost2010Prop45
280
     0
102
RTVSPost2010PropOp45
 70
     1
102
RTVSPost2010Prop46
 90
       50
102
RTVSPost2010PropOp46
 70
     1
102
RTVSPost2010Prop47
 90
       50
102
RTVSPost2010PropOp47
 70
     1
102
RTVSPost2010Prop48
 90
       50
102
RTVSPost2010PropOp48
 70
     1
102
RTVSPost2010Prop49
280
     0
102
RTVSPost2010PropOp49
 70
     1
102
RTVSPost2010Prop50
 90
       50
102
RTVSPost2010PropOp50
 70
     1
102
RTVSPost2010Prop51ColorIndex
 90
      256
102
RTVSPost2010Prop51ColorRGB
 90
-16777216
102
RTVSPost2010PropOp51
 70
     0
102
RTVSPost2010Prop52
140
1.0
102
RTVSPost2010PropOp52
 70
     0
102
RTVSPost2010Prop53
 90
        2
102
RTVSPost2010PropOp53
 70
     1
102
RTVSPost2010Prop54
  1
strokes_ogs.tif
102
RTVSPost2010PropOp54
 70
     1
102
RTVSPost2010Prop55
280
     0
102
RTVSPost2010PropOp55
 70
     1
102
RTVSPost2010Prop56
140
1.0
102
RTVSPost2010PropOp56
 70
     1
102
RTVSPost2010Prop57
140
1.0
102
RTVSPost2010PropOp57
 70
     1
102
RTVSPropertyOp0
 70
     1
102
RTVSPropertyOp1
 70
     1
102
RTVSPropertyOp2
 70
     1
102
RTVSPropertyOp3
 70
     1
102
RTVSPropertyOp4
 70
     1
102
RTVSPropertyOp5
 70
     1
102
RTVSPropertyOp6
 70
     1
102
RTVSPropertyOp7
 70
     1
102
RTVSPropertyOp8
 70
     1
102
RTVSPropertyOp9
 70
     1
102
RTVSPropertyOp10
 70
     1
102
RTVSPropertyOp11
 70
     1
102
RTVSPropertyOp12
 70
     1
102
RTVSPropertyOp13
 70
     1
102
RTVSPropertyOp14
 70
     1
102
RTVSPropertyOp15
 70
     1
102
RTVSPropertyOp16
 70
     1
102
RTVSPropertyOp17
 70
     1
102
RTVSPropertyOp18
 70
     1
102
RTVSPropertyOp19
 70
     1
102
RTVSPropertyOp20
 70
     1
102
RTVSPropertyOp21
 70
     1
102
RTVSPropertyOp22
 70
     1
102
RTVSPropertyOp23
 70
     1
102
RTVSPropertyOp24
 70
     1
102
RTVSPropertyOp25
 70
     1
102
RTVSPropertyOp26
 70
     1
102
RTVSPropertyOp27
 70
     1
102
RTVSPropertyOp28
 70
     1
102
RTVSPropertyOp29
 70
     1
102
RTVSPropertyOp30
 70
     1
102
RTVSPropertyOp31
 70
     1
102
RTVSPropertyOp32
 70
     1
102
RTVSPropertyOp33
 70
     1
102
RTVSPropertyOp34
 70
     1
102
RTVSPropertyOp35
 70
     1
102
RTVSPropertyOp36
 70
     1
102
RTVSPropertyOp37
 70
     1
102
RTVSPropertyOp38
 70
     1
102
RTVSPropertyOp39
 70
     1
102
RTVSPropertyOp40
 70
     1
102
RTVSPropertyOp41
 70
     1
102
RTVSPropertyOp42
 70
     1
102
RTVSPropertyOp43
 70
     1
102
RTVSPropertyOp44
 70
     1
102
RTVSPropertyOp45
 70
     1
102
RTVSPropertyOp46
 70
     1
102
RTVSPropertyOp47
 70
     1
102
RTVSPropertyOp48
 70
     1
102
RTVSPropertyOp49
 70
     1
102
RTVSPropertyOp50
 70
     1
102
RTVSPropertyOp51
 70
     0
102
RTVSPropertyOp52
 70
     0
102
RTVSPropertyOp53
 70
     1
102
RTVSPropertyOp54
 70
     1
102
RTVSPropertyOp55
 70
     1
102
RTVSPropertyOp56
 70
     1
102
RTVSPropertyOp57
 70
     1
102
RTVSPropertyOp58
 70
     1
102
RTVSPropertyOp59
 70
     1
102
RTVSPropertyOp60
 70
     1
102
RTVSPropertyOp61
 70
     1
102
RTVSPropertyOp62
 70
     1
  0
XRECORD
  5
704
102
{ACAD_REACTORS
330
703
102
}
330
703
100
AcDbXrecord
280
     1
102
RTVSPost2010Prop28
280
     0
102
RTVSPost2010PropOp28
 70
     1
102
RTVSPost2010Prop29
280
     1
102
RTVSPost2010PropOp29
 70
     1
102
RTVSPost2010Prop30
280
     1
102
RTVSPost2010PropOp30
 70
     1
102
RTVSPost2010Prop31
280
     0
102
RTVSPost2010PropOp31
 70
     1
102
RTVSPost2010Prop32
280
     0
102
RTVSPost2010PropOp32
 70
     1
102
RTVSPost2010Prop33
280
     0
102
RTVSPost2010PropOp33
 70
     1
102
RTVSPost2010Prop34
280
     0
102
RTVSPost2010PropOp34
 70
     1
102
RTVSPost2010Prop35
280
     0
102
RTVSPost2010PropOp35
 70
     1
102
RTVSPost2010Prop36
280
     0
102
RTVSPost2010PropOp36
 70
     1
102
RTVSPost2010Prop37
 90
       50
102
RTVSPost2010PropOp37
 70
     1
102
RTVSPost2010Prop38
140
0.0
102
RTVSPost2010PropOp38
 70
     1
102
RTVSPost2010Prop39
140
1.0
102
RTVSPost2010PropOp39
 70
     1
102
RTVSPost2010Prop40
 90
        0
102
RTVSPost2010PropOp40
 70
     1
102
RTVSPost2010Prop41ColorIndex
 90
       18
102
RTVSPost2010Prop41ColorRGB
 90
        0
102
RTVSPost2010PropOp41
 70
     1
102
RTVSPost2010Prop42
 90
       50
102
RTVSPost2010PropOp42
 70
     1
102
RTVSPost2010Prop43
 90
        3
102
RTVSPost2010PropOp43
 70
     1
102
RTVSPost2010Prop44ColorIndex
 90
        5
102
RTVSPost2010Prop44ColorRGB
 90
      255
102
RTVSPost2010PropOp44
 70
     1
102
RTVSPost2010Prop45
280
     0
102
RTVSPost2010PropOp45
 70
     1
102
RTVSPost2010Prop46
 90
       50
102
RTVSPost2010PropOp46
 70
     1
102
RTVSPost2010Prop47
 90
       50
102
RTVSPost2010PropOp47
 70
     1
102
RTVSPost2010Prop48
 90
       50
102
RTVSPost2010PropOp48
 70
     1
102
RTVSPost2010Prop49
280
     0
102
RTVSPost2010PropOp49
 70
     1
102
RTVSPost2010Prop50
 90
       50
102
RTVSPost2010PropOp50
 70
     1
102
RTVSPost2010Prop51ColorIndex
 90
      256
102
RTVSPost2010Prop51ColorRGB
 90
-16777216
102
RTVSPost2010PropOp51
 70
     0
102
RTVSPost2010Prop52
140
1.0
102
RTVSPost2010PropOp52
 70
     0
102
RTVSPost2010Prop53
 90
        2
102
RTVSPost2010PropOp53
 70
     1
102
RTVSPost2010Prop54
  1
strokes_ogs.tif
102
RTVSPost2010PropOp54
 70
     1
102
RTVSPost2010Prop55
280
     0
102
RTVSPost2010PropOp55
 70
     1
102
RTVSPost2010Prop56
140
1.0
102
RTVSPost2010PropOp56
 70
     1
102
RTVSPost2010Prop57
140
1.0
102
RTVSPost2010PropOp57
 70
     1
102
RTVSPropertyOp0
 70
     1
102
RTVSPropertyOp1
 70
     1
102
RTVSPropertyOp2
 70
     1
102
RTVSPropertyOp3
 70
     1
102
RTVSPropertyOp4
 70
     1
102
RTVSPropertyOp5
 70
     1
102
RTVSPropertyOp6
 70
     1
102
RTVSPropertyOp7
 70
     1
102
RTVSPropertyOp8
 70
     1
102
RTVSPropertyOp9
 70
     1
102
RTVSPropertyOp10
 70
     1
102
RTVSPropertyOp11
 70
     1
102
RTVSPropertyOp12
 70
     1
102
RTVSPropertyOp13
 70
     1
102
RTVSPropertyOp14
 70
     1
102
RTVSPropertyOp15
 70
     1
102
RTVSPropertyOp16
 70
     1
102
RTVSPropertyOp17
 70
     1
102
RTVSPropertyOp18
 70
     1
102
RTVSPropertyOp19
 70
     1
102
RTVSPropertyOp20
 70
     1
102
RTVSPropertyOp21
 70
     1
102
RTVSPropertyOp22
 70
     1
102
RTVSPropertyOp23
 70
     1
102
RTVSPropertyOp24
 70
     1
102
RTVSPropertyOp25
 70
     1
102
RTVSPropertyOp26
 70
     1
102
RTVSPropertyOp27
 70
     1
102
RTVSPropertyOp28
 70
     1
102
RTVSPropertyOp29
 70
     1
102
RTVSPropertyOp30
 70
     1
102
RTVSPropertyOp31
 70
     1
102
RTVSPropertyOp32
 70
     1
102
RTVSPropertyOp33
 70
     1
102
RTVSPropertyOp34
 70
     1
102
RTVSPropertyOp35
 70
     1
102
RTVSPropertyOp36
 70
     1
102
RTVSPropertyOp37
 70
     1
102
RTVSPropertyOp38
 70
     1
102
RTVSPropertyOp39
 70
     1
102
RTVSPropertyOp40
 70
     1
102
RTVSPropertyOp41
 70
     1
102
RTVSPropertyOp42
 70
     1
102
RTVSPropertyOp43
 70
     1
102
RTVSPropertyOp44
 70
     1
102
RTVSPropertyOp45
 70
     1
102
RTVSPropertyOp46
 70
     1
102
RTVSPropertyOp47
 70
     1
102
RTVSPropertyOp48
 70
     1
102
RTVSPropertyOp49
 70
     1
102
RTVSPropertyOp50
 70
     1
102
RTVSPropertyOp51
 70
     0
102
RTVSPropertyOp52
 70
     0
102
RTVSPropertyOp53
 70
     1
102
RTVSPropertyOp54
 70
     1
102
RTVSPropertyOp55
 70
     1
102
RTVSPropertyOp56
 70
     1
102
RTVSPropertyOp57
 70
     1
102
RTVSPropertyOp58
 70
     1
102
RTVSPropertyOp59
 70
     1
102
RTVSPropertyOp60
 70
     1
102
RTVSPropertyOp61
 70
     1
102
RTVSPropertyOp62
 70
     1
  0
XRECORD
  5
71E
102
{ACAD_REACTORS
330
71D
102
}
330
71D
100
AcDbXrecord
280
     1
102
RTVSPost2010Prop28
280
     0
102
RTVSPost2010PropOp28
 70
     1
102
RTVSPost2010Prop29
280
     1
102
RTVSPost2010PropOp29
 70
     1
102
RTVSPost2010Prop30
280
     1
102
RTVSPost2010PropOp30
 70
     1
102
RTVSPost2010Prop31
280
     0
102
RTVSPost2010PropOp31
 70
     1
102
RTVSPost2010Prop32
280
     0
102
RTVSPost2010PropOp32
 70
     1
102
RTVSPost2010Prop33
280
     0
102
RTVSPost2010PropOp33
 70
     1
102
RTVSPost2010Prop34
280
     0
102
RTVSPost2010PropOp34
 70
     1
102
RTVSPost2010Prop35
280
     0
102
RTVSPost2010PropOp35
 70
     1
102
RTVSPost2010Prop36
280
     0
102
RTVSPost2010PropOp36
 70
     1
102
RTVSPost2010Prop37
 90
       50
102
RTVSPost2010PropOp37
 70
     0
102
RTVSPost2010Prop38
140
0.0
102
RTVSPost2010PropOp38
 70
     0
102
RTVSPost2010Prop39
140
1.0
102
RTVSPost2010PropOp39
 70
     0
102
RTVSPost2010Prop40
 90
        0
102
RTVSPost2010PropOp40
 70
     0
102
RTVSPost2010Prop41ColorIndex
 90
       18
102
RTVSPost2010Prop41ColorRGB
 90
        0
102
RTVSPost2010PropOp41
 70
     0
102
RTVSPost2010Prop42
 90
       50
102
RTVSPost2010PropOp42
 70
     0
102
RTVSPost2010Prop43
 90
        3
102
RTVSPost2010PropOp43
 70
     0
102
RTVSPost2010Prop44ColorIndex
 90
        5
102
RTVSPost2010Prop44ColorRGB
 90
      255
102
RTVSPost2010PropOp44
 70
     0
102
RTVSPost2010Prop45
280
     0
102
RTVSPost2010PropOp45
 70
     1
102
RTVSPost2010Prop46
 90
       50
102
RTVSPost2010PropOp46
 70
     0
102
RTVSPost2010Prop47
 90
       50
102
RTVSPost2010PropOp47
 70
     0
102
RTVSPost2010Prop48
 90
       50
102
RTVSPost2010PropOp48
 70
     0
102
RTVSPost2010Prop49
280
     0
102
RTVSPost2010PropOp49
 70
     1
102
RTVSPost2010Prop50
 90
       50
102
RTVSPost2010PropOp50
 70
     0
102
RTVSPost2010Prop51ColorIndex
 90
      256
102
RTVSPost2010Prop51ColorRGB
 90
-16777216
102
RTVSPost2010PropOp51
 70
     0
102
RTVSPost2010Prop52
140
1.0
102
RTVSPost2010PropOp52
 70
     0
102
RTVSPost2010Prop53
 90
        2
102
RTVSPost2010PropOp53
 70
     0
102
RTVSPost2010Prop54
  1
strokes_ogs.tif
102
RTVSPost2010PropOp54
 70
     0
102
RTVSPost2010Prop55
280
     0
102
RTVSPost2010PropOp55
 70
     1
102
RTVSPost2010Prop56
140
1.0
102
RTVSPost2010PropOp56
 70
     0
102
RTVSPost2010Prop57
140
1.0
102
RTVSPost2010PropOp57
 70
     0
102
RTVSPropertyOp0
 70
     0
102
RTVSPropertyOp1
 70
     0
102
RTVSPropertyOp2
 70
     0
102
RTVSPropertyOp3
 70
     0
102
RTVSPropertyOp4
 70
     0
102
RTVSPropertyOp5
 70
     0
102
RTVSPropertyOp6
 70
     0
102
RTVSPropertyOp7
 70
     0
102
RTVSPropertyOp8
 70
     0
102
RTVSPropertyOp9
 70
     0
102
RTVSPropertyOp10
 70
     0
102
RTVSPropertyOp11
 70
     0
102
RTVSPropertyOp12
 70
     0
102
RTVSPropertyOp13
 70
     0
102
RTVSPropertyOp14
 70
     2
102
RTVSPropertyOp15
 70
     0
102
RTVSPropertyOp16
 70
     0
102
RTVSPropertyOp17
 70
     0
102
RTVSPropertyOp18
 70
     0
102
RTVSPropertyOp19
 70
     0
102
RTVSPropertyOp20
 70
     0
102
RTVSPropertyOp21
 70
     0
102
RTVSPropertyOp22
 70
     0
102
RTVSPropertyOp23
 70
     0
102
RTVSPropertyOp24
 70
     0
102
RTVSPropertyOp25
 70
     0
102
RTVSPropertyOp26
 70
     0
102
RTVSPropertyOp27
 70
     0
102
RTVSPropertyOp28
 70
     1
102
RTVSPropertyOp29
 70
     1
102
RTVSPropertyOp30
 70
     1
102
RTVSPropertyOp31
 70
     1
102
RTVSPropertyOp32
 70
     1
102
RTVSPropertyOp33
 70
     1
102
RTVSPropertyOp34
 70
     1
102
RTVSPropertyOp35
 70
     1
102
RTVSPropertyOp36
 70
     1
102
RTVSPropertyOp37
 70
     0
102
RTVSPropertyOp38
 70
     0
102
RTVSPropertyOp39
 70
     0
102
RTVSPropertyOp40
 70
     0
102
RTVSPropertyOp41
 70
     0
102
RTVSPropertyOp42
 70
     0
102
RTVSPropertyOp43
 70
     0
102
RTVSPropertyOp44
 70
     0
102
RTVSPropertyOp45
 70
     1
102
RTVSPropertyOp46
 70
     0
102
RTVSPropertyOp47
 70
     0
102
RTVSPropertyOp48
 70
     0
102
RTVSPropertyOp49
 70
     1
102
RTVSPropertyOp50
 70
     0
102
RTVSPropertyOp51
 70
     0
102
RTVSPropertyOp52
 70
     0
102
RTVSPropertyOp53
 70
     0
102
RTVSPropertyOp54
 70
     0
102
RTVSPropertyOp55
 70
     1
102
RTVSPropertyOp56
 70
     0
102
RTVSPropertyOp57
 70
     0
102
RTVSPropertyOp58
 70
     0
102
RTVSPropertyOp59
 70
     0
102
RTVSPropertyOp60
 70
     0
102
RTVSPropertyOp61
 70
     0
102
RTVSPropertyOp62
 70
     0
  0
XRECORD
  5
70C
102
{ACAD_REACTORS
330
70B
102
}
330
70B
100
AcDbXrecord
280
     1
102
RTVSPost2010Prop28
280
     0
102
RTVSPost2010PropOp28
 70
     1
102
RTVSPost2010Prop29
280
     1
102
RTVSPost2010PropOp29
 70
     1
102
RTVSPost2010Prop30
280
     1
102
RTVSPost2010PropOp30
 70
     1
102
RTVSPost2010Prop31
280
     0
102
RTVSPost2010PropOp31
 70
     1
102
RTVSPost2010Prop32
280
     0
102
RTVSPost2010PropOp32
 70
     1
102
RTVSPost2010Prop33
280
     0
102
RTVSPost2010PropOp33
 70
     1
102
RTVSPost2010Prop34
280
     0
102
RTVSPost2010PropOp34
 70
     1
102
RTVSPost2010Prop35
280
     0
102
RTVSPost2010PropOp35
 70
     1
102
RTVSPost2010Prop36
280
     0
102
RTVSPost2010PropOp36
 70
     1
102
RTVSPost2010Prop37
 90
       50
102
RTVSPost2010PropOp37
 70
     1
102
RTVSPost2010Prop38
140
0.0
102
RTVSPost2010PropOp38
 70
     1
102
RTVSPost2010Prop39
140
1.0
102
RTVSPost2010PropOp39
 70
     1
102
RTVSPost2010Prop40
 90
        0
102
RTVSPost2010PropOp40
 70
     1
102
RTVSPost2010Prop41ColorIndex
 90
       18
102
RTVSPost2010Prop41ColorRGB
 90
        0
102
RTVSPost2010PropOp41
 70
     1
102
RTVSPost2010Prop42
 90
       50
102
RTVSPost2010PropOp42
 70
     1
102
RTVSPost2010Prop43
 90
        3
102
RTVSPost2010PropOp43
 70
     1
102
RTVSPost2010Prop44ColorIndex
 90
        5
102
RTVSPost2010Prop44ColorRGB
 90
      255
102
RTVSPost2010PropOp44
 70
     1
102
RTVSPost2010Prop45
280
     0
102
RTVSPost2010PropOp45
 70
     1
102
RTVSPost2010Prop46
 90
       50
102
RTVSPost2010PropOp46
 70
     1
102
RTVSPost2010Prop47
 90
       50
102
RTVSPost2010PropOp47
 70
     1
102
RTVSPost2010Prop48
 90
       50
102
RTVSPost2010PropOp48
 70
     1
102
RTVSPost2010Prop49
280
     0
102
RTVSPost2010PropOp49
 70
     1
102
RTVSPost2010Prop50
 90
       50
102
RTVSPost2010PropOp50
 70
     1
102
RTVSPost2010Prop51ColorIndex
 90
      256
102
RTVSPost2010Prop51ColorRGB
 90
-16777216
102
RTVSPost2010PropOp51
 70
     0
102
RTVSPost2010Prop52
140
1.0
102
RTVSPost2010PropOp52
 70
     0
102
RTVSPost2010Prop53
 90
        2
102
RTVSPost2010PropOp53
 70
     1
102
RTVSPost2010Prop54
  1
strokes_ogs.tif
102
RTVSPost2010PropOp54
 70
     1
102
RTVSPost2010Prop55
280
     0
102
RTVSPost2010PropOp55
 70
     1
102
RTVSPost2010Prop56
140
1.0
102
RTVSPost2010PropOp56
 70
     1
102
RTVSPost2010Prop57
140
1.0
102
RTVSPost2010PropOp57
 70
     1
102
RTVSPropertyOp0
 70
     1
102
RTVSPropertyOp1
 70
     1
102
RTVSPropertyOp2
 70
     1
102
RTVSPropertyOp3
 70
     1
102
RTVSPropertyOp4
 70
     1
102
RTVSPropertyOp5
 70
     1
102
RTVSPropertyOp6
 70
     1
102
RTVSPropertyOp7
 70
     1
102
RTVSPropertyOp8
 70
     1
102
RTVSPropertyOp9
 70
     1
102
RTVSPropertyOp10
 70
     1
102
RTVSPropertyOp11
 70
     1
102
RTVSPropertyOp12
 70
     1
102
RTVSPropertyOp13
 70
     1
102
RTVSPropertyOp14
 70
     1
102
RTVSPropertyOp15
 70
     1
102
RTVSPropertyOp16
 70
     1
102
RTVSPropertyOp17
 70
     1
102
RTVSPropertyOp18
 70
     1
102
RTVSPropertyOp19
 70
     1
102
RTVSPropertyOp20
 70
     1
102
RTVSPropertyOp21
 70
     1
102
RTVSPropertyOp22
 70
     1
102
RTVSPropertyOp23
 70
     1
102
RTVSPropertyOp24
 70
     1
102
RTVSPropertyOp25
 70
     1
102
RTVSPropertyOp26
 70
     1
102
RTVSPropertyOp27
 70
     1
102
RTVSPropertyOp28
 70
     1
102
RTVSPropertyOp29
 70
     1
102
RTVSPropertyOp30
 70
     1
102
RTVSPropertyOp31
 70
     1
102
RTVSPropertyOp32
 70
     1
102
RTVSPropertyOp33
 70
     1
102
RTVSPropertyOp34
 70
     1
102
RTVSPropertyOp35
 70
     1
102
RTVSPropertyOp36
 70
     1
102
RTVSPropertyOp37
 70
     1
102
RTVSPropertyOp38
 70
     1
102
RTVSPropertyOp39
 70
     1
102
RTVSPropertyOp40
 70
     1
102
RTVSPropertyOp41
 70
     1
102
RTVSPropertyOp42
 70
     1
102
RTVSPropertyOp43
 70
     1
102
RTVSPropertyOp44
 70
     1
102
RTVSPropertyOp45
 70
     1
102
RTVSPropertyOp46
 70
     1
102
RTVSPropertyOp47
 70
     1
102
RTVSPropertyOp48
 70
     1
102
RTVSPropertyOp49
 70
     1
102
RTVSPropertyOp50
 70
     1
102
RTVSPropertyOp51
 70
     0
102
RTVSPropertyOp52
 70
     0
102
RTVSPropertyOp53
 70
     1
102
RTVSPropertyOp54
 70
     1
102
RTVSPropertyOp55
 70
     1
102
RTVSPropertyOp56
 70
     1
102
RTVSPropertyOp57
 70
     1
102
RTVSPropertyOp58
 70
     1
102
RTVSPropertyOp59
 70
     1
102
RTVSPropertyOp60
 70
     1
102
RTVSPropertyOp61
 70
     1
102
RTVSPropertyOp62
 70
     1
  0
XRECORD
  5
6F0
102
{ACAD_REACTORS
330
6EF
102
}
330
6EF
100
AcDbXrecord
280
     1
102
RTVSPost2010Prop28
280
     0
102
RTVSPost2010PropOp28
 70
     1
102
RTVSPost2010Prop29
280
     1
102
RTVSPost2010PropOp29
 70
     1
102
RTVSPost2010Prop30
280
     1
102
RTVSPost2010PropOp30
 70
     1
102
RTVSPost2010Prop31
280
     0
102
RTVSPost2010PropOp31
 70
     1
102
RTVSPost2010Prop32
280
     0
102
RTVSPost2010PropOp32
 70
     1
102
RTVSPost2010Prop33
280
     0
102
RTVSPost2010PropOp33
 70
     1
102
RTVSPost2010Prop34
280
     0
102
RTVSPost2010PropOp34
 70
     1
102
RTVSPost2010Prop35
280
     0
102
RTVSPost2010PropOp35
 70
     1
102
RTVSPost2010Prop36
280
     0
102
RTVSPost2010PropOp36
 70
     1
102
RTVSPost2010Prop37
 90
       50
102
RTVSPost2010PropOp37
 70
     1
102
RTVSPost2010Prop38
140
0.0
102
RTVSPost2010PropOp38
 70
     1
102
RTVSPost2010Prop39
140
1.0
102
RTVSPost2010PropOp39
 70
     1
102
RTVSPost2010Prop40
 90
        0
102
RTVSPost2010PropOp40
 70
     1
102
RTVSPost2010Prop41ColorIndex
 90
       18
102
RTVSPost2010Prop41ColorRGB
 90
        0
102
RTVSPost2010PropOp41
 70
     1
102
RTVSPost2010Prop42
 90
       50
102
RTVSPost2010PropOp42
 70
     1
102
RTVSPost2010Prop43
 90
        3
102
RTVSPost2010PropOp43
 70
     1
102
RTVSPost2010Prop44ColorIndex
 90
        5
102
RTVSPost2010Prop44ColorRGB
 90
      255
102
RTVSPost2010PropOp44
 70
     1
102
RTVSPost2010Prop45
280
     0
102
RTVSPost2010PropOp45
 70
     1
102
RTVSPost2010Prop46
 90
       50
102
RTVSPost2010PropOp46
 70
     1
102
RTVSPost2010Prop47
 90
       50
102
RTVSPost2010PropOp47
 70
     1
102
RTVSPost2010Prop48
 90
       50
102
RTVSPost2010PropOp48
 70
     1
102
RTVSPost2010Prop49
280
     0
102
RTVSPost2010PropOp49
 70
     1
102
RTVSPost2010Prop50
 90
       50
102
RTVSPost2010PropOp50
 70
     1
102
RTVSPost2010Prop51ColorIndex
 90
      256
102
RTVSPost2010Prop51ColorRGB
 90
-16777216
102
RTVSPost2010PropOp51
 70
     0
102
RTVSPost2010Prop52
140
1.0
102
RTVSPost2010PropOp52
 70
     0
102
RTVSPost2010Prop53
 90
        2
102
RTVSPost2010PropOp53
 70
     1
102
RTVSPost2010Prop54
  1
strokes_ogs.tif
102
RTVSPost2010PropOp54
 70
     1
102
RTVSPost2010Prop55
280
     0
102
RTVSPost2010PropOp55
 70
     1
102
RTVSPost2010Prop56
140
1.0
102
RTVSPost2010PropOp56
 70
     1
102
RTVSPost2010Prop57
140
1.0
102
RTVSPost2010PropOp57
 70
     1
102
RTVSPropertyOp0
 70
     1
102
RTVSPropertyOp1
 70
     1
102
RTVSPropertyOp2
 70
     1
102
RTVSPropertyOp3
 70
     1
102
RTVSPropertyOp4
 70
     1
102
RTVSPropertyOp5
 70
     1
102
RTVSPropertyOp6
 70
     1
102
RTVSPropertyOp7
 70
     1
102
RTVSPropertyOp8
 70
     1
102
RTVSPropertyOp9
 70
     1
102
RTVSPropertyOp10
 70
     1
102
RTVSPropertyOp11
 70
     1
102
RTVSPropertyOp12
 70
     1
102
RTVSPropertyOp13
 70
     1
102
RTVSPropertyOp14
 70
     1
102
RTVSPropertyOp15
 70
     1
102
RTVSPropertyOp16
 70
     1
102
RTVSPropertyOp17
 70
     1
102
RTVSPropertyOp18
 70
     1
102
RTVSPropertyOp19
 70
     1
102
RTVSPropertyOp20
 70
     1
102
RTVSPropertyOp21
 70
     1
102
RTVSPropertyOp22
 70
     1
102
RTVSPropertyOp23
 70
     1
102
RTVSPropertyOp24
 70
     1
102
RTVSPropertyOp25
 70
     1
102
RTVSPropertyOp26
 70
     1
102
RTVSPropertyOp27
 70
     1
102
RTVSPropertyOp28
 70
     1
102
RTVSPropertyOp29
 70
     1
102
RTVSPropertyOp30
 70
     1
102
RTVSPropertyOp31
 70
     1
102
RTVSPropertyOp32
 70
     1
102
RTVSPropertyOp33
 70
     1
102
RTVSPropertyOp34
 70
     1
102
RTVSPropertyOp35
 70
     1
102
RTVSPropertyOp36
 70
     1
102
RTVSPropertyOp37
 70
     1
102
RTVSPropertyOp38
 70
     1
102
RTVSPropertyOp39
 70
     1
102
RTVSPropertyOp40
 70
     1
102
RTVSPropertyOp41
 70
     1
102
RTVSPropertyOp42
 70
     1
102
RTVSPropertyOp43
 70
     1
102
RTVSPropertyOp44
 70
     1
102
RTVSPropertyOp45
 70
     1
102
RTVSPropertyOp46
 70
     1
102
RTVSPropertyOp47
 70
     1
102
RTVSPropertyOp48
 70
     1
102
RTVSPropertyOp49
 70
     1
102
RTVSPropertyOp50
 70
     1
102
RTVSPropertyOp51
 70
     0
102
RTVSPropertyOp52
 70
     0
102
RTVSPropertyOp53
 70
     1
102
RTVSPropertyOp54
 70
     1
102
RTVSPropertyOp55
 70
     1
102
RTVSPropertyOp56
 70
     1
102
RTVSPropertyOp57
 70
     1
102
RTVSPropertyOp58
 70
     1
102
RTVSPropertyOp59
 70
     1
102
RTVSPropertyOp60
 70
     1
102
RTVSPropertyOp61
 70
     1
102
RTVSPropertyOp62
 70
     1
  0
XRECORD
  5
6F2
102
{ACAD_REACTORS
330
6F1
102
}
330
6F1
100
AcDbXrecord
280
     1
102
RTVSPost2010Prop28
280
     0
102
RTVSPost2010PropOp28
 70
     1
102
RTVSPost2010Prop29
280
     1
102
RTVSPost2010PropOp29
 70
     1
102
RTVSPost2010Prop30
280
     1
102
RTVSPost2010PropOp30
 70
     1
102
RTVSPost2010Prop31
280
     0
102
RTVSPost2010PropOp31
 70
     1
102
RTVSPost2010Prop32
280
     0
102
RTVSPost2010PropOp32
 70
     1
102
RTVSPost2010Prop33
280
     0
102
RTVSPost2010PropOp33
 70
     1
102
RTVSPost2010Prop34
280
     0
102
RTVSPost2010PropOp34
 70
     1
102
RTVSPost2010Prop35
280
     0
102
RTVSPost2010PropOp35
 70
     1
102
RTVSPost2010Prop36
280
     0
102
RTVSPost2010PropOp36
 70
     1
102
RTVSPost2010Prop37
 90
       50
102
RTVSPost2010PropOp37
 70
     1
102
RTVSPost2010Prop38
140
0.0
102
RTVSPost2010PropOp38
 70
     1
102
RTVSPost2010Prop39
140
1.0
102
RTVSPost2010PropOp39
 70
     1
102
RTVSPost2010Prop40
 90
        0
102
RTVSPost2010PropOp40
 70
     1
102
RTVSPost2010Prop41ColorIndex
 90
       18
102
RTVSPost2010Prop41ColorRGB
 90
        0
102
RTVSPost2010PropOp41
 70
     1
102
RTVSPost2010Prop42
 90
       50
102
RTVSPost2010PropOp42
 70
     1
102
RTVSPost2010Prop43
 90
        3
102
RTVSPost2010PropOp43
 70
     1
102
RTVSPost2010Prop44ColorIndex
 90
        5
102
RTVSPost2010Prop44ColorRGB
 90
      255
102
RTVSPost2010PropOp44
 70
     1
102
RTVSPost2010Prop45
280
     0
102
RTVSPost2010PropOp45
 70
     1
102
RTVSPost2010Prop46
 90
       50
102
RTVSPost2010PropOp46
 70
     1
102
RTVSPost2010Prop47
 90
       50
102
RTVSPost2010PropOp47
 70
     1
102
RTVSPost2010Prop48
 90
       50
102
RTVSPost2010PropOp48
 70
     1
102
RTVSPost2010Prop49
280
     0
102
RTVSPost2010PropOp49
 70
     1
102
RTVSPost2010Prop50
 90
       50
102
RTVSPost2010PropOp50
 70
     1
102
RTVSPost2010Prop51ColorIndex
 90
      256
102
RTVSPost2010Prop51ColorRGB
 90
-16777216
102
RTVSPost2010PropOp51
 70
     0
102
RTVSPost2010Prop52
140
1.0
102
RTVSPost2010PropOp52
 70
     0
102
RTVSPost2010Prop53
 90
        2
102
RTVSPost2010PropOp53
 70
     1
102
RTVSPost2010Prop54
  1
strokes_ogs.tif
102
RTVSPost2010PropOp54
 70
     1
102
RTVSPost2010Prop55
280
     0
102
RTVSPost2010PropOp55
 70
     1
102
RTVSPost2010Prop56
140
1.0
102
RTVSPost2010PropOp56
 70
     1
102
RTVSPost2010Prop57
140
1.0
102
RTVSPost2010PropOp57
 70
     1
102
RTVSPropertyOp0
 70
     1
102
RTVSPropertyOp1
 70
     1
102
RTVSPropertyOp2
 70
     1
102
RTVSPropertyOp3
 70
     1
102
RTVSPropertyOp4
 70
     1
102
RTVSPropertyOp5
 70
     1
102
RTVSPropertyOp6
 70
     1
102
RTVSPropertyOp7
 70
     1
102
RTVSPropertyOp8
 70
     1
102
RTVSPropertyOp9
 70
     1
102
RTVSPropertyOp10
 70
     1
102
RTVSPropertyOp11
 70
     1
102
RTVSPropertyOp12
 70
     1
102
RTVSPropertyOp13
 70
     1
102
RTVSPropertyOp14
 70
     1
102
RTVSPropertyOp15
 70
     1
102
RTVSPropertyOp16
 70
     1
102
RTVSPropertyOp17
 70
     1
102
RTVSPropertyOp18
 70
     1
102
RTVSPropertyOp19
 70
     1
102
RTVSPropertyOp20
 70
     1
102
RTVSPropertyOp21
 70
     1
102
RTVSPropertyOp22
 70
     1
102
RTVSPropertyOp23
 70
     1
102
RTVSPropertyOp24
 70
     1
102
RTVSPropertyOp25
 70
     1
102
RTVSPropertyOp26
 70
     1
102
RTVSPropertyOp27
 70
     1
102
RTVSPropertyOp28
 70
     1
102
RTVSPropertyOp29
 70
     1
102
RTVSPropertyOp30
 70
     1
102
RTVSPropertyOp31
 70
     1
102
RTVSPropertyOp32
 70
     1
102
RTVSPropertyOp33
 70
     1
102
RTVSPropertyOp34
 70
     1
102
RTVSPropertyOp35
 70
     1
102
RTVSPropertyOp36
 70
     1
102
RTVSPropertyOp37
 70
     1
102
RTVSPropertyOp38
 70
     1
102
RTVSPropertyOp39
 70
     1
102
RTVSPropertyOp40
 70
     1
102
RTVSPropertyOp41
 70
     1
102
RTVSPropertyOp42
 70
     1
102
RTVSPropertyOp43
 70
     1
102
RTVSPropertyOp44
 70
     1
102
RTVSPropertyOp45
 70
     1
102
RTVSPropertyOp46
 70
     1
102
RTVSPropertyOp47
 70
     1
102
RTVSPropertyOp48
 70
     1
102
RTVSPropertyOp49
 70
     1
102
RTVSPropertyOp50
 70
     1
102
RTVSPropertyOp51
 70
     0
102
RTVSPropertyOp52
 70
     0
102
RTVSPropertyOp53
 70
     1
102
RTVSPropertyOp54
 70
     1
102
RTVSPropertyOp55
 70
     1
102
RTVSPropertyOp56
 70
     1
102
RTVSPropertyOp57
 70
     1
102
RTVSPropertyOp58
 70
     1
102
RTVSPropertyOp59
 70
     1
102
RTVSPropertyOp60
 70
     1
102
RTVSPropertyOp61
 70
     1
102
RTVSPropertyOp62
 70
     1
  0
XRECORD
  5
6F4
102
{ACAD_REACTORS
330
6F3
102
}
330
6F3
100
AcDbXrecord
280
     1
102
RTVSPost2010Prop28
280
     0
102
RTVSPost2010PropOp28
 70
     1
102
RTVSPost2010Prop29
280
     1
102
RTVSPost2010PropOp29
 70
     1
102
RTVSPost2010Prop30
280
     1
102
RTVSPost2010PropOp30
 70
     1
102
RTVSPost2010Prop31
280
     0
102
RTVSPost2010PropOp31
 70
     1
102
RTVSPost2010Prop32
280
     0
102
RTVSPost2010PropOp32
 70
     1
102
RTVSPost2010Prop33
280
     0
102
RTVSPost2010PropOp33
 70
     1
102
RTVSPost2010Prop34
280
     0
102
RTVSPost2010PropOp34
 70
     1
102
RTVSPost2010Prop35
280
     0
102
RTVSPost2010PropOp35
 70
     1
102
RTVSPost2010Prop36
280
     0
102
RTVSPost2010PropOp36
 70
     1
102
RTVSPost2010Prop37
 90
       50
102
RTVSPost2010PropOp37
 70
     1
102
RTVSPost2010Prop38
140
0.0
102
RTVSPost2010PropOp38
 70
     1
102
RTVSPost2010Prop39
140
1.0
102
RTVSPost2010PropOp39
 70
     1
102
RTVSPost2010Prop40
 90
        0
102
RTVSPost2010PropOp40
 70
     1
102
RTVSPost2010Prop41ColorIndex
 90
       18
102
RTVSPost2010Prop41ColorRGB
 90
        0
102
RTVSPost2010PropOp41
 70
     1
102
RTVSPost2010Prop42
 90
       50
102
RTVSPost2010PropOp42
 70
     1
102
RTVSPost2010Prop43
 90
        3
102
RTVSPost2010PropOp43
 70
     1
102
RTVSPost2010Prop44ColorIndex
 90
        5
102
RTVSPost2010Prop44ColorRGB
 90
      255
102
RTVSPost2010PropOp44
 70
     1
102
RTVSPost2010Prop45
280
     0
102
RTVSPost2010PropOp45
 70
     1
102
RTVSPost2010Prop46
 90
       50
102
RTVSPost2010PropOp46
 70
     1
102
RTVSPost2010Prop47
 90
       50
102
RTVSPost2010PropOp47
 70
     1
102
RTVSPost2010Prop48
 90
       50
102
RTVSPost2010PropOp48
 70
     1
102
RTVSPost2010Prop49
280
     0
102
RTVSPost2010PropOp49
 70
     1
102
RTVSPost2010Prop50
 90
       50
102
RTVSPost2010PropOp50
 70
     1
102
RTVSPost2010Prop51ColorIndex
 90
      256
102
RTVSPost2010Prop51ColorRGB
 90
-16777216
102
RTVSPost2010PropOp51
 70
     0
102
RTVSPost2010Prop52
140
1.0
102
RTVSPost2010PropOp52
 70
     0
102
RTVSPost2010Prop53
 90
        2
102
RTVSPost2010PropOp53
 70
     1
102
RTVSPost2010Prop54
  1
strokes_ogs.tif
102
RTVSPost2010PropOp54
 70
     1
102
RTVSPost2010Prop55
280
     0
102
RTVSPost2010PropOp55
 70
     1
102
RTVSPost2010Prop56
140
1.0
102
RTVSPost2010PropOp56
 70
     1
102
RTVSPost2010Prop57
140
1.0
102
RTVSPost2010PropOp57
 70
     1
102
RTVSPropertyOp0
 70
     1
102
RTVSPropertyOp1
 70
     1
102
RTVSPropertyOp2
 70
     1
102
RTVSPropertyOp3
 70
     1
102
RTVSPropertyOp4
 70
     1
102
RTVSPropertyOp5
 70
     1
102
RTVSPropertyOp6
 70
     1
102
RTVSPropertyOp7
 70
     1
102
RTVSPropertyOp8
 70
     1
102
RTVSPropertyOp9
 70
     1
102
RTVSPropertyOp10
 70
     1
102
RTVSPropertyOp11
 70
     1
102
RTVSPropertyOp12
 70
     1
102
RTVSPropertyOp13
 70
     1
102
RTVSPropertyOp14
 70
     1
102
RTVSPropertyOp15
 70
     1
102
RTVSPropertyOp16
 70
     1
102
RTVSPropertyOp17
 70
     1
102
RTVSPropertyOp18
 70
     1
102
RTVSPropertyOp19
 70
     1
102
RTVSPropertyOp20
 70
     1
102
RTVSPropertyOp21
 70
     1
102
RTVSPropertyOp22
 70
     1
102
RTVSPropertyOp23
 70
     1
102
RTVSPropertyOp24
 70
     1
102
RTVSPropertyOp25
 70
     1
102
RTVSPropertyOp26
 70
     1
102
RTVSPropertyOp27
 70
     1
102
RTVSPropertyOp28
 70
     1
102
RTVSPropertyOp29
 70
     1
102
RTVSPropertyOp30
 70
     1
102
RTVSPropertyOp31
 70
     1
102
RTVSPropertyOp32
 70
     1
102
RTVSPropertyOp33
 70
     1
102
RTVSPropertyOp34
 70
     1
102
RTVSPropertyOp35
 70
     1
102
RTVSPropertyOp36
 70
     1
102
RTVSPropertyOp37
 70
     1
102
RTVSPropertyOp38
 70
     1
102
RTVSPropertyOp39
 70
     1
102
RTVSPropertyOp40
 70
     1
102
RTVSPropertyOp41
 70
     1
102
RTVSPropertyOp42
 70
     1
102
RTVSPropertyOp43
 70
     1
102
RTVSPropertyOp44
 70
     1
102
RTVSPropertyOp45
 70
     1
102
RTVSPropertyOp46
 70
     1
102
RTVSPropertyOp47
 70
     1
102
RTVSPropertyOp48
 70
     1
102
RTVSPropertyOp49
 70
     1
102
RTVSPropertyOp50
 70
     1
102
RTVSPropertyOp51
 70
     0
102
RTVSPropertyOp52
 70
     0
102
RTVSPropertyOp53
 70
     1
102
RTVSPropertyOp54
 70
     1
102
RTVSPropertyOp55
 70
     1
102
RTVSPropertyOp56
 70
     1
102
RTVSPropertyOp57
 70
     1
102
RTVSPropertyOp58
 70
     1
102
RTVSPropertyOp59
 70
     1
102
RTVSPropertyOp60
 70
     1
102
RTVSPropertyOp61
 70
     1
102
RTVSPropertyOp62
 70
     1
  0
XRECORD
  5
6F6
102
{ACAD_REACTORS
330
6F5
102
}
330
6F5
100
AcDbXrecord
280
     1
102
RTVSPost2010Prop28
280
     0
102
RTVSPost2010PropOp28
 70
     1
102
RTVSPost2010Prop29
280
     1
102
RTVSPost2010PropOp29
 70
     1
102
RTVSPost2010Prop30
280
     1
102
RTVSPost2010PropOp30
 70
     1
102
RTVSPost2010Prop31
280
     0
102
RTVSPost2010PropOp31
 70
     1
102
RTVSPost2010Prop32
280
     0
102
RTVSPost2010PropOp32
 70
     1
102
RTVSPost2010Prop33
280
     0
102
RTVSPost2010PropOp33
 70
     1
102
RTVSPost2010Prop34
280
     0
102
RTVSPost2010PropOp34
 70
     1
102
RTVSPost2010Prop35
280
     0
102
RTVSPost2010PropOp35
 70
     1
102
RTVSPost2010Prop36
280
     0
102
RTVSPost2010PropOp36
 70
     1
102
RTVSPost2010Prop37
 90
       50
102
RTVSPost2010PropOp37
 70
     1
102
RTVSPost2010Prop38
140
0.0
102
RTVSPost2010PropOp38
 70
     1
102
RTVSPost2010Prop39
140
1.0
102
RTVSPost2010PropOp39
 70
     1
102
RTVSPost2010Prop40
 90
        0
102
RTVSPost2010PropOp40
 70
     1
102
RTVSPost2010Prop41ColorIndex
 90
       18
102
RTVSPost2010Prop41ColorRGB
 90
        0
102
RTVSPost2010PropOp41
 70
     1
102
RTVSPost2010Prop42
 90
       50
102
RTVSPost2010PropOp42
 70
     1
102
RTVSPost2010Prop43
 90
        3
102
RTVSPost2010PropOp43
 70
     1
102
RTVSPost2010Prop44ColorIndex
 90
        5
102
RTVSPost2010Prop44ColorRGB
 90
      255
102
RTVSPost2010PropOp44
 70
     1
102
RTVSPost2010Prop45
280
     0
102
RTVSPost2010PropOp45
 70
     1
102
RTVSPost2010Prop46
 90
       50
102
RTVSPost2010PropOp46
 70
     1
102
RTVSPost2010Prop47
 90
       50
102
RTVSPost2010PropOp47
 70
     1
102
RTVSPost2010Prop48
 90
       50
102
RTVSPost2010PropOp48
 70
     1
102
RTVSPost2010Prop49
280
     0
102
RTVSPost2010PropOp49
 70
     1
102
RTVSPost2010Prop50
 90
       50
102
RTVSPost2010PropOp50
 70
     1
102
RTVSPost2010Prop51ColorIndex
 90
      256
102
RTVSPost2010Prop51ColorRGB
 90
-16777216
102
RTVSPost2010PropOp51
 70
     0
102
RTVSPost2010Prop52
140
1.0
102
RTVSPost2010PropOp52
 70
     0
102
RTVSPost2010Prop53
 90
        2
102
RTVSPost2010PropOp53
 70
     1
102
RTVSPost2010Prop54
  1
strokes_ogs.tif
102
RTVSPost2010PropOp54
 70
     1
102
RTVSPost2010Prop55
280
     0
102
RTVSPost2010PropOp55
 70
     1
102
RTVSPost2010Prop56
140
1.0
102
RTVSPost2010PropOp56
 70
     1
102
RTVSPost2010Prop57
140
1.0
102
RTVSPost2010PropOp57
 70
     1
102
RTVSPropertyOp0
 70
     1
102
RTVSPropertyOp1
 70
     1
102
RTVSPropertyOp2
 70
     1
102
RTVSPropertyOp3
 70
     1
102
RTVSPropertyOp4
 70
     1
102
RTVSPropertyOp5
 70
     1
102
RTVSPropertyOp6
 70
     1
102
RTVSPropertyOp7
 70
     1
102
RTVSPropertyOp8
 70
     1
102
RTVSPropertyOp9
 70
     1
102
RTVSPropertyOp10
 70
     1
102
RTVSPropertyOp11
 70
     1
102
RTVSPropertyOp12
 70
     1
102
RTVSPropertyOp13
 70
     1
102
RTVSPropertyOp14
 70
     1
102
RTVSPropertyOp15
 70
     1
102
RTVSPropertyOp16
 70
     1
102
RTVSPropertyOp17
 70
     1
102
RTVSPropertyOp18
 70
     1
102
RTVSPropertyOp19
 70
     1
102
RTVSPropertyOp20
 70
     1
102
RTVSPropertyOp21
 70
     1
102
RTVSPropertyOp22
 70
     1
102
RTVSPropertyOp23
 70
     1
102
RTVSPropertyOp24
 70
     1
102
RTVSPropertyOp25
 70
     1
102
RTVSPropertyOp26
 70
     1
102
RTVSPropertyOp27
 70
     1
102
RTVSPropertyOp28
 70
     1
102
RTVSPropertyOp29
 70
     1
102
RTVSPropertyOp30
 70
     1
102
RTVSPropertyOp31
 70
     1
102
RTVSPropertyOp32
 70
     1
102
RTVSPropertyOp33
 70
     1
102
RTVSPropertyOp34
 70
     1
102
RTVSPropertyOp35
 70
     1
102
RTVSPropertyOp36
 70
     1
102
RTVSPropertyOp37
 70
     1
102
RTVSPropertyOp38
 70
     1
102
RTVSPropertyOp39
 70
     1
102
RTVSPropertyOp40
 70
     1
102
RTVSPropertyOp41
 70
     1
102
RTVSPropertyOp42
 70
     1
102
RTVSPropertyOp43
 70
     1
102
RTVSPropertyOp44
 70
     1
102
RTVSPropertyOp45
 70
     1
102
RTVSPropertyOp46
 70
     1
102
RTVSPropertyOp47
 70
     1
102
RTVSPropertyOp48
 70
     1
102
RTVSPropertyOp49
 70
     1
102
RTVSPropertyOp50
 70
     1
102
RTVSPropertyOp51
 70
     0
102
RTVSPropertyOp52
 70
     0
102
RTVSPropertyOp53
 70
     1
102
RTVSPropertyOp54
 70
     1
102
RTVSPropertyOp55
 70
     1
102
RTVSPropertyOp56
 70
     1
102
RTVSPropertyOp57
 70
     1
102
RTVSPropertyOp58
 70
     1
102
RTVSPropertyOp59
 70
     1
102
RTVSPropertyOp60
 70
     1
102
RTVSPropertyOp61
 70
     1
102
RTVSPropertyOp62
 70
     1
  0
XRECORD
  5
6FE
102
{ACAD_REACTORS
330
6FD
102
}
330
6FD
100
AcDbXrecord
280
     1
102
RTVSPost2010Prop28
280
     0
102
RTVSPost2010PropOp28
 70
     1
102
RTVSPost2010Prop29
280
     1
102
RTVSPost2010PropOp29
 70
     1
102
RTVSPost2010Prop30
280
     1
102
RTVSPost2010PropOp30
 70
     1
102
RTVSPost2010Prop31
280
     0
102
RTVSPost2010PropOp31
 70
     1
102
RTVSPost2010Prop32
280
     0
102
RTVSPost2010PropOp32
 70
     1
102
RTVSPost2010Prop33
280
     0
102
RTVSPost2010PropOp33
 70
     1
102
RTVSPost2010Prop34
280
     0
102
RTVSPost2010PropOp34
 70
     1
102
RTVSPost2010Prop35
280
     0
102
RTVSPost2010PropOp35
 70
     1
102
RTVSPost2010Prop36
280
     0
102
RTVSPost2010PropOp36
 70
     1
102
RTVSPost2010Prop37
 90
       50
102
RTVSPost2010PropOp37
 70
     1
102
RTVSPost2010Prop38
140
0.0
102
RTVSPost2010PropOp38
 70
     1
102
RTVSPost2010Prop39
140
1.0
102
RTVSPost2010PropOp39
 70
     1
102
RTVSPost2010Prop40
 90
        0
102
RTVSPost2010PropOp40
 70
     1
102
RTVSPost2010Prop41ColorIndex
 90
       18
102
RTVSPost2010Prop41ColorRGB
 90
        0
102
RTVSPost2010PropOp41
 70
     1
102
RTVSPost2010Prop42
 90
       50
102
RTVSPost2010PropOp42
 70
     1
102
RTVSPost2010Prop43
 90
        3
102
RTVSPost2010PropOp43
 70
     1
102
RTVSPost2010Prop44ColorIndex
 90
        5
102
RTVSPost2010Prop44ColorRGB
 90
      255
102
RTVSPost2010PropOp44
 70
     1
102
RTVSPost2010Prop45
280
     0
102
RTVSPost2010PropOp45
 70
     1
102
RTVSPost2010Prop46
 90
       50
102
RTVSPost2010PropOp46
 70
     1
102
RTVSPost2010Prop47
 90
       50
102
RTVSPost2010PropOp47
 70
     1
102
RTVSPost2010Prop48
 90
       50
102
RTVSPost2010PropOp48
 70
     1
102
RTVSPost2010Prop49
280
     0
102
RTVSPost2010PropOp49
 70
     1
102
RTVSPost2010Prop50
 90
       50
102
RTVSPost2010PropOp50
 70
     1
102
RTVSPost2010Prop51ColorIndex
 90
      256
102
RTVSPost2010Prop51ColorRGB
 90
-16777216
102
RTVSPost2010PropOp51
 70
     0
102
RTVSPost2010Prop52
140
1.0
102
RTVSPost2010PropOp52
 70
     0
102
RTVSPost2010Prop53
 90
        2
102
RTVSPost2010PropOp53
 70
     1
102
RTVSPost2010Prop54
  1
strokes_ogs.tif
102
RTVSPost2010PropOp54
 70
     1
102
RTVSPost2010Prop55
280
     0
102
RTVSPost2010PropOp55
 70
     1
102
RTVSPost2010Prop56
140
1.0
102
RTVSPost2010PropOp56
 70
     1
102
RTVSPost2010Prop57
140
1.0
102
RTVSPost2010PropOp57
 70
     1
102
RTVSPropertyOp0
 70
     1
102
RTVSPropertyOp1
 70
     1
102
RTVSPropertyOp2
 70
     1
102
RTVSPropertyOp3
 70
     1
102
RTVSPropertyOp4
 70
     1
102
RTVSPropertyOp5
 70
     1
102
RTVSPropertyOp6
 70
     1
102
RTVSPropertyOp7
 70
     1
102
RTVSPropertyOp8
 70
     1
102
RTVSPropertyOp9
 70
     1
102
RTVSPropertyOp10
 70
     1
102
RTVSPropertyOp11
 70
     1
102
RTVSPropertyOp12
 70
     1
102
RTVSPropertyOp13
 70
     1
102
RTVSPropertyOp14
 70
     1
102
RTVSPropertyOp15
 70
     1
102
RTVSPropertyOp16
 70
     1
102
RTVSPropertyOp17
 70
     1
102
RTVSPropertyOp18
 70
     1
102
RTVSPropertyOp19
 70
     1
102
RTVSPropertyOp20
 70
     1
102
RTVSPropertyOp21
 70
     1
102
RTVSPropertyOp22
 70
     1
102
RTVSPropertyOp23
 70
     1
102
RTVSPropertyOp24
 70
     1
102
RTVSPropertyOp25
 70
     1
102
RTVSPropertyOp26
 70
     1
102
RTVSPropertyOp27
 70
     1
102
RTVSPropertyOp28
 70
     1
102
RTVSPropertyOp29
 70
     1
102
RTVSPropertyOp30
 70
     1
102
RTVSPropertyOp31
 70
     1
102
RTVSPropertyOp32
 70
     1
102
RTVSPropertyOp33
 70
     1
102
RTVSPropertyOp34
 70
     1
102
RTVSPropertyOp35
 70
     1
102
RTVSPropertyOp36
 70
     1
102
RTVSPropertyOp37
 70
     1
102
RTVSPropertyOp38
 70
     1
102
RTVSPropertyOp39
 70
     1
102
RTVSPropertyOp40
 70
     1
102
RTVSPropertyOp41
 70
     1
102
RTVSPropertyOp42
 70
     1
102
RTVSPropertyOp43
 70
     1
102
RTVSPropertyOp44
 70
     1
102
RTVSPropertyOp45
 70
     1
102
RTVSPropertyOp46
 70
     1
102
RTVSPropertyOp47
 70
     1
102
RTVSPropertyOp48
 70
     1
102
RTVSPropertyOp49
 70
     1
102
RTVSPropertyOp50
 70
     1
102
RTVSPropertyOp51
 70
     0
102
RTVSPropertyOp52
 70
     0
102
RTVSPropertyOp53
 70
     1
102
RTVSPropertyOp54
 70
     1
102
RTVSPropertyOp55
 70
     1
102
RTVSPropertyOp56
 70
     1
102
RTVSPropertyOp57
 70
     1
102
RTVSPropertyOp58
 70
     1
102
RTVSPropertyOp59
 70
     1
102
RTVSPropertyOp60
 70
     1
102
RTVSPropertyOp61
 70
     1
102
RTVSPropertyOp62
 70
     1
  0
XRECORD
  5
71A
102
{ACAD_REACTORS
330
719
102
}
330
719
100
AcDbXrecord
280
     1
102
RTVSPost2010Prop28
280
     0
102
RTVSPost2010PropOp28
 70
     1
102
RTVSPost2010Prop29
280
     1
102
RTVSPost2010PropOp29
 70
     1
102
RTVSPost2010Prop30
280
     1
102
RTVSPost2010PropOp30
 70
     1
102
RTVSPost2010Prop31
280
     0
102
RTVSPost2010PropOp31
 70
     1
102
RTVSPost2010Prop32
280
     0
102
RTVSPost2010PropOp32
 70
     1
102
RTVSPost2010Prop33
280
     0
102
RTVSPost2010PropOp33
 70
     1
102
RTVSPost2010Prop34
280
     0
102
RTVSPost2010PropOp34
 70
     1
102
RTVSPost2010Prop35
280
     0
102
RTVSPost2010PropOp35
 70
     1
102
RTVSPost2010Prop36
280
     0
102
RTVSPost2010PropOp36
 70
     1
102
RTVSPost2010Prop37
 90
       50
102
RTVSPost2010PropOp37
 70
     0
102
RTVSPost2010Prop38
140
0.0
102
RTVSPost2010PropOp38
 70
     0
102
RTVSPost2010Prop39
140
1.0
102
RTVSPost2010PropOp39
 70
     0
102
RTVSPost2010Prop40
 90
        0
102
RTVSPost2010PropOp40
 70
     0
102
RTVSPost2010Prop41ColorIndex
 90
       18
102
RTVSPost2010Prop41ColorRGB
 90
        0
102
RTVSPost2010PropOp41
 70
     0
102
RTVSPost2010Prop42
 90
       50
102
RTVSPost2010PropOp42
 70
     0
102
RTVSPost2010Prop43
 90
        3
102
RTVSPost2010PropOp43
 70
     0
102
RTVSPost2010Prop44ColorIndex
 90
        5
102
RTVSPost2010Prop44ColorRGB
 90
      255
102
RTVSPost2010PropOp44
 70
     0
102
RTVSPost2010Prop45
280
     0
102
RTVSPost2010PropOp45
 70
     1
102
RTVSPost2010Prop46
 90
       50
102
RTVSPost2010PropOp46
 70
     0
102
RTVSPost2010Prop47
 90
       50
102
RTVSPost2010PropOp47
 70
     0
102
RTVSPost2010Prop48
 90
       50
102
RTVSPost2010PropOp48
 70
     0
102
RTVSPost2010Prop49
280
     0
102
RTVSPost2010PropOp49
 70
     1
102
RTVSPost2010Prop50
 90
       50
102
RTVSPost2010PropOp50
 70
     0
102
RTVSPost2010Prop51ColorIndex
 90
      256
102
RTVSPost2010Prop51ColorRGB
 90
-16777216
102
RTVSPost2010PropOp51
 70
     0
102
RTVSPost2010Prop52
140
1.0
102
RTVSPost2010PropOp52
 70
     0
102
RTVSPost2010Prop53
 90
        2
102
RTVSPost2010PropOp53
 70
     0
102
RTVSPost2010Prop54
  1
strokes_ogs.tif
102
RTVSPost2010PropOp54
 70
     0
102
RTVSPost2010Prop55
280
     0
102
RTVSPost2010PropOp55
 70
     1
102
RTVSPost2010Prop56
140
1.0
102
RTVSPost2010PropOp56
 70
     0
102
RTVSPost2010Prop57
140
1.0
102
RTVSPost2010PropOp57
 70
     0
102
RTVSPropertyOp0
 70
     0
102
RTVSPropertyOp1
 70
     0
102
RTVSPropertyOp2
 70
     0
102
RTVSPropertyOp3
 70
     0
102
RTVSPropertyOp4
 70
     0
102
RTVSPropertyOp5
 70
     0
102
RTVSPropertyOp6
 70
     0
102
RTVSPropertyOp7
 70
     0
102
RTVSPropertyOp8
 70
     0
102
RTVSPropertyOp9
 70
     0
102
RTVSPropertyOp10
 70
     0
102
RTVSPropertyOp11
 70
     0
102
RTVSPropertyOp12
 70
     0
102
RTVSPropertyOp13
 70
     0
102
RTVSPropertyOp14
 70
     2
102
RTVSPropertyOp15
 70
     0
102
RTVSPropertyOp16
 70
     0
102
RTVSPropertyOp17
 70
     0
102
RTVSPropertyOp18
 70
     0
102
RTVSPropertyOp19
 70
     0
102
RTVSPropertyOp20
 70
     0
102
RTVSPropertyOp21
 70
     0
102
RTVSPropertyOp22
 70
     0
102
RTVSPropertyOp23
 70
     0
102
RTVSPropertyOp24
 70
     0
102
RTVSPropertyOp25
 70
     0
102
RTVSPropertyOp26
 70
     0
102
RTVSPropertyOp27
 70
     0
102
RTVSPropertyOp28
 70
     1
102
RTVSPropertyOp29
 70
     1
102
RTVSPropertyOp30
 70
     1
102
RTVSPropertyOp31
 70
     1
102
RTVSPropertyOp32
 70
     1
102
RTVSPropertyOp33
 70
     1
102
RTVSPropertyOp34
 70
     1
102
RTVSPropertyOp35
 70
     1
102
RTVSPropertyOp36
 70
     1
102
RTVSPropertyOp37
 70
     0
102
RTVSPropertyOp38
 70
     0
102
RTVSPropertyOp39
 70
     0
102
RTVSPropertyOp40
 70
     0
102
RTVSPropertyOp41
 70
     0
102
RTVSPropertyOp42
 70
     0
102
RTVSPropertyOp43
 70
     0
102
RTVSPropertyOp44
 70
     0
102
RTVSPropertyOp45
 70
     1
102
RTVSPropertyOp46
 70
     0
102
RTVSPropertyOp47
 70
     0
102
RTVSPropertyOp48
 70
     0
102
RTVSPropertyOp49
 70
     1
102
RTVSPropertyOp50
 70
     0
102
RTVSPropertyOp51
 70
     0
102
RTVSPropertyOp52
 70
     0
102
RTVSPropertyOp53
 70
     0
102
RTVSPropertyOp54
 70
     0
102
RTVSPropertyOp55
 70
     1
102
RTVSPropertyOp56
 70
     0
102
RTVSPropertyOp57
 70
     0
102
RTVSPropertyOp58
 70
     0
102
RTVSPropertyOp59
 70
     0
102
RTVSPropertyOp60
 70
     0
102
RTVSPropertyOp61
 70
     0
102
RTVSPropertyOp62
 70
     0
  0
XRECORD
  5
70A
102
{ACAD_REACTORS
330
709
102
}
330
709
100
AcDbXrecord
280
     1
102
RTVSPost2010Prop28
280
     0
102
RTVSPost2010PropOp28
 70
     1
102
RTVSPost2010Prop29
280
     1
102
RTVSPost2010PropOp29
 70
     1
102
RTVSPost2010Prop30
280
     1
102
RTVSPost2010PropOp30
 70
     1
102
RTVSPost2010Prop31
280
     0
102
RTVSPost2010PropOp31
 70
     1
102
RTVSPost2010Prop32
280
     0
102
RTVSPost2010PropOp32
 70
     1
102
RTVSPost2010Prop33
280
     0
102
RTVSPost2010PropOp33
 70
     1
102
RTVSPost2010Prop34
280
     0
102
RTVSPost2010PropOp34
 70
     1
102
RTVSPost2010Prop35
280
     0
102
RTVSPost2010PropOp35
 70
     1
102
RTVSPost2010Prop36
280
     0
102
RTVSPost2010PropOp36
 70
     1
102
RTVSPost2010Prop37
 90
       50
102
RTVSPost2010PropOp37
 70
     1
102
RTVSPost2010Prop38
140
0.0
102
RTVSPost2010PropOp38
 70
     1
102
RTVSPost2010Prop39
140
1.0
102
RTVSPost2010PropOp39
 70
     1
102
RTVSPost2010Prop40
 90
        0
102
RTVSPost2010PropOp40
 70
     1
102
RTVSPost2010Prop41ColorIndex
 90
       18
102
RTVSPost2010Prop41ColorRGB
 90
        0
102
RTVSPost2010PropOp41
 70
     1
102
RTVSPost2010Prop42
 90
       50
102
RTVSPost2010PropOp42
 70
     1
102
RTVSPost2010Prop43
 90
        3
102
RTVSPost2010PropOp43
 70
     1
102
RTVSPost2010Prop44ColorIndex
 90
        5
102
RTVSPost2010Prop44ColorRGB
 90
      255
102
RTVSPost2010PropOp44
 70
     1
102
RTVSPost2010Prop45
280
     0
102
RTVSPost2010PropOp45
 70
     1
102
RTVSPost2010Prop46
 90
       50
102
RTVSPost2010PropOp46
 70
     1
102
RTVSPost2010Prop47
 90
       50
102
RTVSPost2010PropOp47
 70
     1
102
RTVSPost2010Prop48
 90
       50
102
RTVSPost2010PropOp48
 70
     1
102
RTVSPost2010Prop49
280
     0
102
RTVSPost2010PropOp49
 70
     1
102
RTVSPost2010Prop50
 90
       50
102
RTVSPost2010PropOp50
 70
     1
102
RTVSPost2010Prop51ColorIndex
 90
      256
102
RTVSPost2010Prop51ColorRGB
 90
-16777216
102
RTVSPost2010PropOp51
 70
     0
102
RTVSPost2010Prop52
140
1.0
102
RTVSPost2010PropOp52
 70
     0
102
RTVSPost2010Prop53
 90
        2
102
RTVSPost2010PropOp53
 70
     1
102
RTVSPost2010Prop54
  1
strokes_ogs.tif
102
RTVSPost2010PropOp54
 70
     1
102
RTVSPost2010Prop55
280
     0
102
RTVSPost2010PropOp55
 70
     1
102
RTVSPost2010Prop56
140
1.0
102
RTVSPost2010PropOp56
 70
     1
102
RTVSPost2010Prop57
140
1.0
102
RTVSPost2010PropOp57
 70
     1
102
RTVSPropertyOp0
 70
     1
102
RTVSPropertyOp1
 70
     1
102
RTVSPropertyOp2
 70
     1
102
RTVSPropertyOp3
 70
     1
102
RTVSPropertyOp4
 70
     1
102
RTVSPropertyOp5
 70
     1
102
RTVSPropertyOp6
 70
     1
102
RTVSPropertyOp7
 70
     1
102
RTVSPropertyOp8
 70
     1
102
RTVSPropertyOp9
 70
     1
102
RTVSPropertyOp10
 70
     1
102
RTVSPropertyOp11
 70
     1
102
RTVSPropertyOp12
 70
     1
102
RTVSPropertyOp13
 70
     1
102
RTVSPropertyOp14
 70
     1
102
RTVSPropertyOp15
 70
     1
102
RTVSPropertyOp16
 70
     1
102
RTVSPropertyOp17
 70
     1
102
RTVSPropertyOp18
 70
     1
102
RTVSPropertyOp19
 70
     1
102
RTVSPropertyOp20
 70
     1
102
RTVSPropertyOp21
 70
     1
102
RTVSPropertyOp22
 70
     1
102
RTVSPropertyOp23
 70
     1
102
RTVSPropertyOp24
 70
     1
102
RTVSPropertyOp25
 70
     1
102
RTVSPropertyOp26
 70
     1
102
RTVSPropertyOp27
 70
     1
102
RTVSPropertyOp28
 70
     1
102
RTVSPropertyOp29
 70
     1
102
RTVSPropertyOp30
 70
     1
102
RTVSPropertyOp31
 70
     1
102
RTVSPropertyOp32
 70
     1
102
RTVSPropertyOp33
 70
     1
102
RTVSPropertyOp34
 70
     1
102
RTVSPropertyOp35
 70
     1
102
RTVSPropertyOp36
 70
     1
102
RTVSPropertyOp37
 70
     1
102
RTVSPropertyOp38
 70
     1
102
RTVSPropertyOp39
 70
     1
102
RTVSPropertyOp40
 70
     1
102
RTVSPropertyOp41
 70
     1
102
RTVSPropertyOp42
 70
     1
102
RTVSPropertyOp43
 70
     1
102
RTVSPropertyOp44
 70
     1
102
RTVSPropertyOp45
 70
     1
102
RTVSPropertyOp46
 70
     1
102
RTVSPropertyOp47
 70
     1
102
RTVSPropertyOp48
 70
     1
102
RTVSPropertyOp49
 70
     1
102
RTVSPropertyOp50
 70
     1
102
RTVSPropertyOp51
 70
     0
102
RTVSPropertyOp52
 70
     0
102
RTVSPropertyOp53
 70
     1
102
RTVSPropertyOp54
 70
     1
102
RTVSPropertyOp55
 70
     1
102
RTVSPropertyOp56
 70
     1
102
RTVSPropertyOp57
 70
     1
102
RTVSPropertyOp58
 70
     1
102
RTVSPropertyOp59
 70
     1
102
RTVSPropertyOp60
 70
     1
102
RTVSPropertyOp61
 70
     1
102
RTVSPropertyOp62
 70
     1
  0
XRECORD
  5
71C
102
{ACAD_REACTORS
330
71B
102
}
330
71B
100
AcDbXrecord
280
     1
102
RTVSPost2010Prop28
280
     0
102
RTVSPost2010PropOp28
 70
     1
102
RTVSPost2010Prop29
280
     1
102
RTVSPost2010PropOp29
 70
     1
102
RTVSPost2010Prop30
280
     1
102
RTVSPost2010PropOp30
 70
     1
102
RTVSPost2010Prop31
280
     0
102
RTVSPost2010PropOp31
 70
     1
102
RTVSPost2010Prop32
280
     0
102
RTVSPost2010PropOp32
 70
     1
102
RTVSPost2010Prop33
280
     0
102
RTVSPost2010PropOp33
 70
     1
102
RTVSPost2010Prop34
280
     0
102
RTVSPost2010PropOp34
 70
     1
102
RTVSPost2010Prop35
280
     0
102
RTVSPost2010PropOp35
 70
     1
102
RTVSPost2010Prop36
280
     0
102
RTVSPost2010PropOp36
 70
     1
102
RTVSPost2010Prop37
 90
       50
102
RTVSPost2010PropOp37
 70
     0
102
RTVSPost2010Prop38
140
0.0
102
RTVSPost2010PropOp38
 70
     0
102
RTVSPost2010Prop39
140
1.0
102
RTVSPost2010PropOp39
 70
     0
102
RTVSPost2010Prop40
 90
        0
102
RTVSPost2010PropOp40
 70
     0
102
RTVSPost2010Prop41ColorIndex
 90
       18
102
RTVSPost2010Prop41ColorRGB
 90
        0
102
RTVSPost2010PropOp41
 70
     0
102
RTVSPost2010Prop42
 90
       50
102
RTVSPost2010PropOp42
 70
     0
102
RTVSPost2010Prop43
 90
        3
102
RTVSPost2010PropOp43
 70
     0
102
RTVSPost2010Prop44ColorIndex
 90
        5
102
RTVSPost2010Prop44ColorRGB
 90
      255
102
RTVSPost2010PropOp44
 70
     0
102
RTVSPost2010Prop45
280
     0
102
RTVSPost2010PropOp45
 70
     1
102
RTVSPost2010Prop46
 90
       50
102
RTVSPost2010PropOp46
 70
     0
102
RTVSPost2010Prop47
 90
       50
102
RTVSPost2010PropOp47
 70
     0
102
RTVSPost2010Prop48
 90
       50
102
RTVSPost2010PropOp48
 70
     0
102
RTVSPost2010Prop49
280
     0
102
RTVSPost2010PropOp49
 70
     1
102
RTVSPost2010Prop50
 90
       50
102
RTVSPost2010PropOp50
 70
     0
102
RTVSPost2010Prop51ColorIndex
 90
      256
102
RTVSPost2010Prop51ColorRGB
 90
-16777216
102
RTVSPost2010PropOp51
 70
     0
102
RTVSPost2010Prop52
140
1.0
102
RTVSPost2010PropOp52
 70
     0
102
RTVSPost2010Prop53
 90
        2
102
RTVSPost2010PropOp53
 70
     0
102
RTVSPost2010Prop54
  1
strokes_ogs.tif
102
RTVSPost2010PropOp54
 70
     0
102
RTVSPost2010Prop55
280
     0
102
RTVSPost2010PropOp55
 70
     1
102
RTVSPost2010Prop56
140
1.0
102
RTVSPost2010PropOp56
 70
     0
102
RTVSPost2010Prop57
140
1.0
102
RTVSPost2010PropOp57
 70
     0
102
RTVSPropertyOp0
 70
     0
102
RTVSPropertyOp1
 70
     0
102
RTVSPropertyOp2
 70
     0
102
RTVSPropertyOp3
 70
     0
102
RTVSPropertyOp4
 70
     0
102
RTVSPropertyOp5
 70
     0
102
RTVSPropertyOp6
 70
     0
102
RTVSPropertyOp7
 70
     0
102
RTVSPropertyOp8
 70
     0
102
RTVSPropertyOp9
 70
     0
102
RTVSPropertyOp10
 70
     0
102
RTVSPropertyOp11
 70
     0
102
RTVSPropertyOp12
 70
     0
102
RTVSPropertyOp13
 70
     0
102
RTVSPropertyOp14
 70
     2
102
RTVSPropertyOp15
 70
     0
102
RTVSPropertyOp16
 70
     0
102
RTVSPropertyOp17
 70
     0
102
RTVSPropertyOp18
 70
     0
102
RTVSPropertyOp19
 70
     0
102
RTVSPropertyOp20
 70
     0
102
RTVSPropertyOp21
 70
     0
102
RTVSPropertyOp22
 70
     0
102
RTVSPropertyOp23
 70
     0
102
RTVSPropertyOp24
 70
     0
102
RTVSPropertyOp25
 70
     0
102
RTVSPropertyOp26
 70
     0
102
RTVSPropertyOp27
 70
     0
102
RTVSPropertyOp28
 70
     1
102
RTVSPropertyOp29
 70
     1
102
RTVSPropertyOp30
 70
     1
102
RTVSPropertyOp31
 70
     1
102
RTVSPropertyOp32
 70
     1
102
RTVSPropertyOp33
 70
     1
102
RTVSPropertyOp34
 70
     1
102
RTVSPropertyOp35
 70
     1
102
RTVSPropertyOp36
 70
     1
102
RTVSPropertyOp37
 70
     0
102
RTVSPropertyOp38
 70
     0
102
RTVSPropertyOp39
 70
     0
102
RTVSPropertyOp40
 70
     0
102
RTVSPropertyOp41
 70
     0
102
RTVSPropertyOp42
 70
     0
102
RTVSPropertyOp43
 70
     0
102
RTVSPropertyOp44
 70
     0
102
RTVSPropertyOp45
 70
     1
102
RTVSPropertyOp46
 70
     0
102
RTVSPropertyOp47
 70
     0
102
RTVSPropertyOp48
 70
     0
102
RTVSPropertyOp49
 70
     1
102
RTVSPropertyOp50
 70
     0
102
RTVSPropertyOp51
 70
     0
102
RTVSPropertyOp52
 70
     0
102
RTVSPropertyOp53
 70
     0
102
RTVSPropertyOp54
 70
     0
102
RTVSPropertyOp55
 70
     1
102
RTVSPropertyOp56
 70
     0
102
RTVSPropertyOp57
 70
     0
102
RTVSPropertyOp58
 70
     0
102
RTVSPropertyOp59
 70
     0
102
RTVSPropertyOp60
 70
     0
102
RTVSPropertyOp61
 70
     0
102
RTVSPropertyOp62
 70
     0
  0
XRECORD
  5
702
102
{ACAD_REACTORS
330
701
102
}
330
701
100
AcDbXrecord
280
     1
102
RTVSPost2010Prop28
280
     0
102
RTVSPost2010PropOp28
 70
     1
102
RTVSPost2010Prop29
280
     1
102
RTVSPost2010PropOp29
 70
     1
102
RTVSPost2010Prop30
280
     1
102
RTVSPost2010PropOp30
 70
     1
102
RTVSPost2010Prop31
280
     0
102
RTVSPost2010PropOp31
 70
     1
102
RTVSPost2010Prop32
280
     0
102
RTVSPost2010PropOp32
 70
     1
102
RTVSPost2010Prop33
280
     0
102
RTVSPost2010PropOp33
 70
     1
102
RTVSPost2010Prop34
280
     0
102
RTVSPost2010PropOp34
 70
     1
102
RTVSPost2010Prop35
280
     0
102
RTVSPost2010PropOp35
 70
     1
102
RTVSPost2010Prop36
280
     0
102
RTVSPost2010PropOp36
 70
     1
102
RTVSPost2010Prop37
 90
       50
102
RTVSPost2010PropOp37
 70
     1
102
RTVSPost2010Prop38
140
0.0
102
RTVSPost2010PropOp38
 70
     1
102
RTVSPost2010Prop39
140
1.0
102
RTVSPost2010PropOp39
 70
     1
102
RTVSPost2010Prop40
 90
        0
102
RTVSPost2010PropOp40
 70
     1
102
RTVSPost2010Prop41ColorIndex
 90
       18
102
RTVSPost2010Prop41ColorRGB
 90
        0
102
RTVSPost2010PropOp41
 70
     1
102
RTVSPost2010Prop42
 90
       50
102
RTVSPost2010PropOp42
 70
     1
102
RTVSPost2010Prop43
 90
        3
102
RTVSPost2010PropOp43
 70
     1
102
RTVSPost2010Prop44ColorIndex
 90
        5
102
RTVSPost2010Prop44ColorRGB
 90
      255
102
RTVSPost2010PropOp44
 70
     1
102
RTVSPost2010Prop45
280
     0
102
RTVSPost2010PropOp45
 70
     1
102
RTVSPost2010Prop46
 90
       50
102
RTVSPost2010PropOp46
 70
     1
102
RTVSPost2010Prop47
 90
       50
102
RTVSPost2010PropOp47
 70
     1
102
RTVSPost2010Prop48
 90
       50
102
RTVSPost2010PropOp48
 70
     1
102
RTVSPost2010Prop49
280
     0
102
RTVSPost2010PropOp49
 70
     1
102
RTVSPost2010Prop50
 90
       50
102
RTVSPost2010PropOp50
 70
     1
102
RTVSPost2010Prop51ColorIndex
 90
      256
102
RTVSPost2010Prop51ColorRGB
 90
-16777216
102
RTVSPost2010PropOp51
 70
     0
102
RTVSPost2010Prop52
140
1.0
102
RTVSPost2010PropOp52
 70
     0
102
RTVSPost2010Prop53
 90
        2
102
RTVSPost2010PropOp53
 70
     1
102
RTVSPost2010Prop54
  1
strokes_ogs.tif
102
RTVSPost2010PropOp54
 70
     1
102
RTVSPost2010Prop55
280
     0
102
RTVSPost2010PropOp55
 70
     1
102
RTVSPost2010Prop56
140
1.0
102
RTVSPost2010PropOp56
 70
     1
102
RTVSPost2010Prop57
140
1.0
102
RTVSPost2010PropOp57
 70
     1
102
RTVSPropertyOp0
 70
     1
102
RTVSPropertyOp1
 70
     1
102
RTVSPropertyOp2
 70
     1
102
RTVSPropertyOp3
 70
     1
102
RTVSPropertyOp4
 70
     1
102
RTVSPropertyOp5
 70
     1
102
RTVSPropertyOp6
 70
     1
102
RTVSPropertyOp7
 70
     1
102
RTVSPropertyOp8
 70
     1
102
RTVSPropertyOp9
 70
     1
102
RTVSPropertyOp10
 70
     1
102
RTVSPropertyOp11
 70
     1
102
RTVSPropertyOp12
 70
     1
102
RTVSPropertyOp13
 70
     1
102
RTVSPropertyOp14
 70
     1
102
RTVSPropertyOp15
 70
     1
102
RTVSPropertyOp16
 70
     1
102
RTVSPropertyOp17
 70
     1
102
RTVSPropertyOp18
 70
     1
102
RTVSPropertyOp19
 70
     1
102
RTVSPropertyOp20
 70
     1
102
RTVSPropertyOp21
 70
     1
102
RTVSPropertyOp22
 70
     1
102
RTVSPropertyOp23
 70
     1
102
RTVSPropertyOp24
 70
     1
102
RTVSPropertyOp25
 70
     1
102
RTVSPropertyOp26
 70
     1
102
RTVSPropertyOp27
 70
     1
102
RTVSPropertyOp28
 70
     1
102
RTVSPropertyOp29
 70
     1
102
RTVSPropertyOp30
 70
     1
102
RTVSPropertyOp31
 70
     1
102
RTVSPropertyOp32
 70
     1
102
RTVSPropertyOp33
 70
     1
102
RTVSPropertyOp34
 70
     1
102
RTVSPropertyOp35
 70
     1
102
RTVSPropertyOp36
 70
     1
102
RTVSPropertyOp37
 70
     1
102
RTVSPropertyOp38
 70
     1
102
RTVSPropertyOp39
 70
     1
102
RTVSPropertyOp40
 70
     1
102
RTVSPropertyOp41
 70
     1
102
RTVSPropertyOp42
 70
     1
102
RTVSPropertyOp43
 70
     1
102
RTVSPropertyOp44
 70
     1
102
RTVSPropertyOp45
 70
     1
102
RTVSPropertyOp46
 70
     1
102
RTVSPropertyOp47
 70
     1
102
RTVSPropertyOp48
 70
     1
102
RTVSPropertyOp49
 70
     1
102
RTVSPropertyOp50
 70
     1
102
RTVSPropertyOp51
 70
     0
102
RTVSPropertyOp52
 70
     0
102
RTVSPropertyOp53
 70
     1
102
RTVSPropertyOp54
 70
     1
102
RTVSPropertyOp55
 70
     1
102
RTVSPropertyOp56
 70
     1
102
RTVSPropertyOp57
 70
     1
102
RTVSPropertyOp58
 70
     1
102
RTVSPropertyOp59
 70
     1
102
RTVSPropertyOp60
 70
     1
102
RTVSPropertyOp61
 70
     1
102
RTVSPropertyOp62
 70
     1
  0
XRECORD
  5
718
102
{ACAD_REACTORS
330
717
102
}
330
717
100
AcDbXrecord
280
     1
102
RTVSPost2010Prop28
280
     0
102
RTVSPost2010PropOp28
 70
     1
102
RTVSPost2010Prop29
280
     1
102
RTVSPost2010PropOp29
 70
     1
102
RTVSPost2010Prop30
280
     1
102
RTVSPost2010PropOp30
 70
     1
102
RTVSPost2010Prop31
280
     0
102
RTVSPost2010PropOp31
 70
     1
102
RTVSPost2010Prop32
280
     0
102
RTVSPost2010PropOp32
 70
     1
102
RTVSPost2010Prop33
280
     0
102
RTVSPost2010PropOp33
 70
     1
102
RTVSPost2010Prop34
280
     0
102
RTVSPost2010PropOp34
 70
     1
102
RTVSPost2010Prop35
280
     0
102
RTVSPost2010PropOp35
 70
     1
102
RTVSPost2010Prop36
280
     0
102
RTVSPost2010PropOp36
 70
     1
102
RTVSPost2010Prop37
 90
       50
102
RTVSPost2010PropOp37
 70
     1
102
RTVSPost2010Prop38
140
0.0
102
RTVSPost2010PropOp38
 70
     1
102
RTVSPost2010Prop39
140
1.0
102
RTVSPost2010PropOp39
 70
     1
102
RTVSPost2010Prop40
 90
        0
102
RTVSPost2010PropOp40
 70
     1
102
RTVSPost2010Prop41ColorIndex
 90
       18
102
RTVSPost2010Prop41ColorRGB
 90
        0
102
RTVSPost2010PropOp41
 70
     1
102
RTVSPost2010Prop42
 90
       50
102
RTVSPost2010PropOp42
 70
     1
102
RTVSPost2010Prop43
 90
        3
102
RTVSPost2010PropOp43
 70
     1
102
RTVSPost2010Prop44ColorIndex
 90
        5
102
RTVSPost2010Prop44ColorRGB
 90
      255
102
RTVSPost2010PropOp44
 70
     1
102
RTVSPost2010Prop45
280
     0
102
RTVSPost2010PropOp45
 70
     1
102
RTVSPost2010Prop46
 90
       50
102
RTVSPost2010PropOp46
 70
     1
102
RTVSPost2010Prop47
 90
       50
102
RTVSPost2010PropOp47
 70
     1
102
RTVSPost2010Prop48
 90
       50
102
RTVSPost2010PropOp48
 70
     1
102
RTVSPost2010Prop49
280
     0
102
RTVSPost2010PropOp49
 70
     1
102
RTVSPost2010Prop50
 90
       50
102
RTVSPost2010PropOp50
 70
     1
102
RTVSPost2010Prop51ColorIndex
 90
      256
102
RTVSPost2010Prop51ColorRGB
 90
-16777216
102
RTVSPost2010PropOp51
 70
     0
102
RTVSPost2010Prop52
140
1.0
102
RTVSPost2010PropOp52
 70
     0
102
RTVSPost2010Prop53
 90
        2
102
RTVSPost2010PropOp53
 70
     1
102
RTVSPost2010Prop54
  1
strokes_ogs.tif
102
RTVSPost2010PropOp54
 70
     1
102
RTVSPost2010Prop55
280
     0
102
RTVSPost2010PropOp55
 70
     1
102
RTVSPost2010Prop56
140
1.0
102
RTVSPost2010PropOp56
 70
     1
102
RTVSPost2010Prop57
140
1.0
102
RTVSPost2010PropOp57
 70
     1
102
RTVSPropertyOp0
 70
     1
102
RTVSPropertyOp1
 70
     1
102
RTVSPropertyOp2
 70
     1
102
RTVSPropertyOp3
 70
     1
102
RTVSPropertyOp4
 70
     1
102
RTVSPropertyOp5
 70
     1
102
RTVSPropertyOp6
 70
     1
102
RTVSPropertyOp7
 70
     1
102
RTVSPropertyOp8
 70
     1
102
RTVSPropertyOp9
 70
     1
102
RTVSPropertyOp10
 70
     1
102
RTVSPropertyOp11
 70
     1
102
RTVSPropertyOp12
 70
     1
102
RTVSPropertyOp13
 70
     1
102
RTVSPropertyOp14
 70
     1
102
RTVSPropertyOp15
 70
     1
102
RTVSPropertyOp16
 70
     1
102
RTVSPropertyOp17
 70
     1
102
RTVSPropertyOp18
 70
     1
102
RTVSPropertyOp19
 70
     1
102
RTVSPropertyOp20
 70
     1
102
RTVSPropertyOp21
 70
     1
102
RTVSPropertyOp22
 70
     1
102
RTVSPropertyOp23
 70
     1
102
RTVSPropertyOp24
 70
     1
102
RTVSPropertyOp25
 70
     1
102
RTVSPropertyOp26
 70
     1
102
RTVSPropertyOp27
 70
     1
102
RTVSPropertyOp28
 70
     1
102
RTVSPropertyOp29
 70
     1
102
RTVSPropertyOp30
 70
     1
102
RTVSPropertyOp31
 70
     1
102
RTVSPropertyOp32
 70
     1
102
RTVSPropertyOp33
 70
     1
102
RTVSPropertyOp34
 70
     1
102
RTVSPropertyOp35
 70
     1
102
RTVSPropertyOp36
 70
     1
102
RTVSPropertyOp37
 70
     1
102
RTVSPropertyOp38
 70
     1
102
RTVSPropertyOp39
 70
     1
102
RTVSPropertyOp40
 70
     1
102
RTVSPropertyOp41
 70
     1
102
RTVSPropertyOp42
 70
     1
102
RTVSPropertyOp43
 70
     1
102
RTVSPropertyOp44
 70
     1
102
RTVSPropertyOp45
 70
     1
102
RTVSPropertyOp46
 70
     1
102
RTVSPropertyOp47
 70
     1
102
RTVSPropertyOp48
 70
     1
102
RTVSPropertyOp49
 70
     1
102
RTVSPropertyOp50
 70
     1
102
RTVSPropertyOp51
 70
     0
102
RTVSPropertyOp52
 70
     0
102
RTVSPropertyOp53
 70
     1
102
RTVSPropertyOp54
 70
     1
102
RTVSPropertyOp55
 70
     1
102
RTVSPropertyOp56
 70
     1
102
RTVSPropertyOp57
 70
     1
102
RTVSPropertyOp58
 70
     1
102
RTVSPropertyOp59
 70
     1
102
RTVSPropertyOp60
 70
     1
102
RTVSPropertyOp61
 70
     1
102
RTVSPropertyOp62
 70
     1
  0
XRECORD
  5
716
102
{ACAD_REACTORS
330
715
102
}
330
715
100
AcDbXrecord
280
     1
102
RTVSPost2010Prop28
280
     0
102
RTVSPost2010PropOp28
 70
     1
102
RTVSPost2010Prop29
280
     1
102
RTVSPost2010PropOp29
 70
     1
102
RTVSPost2010Prop30
280
     1
102
RTVSPost2010PropOp30
 70
     1
102
RTVSPost2010Prop31
280
     0
102
RTVSPost2010PropOp31
 70
     1
102
RTVSPost2010Prop32
280
     0
102
RTVSPost2010PropOp32
 70
     1
102
RTVSPost2010Prop33
280
     0
102
RTVSPost2010PropOp33
 70
     1
102
RTVSPost2010Prop34
280
     0
102
RTVSPost2010PropOp34
 70
     1
102
RTVSPost2010Prop35
280
     0
102
RTVSPost2010PropOp35
 70
     1
102
RTVSPost2010Prop36
280
     0
102
RTVSPost2010PropOp36
 70
     1
102
RTVSPost2010Prop37
 90
       50
102
RTVSPost2010PropOp37
 70
     1
102
RTVSPost2010Prop38
140
0.0
102
RTVSPost2010PropOp38
 70
     1
102
RTVSPost2010Prop39
140
1.0
102
RTVSPost2010PropOp39
 70
     1
102
RTVSPost2010Prop40
 90
        0
102
RTVSPost2010PropOp40
 70
     1
102
RTVSPost2010Prop41ColorIndex
 90
       18
102
RTVSPost2010Prop41ColorRGB
 90
        0
102
RTVSPost2010PropOp41
 70
     1
102
RTVSPost2010Prop42
 90
       50
102
RTVSPost2010PropOp42
 70
     1
102
RTVSPost2010Prop43
 90
        3
102
RTVSPost2010PropOp43
 70
     1
102
RTVSPost2010Prop44ColorIndex
 90
        5
102
RTVSPost2010Prop44ColorRGB
 90
      255
102
RTVSPost2010PropOp44
 70
     1
102
RTVSPost2010Prop45
280
     0
102
RTVSPost2010PropOp45
 70
     1
102
RTVSPost2010Prop46
 90
       50
102
RTVSPost2010PropOp46
 70
     1
102
RTVSPost2010Prop47
 90
       50
102
RTVSPost2010PropOp47
 70
     1
102
RTVSPost2010Prop48
 90
       50
102
RTVSPost2010PropOp48
 70
     1
102
RTVSPost2010Prop49
280
     0
102
RTVSPost2010PropOp49
 70
     1
102
RTVSPost2010Prop50
 90
       50
102
RTVSPost2010PropOp50
 70
     1
102
RTVSPost2010Prop51ColorIndex
 90
      256
102
RTVSPost2010Prop51ColorRGB
 90
-16777216
102
RTVSPost2010PropOp51
 70
     0
102
RTVSPost2010Prop52
140
1.0
102
RTVSPost2010PropOp52
 70
     0
102
RTVSPost2010Prop53
 90
        2
102
RTVSPost2010PropOp53
 70
     1
102
RTVSPost2010Prop54
  1
strokes_ogs.tif
102
RTVSPost2010PropOp54
 70
     1
102
RTVSPost2010Prop55
280
     0
102
RTVSPost2010PropOp55
 70
     1
102
RTVSPost2010Prop56
140
1.0
102
RTVSPost2010PropOp56
 70
     1
102
RTVSPost2010Prop57
140
1.0
102
RTVSPost2010PropOp57
 70
     1
102
RTVSPropertyOp0
 70
     1
102
RTVSPropertyOp1
 70
     1
102
RTVSPropertyOp2
 70
     1
102
RTVSPropertyOp3
 70
     1
102
RTVSPropertyOp4
 70
     1
102
RTVSPropertyOp5
 70
     1
102
RTVSPropertyOp6
 70
     1
102
RTVSPropertyOp7
 70
     1
102
RTVSPropertyOp8
 70
     1
102
RTVSPropertyOp9
 70
     1
102
RTVSPropertyOp10
 70
     1
102
RTVSPropertyOp11
 70
     1
102
RTVSPropertyOp12
 70
     1
102
RTVSPropertyOp13
 70
     1
102
RTVSPropertyOp14
 70
     1
102
RTVSPropertyOp15
 70
     1
102
RTVSPropertyOp16
 70
     1
102
RTVSPropertyOp17
 70
     1
102
RTVSPropertyOp18
 70
     1
102
RTVSPropertyOp19
 70
     1
102
RTVSPropertyOp20
 70
     1
102
RTVSPropertyOp21
 70
     1
102
RTVSPropertyOp22
 70
     1
102
RTVSPropertyOp23
 70
     1
102
RTVSPropertyOp24
 70
     1
102
RTVSPropertyOp25
 70
     1
102
RTVSPropertyOp26
 70
     1
102
RTVSPropertyOp27
 70
     1
102
RTVSPropertyOp28
 70
     1
102
RTVSPropertyOp29
 70
     1
102
RTVSPropertyOp30
 70
     1
102
RTVSPropertyOp31
 70
     1
102
RTVSPropertyOp32
 70
     1
102
RTVSPropertyOp33
 70
     1
102
RTVSPropertyOp34
 70
     1
102
RTVSPropertyOp35
 70
     1
102
RTVSPropertyOp36
 70
     1
102
RTVSPropertyOp37
 70
     1
102
RTVSPropertyOp38
 70
     1
102
RTVSPropertyOp39
 70
     1
102
RTVSPropertyOp40
 70
     1
102
RTVSPropertyOp41
 70
     1
102
RTVSPropertyOp42
 70
     1
102
RTVSPropertyOp43
 70
     1
102
RTVSPropertyOp44
 70
     1
102
RTVSPropertyOp45
 70
     1
102
RTVSPropertyOp46
 70
     1
102
RTVSPropertyOp47
 70
     1
102
RTVSPropertyOp48
 70
     1
102
RTVSPropertyOp49
 70
     1
102
RTVSPropertyOp50
 70
     1
102
RTVSPropertyOp51
 70
     0
102
RTVSPropertyOp52
 70
     0
102
RTVSPropertyOp53
 70
     1
102
RTVSPropertyOp54
 70
     1
102
RTVSPropertyOp55
 70
     1
102
RTVSPropertyOp56
 70
     1
102
RTVSPropertyOp57
 70
     1
102
RTVSPropertyOp58
 70
     1
102
RTVSPropertyOp59
 70
     1
102
RTVSPropertyOp60
 70
     1
102
RTVSPropertyOp61
 70
     1
102
RTVSPropertyOp62
 70
     1
  0
XRECORD
  5
710
102
{ACAD_REACTORS
330
70F
102
}
330
70F
100
AcDbXrecord
280
     1
102
RTVSPost2010Prop28
280
     0
102
RTVSPost2010PropOp28
 70
     1
102
RTVSPost2010Prop29
280
     1
102
RTVSPost2010PropOp29
 70
     1
102
RTVSPost2010Prop30
280
     1
102
RTVSPost2010PropOp30
 70
     1
102
RTVSPost2010Prop31
280
     0
102
RTVSPost2010PropOp31
 70
     1
102
RTVSPost2010Prop32
280
     0
102
RTVSPost2010PropOp32
 70
     1
102
RTVSPost2010Prop33
280
     0
102
RTVSPost2010PropOp33
 70
     1
102
RTVSPost2010Prop34
280
     0
102
RTVSPost2010PropOp34
 70
     1
102
RTVSPost2010Prop35
280
     0
102
RTVSPost2010PropOp35
 70
     1
102
RTVSPost2010Prop36
280
     0
102
RTVSPost2010PropOp36
 70
     1
102
RTVSPost2010Prop37
 90
       50
102
RTVSPost2010PropOp37
 70
     1
102
RTVSPost2010Prop38
140
0.0
102
RTVSPost2010PropOp38
 70
     1
102
RTVSPost2010Prop39
140
1.0
102
RTVSPost2010PropOp39
 70
     1
102
RTVSPost2010Prop40
 90
        0
102
RTVSPost2010PropOp40
 70
     1
102
RTVSPost2010Prop41ColorIndex
 90
       18
102
RTVSPost2010Prop41ColorRGB
 90
        0
102
RTVSPost2010PropOp41
 70
     1
102
RTVSPost2010Prop42
 90
       50
102
RTVSPost2010PropOp42
 70
     1
102
RTVSPost2010Prop43
 90
        3
102
RTVSPost2010PropOp43
 70
     1
102
RTVSPost2010Prop44ColorIndex
 90
        5
102
RTVSPost2010Prop44ColorRGB
 90
      255
102
RTVSPost2010PropOp44
 70
     1
102
RTVSPost2010Prop45
280
     0
102
RTVSPost2010PropOp45
 70
     1
102
RTVSPost2010Prop46
 90
       50
102
RTVSPost2010PropOp46
 70
     1
102
RTVSPost2010Prop47
 90
       50
102
RTVSPost2010PropOp47
 70
     1
102
RTVSPost2010Prop48
 90
       50
102
RTVSPost2010PropOp48
 70
     1
102
RTVSPost2010Prop49
280
     0
102
RTVSPost2010PropOp49
 70
     1
102
RTVSPost2010Prop50
 90
       50
102
RTVSPost2010PropOp50
 70
     1
102
RTVSPost2010Prop51ColorIndex
 90
      256
102
RTVSPost2010Prop51ColorRGB
 90
-16777216
102
RTVSPost2010PropOp51
 70
     0
102
RTVSPost2010Prop52
140
1.0
102
RTVSPost2010PropOp52
 70
     0
102
RTVSPost2010Prop53
 90
        2
102
RTVSPost2010PropOp53
 70
     1
102
RTVSPost2010Prop54
  1
strokes_ogs.tif
102
RTVSPost2010PropOp54
 70
     1
102
RTVSPost2010Prop55
280
     0
102
RTVSPost2010PropOp55
 70
     1
102
RTVSPost2010Prop56
140
1.0
102
RTVSPost2010PropOp56
 70
     1
102
RTVSPost2010Prop57
140
1.0
102
RTVSPost2010PropOp57
 70
     1
102
RTVSPropertyOp0
 70
     1
102
RTVSPropertyOp1
 70
     1
102
RTVSPropertyOp2
 70
     1
102
RTVSPropertyOp3
 70
     1
102
RTVSPropertyOp4
 70
     1
102
RTVSPropertyOp5
 70
     1
102
RTVSPropertyOp6
 70
     1
102
RTVSPropertyOp7
 70
     1
102
RTVSPropertyOp8
 70
     1
102
RTVSPropertyOp9
 70
     1
102
RTVSPropertyOp10
 70
     1
102
RTVSPropertyOp11
 70
     1
102
RTVSPropertyOp12
 70
     1
102
RTVSPropertyOp13
 70
     1
102
RTVSPropertyOp14
 70
     1
102
RTVSPropertyOp15
 70
     1
102
RTVSPropertyOp16
 70
     1
102
RTVSPropertyOp17
 70
     1
102
RTVSPropertyOp18
 70
     1
102
RTVSPropertyOp19
 70
     1
102
RTVSPropertyOp20
 70
     1
102
RTVSPropertyOp21
 70
     1
102
RTVSPropertyOp22
 70
     1
102
RTVSPropertyOp23
 70
     1
102
RTVSPropertyOp24
 70
     1
102
RTVSPropertyOp25
 70
     1
102
RTVSPropertyOp26
 70
     1
102
RTVSPropertyOp27
 70
     1
102
RTVSPropertyOp28
 70
     1
102
RTVSPropertyOp29
 70
     1
102
RTVSPropertyOp30
 70
     1
102
RTVSPropertyOp31
 70
     1
102
RTVSPropertyOp32
 70
     1
102
RTVSPropertyOp33
 70
     1
102
RTVSPropertyOp34
 70
     1
102
RTVSPropertyOp35
 70
     1
102
RTVSPropertyOp36
 70
     1
102
RTVSPropertyOp37
 70
     1
102
RTVSPropertyOp38
 70
     1
102
RTVSPropertyOp39
 70
     1
102
RTVSPropertyOp40
 70
     1
102
RTVSPropertyOp41
 70
     1
102
RTVSPropertyOp42
 70
     1
102
RTVSPropertyOp43
 70
     1
102
RTVSPropertyOp44
 70
     1
102
RTVSPropertyOp45
 70
     1
102
RTVSPropertyOp46
 70
     1
102
RTVSPropertyOp47
 70
     1
102
RTVSPropertyOp48
 70
     1
102
RTVSPropertyOp49
 70
     1
102
RTVSPropertyOp50
 70
     1
102
RTVSPropertyOp51
 70
     0
102
RTVSPropertyOp52
 70
     0
102
RTVSPropertyOp53
 70
     1
102
RTVSPropertyOp54
 70
     1
102
RTVSPropertyOp55
 70
     1
102
RTVSPropertyOp56
 70
     1
102
RTVSPropertyOp57
 70
     1
102
RTVSPropertyOp58
 70
     1
102
RTVSPropertyOp59
 70
     1
102
RTVSPropertyOp60
 70
     1
102
RTVSPropertyOp61
 70
     1
102
RTVSPropertyOp62
 70
     1
  0
XRECORD
  5
712
102
{ACAD_REACTORS
330
711
102
}
330
711
100
AcDbXrecord
280
     1
102
RTVSPost2010Prop28
280
     0
102
RTVSPost2010PropOp28
 70
     1
102
RTVSPost2010Prop29
280
     1
102
RTVSPost2010PropOp29
 70
     1
102
RTVSPost2010Prop30
280
     1
102
RTVSPost2010PropOp30
 70
     1
102
RTVSPost2010Prop31
280
     0
102
RTVSPost2010PropOp31
 70
     1
102
RTVSPost2010Prop32
280
     0
102
RTVSPost2010PropOp32
 70
     1
102
RTVSPost2010Prop33
280
     0
102
RTVSPost2010PropOp33
 70
     1
102
RTVSPost2010Prop34
280
     0
102
RTVSPost2010PropOp34
 70
     1
102
RTVSPost2010Prop35
280
     0
102
RTVSPost2010PropOp35
 70
     1
102
RTVSPost2010Prop36
280
     0
102
RTVSPost2010PropOp36
 70
     1
102
RTVSPost2010Prop37
 90
       50
102
RTVSPost2010PropOp37
 70
     1
102
RTVSPost2010Prop38
140
0.0
102
RTVSPost2010PropOp38
 70
     1
102
RTVSPost2010Prop39
140
1.0
102
RTVSPost2010PropOp39
 70
     1
102
RTVSPost2010Prop40
 90
        0
102
RTVSPost2010PropOp40
 70
     1
102
RTVSPost2010Prop41ColorIndex
 90
       18
102
RTVSPost2010Prop41ColorRGB
 90
        0
102
RTVSPost2010PropOp41
 70
     1
102
RTVSPost2010Prop42
 90
       50
102
RTVSPost2010PropOp42
 70
     1
102
RTVSPost2010Prop43
 90
        3
102
RTVSPost2010PropOp43
 70
     1
102
RTVSPost2010Prop44ColorIndex
 90
        5
102
RTVSPost2010Prop44ColorRGB
 90
      255
102
RTVSPost2010PropOp44
 70
     1
102
RTVSPost2010Prop45
280
     0
102
RTVSPost2010PropOp45
 70
     1
102
RTVSPost2010Prop46
 90
       50
102
RTVSPost2010PropOp46
 70
     1
102
RTVSPost2010Prop47
 90
       50
102
RTVSPost2010PropOp47
 70
     1
102
RTVSPost2010Prop48
 90
       50
102
RTVSPost2010PropOp48
 70
     1
102
RTVSPost2010Prop49
280
     0
102
RTVSPost2010PropOp49
 70
     1
102
RTVSPost2010Prop50
 90
       50
102
RTVSPost2010PropOp50
 70
     1
102
RTVSPost2010Prop51ColorIndex
 90
      256
102
RTVSPost2010Prop51ColorRGB
 90
-16777216
102
RTVSPost2010PropOp51
 70
     0
102
RTVSPost2010Prop52
140
1.0
102
RTVSPost2010PropOp52
 70
     0
102
RTVSPost2010Prop53
 90
        2
102
RTVSPost2010PropOp53
 70
     1
102
RTVSPost2010Prop54
  1
strokes_ogs.tif
102
RTVSPost2010PropOp54
 70
     1
102
RTVSPost2010Prop55
280
     0
102
RTVSPost2010PropOp55
 70
     1
102
RTVSPost2010Prop56
140
1.0
102
RTVSPost2010PropOp56
 70
     1
102
RTVSPost2010Prop57
140
1.0
102
RTVSPost2010PropOp57
 70
     1
102
RTVSPropertyOp0
 70
     1
102
RTVSPropertyOp1
 70
     1
102
RTVSPropertyOp2
 70
     1
102
RTVSPropertyOp3
 70
     1
102
RTVSPropertyOp4
 70
     1
102
RTVSPropertyOp5
 70
     1
102
RTVSPropertyOp6
 70
     1
102
RTVSPropertyOp7
 70
     1
102
RTVSPropertyOp8
 70
     1
102
RTVSPropertyOp9
 70
     1
102
RTVSPropertyOp10
 70
     1
102
RTVSPropertyOp11
 70
     1
102
RTVSPropertyOp12
 70
     1
102
RTVSPropertyOp13
 70
     1
102
RTVSPropertyOp14
 70
     1
102
RTVSPropertyOp15
 70
     1
102
RTVSPropertyOp16
 70
     1
102
RTVSPropertyOp17
 70
     1
102
RTVSPropertyOp18
 70
     1
102
RTVSPropertyOp19
 70
     1
102
RTVSPropertyOp20
 70
     1
102
RTVSPropertyOp21
 70
     1
102
RTVSPropertyOp22
 70
     1
102
RTVSPropertyOp23
 70
     1
102
RTVSPropertyOp24
 70
     1
102
RTVSPropertyOp25
 70
     1
102
RTVSPropertyOp26
 70
     1
102
RTVSPropertyOp27
 70
     1
102
RTVSPropertyOp28
 70
     1
102
RTVSPropertyOp29
 70
     1
102
RTVSPropertyOp30
 70
     1
102
RTVSPropertyOp31
 70
     1
102
RTVSPropertyOp32
 70
     1
102
RTVSPropertyOp33
 70
     1
102
RTVSPropertyOp34
 70
     1
102
RTVSPropertyOp35
 70
     1
102
RTVSPropertyOp36
 70
     1
102
RTVSPropertyOp37
 70
     1
102
RTVSPropertyOp38
 70
     1
102
RTVSPropertyOp39
 70
     1
102
RTVSPropertyOp40
 70
     1
102
RTVSPropertyOp41
 70
     1
102
RTVSPropertyOp42
 70
     1
102
RTVSPropertyOp43
 70
     1
102
RTVSPropertyOp44
 70
     1
102
RTVSPropertyOp45
 70
     1
102
RTVSPropertyOp46
 70
     1
102
RTVSPropertyOp47
 70
     1
102
RTVSPropertyOp48
 70
     1
102
RTVSPropertyOp49
 70
     1
102
RTVSPropertyOp50
 70
     1
102
RTVSPropertyOp51
 70
     0
102
RTVSPropertyOp52
 70
     0
102
RTVSPropertyOp53
 70
     1
102
RTVSPropertyOp54
 70
     1
102
RTVSPropertyOp55
 70
     1
102
RTVSPropertyOp56
 70
     1
102
RTVSPropertyOp57
 70
     1
102
RTVSPropertyOp58
 70
     1
102
RTVSPropertyOp59
 70
     1
102
RTVSPropertyOp60
 70
     1
102
RTVSPropertyOp61
 70
     1
102
RTVSPropertyOp62
 70
     1
  0
XRECORD
  5
708
102
{ACAD_REACTORS
330
707
102
}
330
707
100
AcDbXrecord
280
     1
102
RTVSPost2010Prop28
280
     0
102
RTVSPost2010PropOp28
 70
     1
102
RTVSPost2010Prop29
280
     1
102
RTVSPost2010PropOp29
 70
     1
102
RTVSPost2010Prop30
280
     1
102
RTVSPost2010PropOp30
 70
     1
102
RTVSPost2010Prop31
280
     0
102
RTVSPost2010PropOp31
 70
     1
102
RTVSPost2010Prop32
280
     0
102
RTVSPost2010PropOp32
 70
     1
102
RTVSPost2010Prop33
280
     0
102
RTVSPost2010PropOp33
 70
     1
102
RTVSPost2010Prop34
280
     0
102
RTVSPost2010PropOp34
 70
     1
102
RTVSPost2010Prop35
280
     0
102
RTVSPost2010PropOp35
 70
     1
102
RTVSPost2010Prop36
280
     0
102
RTVSPost2010PropOp36
 70
     1
102
RTVSPost2010Prop37
 90
       50
102
RTVSPost2010PropOp37
 70
     1
102
RTVSPost2010Prop38
140
0.0
102
RTVSPost2010PropOp38
 70
     1
102
RTVSPost2010Prop39
140
1.0
102
RTVSPost2010PropOp39
 70
     1
102
RTVSPost2010Prop40
 90
        0
102
RTVSPost2010PropOp40
 70
     1
102
RTVSPost2010Prop41ColorIndex
 90
       18
102
RTVSPost2010Prop41ColorRGB
 90
        0
102
RTVSPost2010PropOp41
 70
     1
102
RTVSPost2010Prop42
 90
       50
102
RTVSPost2010PropOp42
 70
     1
102
RTVSPost2010Prop43
 90
        3
102
RTVSPost2010PropOp43
 70
     1
102
RTVSPost2010Prop44ColorIndex
 90
        5
102
RTVSPost2010Prop44ColorRGB
 90
      255
102
RTVSPost2010PropOp44
 70
     1
102
RTVSPost2010Prop45
280
     0
102
RTVSPost2010PropOp45
 70
     1
102
RTVSPost2010Prop46
 90
       50
102
RTVSPost2010PropOp46
 70
     1
102
RTVSPost2010Prop47
 90
       50
102
RTVSPost2010PropOp47
 70
     1
102
RTVSPost2010Prop48
 90
       50
102
RTVSPost2010PropOp48
 70
     1
102
RTVSPost2010Prop49
280
     0
102
RTVSPost2010PropOp49
 70
     1
102
RTVSPost2010Prop50
 90
       50
102
RTVSPost2010PropOp50
 70
     1
102
RTVSPost2010Prop51ColorIndex
 90
      256
102
RTVSPost2010Prop51ColorRGB
 90
-16777216
102
RTVSPost2010PropOp51
 70
     0
102
RTVSPost2010Prop52
140
1.0
102
RTVSPost2010PropOp52
 70
     0
102
RTVSPost2010Prop53
 90
        2
102
RTVSPost2010PropOp53
 70
     1
102
RTVSPost2010Prop54
  1
strokes_ogs.tif
102
RTVSPost2010PropOp54
 70
     1
102
RTVSPost2010Prop55
280
     0
102
RTVSPost2010PropOp55
 70
     1
102
RTVSPost2010Prop56
140
1.0
102
RTVSPost2010PropOp56
 70
     1
102
RTVSPost2010Prop57
140
1.0
102
RTVSPost2010PropOp57
 70
     1
102
RTVSPropertyOp0
 70
     1
102
RTVSPropertyOp1
 70
     1
102
RTVSPropertyOp2
 70
     1
102
RTVSPropertyOp3
 70
     1
102
RTVSPropertyOp4
 70
     1
102
RTVSPropertyOp5
 70
     1
102
RTVSPropertyOp6
 70
     1
102
RTVSPropertyOp7
 70
     1
102
RTVSPropertyOp8
 70
     1
102
RTVSPropertyOp9
 70
     1
102
RTVSPropertyOp10
 70
     1
102
RTVSPropertyOp11
 70
     1
102
RTVSPropertyOp12
 70
     1
102
RTVSPropertyOp13
 70
     1
102
RTVSPropertyOp14
 70
     1
102
RTVSPropertyOp15
 70
     1
102
RTVSPropertyOp16
 70
     1
102
RTVSPropertyOp17
 70
     1
102
RTVSPropertyOp18
 70
     1
102
RTVSPropertyOp19
 70
     1
102
RTVSPropertyOp20
 70
     1
102
RTVSPropertyOp21
 70
     1
102
RTVSPropertyOp22
 70
     1
102
RTVSPropertyOp23
 70
     1
102
RTVSPropertyOp24
 70
     1
102
RTVSPropertyOp25
 70
     1
102
RTVSPropertyOp26
 70
     1
102
RTVSPropertyOp27
 70
     1
102
RTVSPropertyOp28
 70
     1
102
RTVSPropertyOp29
 70
     1
102
RTVSPropertyOp30
 70
     1
102
RTVSPropertyOp31
 70
     1
102
RTVSPropertyOp32
 70
     1
102
RTVSPropertyOp33
 70
     1
102
RTVSPropertyOp34
 70
     1
102
RTVSPropertyOp35
 70
     1
102
RTVSPropertyOp36
 70
     1
102
RTVSPropertyOp37
 70
     1
102
RTVSPropertyOp38
 70
     1
102
RTVSPropertyOp39
 70
     1
102
RTVSPropertyOp40
 70
     1
102
RTVSPropertyOp41
 70
     1
102
RTVSPropertyOp42
 70
     1
102
RTVSPropertyOp43
 70
     1
102
RTVSPropertyOp44
 70
     1
102
RTVSPropertyOp45
 70
     1
102
RTVSPropertyOp46
 70
     1
102
RTVSPropertyOp47
 70
     1
102
RTVSPropertyOp48
 70
     1
102
RTVSPropertyOp49
 70
     1
102
RTVSPropertyOp50
 70
     1
102
RTVSPropertyOp51
 70
     0
102
RTVSPropertyOp52
 70
     0
102
RTVSPropertyOp53
 70
     1
102
RTVSPropertyOp54
 70
     1
102
RTVSPropertyOp55
 70
     1
102
RTVSPropertyOp56
 70
     1
102
RTVSPropertyOp57
 70
     1
102
RTVSPropertyOp58
 70
     1
102
RTVSPropertyOp59
 70
     1
102
RTVSPropertyOp60
 70
     1
102
RTVSPropertyOp61
 70
     1
102
RTVSPropertyOp62
 70
     1
  0
XRECORD
  5
6FC
102
{ACAD_REACTORS
330
6FB
102
}
330
6FB
100
AcDbXrecord
280
     1
102
RTVSPost2010Prop28
280
     0
102
RTVSPost2010PropOp28
 70
     1
102
RTVSPost2010Prop29
280
     1
102
RTVSPost2010PropOp29
 70
     1
102
RTVSPost2010Prop30
280
     1
102
RTVSPost2010PropOp30
 70
     1
102
RTVSPost2010Prop31
280
     0
102
RTVSPost2010PropOp31
 70
     1
102
RTVSPost2010Prop32
280
     0
102
RTVSPost2010PropOp32
 70
     1
102
RTVSPost2010Prop33
280
     0
102
RTVSPost2010PropOp33
 70
     1
102
RTVSPost2010Prop34
280
     0
102
RTVSPost2010PropOp34
 70
     1
102
RTVSPost2010Prop35
280
     0
102
RTVSPost2010PropOp35
 70
     1
102
RTVSPost2010Prop36
280
     0
102
RTVSPost2010PropOp36
 70
     1
102
RTVSPost2010Prop37
 90
       50
102
RTVSPost2010PropOp37
 70
     1
102
RTVSPost2010Prop38
140
0.0
102
RTVSPost2010PropOp38
 70
     1
102
RTVSPost2010Prop39
140
1.0
102
RTVSPost2010PropOp39
 70
     1
102
RTVSPost2010Prop40
 90
        0
102
RTVSPost2010PropOp40
 70
     1
102
RTVSPost2010Prop41ColorIndex
 90
       18
102
RTVSPost2010Prop41ColorRGB
 90
        0
102
RTVSPost2010PropOp41
 70
     1
102
RTVSPost2010Prop42
 90
       50
102
RTVSPost2010PropOp42
 70
     1
102
RTVSPost2010Prop43
 90
        3
102
RTVSPost2010PropOp43
 70
     1
102
RTVSPost2010Prop44ColorIndex
 90
        5
102
RTVSPost2010Prop44ColorRGB
 90
      255
102
RTVSPost2010PropOp44
 70
     1
102
RTVSPost2010Prop45
280
     0
102
RTVSPost2010PropOp45
 70
     1
102
RTVSPost2010Prop46
 90
       50
102
RTVSPost2010PropOp46
 70
     1
102
RTVSPost2010Prop47
 90
       50
102
RTVSPost2010PropOp47
 70
     1
102
RTVSPost2010Prop48
 90
       50
102
RTVSPost2010PropOp48
 70
     1
102
RTVSPost2010Prop49
280
     0
102
RTVSPost2010PropOp49
 70
     1
102
RTVSPost2010Prop50
 90
       50
102
RTVSPost2010PropOp50
 70
     1
102
RTVSPost2010Prop51ColorIndex
 90
      256
102
RTVSPost2010Prop51ColorRGB
 90
-16777216
102
RTVSPost2010PropOp51
 70
     0
102
RTVSPost2010Prop52
140
1.0
102
RTVSPost2010PropOp52
 70
     0
102
RTVSPost2010Prop53
 90
        2
102
RTVSPost2010PropOp53
 70
     1
102
RTVSPost2010Prop54
  1
strokes_ogs.tif
102
RTVSPost2010PropOp54
 70
     1
102
RTVSPost2010Prop55
280
     0
102
RTVSPost2010PropOp55
 70
     1
102
RTVSPost2010Prop56
140
1.0
102
RTVSPost2010PropOp56
 70
     1
102
RTVSPost2010Prop57
140
1.0
102
RTVSPost2010PropOp57
 70
     1
102
RTVSPropertyOp0
 70
     1
102
RTVSPropertyOp1
 70
     1
102
RTVSPropertyOp2
 70
     1
102
RTVSPropertyOp3
 70
     1
102
RTVSPropertyOp4
 70
     1
102
RTVSPropertyOp5
 70
     1
102
RTVSPropertyOp6
 70
     1
102
RTVSPropertyOp7
 70
     1
102
RTVSPropertyOp8
 70
     1
102
RTVSPropertyOp9
 70
     1
102
RTVSPropertyOp10
 70
     1
102
RTVSPropertyOp11
 70
     1
102
RTVSPropertyOp12
 70
     1
102
RTVSPropertyOp13
 70
     1
102
RTVSPropertyOp14
 70
     1
102
RTVSPropertyOp15
 70
     1
102
RTVSPropertyOp16
 70
     1
102
RTVSPropertyOp17
 70
     1
102
RTVSPropertyOp18
 70
     1
102
RTVSPropertyOp19
 70
     1
102
RTVSPropertyOp20
 70
     1
102
RTVSPropertyOp21
 70
     1
102
RTVSPropertyOp22
 70
     1
102
RTVSPropertyOp23
 70
     1
102
RTVSPropertyOp24
 70
     1
102
RTVSPropertyOp25
 70
     1
102
RTVSPropertyOp26
 70
     1
102
RTVSPropertyOp27
 70
     1
102
RTVSPropertyOp28
 70
     1
102
RTVSPropertyOp29
 70
     1
102
RTVSPropertyOp30
 70
     1
102
RTVSPropertyOp31
 70
     1
102
RTVSPropertyOp32
 70
     1
102
RTVSPropertyOp33
 70
     1
102
RTVSPropertyOp34
 70
     1
102
RTVSPropertyOp35
 70
     1
102
RTVSPropertyOp36
 70
     1
102
RTVSPropertyOp37
 70
     1
102
RTVSPropertyOp38
 70
     1
102
RTVSPropertyOp39
 70
     1
102
RTVSPropertyOp40
 70
     1
102
RTVSPropertyOp41
 70
     1
102
RTVSPropertyOp42
 70
     1
102
RTVSPropertyOp43
 70
     1
102
RTVSPropertyOp44
 70
     1
102
RTVSPropertyOp45
 70
     1
102
RTVSPropertyOp46
 70
     1
102
RTVSPropertyOp47
 70
     1
102
RTVSPropertyOp48
 70
     1
102
RTVSPropertyOp49
 70
     1
102
RTVSPropertyOp50
 70
     1
102
RTVSPropertyOp51
 70
     0
102
RTVSPropertyOp52
 70
     0
102
RTVSPropertyOp53
 70
     1
102
RTVSPropertyOp54
 70
     1
102
RTVSPropertyOp55
 70
     1
102
RTVSPropertyOp56
 70
     1
102
RTVSPropertyOp57
 70
     1
102
RTVSPropertyOp58
 70
     1
102
RTVSPropertyOp59
 70
     1
102
RTVSPropertyOp60
 70
     1
102
RTVSPropertyOp61
 70
     1
102
RTVSPropertyOp62
 70
     1
  0
XRECORD
  5
714
102
{ACAD_REACTORS
330
713
102
}
330
713
100
AcDbXrecord
280
     1
102
RTVSPost2010Prop28
280
     0
102
RTVSPost2010PropOp28
 70
     1
102
RTVSPost2010Prop29
280
     1
102
RTVSPost2010PropOp29
 70
     1
102
RTVSPost2010Prop30
280
     1
102
RTVSPost2010PropOp30
 70
     1
102
RTVSPost2010Prop31
280
     0
102
RTVSPost2010PropOp31
 70
     1
102
RTVSPost2010Prop32
280
     0
102
RTVSPost2010PropOp32
 70
     1
102
RTVSPost2010Prop33
280
     0
102
RTVSPost2010PropOp33
 70
     1
102
RTVSPost2010Prop34
280
     0
102
RTVSPost2010PropOp34
 70
     1
102
RTVSPost2010Prop35
280
     0
102
RTVSPost2010PropOp35
 70
     1
102
RTVSPost2010Prop36
280
     0
102
RTVSPost2010PropOp36
 70
     1
102
RTVSPost2010Prop37
 90
       50
102
RTVSPost2010PropOp37
 70
     1
102
RTVSPost2010Prop38
140
0.0
102
RTVSPost2010PropOp38
 70
     1
102
RTVSPost2010Prop39
140
1.0
102
RTVSPost2010PropOp39
 70
     1
102
RTVSPost2010Prop40
 90
        0
102
RTVSPost2010PropOp40
 70
     1
102
RTVSPost2010Prop41ColorIndex
 90
       18
102
RTVSPost2010Prop41ColorRGB
 90
        0
102
RTVSPost2010PropOp41
 70
     1
102
RTVSPost2010Prop42
 90
       50
102
RTVSPost2010PropOp42
 70
     1
102
RTVSPost2010Prop43
 90
        3
102
RTVSPost2010PropOp43
 70
     1
102
RTVSPost2010Prop44ColorIndex
 90
        5
102
RTVSPost2010Prop44ColorRGB
 90
      255
102
RTVSPost2010PropOp44
 70
     1
102
RTVSPost2010Prop45
280
     0
102
RTVSPost2010PropOp45
 70
     1
102
RTVSPost2010Prop46
 90
       50
102
RTVSPost2010PropOp46
 70
     1
102
RTVSPost2010Prop47
 90
       50
102
RTVSPost2010PropOp47
 70
     1
102
RTVSPost2010Prop48
 90
       50
102
RTVSPost2010PropOp48
 70
     1
102
RTVSPost2010Prop49
280
     0
102
RTVSPost2010PropOp49
 70
     1
102
RTVSPost2010Prop50
 90
       50
102
RTVSPost2010PropOp50
 70
     1
102
RTVSPost2010Prop51ColorIndex
 90
      256
102
RTVSPost2010Prop51ColorRGB
 90
-16777216
102
RTVSPost2010PropOp51
 70
     0
102
RTVSPost2010Prop52
140
1.0
102
RTVSPost2010PropOp52
 70
     0
102
RTVSPost2010Prop53
 90
        2
102
RTVSPost2010PropOp53
 70
     1
102
RTVSPost2010Prop54
  1
strokes_ogs.tif
102
RTVSPost2010PropOp54
 70
     1
102
RTVSPost2010Prop55
280
     0
102
RTVSPost2010PropOp55
 70
     1
102
RTVSPost2010Prop56
140
1.0
102
RTVSPost2010PropOp56
 70
     1
102
RTVSPost2010Prop57
140
1.0
102
RTVSPost2010PropOp57
 70
     1
102
RTVSPropertyOp0
 70
     1
102
RTVSPropertyOp1
 70
     1
102
RTVSPropertyOp2
 70
     1
102
RTVSPropertyOp3
 70
     1
102
RTVSPropertyOp4
 70
     1
102
RTVSPropertyOp5
 70
     1
102
RTVSPropertyOp6
 70
     1
102
RTVSPropertyOp7
 70
     1
102
RTVSPropertyOp8
 70
     1
102
RTVSPropertyOp9
 70
     1
102
RTVSPropertyOp10
 70
     1
102
RTVSPropertyOp11
 70
     1
102
RTVSPropertyOp12
 70
     1
102
RTVSPropertyOp13
 70
     1
102
RTVSPropertyOp14
 70
     1
102
RTVSPropertyOp15
 70
     1
102
RTVSPropertyOp16
 70
     1
102
RTVSPropertyOp17
 70
     1
102
RTVSPropertyOp18
 70
     1
102
RTVSPropertyOp19
 70
     1
102
RTVSPropertyOp20
 70
     1
102
RTVSPropertyOp21
 70
     1
102
RTVSPropertyOp22
 70
     1
102
RTVSPropertyOp23
 70
     1
102
RTVSPropertyOp24
 70
     1
102
RTVSPropertyOp25
 70
     1
102
RTVSPropertyOp26
 70
     1
102
RTVSPropertyOp27
 70
     1
102
RTVSPropertyOp28
 70
     1
102
RTVSPropertyOp29
 70
     1
102
RTVSPropertyOp30
 70
     1
102
RTVSPropertyOp31
 70
     1
102
RTVSPropertyOp32
 70
     1
102
RTVSPropertyOp33
 70
     1
102
RTVSPropertyOp34
 70
     1
102
RTVSPropertyOp35
 70
     1
102
RTVSPropertyOp36
 70
     1
102
RTVSPropertyOp37
 70
     1
102
RTVSPropertyOp38
 70
     1
102
RTVSPropertyOp39
 70
     1
102
RTVSPropertyOp40
 70
     1
102
RTVSPropertyOp41
 70
     1
102
RTVSPropertyOp42
 70
     1
102
RTVSPropertyOp43
 70
     1
102
RTVSPropertyOp44
 70
     1
102
RTVSPropertyOp45
 70
     1
102
RTVSPropertyOp46
 70
     1
102
RTVSPropertyOp47
 70
     1
102
RTVSPropertyOp48
 70
     1
102
RTVSPropertyOp49
 70
     1
102
RTVSPropertyOp50
 70
     1
102
RTVSPropertyOp51
 70
     0
102
RTVSPropertyOp52
 70
     0
102
RTVSPropertyOp53
 70
     1
102
RTVSPropertyOp54
 70
     1
102
RTVSPropertyOp55
 70
     1
102
RTVSPropertyOp56
 70
     1
102
RTVSPropertyOp57
 70
     1
102
RTVSPropertyOp58
 70
     1
102
RTVSPropertyOp59
 70
     1
102
RTVSPropertyOp60
 70
     1
102
RTVSPropertyOp61
 70
     1
102
RTVSPropertyOp62
 70
     1
  0
ENDSEC
  0
EOF
